999
DXF file: 1-532_front.dxf
999
Pro/ENGINEER 2013150 by Parametric Technology Corporation
  0
SECTION
  2
HEADER
  9
$ACADVER
  1
AC1021
  9
$DWGCODEPAGE
  3
ANSI_1252
  9
$EXTMAX
 10
11.0
 20
8.5
 30
0.0
  9
$EXTMIN
 10
0.0
 20
0.0
 30
0.0
  9
$LIMMIN
 10
0.0
 20
0.0
  9
$LIMMAX
 10
11.0
 20
8.5
  9
$VIEWCTR
 10
5.5
 20
4.25
  9
$VIEWSIZE
 40
8.5
  9
$CLAYER
  8
0
  9
$LTSCALE
 40
0.605
  9
$CELTYPE
  6
BYLAYER
  9
$DIMSCALE
 40
1.0
  9
$DIMASZ
 40
0.1
  9
$DIMEXO
 40
0.0625
  9
$DIMDLI
 40
0.418
  9
$DIMEXE
 40
0.125
  9
$DIMCEN
 40
0.099
  9
$DIMLFAC
 40
1.0
  9
$DIMBLK
  1
_FILLED
  9
$DIMTXT
 40
0.08
  9
$DIMTOL
 70
1
  9
$DIMLIM
 70
0
  9
$DIMTFAC
 40
1.0
  9
$DIMTP
 40
0.001
  9
$DIMTM
 40
0.001
  9
$DIMGAP
 40
0.09
  9
$DIMDSEP
 70
46
  9
$PDMODE
 70
3
  9
$PDSIZE
 40
0.06
  9
$HANDSEED
  5
54C
  9
$TILEMODE
 70
1
  9
$MEASUREMENT
 70
0
  9
$INSUNITS
 70
1
  0
ENDSEC
  0
SECTION
  2
CLASSES
  0
CLASS
  1
ACDBDICTIONARYWDFLT
  2
AcDbDictionaryWithDefault
  3
AutoCAD 2000
 90
0
 91
1
280
0
281
0
  0
CLASS
  1
ACDBPLACEHOLDER
  2
AcDbPlaceHolder
  3
AutoCAD 2000
 90
0
 91
1
280
0
281
0
  0
CLASS
  1
LAYOUT
  2
AcDbLayout
  3
AutoCAD 2000
 90
0
 91
0
280
0
281
0
  0
ENDSEC
  0
SECTION
  2
TABLES
  0
TABLE
  2
VPORT
  5
8
100
AcDbSymbolTable
 70
2
  0
VPORT
  5
1F4
100
AcDbSymbolTableRecord
100
AcDbViewportTableRecord
  2
*ACTIVE
 70
0
 10
0.0
 20
0.0
 11
1.0
 21
1.0
 12
5.5
 22
4.25
 13
0.0
 23
0.0
 14
1.0
 24
1.0
 15
0.0
 25
0.0
 16
0.0
 26
0.0
 36
1.0
 17
0.0
 27
0.0
 37
0.0
 40
8.5
 41
1.2941176471
 42
50.0
 43
0.0
 44
0.0
 50
0.0
 51
0.0
 71
0
 72
100
 73
1
 74
1
 75
0
 76
0
 77
0
 78
0
  0
ENDTAB
  0
TABLE
  2
LTYPE
  5
5
100
AcDbSymbolTable
 70
6
  0
LTYPE
  5
14
100
AcDbSymbolTableRecord
100
AcDbLinetypeTableRecord
  2
BYBLOCK
 70
0
  3

 72
65
 73
0
 40
0.0
  0
LTYPE
  5
15
100
AcDbSymbolTableRecord
100
AcDbLinetypeTableRecord
  2
BYLAYER
 70
0
  3

 72
65
 73
0
 40
0.0
  0
LTYPE
  5
16
100
AcDbSymbolTableRecord
100
AcDbLinetypeTableRecord
  2
CONTINUOUS
 70
64
  3
Solid line
 72
65
 73
0
 40
0.0
  0
LTYPE
  5
1F5
100
AcDbSymbolTableRecord
100
AcDbLinetypeTableRecord
  2
CENTER
 70
64
  3
____ _ ____ _ ____ _ ____ _ ____ _ ____ _ ____
 72
65
 73
4
 40
0.6
 49
0.375
 74
0
 49
-0.075
 74
0
 49
0.075
 74
0
 49
-0.075
 74
0
  0
LTYPE
  5
1F6
100
AcDbSymbolTableRecord
100
AcDbLinetypeTableRecord
  2
HIDDEN
 70
64
  3
- - - - - - - - - - - - - - - - - - - -
 72
65
 73
2
 40
0.2
 49
0.1
 74
0
 49
-0.1
 74
0
  0
LTYPE
  5
1F7
100
AcDbSymbolTableRecord
100
AcDbLinetypeTableRecord
  2
PHANTOM
 70
64
  3
_____ _ _ _____ _ _ _____ _ _ _____
 72
65
 73
6
 40
0.8
 49
0.45
 74
0
 49
-0.05
 74
0
 49
0.1
 74
0
 49
-0.05
 74
0
 49
0.1
 74
0
 49
-0.05
 74
0
  0
LTYPE
  5
1F8
100
AcDbSymbolTableRecord
100
AcDbLinetypeTableRecord
  2
DOT
 70
64
  3
. . . . . . . . . . . . . . . . . . . .
 72
65
 73
2
 40
0.2
 49
0.1
 74
0
 49
-0.1
 74
0
  0
LTYPE
  5
1F9
100
AcDbSymbolTableRecord
100
AcDbLinetypeTableRecord
  2
DASHED
 70
64
  3
- - - - - - - - - - - - - - - - - - - -
 72
65
 73
2
 40
0.2
 49
0.1
 74
0
 49
-0.1
 74
0
  0
ENDTAB
  0
TABLE
  2
LAYER
  5
2
100
AcDbSymbolTable
 70
36
  0
LAYER
  5
10
100
AcDbSymbolTableRecord
100
AcDbLayerTableRecord
  2
0
 70
0
 62
7
  6
CONTINUOUS
370
-3
390
F
  0
LAYER
  5
1FA
100
AcDbSymbolTableRecord
100
AcDbLayerTableRecord
  2
DEFAULT_1
 70
0
 62
7
  6
CENTER
370
-3
390
F
  0
LAYER
  5
1FB
100
AcDbSymbolTableRecord
100
AcDbLayerTableRecord
  2
DEFAULT_2
 70
0
 62
8
  6
HIDDEN
370
-3
390
F
  0
LAYER
  5
1FC
100
AcDbSymbolTableRecord
100
AcDbLayerTableRecord
  2
DEFAULT_3
 70
0
 62
7
  6
PHANTOM
370
-3
390
F
  0
LAYER
  5
1FD
100
AcDbSymbolTableRecord
100
AcDbLayerTableRecord
  2
1-510_ASSY_DATUMS
 70
0
 62
7
  6
CONTINUOUS
370
-3
390
F
  0
LAYER
  5
1FE
100
AcDbSymbolTableRecord
100
AcDbLayerTableRecord
  2
1-511_ASSY_DATUMS
 70
0
 62
7
  6
CONTINUOUS
370
-3
390
F
  0
LAYER
  5
1FF
100
AcDbSymbolTableRecord
100
AcDbLayerTableRecord
  2
ALL_ASSEMBLY_MEMBERS
 70
0
 62
7
  6
CONTINUOUS
370
-3
390
F
  0
LAYER
  5
200
100
AcDbSymbolTableRecord
100
AcDbLayerTableRecord
  2
ALL_FEATURES
 70
0
 62
7
  6
CONTINUOUS
370
-3
390
F
  0
LAYER
  5
201
100
AcDbSymbolTableRecord
100
AcDbLayerTableRecord
  2
AXES_FEATURES
 70
0
 62
7
  6
CONTINUOUS
370
-3
390
F
  0
LAYER
  5
202
100
AcDbSymbolTableRecord
100
AcDbLayerTableRecord
  2
BLANK1
 70
0
 62
7
  6
CONTINUOUS
370
-3
390
F
  0
LAYER
  5
203
100
AcDbSymbolTableRecord
100
AcDbLayerTableRecord
  2
BLANK2
 70
0
 62
7
  6
CONTINUOUS
370
-3
390
F
  0
LAYER
  5
204
100
AcDbSymbolTableRecord
100
AcDbLayerTableRecord
  2
BLANK3
 70
0
 62
7
  6
CONTINUOUS
370
-3
390
F
  0
LAYER
  5
205
100
AcDbSymbolTableRecord
100
AcDbLayerTableRecord
  2
CHAMFER_FEATURES
 70
0
 62
7
  6
CONTINUOUS
370
-3
390
F
  0
LAYER
  5
206
100
AcDbSymbolTableRecord
100
AcDbLayerTableRecord
  2
COSM
 70
0
 62
7
  6
CONTINUOUS
370
-3
390
F
  0
LAYER
  5
207
100
AcDbSymbolTableRecord
100
AcDbLayerTableRecord
  2
CUT_FEATURES
 70
0
 62
7
  6
CONTINUOUS
370
-3
390
F
  0
LAYER
  5
208
100
AcDbSymbolTableRecord
100
AcDbLayerTableRecord
  2
DATUM_CURVES
 70
0
 62
7
  6
CONTINUOUS
370
-3
390
F
  0
LAYER
  5
209
100
AcDbSymbolTableRecord
100
AcDbLayerTableRecord
  2
DATUM_PLANES
 70
0
 62
7
  6
CONTINUOUS
370
-3
390
F
  0
LAYER
  5
20A
100
AcDbSymbolTableRecord
100
AcDbLayerTableRecord
  2
DEFAULT_COORDINATE_SYSTEM
 70
0
 62
7
  6
CONTINUOUS
370
-3
390
F
  0
LAYER
  5
20B
100
AcDbSymbolTableRecord
100
AcDbLayerTableRecord
  2
DEFAULT_DATUM_AXES
 70
0
 62
7
  6
CONTINUOUS
370
-3
390
F
  0
LAYER
  5
20C
100
AcDbSymbolTableRecord
100
AcDbLayerTableRecord
  2
DEFAULT_DATUM_PLANES
 70
0
 62
7
  6
CONTINUOUS
370
-3
390
F
  0
LAYER
  5
20D
100
AcDbSymbolTableRecord
100
AcDbLayerTableRecord
  2
DEFAULT_SURFACES
 70
0
 62
7
  6
CONTINUOUS
370
-3
390
F
  0
LAYER
  5
20E
100
AcDbSymbolTableRecord
100
AcDbLayerTableRecord
  2
DIMENSIONS
 70
0
 62
7
  6
CONTINUOUS
370
-3
390
F
  0
LAYER
  5
20F
100
AcDbSymbolTableRecord
100
AcDbLayerTableRecord
  2
DIMS
 70
0
 62
7
  6
CONTINUOUS
370
-3
390
F
  0
LAYER
  5
210
100
AcDbSymbolTableRecord
100
AcDbLayerTableRecord
  2
DTM-AXIS
 70
0
 62
7
  6
CONTINUOUS
370
-3
390
F
  0
LAYER
  5
211
100
AcDbSymbolTableRecord
100
AcDbLayerTableRecord
  2
DTM-CRVS
 70
0
 62
7
  6
CONTINUOUS
370
-3
390
F
  0
LAYER
  5
212
100
AcDbSymbolTableRecord
100
AcDbLayerTableRecord
  2
DTM-PLNS
 70
0
 62
7
  6
CONTINUOUS
370
-3
390
F
  0
LAYER
  5
213
100
AcDbSymbolTableRecord
100
AcDbLayerTableRecord
  2
DTM-QILT
 70
0
 62
7
  6
CONTINUOUS
370
-3
390
F
  0
LAYER
  5
214
100
AcDbSymbolTableRecord
100
AcDbLayerTableRecord
  2
GTOLS
 70
0
 62
7
  6
CONTINUOUS
370
-3
390
F
  0
LAYER
  5
215
100
AcDbSymbolTableRecord
100
AcDbLayerTableRecord
  2
HOLE_FEATURES
 70
0
 62
7
  6
CONTINUOUS
370
-3
390
F
  0
LAYER
  5
216
100
AcDbSymbolTableRecord
100
AcDbLayerTableRecord
  2
ID_454
 70
0
 62
7
  6
CONTINUOUS
370
-3
390
F
  0
LAYER
  5
217
100
AcDbSymbolTableRecord
100
AcDbLayerTableRecord
  2
INDERQUILT
 70
0
 62
7
  6
CONTINUOUS
370
-3
390
F
  0
LAYER
  5
218
100
AcDbSymbolTableRecord
100
AcDbLayerTableRecord
  2
LAY0001
 70
0
 62
7
  6
CONTINUOUS
370
-3
390
F
  0
LAYER
  5
219
100
AcDbSymbolTableRecord
100
AcDbLayerTableRecord
  2
LAY0002
 70
0
 62
7
  6
CONTINUOUS
370
-3
390
F
  0
LAYER
  5
21A
100
AcDbSymbolTableRecord
100
AcDbLayerTableRecord
  2
NONE
 70
0
 62
7
  6
CONTINUOUS
370
-3
390
F
  0
LAYER
  5
21B
100
AcDbSymbolTableRecord
100
AcDbLayerTableRecord
  2
NOTES
 70
0
 62
7
  6
CONTINUOUS
370
-3
390
F
  0
LAYER
  5
21C
100
AcDbSymbolTableRecord
100
AcDbLayerTableRecord
  2
OUTSURFACE
 70
0
 62
7
  6
CONTINUOUS
370
-3
390
F
  0
LAYER
  5
21D
100
AcDbSymbolTableRecord
100
AcDbLayerTableRecord
  2
PART_REFERENCE_DIMENSIONS
 70
0
 62
7
  6
CONTINUOUS
370
-3
390
F
  0
LAYER
  5
21E
100
AcDbSymbolTableRecord
100
AcDbLayerTableRecord
  2
PROTRUSION_FEATURES
 70
0
 62
7
  6
CONTINUOUS
370
-3
390
F
  0
LAYER
  5
21F
100
AcDbSymbolTableRecord
100
AcDbLayerTableRecord
  2
QUILTS
 70
0
 62
7
  6
CONTINUOUS
370
-3
390
F
  0
LAYER
  5
220
100
AcDbSymbolTableRecord
100
AcDbLayerTableRecord
  2
REFERENCE_DIMENSIONS
 70
0
 62
7
  6
CONTINUOUS
370
-3
390
F
  0
LAYER
  5
221
100
AcDbSymbolTableRecord
100
AcDbLayerTableRecord
  2
ROUND_FEATURES
 70
0
 62
7
  6
CONTINUOUS
370
-3
390
F
  0
LAYER
  5
222
100
AcDbSymbolTableRecord
100
AcDbLayerTableRecord
  2
STARTUP
 70
0
 62
7
  6
CONTINUOUS
370
-3
390
F
  0
LAYER
  5
223
100
AcDbSymbolTableRecord
100
AcDbLayerTableRecord
  2
START_PARAMS_NOTE
 70
0
 62
7
  6
CONTINUOUS
370
-3
390
F
  0
LAYER
  5
224
100
AcDbSymbolTableRecord
100
AcDbLayerTableRecord
  2
SURFACE_FEATURES
 70
0
 62
7
  6
CONTINUOUS
370
-3
390
F
  0
LAYER
  5
225
100
AcDbSymbolTableRecord
100
AcDbLayerTableRecord
  2
XSEC_DATUMS
 70
0
 62
7
  6
CONTINUOUS
370
-3
390
F
  0
LAYER
  5
226
100
AcDbSymbolTableRecord
100
AcDbLayerTableRecord
  2
YDERQUILT
 70
0
 62
7
  6
CONTINUOUS
370
-3
390
F
  0
ENDTAB
  0
TABLE
  2
STYLE
  5
3
100
AcDbSymbolTable
 70
1
  0
STYLE
  5
11
100
AcDbSymbolTableRecord
100
AcDbTextStyleTableRecord
  2
STANDARD
 70
0
 40
0.0
 41
0.8
 50
0.0
 71
0
 42
0.2
  3
txt
  4

  0
STYLE
  5
227
100
AcDbSymbolTableRecord
100
AcDbTextStyleTableRecord
  2
TEXTSTYLE_1
 70
0
 40
0.0
 41
0.8
 50
0.0
 71
0
 42
0.2
  3
gdt
  4

  0
ENDTAB
  0
TABLE
  2
VIEW
  5
6
100
AcDbSymbolTable
 70
0
  0
ENDTAB
  0
TABLE
  2
UCS
  5
7
100
AcDbSymbolTable
 70
0
  0
ENDTAB
  0
TABLE
  2
APPID
  5
9
100
AcDbSymbolTable
 70
1
  0
APPID
  5
228
100
AcDbSymbolTableRecord
100
AcDbRegAppTableRecord
  2
ACAD
 70
0
  0
ENDTAB
  0
TABLE
  2
BLOCK_RECORD
  5
1
100
AcDbSymbolTable
 70
0
  0
BLOCK_RECORD
  5
229
100
AcDbSymbolTableRecord
100
AcDbBlockTableRecord
  2
*Model_Space
  0
BLOCK_RECORD
  5
22A
100
AcDbSymbolTableRecord
100
AcDbBlockTableRecord
  2
*Paper_Space
  0
ENDTAB
  0
TABLE
  2
DIMSTYLE
  5
A
100
AcDbSymbolTable
 70
1
100
AcDbDimStyleTable
 71
0
  0
DIMSTYLE
105
22B
100
AcDbSymbolTableRecord
100
AcDbDimStyleTableRecord
  2
STANDARD
 70
0
  3

  4

 40
1.0
 41
0.1
 42
0.0625
 43
0.38
 44
0.125
 45
0.0
 46
0.0
 47
0.001
 48
0.001
140
0.08
141
0.09
142
0.0
143
25.4
144
1.0
145
0.0
146
1.0
147
0.09
 71
1.0
 72
0.0
 73
1
 74
1
 75
0
 76
0
 77
0
 78
4
170
0
171
2
172
0
173
0
174
0
175
0
176
0
177
0
178
0
270
2
271
3
272
3
273
2
274
2
275
0
280
0
281
0
282
0
283
1
284
4
285
0
286
0
287
3
288
0
340
11
278
46
  0
ENDTAB
  0
ENDSEC
  0
SECTION
  2
BLOCKS
  0
BLOCK
  5
20
100
AcDbEntity
  8
0
100
AcDbBlockBegin
  2
*Model_Space
 70
0
 10
0.0
 20
0.0
 30
0.0
  3
*Model_Space
  1

  0
ENDBLK
  5
21
100
AcDbEntity
  8
0
100
AcDbBlockEnd
  0
BLOCK
  5
1C
100
AcDbEntity
  8
0
100
AcDbBlockBegin
  2
*Paper_Space
 70
0
 10
0.0
 20
0.0
 30
0.0
  3
*Paper_Space
  1

  0
ENDBLK
  5
1D
100
AcDbEntity
  8
0
100
AcDbBlockEnd
  0
ENDSEC
  0
SECTION
  2
ENTITIES
  0
LINE
  5
22C
100
AcDbEntity
  8
0
100
AcDbLine
 62
7
  6
CONTINUOUS
 10
0.0
 20
0.0
 11
0.0
 21
8.5
  0
LINE
  5
22D
100
AcDbEntity
  8
0
100
AcDbLine
 62
7
  6
CONTINUOUS
 10
0.0
 20
0.0
 11
11.0
 21
0.0
  0
LINE
  5
22E
100
AcDbEntity
  8
0
100
AcDbLine
 62
7
  6
CONTINUOUS
 10
0.0
 20
8.5
 11
11.0
 21
8.5
  0
LINE
  5
22F
100
AcDbEntity
  8
0
100
AcDbLine
 62
7
  6
CONTINUOUS
 10
11.0
 20
0.0
 11
11.0
 21
8.5
  0
LINE
  5
230
100
AcDbEntity
  8
0
100
AcDbLine
 62
7
  6
CONTINUOUS
 10
2.5310633157
 20
4.4260733353
 11
2.5310633157
 21
4.6622938078
  0
LINE
  5
231
100
AcDbEntity
  8
0
100
AcDbLine
 62
7
  6
CONTINUOUS
 10
2.6590160716
 20
4.59339617
 11
2.6590160716
 21
4.4949709731
  0
LINE
  5
232
100
AcDbEntity
  8
0
100
AcDbLine
 62
7
  6
CONTINUOUS
 10
2.7968113472
 20
4.4949709731
 11
2.7968113472
 21
4.59339617
  0
LINE
  5
233
100
AcDbEntity
  8
0
100
AcDbLine
 62
7
  6
CONTINUOUS
 10
2.9808081138
 20
4.342029391
 11
3.0276279053
 21
3.7567819967
  0
LINE
  5
234
100
AcDbEntity
  8
0
100
AcDbLine
 62
7
  6
CONTINUOUS
 10
2.9227641031
 20
4.5241835715
 11
2.9227641031
 21
4.5641835715
  0
LINE
  5
235
100
AcDbEntity
  8
0
100
AcDbLine
 62
7
  6
CONTINUOUS
 10
2.9227641031
 20
4.5655665507
 11
2.9227641031
 21
4.6191835715
  0
LINE
  5
236
100
AcDbEntity
  8
0
100
AcDbLine
 62
7
  6
CONTINUOUS
 10
2.9232641031
 20
4.4191835715
 11
2.9232641031
 21
4.6691835715
  0
LINE
  5
237
100
AcDbEntity
  8
0
100
AcDbLine
 62
7
  6
CONTINUOUS
 10
2.9247641031
 20
4.3473331778
 11
2.9247641031
 21
4.7410339652
  0
LINE
  5
238
100
AcDbEntity
  8
ALL_ASSEMBLY_MEMBERS
100
AcDbLine
 62
7
  6
CONTINUOUS
 10
3.3131604147
 20
4.5092701808
 11
3.3131604147
 21
4.5204799454
  0
LINE
  5
239
100
AcDbEntity
  8
ALL_ASSEMBLY_MEMBERS
100
AcDbLine
 62
7
  6
CONTINUOUS
 10
3.3131604147
 20
4.5678871977
 11
3.3131604147
 21
4.5790969623
  0
LINE
  5
23A
100
AcDbEntity
  8
0
100
AcDbLine
 62
9
  6
CONTINUOUS
 10
3.3184648905
 20
4.0695009908
 11
3.3184648905
 21
3.7567819967
  0
LINE
  5
23B
100
AcDbEntity
  8
ALL_ASSEMBLY_MEMBERS
100
AcDbLine
 62
7
  6
CONTINUOUS
 10
3.3237693664
 20
4.5790969623
 11
3.3237693664
 21
4.5678871977
  0
LINE
  5
23C
100
AcDbEntity
  8
ALL_ASSEMBLY_MEMBERS
100
AcDbLine
 62
7
  6
CONTINUOUS
 10
3.3237693664
 20
4.5204799454
 11
3.3237693664
 21
4.5092701808
  0
LINE
  5
23D
100
AcDbEntity
  8
ALL_ASSEMBLY_MEMBERS
100
AcDbLine
 62
7
  6
CONTINUOUS
 10
3.2916797458
 20
4.6214209881
 11
3.2932270634
 21
4.6331740322
  0
LINE
  5
23E
100
AcDbEntity
  8
ALL_ASSEMBLY_MEMBERS
100
AcDbLine
 62
7
  6
CONTINUOUS
 10
3.3452500353
 20
4.466946155
 11
3.3437027177
 21
4.4551931109
  0
LINE
  5
23F
100
AcDbEntity
  8
ALL_ASSEMBLY_MEMBERS
100
AcDbLine
 62
7
  6
CONTINUOUS
 10
3.2939109914
 20
4.5346044846
 11
3.2947612644
 21
4.5388790957
  0
LINE
  5
240
100
AcDbEntity
  8
ALL_ASSEMBLY_MEMBERS
100
AcDbLine
 62
7
  6
CONTINUOUS
 10
3.3430187897
 20
4.5537626584
 11
3.3421685167
 21
4.5494880474
  0
LINE
  5
241
100
AcDbEntity
  8
ALL_ASSEMBLY_MEMBERS
100
AcDbLine
 62
7
  6
CONTINUOUS
 10
3.2610930037
 20
4.4716252047
 11
3.2641611638
 21
4.4830757343
  0
LINE
  5
242
100
AcDbEntity
  8
ALL_ASSEMBLY_MEMBERS
100
AcDbLine
 62
7
  6
CONTINUOUS
 10
3.3758367774
 20
4.6167419384
 11
3.3727686172
 21
4.6052914087
  0
LINE
  5
243
100
AcDbEntity
  8
ALL_ASSEMBLY_MEMBERS
100
AcDbLine
 62
7
  6
CONTINUOUS
 10
3.3131604147
 20
4.5678871977
 11
3.3077714283
 21
4.5548770337
  0
LINE
  5
244
100
AcDbEntity
  8
ALL_ASSEMBLY_MEMBERS
100
AcDbLine
 62
7
  6
CONTINUOUS
 10
3.1389089568
 20
4.5441835715
 11
3.1763892594
 21
4.6091013598
  0
LINE
  5
245
100
AcDbEntity
  8
ALL_ASSEMBLY_MEMBERS
100
AcDbLine
 62
7
  6
CONTINUOUS
 10
3.1912066211
 20
4.6347657832
 11
3.2286869237
 21
4.6996835715
  0
LINE
  5
246
100
AcDbEntity
  8
ALL_ASSEMBLY_MEMBERS
100
AcDbLine
 62
7
  6
CONTINUOUS
 10
3.2641611638
 20
4.6052914087
 11
3.2610930037
 21
4.6167419384
  0
LINE
  5
247
100
AcDbEntity
  8
ALL_ASSEMBLY_MEMBERS
100
AcDbLine
 62
7
  6
CONTINUOUS
 10
3.2241800697
 20
4.5699005892
 11
3.2224492626
 21
4.576993113
  0
LINE
  5
248
100
AcDbEntity
  8
ALL_ASSEMBLY_MEMBERS
100
AcDbLine
 62
7
  6
CONTINUOUS
 10
3.2939109914
 20
4.5537626584
 11
3.2947612644
 21
4.5494880474
  0
LINE
  5
249
100
AcDbEntity
  8
ALL_ASSEMBLY_MEMBERS
100
AcDbLine
 62
7
  6
CONTINUOUS
 10
3.3430187897
 20
4.5346044846
 11
3.3421685167
 21
4.5388790957
  0
LINE
  5
24A
100
AcDbEntity
  8
ALL_ASSEMBLY_MEMBERS
100
AcDbLine
 62
7
  6
CONTINUOUS
 10
3.2932270634
 20
4.4551931109
 11
3.2916797458
 21
4.466946155
  0
LINE
  5
24B
100
AcDbEntity
  8
ALL_ASSEMBLY_MEMBERS
100
AcDbLine
 62
7
  6
CONTINUOUS
 10
3.3437027177
 20
4.6331740322
 11
3.3452500353
 21
4.6214209881
  0
LINE
  5
24C
100
AcDbEntity
  8
ALL_ASSEMBLY_MEMBERS
100
AcDbLine
 62
7
  6
CONTINUOUS
 10
3.4144805184
 20
4.576993113
 11
3.4127497114
 21
4.5699005892
  0
LINE
  5
24D
100
AcDbEntity
  8
ALL_ASSEMBLY_MEMBERS
100
AcDbLine
 62
7
  6
CONTINUOUS
 10
3.3237693664
 20
4.5204799454
 11
3.3291583527
 21
4.5334901094
  0
LINE
  5
24E
100
AcDbEntity
  8
ALL_ASSEMBLY_MEMBERS
100
AcDbLine
 62
7
  6
CONTINUOUS
 10
3.3232761232
 20
4.625791871
 11
3.3292033535
 21
4.636058135
  0
LINE
  5
24F
100
AcDbEntity
  8
ALL_ASSEMBLY_MEMBERS
100
AcDbLine
 62
7
  6
CONTINUOUS
 10
3.3136536579
 20
4.4625752721
 11
3.3077264276
 21
4.4523090081
  0
LINE
  5
250
100
AcDbEntity
  8
ALL_ASSEMBLY_MEMBERS
100
AcDbLine
 62
7
  6
CONTINUOUS
 10
3.2286869237
 20
4.3886835715
 11
3.1912066211
 21
4.4536013598
  0
LINE
  5
251
100
AcDbEntity
  8
ALL_ASSEMBLY_MEMBERS
100
AcDbLine
 62
7
  6
CONTINUOUS
 10
3.1763892594
 20
4.4792657832
 11
3.1389089568
 21
4.5441835715
  0
LINE
  5
252
100
AcDbEntity
  8
ALL_ASSEMBLY_MEMBERS
100
AcDbLine
 62
7
  6
CONTINUOUS
 10
3.3292033535
 20
4.4523090081
 11
3.3232761232
 21
4.4625752721
  0
LINE
  5
253
100
AcDbEntity
  8
ALL_ASSEMBLY_MEMBERS
100
AcDbLine
 62
7
  6
CONTINUOUS
 10
3.3077714283
 20
4.5334901094
 11
3.3131604147
 21
4.5204799454
  0
LINE
  5
254
100
AcDbEntity
  8
ALL_ASSEMBLY_MEMBERS
100
AcDbLine
 62
7
  6
CONTINUOUS
 10
3.3291583527
 20
4.5548770337
 11
3.3237693664
 21
4.5678871977
  0
LINE
  5
255
100
AcDbEntity
  8
ALL_ASSEMBLY_MEMBERS
100
AcDbLine
 62
7
  6
CONTINUOUS
 10
3.3727686172
 20
4.4830757343
 11
3.3758367774
 21
4.4716252047
  0
LINE
  5
256
100
AcDbEntity
  8
DTM-AXIS
100
AcDbLine
 62
7
  6
CONTINUOUS
 10
3.6618108706
 20
4.8464778176
 11
3.6618108706
 21
4.8396549693
  0
LINE
  5
257
100
AcDbEntity
  8
DTM-AXIS
100
AcDbLine
 62
7
  6
CONTINUOUS
 10
3.6752762306
 20
4.8473248035
 11
3.6752762306
 21
4.8373320593
  0
LINE
  5
258
100
AcDbEntity
  8
0
100
AcDbLine
 62
7
  6
CONTINUOUS
 10
3.6424201801
 20
4.1707615739
 11
3.6093018758
 21
3.7567819967
  0
LWPOLYLINE
  5
259
100
AcDbEntity
  8
0
100
AcDbPolyline
 62
7
  6
CONTINUOUS
 90
20
 70
0
 10
3.6424201801
 20
4.1707615739
 10
3.6429433468
 20
4.1755068054
 10
3.6440068027
 20
4.1816425747
 10
3.6456678894
 20
4.1883653231
 10
3.6480032135
 20
4.1954829548
 10
3.650974245
 20
4.2026262425
 10
3.6545821121
 20
4.2096910641
 10
3.658841731
 20
4.21661991
 10
3.6636200641
 20
4.2231661833
 10
3.668865384
 20
4.2292782148
 10
3.6745324807
 20
4.2349220845
 10
3.6804217645
 20
4.2399468764
 10
3.6864473318
 20
4.2443533102
 10
3.6925399614
 20
4.2481594404
 10
3.6984805838
 20
4.2513119504
 10
3.7041893903
 20
4.2538651493
 10
3.7095908129
 20
4.2558751318
 10
3.7144535356
 20
4.2573564323
 10
3.71867481
 20
4.2583890434
 10
3.7218078507
 20
4.2589973831
  0
LINE
  5
25A
100
AcDbEntity
  8
ALL_ASSEMBLY_MEMBERS
100
AcDbLine
 62
7
  6
CONTINUOUS
 10
3.4082428574
 20
4.3886835715
 11
3.4457231599
 21
4.4536013598
  0
LINE
  5
25B
100
AcDbEntity
  8
ALL_ASSEMBLY_MEMBERS
100
AcDbLine
 62
7
  6
CONTINUOUS
 10
3.4605405217
 20
4.4792657832
 11
3.4980208243
 21
4.5441835715
  0
LINE
  5
25C
100
AcDbEntity
  8
ALL_ASSEMBLY_MEMBERS
100
AcDbLine
 62
7
  6
CONTINUOUS
 10
3.2376932937
 20
4.4991036521
 11
3.244909832
 21
4.508508428
  0
LINE
  5
25D
100
AcDbEntity
  8
ALL_ASSEMBLY_MEMBERS
100
AcDbLine
 62
7
  6
CONTINUOUS
 10
3.3992364874
 20
4.589263491
 11
3.392019949
 21
4.5798587151
  0
LINE
  5
25E
100
AcDbEntity
  8
ALL_ASSEMBLY_MEMBERS
100
AcDbLine
 62
7
  6
CONTINUOUS
 10
3.244909832
 20
4.5798587151
 11
3.2376932937
 21
4.589263491
  0
LINE
  5
25F
100
AcDbEntity
  8
ALL_ASSEMBLY_MEMBERS
100
AcDbLine
 62
7
  6
CONTINUOUS
 10
3.3077264276
 20
4.636058135
 11
3.3136536579
 21
4.625791871
  0
LINE
  5
260
100
AcDbEntity
  8
ALL_ASSEMBLY_MEMBERS
100
AcDbLine
 62
7
  6
CONTINUOUS
 10
3.4980208243
 20
4.5441835715
 11
3.4605405217
 21
4.6091013598
  0
LINE
  5
261
100
AcDbEntity
  8
ALL_ASSEMBLY_MEMBERS
100
AcDbLine
 62
7
  6
CONTINUOUS
 10
3.4457231599
 20
4.6347657832
 11
3.4082428574
 21
4.6996835715
  0
LINE
  5
262
100
AcDbEntity
  8
DTM-AXIS
100
AcDbLine
 62
7
  6
CONTINUOUS
 10
3.8602550929
 20
4.8154701371
 11
3.8602550929
 21
4.8054524612
  0
LINE
  5
263
100
AcDbEntity
  8
DTM-AXIS
100
AcDbLine
 62
7
  6
CONTINUOUS
 10
3.8669877729
 20
4.8126673161
 11
3.8669877729
 21
4.8025173034
  0
LINE
  5
264
100
AcDbEntity
  8
DTM-AXIS
100
AcDbLine
 62
7
  6
CONTINUOUS
 10
3.9090160716
 20
4.8070392962
 11
3.9090160716
 21
4.7970723016
  0
LINE
  5
265
100
AcDbEntity
  8
ALL_ASSEMBLY_MEMBERS
100
AcDbLine
 62
7
  6
CONTINUOUS
 10
3.3325176311
 20
4.5582363121
 11
3.3291583527
 21
4.5548770337
  0
LINE
  5
266
100
AcDbEntity
  8
ALL_ASSEMBLY_MEMBERS
100
AcDbLine
 62
7
  6
CONTINUOUS
 10
3.30441215
 20
4.530130831
 11
3.3077714283
 21
4.5334901094
  0
LINE
  5
267
100
AcDbEntity
  8
ALL_ASSEMBLY_MEMBERS
100
AcDbLine
 62
7
  6
CONTINUOUS
 10
3.3541400341
 20
4.6177386301
 11
3.36354481
 21
4.6249551684
  0
LINE
  5
268
100
AcDbEntity
  8
ALL_ASSEMBLY_MEMBERS
100
AcDbLine
 62
7
  6
CONTINUOUS
 10
3.30441215
 20
4.5582363121
 11
3.3077714283
 21
4.5548770337
  0
LINE
  5
269
100
AcDbEntity
  8
ALL_ASSEMBLY_MEMBERS
100
AcDbLine
 62
7
  6
CONTINUOUS
 10
3.3325176311
 20
4.530130831
 11
3.3291583527
 21
4.5334901094
  0
LINE
  5
26A
100
AcDbEntity
  8
ALL_ASSEMBLY_MEMBERS
100
AcDbLine
 62
7
  6
CONTINUOUS
 10
3.392019949
 20
4.508508428
 11
3.3992364874
 21
4.4991036521
  0
LINE
  5
26B
100
AcDbEntity
  8
ALL_FEATURES
100
AcDbLine
 62
7
  6
CONTINUOUS
 10
4.0369688275
 20
4.2921889965
 11
4.0369688275
 21
4.7961781466
  0
LINE
  5
26C
100
AcDbEntity
  8
ALL_ASSEMBLY_MEMBERS
100
AcDbLine
 62
7
  6
CONTINUOUS
 10
3.282789747
 20
4.470628513
 11
3.2733849711
 21
4.4634119747
  0
LINE
  5
26D
100
AcDbEntity
  8
ALL_ASSEMBLY_MEMBERS
100
AcDbLine
 62
7
  6
CONTINUOUS
 10
3.36354481
 20
4.4634119747
 11
3.3541400341
 21
4.470628513
  0
LINE
  5
26E
100
AcDbEntity
  8
ALL_FEATURES
100
AcDbLine
 62
7
  6
CONTINUOUS
 10
4.2869688275
 20
4.2921889965
 11
4.2869688275
 21
4.7961781466
  0
LINE
  5
26F
100
AcDbEntity
  8
ALL_ASSEMBLY_MEMBERS
100
AcDbLine
 62
7
  6
CONTINUOUS
 10
3.2265903271
 20
4.5334451086
 11
3.2368565911
 21
4.5393723389
  0
LINE
  5
270
100
AcDbEntity
  8
ALL_ASSEMBLY_MEMBERS
100
AcDbLine
 62
7
  6
CONTINUOUS
 10
3.410339454
 20
4.5549220345
 11
3.40007319
 21
4.5489948042
  0
LINE
  5
271
100
AcDbEntity
  8
ALL_ASSEMBLY_MEMBERS
100
AcDbLine
 62
7
  6
CONTINUOUS
 10
3.2368565911
 20
4.5489948042
 11
3.2265903271
 21
4.5549220345
  0
LINE
  5
272
100
AcDbEntity
  8
ALL_ASSEMBLY_MEMBERS
100
AcDbLine
 62
7
  6
CONTINUOUS
 10
3.2733849711
 20
4.6249551684
 11
3.282789747
 21
4.6177386301
  0
LINE
  5
273
100
AcDbEntity
  8
ALL_ASSEMBLY_MEMBERS
100
AcDbLine
 62
7
  6
CONTINUOUS
 10
3.3077714283
 20
4.5548770337
 11
3.2947612644
 21
4.5494880474
  0
LINE
  5
274
100
AcDbEntity
  8
ALL_ASSEMBLY_MEMBERS
100
AcDbLine
 62
7
  6
CONTINUOUS
 10
3.3291583527
 20
4.5334901094
 11
3.3421685167
 21
4.5388790957
  0
LINE
  5
275
100
AcDbEntity
  8
ALL_ASSEMBLY_MEMBERS
100
AcDbLine
 62
7
  6
CONTINUOUS
 10
3.40007319
 20
4.5393723389
 11
3.410339454
 21
4.5334451086
  0
LINE
  5
276
100
AcDbEntity
  8
0
100
AcDbLine
 62
7
  6
CONTINUOUS
 10
3.6093018758
 20
3.7567819967
 11
3.0276279053
 21
3.7567819967
  0
LINE
  5
277
100
AcDbEntity
  8
0
100
AcDbLine
 62
7
  6
CONTINUOUS
 10
6.9646357793
 20
3.7567819967
 11
7.5463097498
 21
3.7567819967
  0
LINE
  5
278
100
AcDbEntity
  8
ALL_ASSEMBLY_MEMBERS
100
AcDbLine
 62
7
  6
CONTINUOUS
 10
3.2947612644
 20
4.5388790957
 11
3.3077714283
 21
4.5334901094
  0
LINE
  5
279
100
AcDbEntity
  8
ALL_ASSEMBLY_MEMBERS
100
AcDbLine
 62
7
  6
CONTINUOUS
 10
3.3421685167
 20
4.5494880474
 11
3.3291583527
 21
4.5548770337
  0
LINE
  5
27A
100
AcDbEntity
  8
ALL_ASSEMBLY_MEMBERS
100
AcDbLine
 62
7
  6
CONTINUOUS
 10
7.1943649273
 20
4.4898798449
 11
7.1829143977
 21
4.4868116847
  0
LINE
  5
27B
100
AcDbEntity
  8
ALL_ASSEMBLY_MEMBERS
100
AcDbLine
 62
7
  6
CONTINUOUS
 10
7.3165806018
 20
4.5984872982
 11
7.3280311314
 21
4.6015554584
  0
LINE
  5
27C
100
AcDbEntity
  8
ALL_ASSEMBLY_MEMBERS
100
AcDbLine
 62
7
  6
CONTINUOUS
 10
7.2297795582
 20
4.4499045614
 11
7.2227521823
 21
4.4481896526
  0
LINE
  5
27D
100
AcDbEntity
  8
ALL_ASSEMBLY_MEMBERS
100
AcDbLine
 62
7
  6
CONTINUOUS
 10
3.3910232574
 20
4.4868116847
 11
3.3795727277
 21
4.4898798449
  0
LINE
  5
27E
100
AcDbEntity
  8
ALL_ASSEMBLY_MEMBERS
100
AcDbLine
 62
7
  6
CONTINUOUS
 10
3.2459065237
 20
4.6015554584
 11
3.2573570533
 21
4.5984872982
  0
LINE
  5
27F
100
AcDbEntity
  8
ALL_ASSEMBLY_MEMBERS
100
AcDbLine
 62
7
  6
CONTINUOUS
 10
7.2458936777
 20
4.5196296724
 11
7.2501682887
 21
4.5204799454
  0
LINE
  5
280
100
AcDbEntity
  8
ALL_ASSEMBLY_MEMBERS
100
AcDbLine
 62
7
  6
CONTINUOUS
 10
7.2650518514
 20
4.5687374707
 11
7.2607772404
 21
4.5678871977
  0
LINE
  5
281
100
AcDbEntity
  8
ALL_ASSEMBLY_MEMBERS
100
AcDbLine
 62
7
  6
CONTINUOUS
 10
7.3444632252
 20
4.5189457444
 11
7.3327101811
 21
4.5173984268
  0
LINE
  5
282
100
AcDbEntity
  8
0
100
AcDbLine
 62
9
  6
CONTINUOUS
 10
5.3869688275
 20
4.2151842772
 11
5.3674688275
 21
4.2151842772
  0
LINE
  5
283
100
AcDbEntity
  8
0
100
AcDbLine
 62
9
  6
CONTINUOUS
 10
5.1869688275
 20
4.2151842772
 11
5.2064688275
 21
4.2151842772
  0
LINE
  5
284
100
AcDbEntity
  8
0
100
AcDbLine
 62
9
  6
CONTINUOUS
 10
5.3869688275
 20
4.2183276399
 11
5.3674688275
 21
4.2183276399
  0
LINE
  5
285
100
AcDbEntity
  8
0
100
AcDbLine
 62
9
  6
CONTINUOUS
 10
5.1869688275
 20
4.2183276399
 11
5.2064688275
 21
4.2183276399
  0
LINE
  5
286
100
AcDbEntity
  8
ALL_ASSEMBLY_MEMBERS
100
AcDbLine
 62
7
  6
CONTINUOUS
 10
3.2412274739
 20
4.5173984268
 11
3.2294744299
 21
4.5189457444
  0
LINE
  5
287
100
AcDbEntity
  8
ALL_ASSEMBLY_MEMBERS
100
AcDbLine
 62
7
  6
CONTINUOUS
 10
3.3280439774
 20
4.5196296724
 11
3.3237693664
 21
4.5204799454
  0
LINE
  5
288
100
AcDbEntity
  8
ALL_ASSEMBLY_MEMBERS
100
AcDbLine
 62
7
  6
CONTINUOUS
 10
3.3088858036
 20
4.5687374707
 11
3.3131604147
 21
4.5678871977
  0
LINE
  5
289
100
AcDbEntity
  8
ALL_ASSEMBLY_MEMBERS
100
AcDbLine
 62
7
  6
CONTINUOUS
 10
3.2759462613
 20
4.6363018023
 11
3.2819330037
 21
4.6348108044
  0
LWPOLYLINE
  5
28A
100
AcDbEntity
  8
0
100
AcDbPolyline
 62
7
  6
CONTINUOUS
 90
7
 70
0
 10
5.0712409972
 20
4.3147402783
 10
5.0702774147
 20
4.3151030004
 10
5.0699438059
 20
4.3152479447
 10
5.0702339268
 20
4.3150877083
 10
5.0709865598
 20
4.3146137611
 10
5.0720894903
 20
4.3138077711
 10
5.0733287679
 20
4.312757174
  0
LINE
  5
28B
100
AcDbEntity
  8
DTM-AXIS
100
AcDbLine
 62
7
  6
CONTINUOUS
 10
5.1570475677
 20
4.8310993512
 11
5.1570475677
 21
4.8418705753
  0
LINE
  5
28C
100
AcDbEntity
  8
DTM-AXIS
100
AcDbLine
 62
7
  6
CONTINUOUS
 10
5.1603284077
 20
4.8325624932
 11
5.1603284077
 21
4.8432810307
  0
LINE
  5
28D
100
AcDbEntity
  8
DTM-AXIS
100
AcDbLine
 62
7
  6
CONTINUOUS
 10
5.1668900874
 20
4.835355848
 11
5.1668900874
 21
4.845975192
  0
LINE
  5
28E
100
AcDbEntity
  8
DTM-AXIS
100
AcDbLine
 62
7
  6
CONTINUOUS
 10
5.1800134462
 20
4.8476663047
 11
5.1800134462
 21
4.8508717395
  0
LINE
  5
28F
100
AcDbEntity
  8
0
100
AcDbLine
 62
7
  6
CONTINUOUS
 10
5.1869688275
 20
4.2151842772
 11
5.1869688275
 21
4.2183276399
  0
LINE
  5
290
100
AcDbEntity
  8
0
100
AcDbLine
 62
7
  6
CONTINUOUS
 10
5.1869688275
 20
4.8700395031
 11
5.1869688275
 21
4.8731828659
  0
LINE
  5
291
100
AcDbEntity
  8
0
100
AcDbLine
 62
7
  6
CONTINUOUS
 10
5.2064688275
 20
4.2151842772
 11
5.2064688275
 21
4.2183276399
  0
LINE
  5
292
100
AcDbEntity
  8
0
100
AcDbLine
 62
7
  6
CONTINUOUS
 10
5.2064688275
 20
4.8700395031
 11
5.2064688275
 21
4.8731828659
  0
LINE
  5
293
100
AcDbEntity
  8
0
100
AcDbLine
 62
9
  6
CONTINUOUS
 10
5.354612733
 20
4.9120314132
 11
5.3510859949
 21
4.8928530164
  0
LINE
  5
294
100
AcDbEntity
  8
0
100
AcDbLine
 62
9
  6
CONTINUOUS
 10
5.219324922
 20
4.1763357299
 11
5.2228516602
 21
4.1955141267
  0
LINE
  5
295
100
AcDbEntity
  8
0
100
AcDbLine
 62
9
  6
CONTINUOUS
 10
5.4109231342
 20
4.8337265542
 11
5.4032488132
 21
4.8158002243
  0
LINE
  5
296
100
AcDbEntity
  8
0
100
AcDbLine
 62
9
  6
CONTINUOUS
 10
5.1630145122
 20
4.2546405687
 11
5.1706888338
 21
4.2725668999
  0
LINE
  5
297
100
AcDbEntity
  8
ALL_ASSEMBLY_MEMBERS
100
AcDbLine
 62
7
  6
CONTINUOUS
 10
7.1664823039
 20
4.5694213987
 11
7.178235348
 21
4.5709687163
  0
LINE
  5
298
100
AcDbEntity
  8
ALL_FEATURES
100
AcDbLine
 62
7
  6
CONTINUOUS
 10
4.2869688275
 20
4.2921835715
 11
4.0369688275
 21
4.2921835715
  0
LINE
  5
299
100
AcDbEntity
  8
DTM-AXIS
100
AcDbLine
 62
7
  6
CONTINUOUS
 10
6.561511263
 20
4.3079630991
 11
5.4949976153
 21
4.3079630991
  0
LINE
  5
29A
100
AcDbEntity
  8
DTM-AXIS
100
AcDbLine
 62
7
  6
CONTINUOUS
 10
5.0789411723
 20
4.3079630991
 11
4.2869688275
 21
4.3079630991
  0
LINE
  5
29B
100
AcDbEntity
  8
DTM-AXIS
100
AcDbLine
 62
7
  6
CONTINUOUS
 10
4.0369688275
 20
4.3079630991
 11
4.0124263921
 21
4.3079630991
  0
LINE
  5
29C
100
AcDbEntity
  8
0
100
AcDbLine
 62
7
  6
CONTINUOUS
 10
7.9641341819
 20
4.3473331778
 11
7.5964171375
 21
4.3473331778
  0
LINE
  5
29D
100
AcDbEntity
  8
0
100
AcDbLine
 62
7
  6
CONTINUOUS
 10
2.6098034732
 20
4.3473331778
 11
2.9775100072
 21
4.3473331778
  0
LINE
  5
29E
100
AcDbEntity
  8
0
100
AcDbLine
 62
9
  6
CONTINUOUS
 10
7.649173552
 20
4.3670182172
 11
7.6070499117
 21
4.3670182172
  0
LINE
  5
29F
100
AcDbEntity
  8
0
100
AcDbLine
 62
9
  6
CONTINUOUS
 10
2.9247641031
 20
4.3670182172
 11
2.9669881344
 21
4.3670182172
  0
LINE
  5
2A0
100
AcDbEntity
  8
ALL_ASSEMBLY_MEMBERS
100
AcDbLine
 62
7
  6
CONTINUOUS
 10
3.2286869237
 20
4.3886835715
 11
3.3036475288
 21
4.3886835715
  0
LINE
  5
2A1
100
AcDbEntity
  8
ALL_ASSEMBLY_MEMBERS
100
AcDbLine
 62
7
  6
CONTINUOUS
 10
3.3332822523
 20
4.3886835715
 11
3.4082428574
 21
4.3886835715
  0
LINE
  5
2A2
100
AcDbEntity
  8
0
100
AcDbLine
 62
7
  6
CONTINUOUS
 10
2.9247641031
 20
4.4191835715
 11
2.9232641031
 21
4.4191835715
  0
LINE
  5
2A3
100
AcDbEntity
  8
0
100
AcDbLine
 62
7
  6
CONTINUOUS
 10
7.649173552
 20
4.4191835715
 11
7.650673552
 21
4.4191835715
  0
LINE
  5
2A4
100
AcDbEntity
  8
0
100
AcDbLine
 62
9
  6
CONTINUOUS
 10
6.5780775112
 20
4.4654434141
 11
6.8436125269
 21
4.4654532208
  0
LINE
  5
2A5
100
AcDbEntity
  8
0
100
AcDbLine
 62
9
  6
CONTINUOUS
 10
3.9958601439
 20
4.4654434141
 11
3.7303250773
 21
4.4654529584
  0
LWPOLYLINE
  5
2A6
100
AcDbEntity
  8
DTM-AXIS
100
AcDbPolyline
 62
7
  6
CONTINUOUS
 90
3
 70
0
 10
6.5615114094
 20
4.3079629891
 10
6.5664878257
 20
4.307751254
 10
6.5714120992
 20
4.3071204822
  0
LINE
  5
2A7
100
AcDbEntity
  8
ALL_ASSEMBLY_MEMBERS
100
AcDbLine
 62
7
  6
CONTINUOUS
 10
3.3957023071
 20
4.5709687163
 11
3.4074553512
 21
4.5694213987
  0
LINE
  5
2A8
100
AcDbEntity
  8
0
100
AcDbLine
 62
9
  6
CONTINUOUS
 10
5.2193253549
 20
4.9120291021
 11
5.222852072
 21
4.8928507977
  0
LINE
  5
2A9
100
AcDbEntity
  8
0
100
AcDbLine
 62
9
  6
CONTINUOUS
 10
5.3546123002
 20
4.176338041
 11
5.3510855831
 21
4.1955163454
  0
LINE
  5
2AA
100
AcDbEntity
  8
0
100
AcDbLine
 62
7
  6
CONTINUOUS
 10
5.3674688275
 20
4.8731828659
 11
5.3674688275
 21
4.8700395031
  0
LINE
  5
2AB
100
AcDbEntity
  8
0
100
AcDbLine
 62
7
  6
CONTINUOUS
 10
5.3674688275
 20
4.2183276399
 11
5.3674688275
 21
4.2151842772
  0
LINE
  5
2AC
100
AcDbEntity
  8
0
100
AcDbLine
 62
7
  6
CONTINUOUS
 10
5.3869688275
 20
4.8731828659
 11
5.3869688275
 21
4.8700395031
  0
LINE
  5
2AD
100
AcDbEntity
  8
0
100
AcDbLine
 62
7
  6
CONTINUOUS
 10
5.3869688275
 20
4.2183276399
 11
5.3869688275
 21
4.2151842772
  0
LINE
  5
2AE
100
AcDbEntity
  8
DTM-AXIS
100
AcDbLine
 62
7
  6
CONTINUOUS
 10
5.3965488863
 20
4.8442610706
 11
5.3965488863
 21
4.8499437663
  0
LINE
  5
2AF
100
AcDbEntity
  8
DTM-AXIS
100
AcDbLine
 62
7
  6
CONTINUOUS
 10
5.4096722334
 20
4.8342595488
 11
5.4096722334
 21
4.8449176072
  0
LINE
  5
2B0
100
AcDbEntity
  8
DTM-AXIS
100
AcDbLine
 62
7
  6
CONTINUOUS
 10
5.419514753
 20
4.8298963225
 11
5.419514753
 21
4.8407112492
  0
LINE
  5
2B1
100
AcDbEntity
  8
DTM-AXIS
100
AcDbLine
 62
7
  6
CONTINUOUS
 10
5.4227955992
 20
4.8283512799
 11
5.4227955992
 21
4.8392228471
  0
LINE
  5
2B2
100
AcDbEntity
  8
DTM-AXIS
100
AcDbLine
 62
7
  6
CONTINUOUS
 10
6.8995142595
 20
4.8374926814
 11
6.8986614245
 21
4.8373320593
  0
LINE
  5
2B3
100
AcDbEntity
  8
DTM-AXIS
100
AcDbLine
 62
7
  6
CONTINUOUS
 10
6.8993007693
 20
4.8474423181
 11
6.8986614245
 21
4.8473248035
  0
LINE
  5
2B4
100
AcDbEntity
  8
DTM-AXIS
100
AcDbLine
 62
7
  6
CONTINUOUS
 10
3.7218262253
 20
4.2590005203
 11
4.00252506
 21
4.3071203205
  0
LINE
  5
2B5
100
AcDbEntity
  8
DTM-AXIS
100
AcDbLine
 62
7
  6
CONTINUOUS
 10
7.0173392454
 20
4.8576913912
 11
6.8995142567
 21
4.8374928217
  0
LINE
  5
2B6
100
AcDbEntity
  8
DTM-AXIS
100
AcDbLine
 62
7
  6
CONTINUOUS
 10
6.6751652392
 20
4.7990329901
 11
6.5714125726
 21
4.7812468187
  0
LINE
  5
2B7
100
AcDbEntity
  8
DTM-AXIS
100
AcDbLine
 62
7
  6
CONTINUOUS
 10
6.7119889736
 20
4.8153317276
 11
6.6758618613
 21
4.8091385084
  0
LINE
  5
2B8
100
AcDbEntity
  8
0
100
AcDbLine
 62
7
  6
CONTINUOUS
 10
3.7218282102
 20
4.2590008605
 11
3.7218107568
 21
4.2589978699
  0
LWPOLYLINE
  5
2B9
100
AcDbEntity
  8
DTM-AXIS
100
AcDbPolyline
 62
7
  6
CONTINUOUS
 90
4
 70
0
 10
4.0025255068
 20
4.3071204738
 10
4.0066706686
 20
4.3076795998
 10
4.0114280146
 20
4.3079544723
 10
4.0124261725
 20
4.3079629892
  0
LWPOLYLINE
  5
2BA
100
AcDbEntity
  8
DTM-AXIS
100
AcDbPolyline
 62
7
  6
CONTINUOUS
 90
3
 70
0
 10
6.5714120841
 20
4.7812466634
 10
6.5664878071
 20
4.780615891
 10
6.561511387
 20
4.7804041559
  0
LINE
  5
2BB
100
AcDbEntity
  8
0
100
AcDbLine
 62
7
  6
CONTINUOUS
 10
7.7967739457
 20
4.4751835715
 11
7.8952739457
 21
4.4751835715
  0
LINE
  5
2BC
100
AcDbEntity
  8
0
100
AcDbLine
 62
7
  6
CONTINUOUS
 10
2.9232641031
 20
4.5241835715
 11
2.9227641031
 21
4.5241835715
  0
LINE
  5
2BD
100
AcDbEntity
  8
0
100
AcDbLine
 62
7
  6
CONTINUOUS
 10
7.650673552
 20
4.5241835715
 11
7.651173552
 21
4.5241835715
  0
LINE
  5
2BE
100
AcDbEntity
  8
0
100
AcDbLine
 62
7
  6
CONTINUOUS
 10
2.9232641031
 20
4.5250346353
 11
2.9227641031
 21
4.5250346353
  0
LINE
  5
2BF
100
AcDbEntity
  8
0
100
AcDbLine
 62
7
  6
CONTINUOUS
 10
7.650673552
 20
4.5250346353
 11
7.651173552
 21
4.5250346353
  0
LINE
  5
2C0
100
AcDbEntity
  8
0
100
AcDbLine
 62
7
  6
CONTINUOUS
 10
2.9232641031
 20
4.5258856991
 11
2.9227641031
 21
4.5258856991
  0
LINE
  5
2C1
100
AcDbEntity
  8
0
100
AcDbLine
 62
7
  6
CONTINUOUS
 10
7.650673552
 20
4.5258856991
 11
7.651173552
 21
4.5258856991
  0
LINE
  5
2C2
100
AcDbEntity
  8
0
100
AcDbLine
 62
7
  6
CONTINUOUS
 10
2.9232641031
 20
4.5275878268
 11
2.9227641031
 21
4.5275878268
  0
LINE
  5
2C3
100
AcDbEntity
  8
0
100
AcDbLine
 62
7
  6
CONTINUOUS
 10
7.650673552
 20
4.5275878268
 11
7.651173552
 21
4.5275878268
  0
LINE
  5
2C4
100
AcDbEntity
  8
0
100
AcDbLine
 62
7
  6
CONTINUOUS
 10
7.650673552
 20
4.5292899545
 11
7.651173552
 21
4.5292899545
  0
LINE
  5
2C5
100
AcDbEntity
  8
0
100
AcDbLine
 62
7
  6
CONTINUOUS
 10
2.9232641031
 20
4.5301410182
 11
2.9227641031
 21
4.5301410182
  0
LINE
  5
2C6
100
AcDbEntity
  8
0
100
AcDbLine
 62
7
  6
CONTINUOUS
 10
7.650673552
 20
4.53269421
 11
7.651173552
 21
4.53269421
  0
LINE
  5
2C7
100
AcDbEntity
  8
0
100
AcDbLine
 62
7
  6
CONTINUOUS
 10
2.9232641031
 20
4.5360984649
 11
2.9227641031
 21
4.5360984649
  0
LINE
  5
2C8
100
AcDbEntity
  8
0
100
AcDbLine
 62
7
  6
CONTINUOUS
 10
7.650673552
 20
4.5378005924
 11
7.651173552
 21
4.5378005924
  0
LINE
  5
2C9
100
AcDbEntity
  8
ALL_ASSEMBLY_MEMBERS
100
AcDbLine
 62
7
  6
CONTINUOUS
 10
7.2903861553
 20
4.5388790957
 11
7.2791763907
 21
4.5388790957
  0
LINE
  5
2CA
100
AcDbEntity
  8
ALL_ASSEMBLY_MEMBERS
100
AcDbLine
 62
7
  6
CONTINUOUS
 10
7.2317691384
 20
4.5388790957
 11
7.2205593738
 21
4.5388790957
  0
LINE
  5
2CB
100
AcDbEntity
  8
ALL_ASSEMBLY_MEMBERS
100
AcDbLine
 62
7
  6
CONTINUOUS
 10
3.3533782813
 20
4.5388790957
 11
3.3421685167
 21
4.5388790957
  0
LINE
  5
2CC
100
AcDbEntity
  8
ALL_ASSEMBLY_MEMBERS
100
AcDbLine
 62
7
  6
CONTINUOUS
 10
3.2947612644
 20
4.5388790957
 11
3.2835514998
 21
4.5388790957
  0
LINE
  5
2CD
100
AcDbEntity
  8
0
100
AcDbLine
 62
7
  6
CONTINUOUS
 10
2.9232641031
 20
4.539502721
 11
2.9227641031
 21
4.539502721
  0
LINE
  5
2CE
100
AcDbEntity
  8
0
100
AcDbLine
 62
7
  6
CONTINUOUS
 10
2.9232641031
 20
4.5429069759
 11
2.9227641031
 21
4.5429069759
  0
LINE
  5
2CF
100
AcDbEntity
  8
0
100
AcDbLine
 62
7
  6
CONTINUOUS
 10
7.650673552
 20
4.5429069759
 11
7.651173552
 21
4.5429069759
  0
LINE
  5
2D0
100
AcDbEntity
  8
0
100
AcDbLine
 62
7
  6
CONTINUOUS
 10
2.9232641031
 20
4.5454601671
 11
2.9227641031
 21
4.5454601671
  0
LINE
  5
2D1
100
AcDbEntity
  8
0
100
AcDbLine
 62
7
  6
CONTINUOUS
 10
7.650673552
 20
4.5463112309
 11
7.651173552
 21
4.5463112309
  0
LINE
  5
2D2
100
AcDbEntity
  8
0
100
AcDbLine
 62
7
  6
CONTINUOUS
 10
2.9232641031
 20
4.5480133583
 11
2.9227641031
 21
4.5480133583
  0
LINE
  5
2D3
100
AcDbEntity
  8
0
100
AcDbLine
 62
7
  6
CONTINUOUS
 10
7.650673552
 20
4.5480133583
 11
7.651173552
 21
4.5480133583
  0
LINE
  5
2D4
100
AcDbEntity
  8
ALL_ASSEMBLY_MEMBERS
100
AcDbLine
 62
7
  6
CONTINUOUS
 10
3.2835514998
 20
4.5494880474
 11
3.2947612644
 21
4.5494880474
  0
LINE
  5
2D5
100
AcDbEntity
  8
ALL_ASSEMBLY_MEMBERS
100
AcDbLine
 62
7
  6
CONTINUOUS
 10
3.3421685167
 20
4.5494880474
 11
3.3533782813
 21
4.5494880474
  0
LINE
  5
2D6
100
AcDbEntity
  8
ALL_ASSEMBLY_MEMBERS
100
AcDbLine
 62
7
  6
CONTINUOUS
 10
7.2205593738
 20
4.5494880474
 11
7.2317691384
 21
4.5494880474
  0
LINE
  5
2D7
100
AcDbEntity
  8
ALL_ASSEMBLY_MEMBERS
100
AcDbLine
 62
7
  6
CONTINUOUS
 10
7.2791763907
 20
4.5494880474
 11
7.2903861553
 21
4.5494880474
  0
LINE
  5
2D8
100
AcDbEntity
  8
0
100
AcDbLine
 62
7
  6
CONTINUOUS
 10
2.9232641031
 20
4.5497154858
 11
2.9227641031
 21
4.5497154858
  0
LINE
  5
2D9
100
AcDbEntity
  8
0
100
AcDbLine
 62
7
  6
CONTINUOUS
 10
7.650673552
 20
4.5497154858
 11
7.651173552
 21
4.5497154858
  0
LINE
  5
2DA
100
AcDbEntity
  8
0
100
AcDbLine
 62
7
  6
CONTINUOUS
 10
2.9232641031
 20
4.5505665495
 11
2.9227641031
 21
4.5505665495
  0
LINE
  5
2DB
100
AcDbEntity
  8
0
100
AcDbLine
 62
7
  6
CONTINUOUS
 10
7.650673552
 20
4.5505665495
 11
7.651173552
 21
4.5505665495
  0
LINE
  5
2DC
100
AcDbEntity
  8
0
100
AcDbLine
 62
7
  6
CONTINUOUS
 10
2.9232641031
 20
4.5514176132
 11
2.9227641031
 21
4.5514176132
  0
LINE
  5
2DD
100
AcDbEntity
  8
0
100
AcDbLine
 62
7
  6
CONTINUOUS
 10
7.650673552
 20
4.5514176132
 11
7.651173552
 21
4.5514176132
  0
LINE
  5
2DE
100
AcDbEntity
  8
0
100
AcDbLine
 62
7
  6
CONTINUOUS
 10
2.9232641031
 20
4.5582261254
 11
2.9227641031
 21
4.5582261254
  0
LINE
  5
2DF
100
AcDbEntity
  8
0
100
AcDbLine
 62
7
  6
CONTINUOUS
 10
2.9232641031
 20
4.5599282529
 11
2.9227641031
 21
4.5599282529
  0
LINE
  5
2E0
100
AcDbEntity
  8
0
100
AcDbLine
 62
7
  6
CONTINUOUS
 10
2.9232641031
 20
4.5641835715
 11
2.9227641031
 21
4.5641835715
  0
LINE
  5
2E1
100
AcDbEntity
  8
0
100
AcDbLine
 62
7
  6
CONTINUOUS
 10
7.650673552
 20
4.5641835715
 11
7.651173552
 21
4.5641835715
  0
LINE
  5
2E2
100
AcDbEntity
  8
0
100
AcDbLine
 62
7
  6
CONTINUOUS
 10
2.9232641031
 20
4.5655665507
 11
2.9227641031
 21
4.5655665507
  0
LINE
  5
2E3
100
AcDbEntity
  8
0
100
AcDbLine
 62
7
  6
CONTINUOUS
 10
7.650673552
 20
4.5655665507
 11
7.651173552
 21
4.5655665507
  0
LINE
  5
2E4
100
AcDbEntity
  8
0
100
AcDbLine
 62
7
  6
CONTINUOUS
 10
2.9232641031
 20
4.5664176144
 11
2.9227641031
 21
4.5664176144
  0
LINE
  5
2E5
100
AcDbEntity
  8
0
100
AcDbLine
 62
7
  6
CONTINUOUS
 10
7.650673552
 20
4.5664176144
 11
7.651173552
 21
4.5664176144
  0
LINE
  5
2E6
100
AcDbEntity
  8
0
100
AcDbLine
 62
7
  6
CONTINUOUS
 10
2.9232641031
 20
4.5672686782
 11
2.9227641031
 21
4.5672686782
  0
LINE
  5
2E7
100
AcDbEntity
  8
0
100
AcDbLine
 62
7
  6
CONTINUOUS
 10
7.650673552
 20
4.5681197419
 11
7.651173552
 21
4.5681197419
  0
LINE
  5
2E8
100
AcDbEntity
  8
0
100
AcDbLine
 62
7
  6
CONTINUOUS
 10
2.9232641031
 20
4.5689708056
 11
2.9227641031
 21
4.5689708056
  0
LINE
  5
2E9
100
AcDbEntity
  8
0
100
AcDbLine
 62
7
  6
CONTINUOUS
 10
7.650673552
 20
4.5706729331
 11
7.651173552
 21
4.5706729331
  0
LINE
  5
2EA
100
AcDbEntity
  8
0
100
AcDbLine
 62
7
  6
CONTINUOUS
 10
2.9232641031
 20
4.5715239968
 11
2.9227641031
 21
4.5715239968
  0
LINE
  5
2EB
100
AcDbEntity
  8
0
100
AcDbLine
 62
7
  6
CONTINUOUS
 10
7.650673552
 20
4.5757793163
 11
7.651173552
 21
4.5757793163
  0
LINE
  5
2EC
100
AcDbEntity
  8
0
100
AcDbLine
 62
7
  6
CONTINUOUS
 10
2.9232641031
 20
4.5774814439
 11
2.9227641031
 21
4.5774814439
  0
LINE
  5
2ED
100
AcDbEntity
  8
0
100
AcDbLine
 62
7
  6
CONTINUOUS
 10
7.650673552
 20
4.5774814439
 11
7.651173552
 21
4.5774814439
  0
LINE
  5
2EE
100
AcDbEntity
  8
0
100
AcDbLine
 62
7
  6
CONTINUOUS
 10
2.9232641031
 20
4.5791835715
 11
2.9227641031
 21
4.5791835715
  0
LINE
  5
2EF
100
AcDbEntity
  8
0
100
AcDbLine
 62
7
  6
CONTINUOUS
 10
7.650673552
 20
4.5791835715
 11
7.651173552
 21
4.5791835715
  0
LINE
  5
2F0
100
AcDbEntity
  8
0
100
AcDbLine
 62
7
  6
CONTINUOUS
 10
2.9232641031
 20
4.5953537848
 11
2.9227641031
 21
4.5953537848
  0
LINE
  5
2F1
100
AcDbEntity
  8
0
100
AcDbLine
 62
7
  6
CONTINUOUS
 10
2.9232641031
 20
4.5996091034
 11
2.9227641031
 21
4.5996091034
  0
LINE
  5
2F2
100
AcDbEntity
  8
0
100
AcDbLine
 62
7
  6
CONTINUOUS
 10
2.9232641031
 20
4.6021622946
 11
2.9227641031
 21
4.6021622946
  0
LINE
  5
2F3
100
AcDbEntity
  8
0
100
AcDbLine
 62
7
  6
CONTINUOUS
 10
2.9232641031
 20
4.603864422
 11
2.9227641031
 21
4.603864422
  0
LINE
  5
2F4
100
AcDbEntity
  8
0
100
AcDbLine
 62
7
  6
CONTINUOUS
 10
2.9232641031
 20
4.6055665495
 11
2.9227641031
 21
4.6055665495
  0
LINE
  5
2F5
100
AcDbEntity
  8
0
100
AcDbLine
 62
7
  6
CONTINUOUS
 10
2.9232641031
 20
4.6064176132
 11
2.9227641031
 21
4.6064176132
  0
LINE
  5
2F6
100
AcDbEntity
  8
0
100
AcDbLine
 62
7
  6
CONTINUOUS
 10
7.8952739457
 20
4.6131835715
 11
7.7967739457
 21
4.6131835715
  0
LINE
  5
2F7
100
AcDbEntity
  8
0
100
AcDbLine
 62
7
  6
CONTINUOUS
 10
2.9232641031
 20
4.6132261254
 11
2.9227641031
 21
4.6132261254
  0
LINE
  5
2F8
100
AcDbEntity
  8
0
100
AcDbLine
 62
7
  6
CONTINUOUS
 10
2.9232641031
 20
4.6191835715
 11
2.9227641031
 21
4.6191835715
  0
LINE
  5
2F9
100
AcDbEntity
  8
0
100
AcDbLine
 62
7
  6
CONTINUOUS
 10
7.650673552
 20
4.6191835715
 11
7.651173552
 21
4.6191835715
  0
LINE
  5
2FA
100
AcDbEntity
  8
0
100
AcDbLine
 62
9
  6
CONTINUOUS
 10
3.9958601439
 20
4.622923729
 11
3.7303315008
 21
4.6229031263
  0
LINE
  5
2FB
100
AcDbEntity
  8
0
100
AcDbLine
 62
9
  6
CONTINUOUS
 10
6.5780775112
 20
4.622923729
 11
6.8436063442
 21
4.6229035989
  0
LINE
  5
2FC
100
AcDbEntity
  8
0
100
AcDbLine
 62
7
  6
CONTINUOUS
 10
6.8521264033
 20
4.2589979545
 11
6.8521106978
 21
4.2590006458
  0
LINE
  5
2FD
100
AcDbEntity
  8
DTM-AXIS
100
AcDbLine
 62
7
  6
CONTINUOUS
 10
6.5714125951
 20
4.3071203205
 11
6.852111901
 21
4.2590004395
  0
LINE
  5
2FE
100
AcDbEntity
  8
DTM-AXIS
100
AcDbLine
 62
7
  6
CONTINUOUS
 10
4.0025250825
 20
4.7812468187
 11
3.8987724158
 21
4.7990329901
  0
LINE
  5
2FF
100
AcDbEntity
  8
DTM-AXIS
100
AcDbLine
 62
7
  6
CONTINUOUS
 10
3.6744233984
 20
4.8374928217
 11
3.5564827321
 21
4.8577112217
  0
LINE
  5
300
100
AcDbEntity
  8
DTM-AXIS
100
AcDbLine
 62
7
  6
CONTINUOUS
 10
3.8980757938
 20
4.8091385084
 11
3.8619486814
 21
4.8153317276
  0
LINE
  5
301
100
AcDbEntity
  8
DTM-AXIS
100
AcDbLine
 62
7
  6
CONTINUOUS
 10
3.6746368858
 20
4.8474423181
 11
3.6752762306
 21
4.8473248035
  0
LINE
  5
302
100
AcDbEntity
  8
DTM-AXIS
100
AcDbLine
 62
7
  6
CONTINUOUS
 10
3.6744233956
 20
4.8374926814
 11
3.6752762306
 21
4.8373320593
  0
LWPOLYLINE
  5
303
100
AcDbEntity
  8
0
100
AcDbPolyline
 62
7
  6
CONTINUOUS
 90
20
 70
0
 10
6.852127994
 20
4.2589976826
 10
6.8553420156
 20
4.2583718711
 10
6.8595723077
 20
4.2573323209
 10
6.8644334092
 20
4.2558459553
 10
6.8698255814
 20
4.2538335577
 10
6.8755210733
 20
4.2512807475
 10
6.881444491
 20
4.2481324946
 10
6.8875173389
 20
4.2443350437
 10
6.8935254546
 20
4.23993932
 10
6.8994007458
 20
4.234926154
 10
6.9050566034
 20
4.2292950701
 10
6.910294569
 20
4.2231952215
 10
6.9150691744
 20
4.2166597577
 10
6.9193281814
 20
4.2097398047
 10
6.9229384821
 20
4.2026801374
 10
6.9259143412
 20
4.1955370537
 10
6.9282555319
 20
4.1884150183
 10
6.929922195
 20
4.1816841218
 10
6.9309901393
 20
4.1755371354
 10
6.931517277
 20
4.17076419
  0
LINE
  5
304
100
AcDbEntity
  8
0
100
AcDbLine
 62
9
  6
CONTINUOUS
 10
5.4109239584
 20
4.25463866
 11
5.4032499091
 21
4.2725643534
  0
LINE
  5
305
100
AcDbEntity
  8
0
100
AcDbLine
 62
9
  6
CONTINUOUS
 10
5.1630136967
 20
4.8337284831
 11
5.170687746
 21
4.8158027897
  0
LINE
  5
306
100
AcDbEntity
  8
ALL_ASSEMBLY_MEMBERS
100
AcDbLine
 62
7
  6
CONTINUOUS
 10
3.4074553512
 20
4.5189457444
 11
3.3957023071
 21
4.5173984268
  0
LINE
  5
307
100
AcDbEntity
  8
ALL_ASSEMBLY_MEMBERS
100
AcDbLine
 62
7
  6
CONTINUOUS
 10
3.2294744299
 20
4.5694213987
 11
3.2412274739
 21
4.5709687163
  0
LINE
  5
308
100
AcDbEntity
  8
0
100
AcDbLine
 62
7
  6
CONTINUOUS
 10
2.9247641031
 20
4.6691835715
 11
2.9232641031
 21
4.6691835715
  0
LINE
  5
309
100
AcDbEntity
  8
0
100
AcDbLine
 62
7
  6
CONTINUOUS
 10
7.649173552
 20
4.6691835715
 11
7.650673552
 21
4.6691835715
  0
LINE
  5
30A
100
AcDbEntity
  8
ALL_ASSEMBLY_MEMBERS
100
AcDbLine
 62
7
  6
CONTINUOUS
 10
3.2286869237
 20
4.6996835715
 11
3.3036475288
 21
4.6996835715
  0
LINE
  5
30B
100
AcDbEntity
  8
ALL_ASSEMBLY_MEMBERS
100
AcDbLine
 62
7
  6
CONTINUOUS
 10
3.3332822523
 20
4.6996835715
 11
3.4082428574
 21
4.6996835715
  0
LINE
  5
30C
100
AcDbEntity
  8
0
100
AcDbLine
 62
9
  6
CONTINUOUS
 10
2.9669881344
 20
4.7213489259
 11
2.9247641031
 21
4.7213489259
  0
LINE
  5
30D
100
AcDbEntity
  8
0
100
AcDbLine
 62
9
  6
CONTINUOUS
 10
7.6070499117
 20
4.7213489259
 11
7.649173552
 21
4.7213489259
  0
LINE
  5
30E
100
AcDbEntity
  8
0
100
AcDbLine
 62
7
  6
CONTINUOUS
 10
2.9775100072
 20
4.7410339652
 11
2.6098034732
 21
4.7410339652
  0
LINE
  5
30F
100
AcDbEntity
  8
0
100
AcDbLine
 62
7
  6
CONTINUOUS
 10
7.5964171375
 20
4.7410339652
 11
7.9641341819
 21
4.7410339652
  0
LINE
  5
310
100
AcDbEntity
  8
DTM-AXIS
100
AcDbLine
 62
7
  6
CONTINUOUS
 10
6.5615112548
 20
4.780404044
 11
5.4949964794
 21
4.780404044
  0
LINE
  5
311
100
AcDbEntity
  8
DTM-AXIS
100
AcDbLine
 62
7
  6
CONTINUOUS
 10
5.0789400499
 20
4.780404044
 11
4.2869688275
 21
4.780404044
  0
LINE
  5
312
100
AcDbEntity
  8
DTM-AXIS
100
AcDbLine
 62
7
  6
CONTINUOUS
 10
4.0369688275
 20
4.780404044
 11
4.0124264003
 21
4.780404044
  0
LINE
  5
313
100
AcDbEntity
  8
ALL_FEATURES
100
AcDbLine
 62
7
  6
CONTINUOUS
 10
4.2869688275
 20
4.7961835715
 11
4.0369688275
 21
4.7961835715
  0
LWPOLYLINE
  5
314
100
AcDbEntity
  8
DTM-AXIS
100
AcDbPolyline
 62
7
  6
CONTINUOUS
 90
4
 70
0
 10
4.0124261949
 20
4.7804041558
 10
4.0114280315
 20
4.7804126727
 10
4.0066706875
 20
4.7806875452
 10
4.0025255219
 20
4.7812466718
  0
LINE
  5
315
100
AcDbEntity
  8
ALL_ASSEMBLY_MEMBERS
100
AcDbLine
 62
7
  6
CONTINUOUS
 10
7.178235348
 20
4.5173984268
 11
7.1664823039
 21
4.5189457444
  0
LINE
  5
316
100
AcDbEntity
  8
ALL_ASSEMBLY_MEMBERS
100
AcDbLine
 62
7
  6
CONTINUOUS
 10
7.3327101811
 20
4.5709687163
 11
7.3444632252
 21
4.5694213987
  0
LWPOLYLINE
  5
317
100
AcDbEntity
  8
0
100
AcDbPolyline
 62
7
  6
CONTINUOUS
 90
7
 70
0
 10
5.5027496674
 20
4.7736066308
 10
5.5036715797
 20
4.7732590051
 10
5.5039917228
 20
4.7731200571
 10
5.5036865527
 20
4.7732894493
 10
5.5029284345
 20
4.7737683159
 10
5.501831617
 20
4.7745705482
 10
5.500607384
 20
4.7756091037
  0
LINE
  5
318
100
AcDbEntity
  8
ALL_ASSEMBLY_MEMBERS
100
AcDbLine
 62
7
  6
CONTINUOUS
 10
3.2573570533
 20
4.4898798449
 11
3.2459065237
 21
4.4868116847
  0
LINE
  5
319
100
AcDbEntity
  8
ALL_ASSEMBLY_MEMBERS
100
AcDbLine
 62
7
  6
CONTINUOUS
 10
3.3088858036
 20
4.5196296724
 11
3.3131604147
 21
4.5204799454
  0
LINE
  5
31A
100
AcDbEntity
  8
ALL_ASSEMBLY_MEMBERS
100
AcDbLine
 62
7
  6
CONTINUOUS
 10
3.3280439774
 20
4.5687374707
 11
3.3237693664
 21
4.5678871977
  0
LINE
  5
31B
100
AcDbEntity
  8
0
100
AcDbLine
 62
9
  6
CONTINUOUS
 10
5.3869688275
 20
4.8700395031
 11
5.3674688275
 21
4.8700395031
  0
LINE
  5
31C
100
AcDbEntity
  8
0
100
AcDbLine
 62
9
  6
CONTINUOUS
 10
5.1869688275
 20
4.8700395031
 11
5.2064688275
 21
4.8700395031
  0
LINE
  5
31D
100
AcDbEntity
  8
0
100
AcDbLine
 62
9
  6
CONTINUOUS
 10
5.3869688275
 20
4.8731828659
 11
5.3674688275
 21
4.8731828659
  0
LINE
  5
31E
100
AcDbEntity
  8
0
100
AcDbLine
 62
9
  6
CONTINUOUS
 10
5.1869688275
 20
4.8731828659
 11
5.2064688275
 21
4.8731828659
  0
LINE
  5
31F
100
AcDbEntity
  8
ALL_ASSEMBLY_MEMBERS
100
AcDbLine
 62
7
  6
CONTINUOUS
 10
7.2650518514
 20
4.5196296724
 11
7.2607772404
 21
4.5204799454
  0
LINE
  5
320
100
AcDbEntity
  8
ALL_ASSEMBLY_MEMBERS
100
AcDbLine
 62
7
  6
CONTINUOUS
 10
7.2458936777
 20
4.5687374707
 11
7.2501682887
 21
4.5678871977
  0
LINE
  5
321
100
AcDbEntity
  8
ALL_ASSEMBLY_MEMBERS
100
AcDbLine
 62
7
  6
CONTINUOUS
 10
7.3280311314
 20
4.4868116847
 11
7.3165806018
 21
4.4898798449
  0
LINE
  5
322
100
AcDbEntity
  8
ALL_ASSEMBLY_MEMBERS
100
AcDbLine
 62
7
  6
CONTINUOUS
 10
7.0999727646
 20
4.6339615384
 11
7.1652399678
 21
4.6716435758
  0
LINE
  5
323
100
AcDbEntity
  8
ALL_ASSEMBLY_MEMBERS
100
AcDbLine
 62
7
  6
CONTINUOUS
 10
7.1902055613
 20
4.6860574679
 11
7.2554727646
 21
4.7237395053
  0
LINE
  5
324
100
AcDbEntity
  8
ALL_ASSEMBLY_MEMBERS
100
AcDbLine
 62
7
  6
CONTINUOUS
 10
7.2447793024
 20
4.5548770337
 11
7.2317691384
 21
4.5494880474
  0
LINE
  5
325
100
AcDbEntity
  8
ALL_ASSEMBLY_MEMBERS
100
AcDbLine
 62
7
  6
CONTINUOUS
 10
7.2661662267
 20
4.5334901094
 11
7.2791763907
 21
4.5388790957
  0
LINE
  5
326
100
AcDbEntity
  8
ALL_ASSEMBLY_MEMBERS
100
AcDbLine
 62
7
  6
CONTINUOUS
 10
3.3795727277
 20
4.5984872982
 11
3.3910232574
 21
4.6015554584
  0
LINE
  5
327
100
AcDbEntity
  8
ALL_ASSEMBLY_MEMBERS
100
AcDbLine
 62
7
  6
CONTINUOUS
 10
3.3549967774
 20
4.6348108044
 11
3.3609835198
 21
4.6363018023
  0
LINE
  5
328
100
AcDbEntity
  8
ALL_ASSEMBLY_MEMBERS
100
AcDbLine
 62
7
  6
CONTINUOUS
 10
7.2227521823
 20
4.6401774905
 11
7.2297795582
 21
4.6384625817
  0
LINE
  5
329
100
AcDbEntity
  8
ALL_ASSEMBLY_MEMBERS
100
AcDbLine
 62
7
  6
CONTINUOUS
 10
7.1829143977
 20
4.6015554584
 11
7.1943649273
 21
4.5984872982
  0
LINE
  5
32A
100
AcDbEntity
  8
ALL_ASSEMBLY_MEMBERS
100
AcDbLine
 62
7
  6
CONTINUOUS
 10
7.1635982011
 20
4.5334451086
 11
7.1738644651
 21
4.5393723389
  0
LINE
  5
32B
100
AcDbEntity
  8
ALL_ASSEMBLY_MEMBERS
100
AcDbLine
 62
7
  6
CONTINUOUS
 10
7.347347328
 20
4.5549220345
 11
7.337081064
 21
4.5489948042
  0
LINE
  5
32C
100
AcDbEntity
  8
ALL_ASSEMBLY_MEMBERS
100
AcDbLine
 62
7
  6
CONTINUOUS
 10
7.2317691384
 20
4.5388790957
 11
7.2447793024
 21
4.5334901094
  0
LINE
  5
32D
100
AcDbEntity
  8
ALL_ASSEMBLY_MEMBERS
100
AcDbLine
 62
7
  6
CONTINUOUS
 10
7.2791763907
 20
4.5494880474
 11
7.2661662267
 21
4.5548770337
  0
LINE
  5
32E
100
AcDbEntity
  8
ALL_ASSEMBLY_MEMBERS
100
AcDbLine
 62
7
  6
CONTINUOUS
 10
7.0999727646
 20
4.4544056047
 11
7.1652399678
 21
4.4167235673
  0
LINE
  5
32F
100
AcDbEntity
  8
ALL_ASSEMBLY_MEMBERS
100
AcDbLine
 62
7
  6
CONTINUOUS
 10
7.1902055613
 20
4.4023096752
 11
7.2554727646
 21
4.3646276378
  0
LINE
  5
330
100
AcDbEntity
  8
ALL_ASSEMBLY_MEMBERS
100
AcDbLine
 62
7
  6
CONTINUOUS
 10
7.2911479081
 20
4.6177386301
 11
7.300552684
 21
4.6249551684
  0
LINE
  5
331
100
AcDbEntity
  8
ALL_ASSEMBLY_MEMBERS
100
AcDbLine
 62
7
  6
CONTINUOUS
 10
7.219797621
 20
4.470628513
 11
7.2103928451
 21
4.4634119747
  0
LINE
  5
332
100
AcDbEntity
  8
ALL_ASSEMBLY_MEMBERS
100
AcDbLine
 62
7
  6
CONTINUOUS
 10
7.2554727646
 20
4.3646276378
 11
7.3207399678
 21
4.4023096752
  0
LINE
  5
333
100
AcDbEntity
  8
ALL_ASSEMBLY_MEMBERS
100
AcDbLine
 62
7
  6
CONTINUOUS
 10
7.3457055613
 20
4.4167235673
 11
7.4109727646
 21
4.4544056047
  0
LINE
  5
334
100
AcDbEntity
  8
ALL_ASSEMBLY_MEMBERS
100
AcDbLine
 62
7
  6
CONTINUOUS
 10
7.1738644651
 20
4.5489948042
 11
7.1635982011
 21
4.5549220345
  0
LINE
  5
335
100
AcDbEntity
  8
ALL_ASSEMBLY_MEMBERS
100
AcDbLine
 62
7
  6
CONTINUOUS
 10
7.337081064
 20
4.5393723389
 11
7.347347328
 21
4.5334451086
  0
LINE
  5
336
100
AcDbEntity
  8
ALL_ASSEMBLY_MEMBERS
100
AcDbLine
 62
7
  6
CONTINUOUS
 10
7.2695255051
 20
4.5582363121
 11
7.2661662267
 21
4.5548770337
  0
LINE
  5
337
100
AcDbEntity
  8
ALL_ASSEMBLY_MEMBERS
100
AcDbLine
 62
7
  6
CONTINUOUS
 10
7.241420024
 20
4.530130831
 11
7.2447793024
 21
4.5334901094
  0
LINE
  5
338
100
AcDbEntity
  8
ALL_ASSEMBLY_MEMBERS
100
AcDbLine
 62
7
  6
CONTINUOUS
 10
7.2554727646
 20
4.7237395053
 11
7.3207399678
 21
4.6860574679
  0
LINE
  5
339
100
AcDbEntity
  8
ALL_ASSEMBLY_MEMBERS
100
AcDbLine
 62
7
  6
CONTINUOUS
 10
7.3457055613
 20
4.6716435758
 11
7.4109727646
 21
4.6339615384
  0
LINE
  5
33A
100
AcDbEntity
  8
ALL_ASSEMBLY_MEMBERS
100
AcDbLine
 62
7
  6
CONTINUOUS
 10
7.300552684
 20
4.4634119747
 11
7.2911479081
 21
4.470628513
  0
LINE
  5
33B
100
AcDbEntity
  8
ALL_ASSEMBLY_MEMBERS
100
AcDbLine
 62
7
  6
CONTINUOUS
 10
7.2103928451
 20
4.6249551684
 11
7.219797621
 21
4.6177386301
  0
LINE
  5
33C
100
AcDbEntity
  8
DTM-AXIS
100
AcDbLine
 62
7
  6
CONTINUOUS
 10
6.6649215834
 20
4.8070392962
 11
6.6649215834
 21
4.7970723016
  0
LINE
  5
33D
100
AcDbEntity
  8
DTM-AXIS
100
AcDbLine
 62
7
  6
CONTINUOUS
 10
6.7069498822
 20
4.8126673161
 11
6.7069498822
 21
4.8025173034
  0
LINE
  5
33E
100
AcDbEntity
  8
DTM-AXIS
100
AcDbLine
 62
7
  6
CONTINUOUS
 10
6.7136825622
 20
4.8154701371
 11
6.7136825622
 21
4.8054524612
  0
LINE
  5
33F
100
AcDbEntity
  8
ALL_ASSEMBLY_MEMBERS
100
AcDbLine
 62
7
  6
CONTINUOUS
 10
7.1747011677
 20
4.4991036521
 11
7.181917706
 21
4.508508428
  0
LINE
  5
340
100
AcDbEntity
  8
ALL_ASSEMBLY_MEMBERS
100
AcDbLine
 62
7
  6
CONTINUOUS
 10
7.3362443614
 20
4.589263491
 11
7.3290278231
 21
4.5798587151
  0
LINE
  5
341
100
AcDbEntity
  8
ALL_ASSEMBLY_MEMBERS
100
AcDbLine
 62
7
  6
CONTINUOUS
 10
7.2695255051
 20
4.530130831
 11
7.2661662267
 21
4.5334901094
  0
LINE
  5
342
100
AcDbEntity
  8
ALL_ASSEMBLY_MEMBERS
100
AcDbLine
 62
7
  6
CONTINUOUS
 10
7.241420024
 20
4.5582363121
 11
7.2447793024
 21
4.5548770337
  0
LINE
  5
343
100
AcDbEntity
  8
0
100
AcDbLine
 62
7
  6
CONTINUOUS
 10
6.9315157937
 20
4.170764069
 11
6.9646357793
 21
3.7567819967
  0
LINE
  5
344
100
AcDbEntity
  8
DTM-AXIS
100
AcDbLine
 62
7
  6
CONTINUOUS
 10
6.8986614245
 20
4.8473248035
 11
6.8986614245
 21
4.8373320593
  0
LINE
  5
345
100
AcDbEntity
  8
DTM-AXIS
100
AcDbLine
 62
7
  6
CONTINUOUS
 10
6.9121267845
 20
4.8464778176
 11
6.9121267845
 21
4.8396549693
  0
LINE
  5
346
100
AcDbEntity
  8
ALL_ASSEMBLY_MEMBERS
100
AcDbLine
 62
7
  6
CONTINUOUS
 10
7.2602839972
 20
4.625791871
 11
7.2662112275
 21
4.636058135
  0
LINE
  5
347
100
AcDbEntity
  8
ALL_ASSEMBLY_MEMBERS
100
AcDbLine
 62
7
  6
CONTINUOUS
 10
7.2506615319
 20
4.4625752721
 11
7.2447343016
 21
4.4523090081
  0
LINE
  5
348
100
AcDbEntity
  8
ALL_ASSEMBLY_MEMBERS
100
AcDbLine
 62
7
  6
CONTINUOUS
 10
7.181917706
 20
4.5798587151
 11
7.1747011677
 21
4.589263491
  0
LINE
  5
349
100
AcDbEntity
  8
ALL_ASSEMBLY_MEMBERS
100
AcDbLine
 62
7
  6
CONTINUOUS
 10
7.3290278231
 20
4.508508428
 11
7.3362443614
 21
4.4991036521
  0
LINE
  5
34A
100
AcDbEntity
  8
ALL_ASSEMBLY_MEMBERS
100
AcDbLine
 62
7
  6
CONTINUOUS
 10
7.2662112275
 20
4.4523090081
 11
7.2602839972
 21
4.4625752721
  0
LINE
  5
34B
100
AcDbEntity
  8
ALL_ASSEMBLY_MEMBERS
100
AcDbLine
 62
7
  6
CONTINUOUS
 10
7.0999727646
 20
4.4544056047
 11
7.0999727646
 21
4.5297696794
  0
LINE
  5
34C
100
AcDbEntity
  8
ALL_ASSEMBLY_MEMBERS
100
AcDbLine
 62
7
  6
CONTINUOUS
 10
7.0999727646
 20
4.5585974637
 11
7.0999727646
 21
4.6339615384
  0
LINE
  5
34D
100
AcDbEntity
  8
ALL_ASSEMBLY_MEMBERS
100
AcDbLine
 62
7
  6
CONTINUOUS
 10
7.2286876198
 20
4.6214209881
 11
7.2302349374
 21
4.6331740322
  0
LINE
  5
34E
100
AcDbEntity
  8
ALL_ASSEMBLY_MEMBERS
100
AcDbLine
 62
7
  6
CONTINUOUS
 10
7.2309188654
 20
4.5346044846
 11
7.2317691384
 21
4.5388790957
  0
LINE
  5
34F
100
AcDbEntity
  8
ALL_ASSEMBLY_MEMBERS
100
AcDbLine
 62
7
  6
CONTINUOUS
 10
7.1633688611
 20
4.5017224702
 11
7.1648327305
 21
4.5076002848
  0
LINE
  5
350
100
AcDbEntity
  8
ALL_ASSEMBLY_MEMBERS
100
AcDbLine
 62
7
  6
CONTINUOUS
 10
7.1981008777
 20
4.4716252047
 11
7.2011690379
 21
4.4830757343
  0
LINE
  5
351
100
AcDbEntity
  8
ALL_ASSEMBLY_MEMBERS
100
AcDbLine
 62
7
  6
CONTINUOUS
 10
7.3128446514
 20
4.6167419384
 11
7.3097764912
 21
4.6052914087
  0
LINE
  5
352
100
AcDbEntity
  8
ALL_ASSEMBLY_MEMBERS
100
AcDbLine
 62
7
  6
CONTINUOUS
 10
7.2501682887
 20
4.5678871977
 11
7.2447793024
 21
4.5548770337
  0
LINE
  5
353
100
AcDbEntity
  8
ALL_ASSEMBLY_MEMBERS
100
AcDbLine
 62
7
  6
CONTINUOUS
 10
7.2607772404
 20
4.5204799454
 11
7.2661662267
 21
4.5334901094
  0
LINE
  5
354
100
AcDbEntity
  8
ALL_ASSEMBLY_MEMBERS
100
AcDbLine
 62
7
  6
CONTINUOUS
 10
7.2447343016
 20
4.636058135
 11
7.2506615319
 21
4.625791871
  0
LINE
  5
355
100
AcDbEntity
  8
ALL_ASSEMBLY_MEMBERS
100
AcDbLine
 62
7
  6
CONTINUOUS
 10
7.2447793024
 20
4.5334901094
 11
7.2501682887
 21
4.5204799454
  0
LINE
  5
356
100
AcDbEntity
  8
ALL_ASSEMBLY_MEMBERS
100
AcDbLine
 62
7
  6
CONTINUOUS
 10
7.2661662267
 20
4.5548770337
 11
7.2607772404
 21
4.5678871977
  0
LINE
  5
357
100
AcDbEntity
  8
ALL_ASSEMBLY_MEMBERS
100
AcDbLine
 62
7
  6
CONTINUOUS
 10
7.2011690379
 20
4.6052914087
 11
7.1981008777
 21
4.6167419384
  0
LINE
  5
358
100
AcDbEntity
  8
ALL_ASSEMBLY_MEMBERS
100
AcDbLine
 62
7
  6
CONTINUOUS
 10
7.1648327305
 20
4.5807668583
 11
7.1633688611
 21
4.5866446729
  0
LINE
  5
359
100
AcDbEntity
  8
ALL_ASSEMBLY_MEMBERS
100
AcDbLine
 62
7
  6
CONTINUOUS
 10
7.2501682887
 20
4.5092701808
 11
7.2501682887
 21
4.5204799454
  0
LINE
  5
35A
100
AcDbEntity
  8
ALL_ASSEMBLY_MEMBERS
100
AcDbLine
 62
7
  6
CONTINUOUS
 10
7.2501682887
 20
4.5678871977
 11
7.2501682887
 21
4.5790969623
  0
LINE
  5
35B
100
AcDbEntity
  8
0
100
AcDbLine
 62
9
  6
CONTINUOUS
 10
7.2554727646
 20
4.0695009908
 11
7.2554727646
 21
3.7567819967
  0
LINE
  5
35C
100
AcDbEntity
  8
ALL_ASSEMBLY_MEMBERS
100
AcDbLine
 62
7
  6
CONTINUOUS
 10
7.2607772404
 20
4.5790969623
 11
7.2607772404
 21
4.5678871977
  0
LINE
  5
35D
100
AcDbEntity
  8
ALL_ASSEMBLY_MEMBERS
100
AcDbLine
 62
7
  6
CONTINUOUS
 10
7.2607772404
 20
4.5204799454
 11
7.2607772404
 21
4.5092701808
  0
LINE
  5
35E
100
AcDbEntity
  8
ALL_ASSEMBLY_MEMBERS
100
AcDbLine
 62
7
  6
CONTINUOUS
 10
7.2822579093
 20
4.466946155
 11
7.2807105917
 21
4.4551931109
  0
LINE
  5
35F
100
AcDbEntity
  8
ALL_ASSEMBLY_MEMBERS
100
AcDbLine
 62
7
  6
CONTINUOUS
 10
7.2800266637
 20
4.5537626584
 11
7.2791763907
 21
4.5494880474
  0
LINE
  5
360
100
AcDbEntity
  8
ALL_ASSEMBLY_MEMBERS
100
AcDbLine
 62
7
  6
CONTINUOUS
 10
7.3097764912
 20
4.4830757343
 11
7.3128446514
 21
4.4716252047
  0
LINE
  5
361
100
AcDbEntity
  8
ALL_ASSEMBLY_MEMBERS
100
AcDbLine
 62
7
  6
CONTINUOUS
 10
7.2309188654
 20
4.5537626584
 11
7.2317691384
 21
4.5494880474
  0
LINE
  5
362
100
AcDbEntity
  8
ALL_ASSEMBLY_MEMBERS
100
AcDbLine
 62
7
  6
CONTINUOUS
 10
7.2800266637
 20
4.5346044846
 11
7.2791763907
 21
4.5388790957
  0
LINE
  5
363
100
AcDbEntity
  8
ALL_ASSEMBLY_MEMBERS
100
AcDbLine
 62
7
  6
CONTINUOUS
 10
7.2302349374
 20
4.4551931109
 11
7.2286876198
 21
4.466946155
  0
LINE
  5
364
100
AcDbEntity
  8
ALL_ASSEMBLY_MEMBERS
100
AcDbLine
 62
7
  6
CONTINUOUS
 10
7.2807105917
 20
4.6331740322
 11
7.2822579093
 21
4.6214209881
  0
LINE
  5
365
100
AcDbEntity
  8
ALL_ASSEMBLY_MEMBERS
100
AcDbLine
 62
7
  6
CONTINUOUS
 10
7.4109727646
 20
4.4544056047
 11
7.4109727646
 21
4.5297696794
  0
LINE
  5
366
100
AcDbEntity
  8
ALL_ASSEMBLY_MEMBERS
100
AcDbLine
 62
7
  6
CONTINUOUS
 10
7.4109727646
 20
4.5585974637
 11
7.4109727646
 21
4.6339615384
  0
LINE
  5
367
100
AcDbEntity
  8
0
100
AcDbLine
 62
7
  6
CONTINUOUS
 10
7.649173552
 20
4.3473331778
 11
7.649173552
 21
4.7410339652
  0
LINE
  5
368
100
AcDbEntity
  8
0
100
AcDbLine
 62
7
  6
CONTINUOUS
 10
7.650673552
 20
4.6691835715
 11
7.650673552
 21
4.4191835715
  0
LINE
  5
369
100
AcDbEntity
  8
0
100
AcDbLine
 62
7
  6
CONTINUOUS
 10
7.651173552
 20
4.6191835715
 11
7.651173552
 21
4.5655665507
  0
LINE
  5
36A
100
AcDbEntity
  8
0
100
AcDbLine
 62
7
  6
CONTINUOUS
 10
7.651173552
 20
4.5641835715
 11
7.651173552
 21
4.5241835715
  0
LINE
  5
36B
100
AcDbEntity
  8
0
100
AcDbLine
 62
7
  6
CONTINUOUS
 10
7.5931030409
 20
4.3416981352
 11
7.5463097498
 21
3.7567819967
  0
LINE
  5
36C
100
AcDbEntity
  8
0
100
AcDbLine
 62
7
  6
CONTINUOUS
 10
8.0428743394
 20
4.4260733353
 11
8.0428743394
 21
4.6622938078
  0
ARC
  5
36D
100
AcDbEntity
  8
ALL_ASSEMBLY_MEMBERS
100
AcDbCircle
 62
7
  6
CONTINUOUS
 10
1.5852059803
 20
-0.6664192442
 40
5.4974143098
100
AcDbArc
 50
71.1188547481
 51
71.238042366
  0
ARC
  5
36E
100
AcDbEntity
  8
ALL_ASSEMBLY_MEMBERS
100
AcDbCircle
 62
7
  6
CONTINUOUS
 10
-1.8921379243
 20
2.8109246616
 40
5.4974143089
100
AcDbArc
 50
18.761957634
 51
18.8811452519
  0
ARC
  5
36F
100
AcDbEntity
  8
ALL_ASSEMBLY_MEMBERS
100
AcDbCircle
 62
7
  6
CONTINUOUS
 10
5.051723801
 20
-0.6664192449
 40
5.4974143105
100
AcDbArc
 50
108.761957634
 51
108.8811452519
  0
ARC
  5
370
100
AcDbEntity
  8
ALL_ASSEMBLY_MEMBERS
100
AcDbCircle
 62
7
  6
CONTINUOUS
 10
2.0448699512
 20
2.8109246622
 40
5.4974143072
100
AcDbArc
 50
18.761957634
 51
18.8811452519
  0
ARC
  5
371
100
AcDbEntity
  8
ALL_ASSEMBLY_MEMBERS
100
AcDbCircle
 62
7
  6
CONTINUOUS
 10
2.8227039631
 20
3.3469717362
 40
1.3141810563
100
AcDbArc
 50
66.6764331465
 51
67.174079531
  0
ARC
  5
372
100
AcDbEntity
  8
ALL_ASSEMBLY_MEMBERS
100
AcDbCircle
 62
7
  6
CONTINUOUS
 10
3.3215840822
 20
3.394071853
 40
1.1598888787
100
AcDbArc
 50
87.8942718356
 51
88.9411156431
  0
ARC
  5
373
100
AcDbEntity
  8
ALL_ASSEMBLY_MEMBERS
100
AcDbCircle
 62
7
  6
CONTINUOUS
 10
3.3153456989
 20
3.394071853
 40
1.1598888787
100
AcDbArc
 50
91.0588843569
 51
92.1057281644
  0
ARC
  5
374
100
AcDbEntity
  8
ALL_ASSEMBLY_MEMBERS
100
AcDbCircle
 62
7
  6
CONTINUOUS
 10
2.1280457658
 20
4.0513164423
 40
1.3067976999
100
AcDbArc
 50
22.8245146187
 51
23.3249727038
  0
ARC
  5
375
100
AcDbEntity
  8
ALL_ASSEMBLY_MEMBERS
100
AcDbCircle
 62
7
  6
CONTINUOUS
 10
2.1683564178
 20
4.5410642902
 40
1.1598856318
100
AcDbArc
 50
357.8942703704
 51
358.9411171084
  0
ARC
  5
376
100
AcDbEntity
  8
0
100
AcDbCircle
 62
7
  6
CONTINUOUS
 10
3.3184585335
 20
4.5440768958
 40
0.3246964585
100
AcDbArc
 50
251.3627921205
 51
278.9465874207
  0
ARC
  5
377
100
AcDbEntity
  8
0
100
AcDbCircle
 62
7
  6
CONTINUOUS
 10
3.3181216784
 20
4.5434614542
 40
0.3240038138
100
AcDbArc
 50
245.8818640159
 51
249.868321004
  0
ARC
  5
378
100
AcDbEntity
  8
0
100
AcDbCircle
 62
7
  6
CONTINUOUS
 10
3.3174442487
 20
4.543811496
 40
0.3237169351
100
AcDbArc
 50
201.1076526092
 51
203.5829146268
  0
ARC
  5
379
100
AcDbEntity
  8
0
100
AcDbCircle
 62
7
  6
CONTINUOUS
 10
3.3158208493
 20
4.5431238749
 40
0.3227553125
100
AcDbArc
 50
246.0503763091
 51
246.2226741137
  0
ARC
  5
37A
100
AcDbEntity
  8
0
100
AcDbCircle
 62
7
  6
CONTINUOUS
 10
3.3163238562
 20
4.5433748265
 40
0.3225144608
100
AcDbArc
 50
200.7000472687
 51
201.1069608348
  0
ARC
  5
37B
100
AcDbEntity
  8
0
100
AcDbCircle
 62
7
  6
CONTINUOUS
 10
3.3174561004
 20
4.5419494777
 40
0.3223518575
100
AcDbArc
 50
245.7000094032
 51
245.8800249711
  0
ARC
  5
37C
100
AcDbEntity
  8
0
100
AcDbCircle
 62
7
  6
CONTINUOUS
 10
3.318716044
 20
4.5422060291
 40
0.3205946577
100
AcDbArc
 50
0.3534218758
 51
20.3062143179
  0
ARC
  5
37D
100
AcDbEntity
  8
0
100
AcDbCircle
 62
7
  6
CONTINUOUS
 10
3.3193262896
 20
4.5423620047
 40
0.3199691089
100
AcDbArc
 50
24.3126125851
 51
28.3058569855
  0
ARC
  5
37E
100
AcDbEntity
  8
0
100
AcDbCircle
 62
7
  6
CONTINUOUS
 10
3.3194086731
 20
4.5424237058
 40
0.3198686292
100
AcDbArc
 50
20.3127021163
 51
24.3086162709
  0
ARC
  5
37F
100
AcDbEntity
  8
0
100
AcDbCircle
 62
7
  6
CONTINUOUS
 10
3.3199873698
 20
4.5428613204
 40
0.319146979
100
AcDbArc
 50
28.2832111886
 51
68.2459775718
  0
ARC
  5
380
100
AcDbEntity
  8
0
100
AcDbCircle
 62
7
  6
CONTINUOUS
 10
3.3201759228
 20
4.5431612827
 40
0.3187952577
100
AcDbArc
 50
68.2574714277
 51
68.8527135242
  0
ARC
  5
381
100
AcDbEntity
  8
0
100
AcDbCircle
 62
7
  6
CONTINUOUS
 10
3.3204380596
 20
4.5437936527
 40
0.3181121855
100
AcDbArc
 50
72.261580815
 51
76.2626078754
  0
ARC
  5
382
100
AcDbEntity
  8
0
100
AcDbCircle
 62
7
  6
CONTINUOUS
 10
3.320419704
 20
4.5438064211
 40
0.3181056173
100
AcDbArc
 50
68.8517444402
 51
72.2577311919
  0
ARC
  5
383
100
AcDbEntity
  8
ALL_ASSEMBLY_MEMBERS
100
AcDbCircle
 62
7
  6
CONTINUOUS
 10
3.3203060885
 20
4.5434186168
 40
0.2322110129
100
AcDbArc
 50
75.1829666853
 51
75.3794954339
  0
ARC
  5
384
100
AcDbEntity
  8
ALL_ASSEMBLY_MEMBERS
100
AcDbCircle
 62
7
  6
CONTINUOUS
 10
3.3169324689
 20
4.5369456112
 40
0.225715124
100
AcDbArc
 50
344.1221719271
 51
349.915238241
  0
ARC
  5
385
100
AcDbEntity
  8
ALL_ASSEMBLY_MEMBERS
100
AcDbCircle
 62
7
  6
CONTINUOUS
 10
3.3164330651
 20
4.5440997176
 40
0.2251013098
100
AcDbArc
 50
256.6134999698
 51
257.6099362558
  0
ARC
  5
386
100
AcDbEntity
  8
ALL_ASSEMBLY_MEMBERS
100
AcDbCircle
 62
7
  6
CONTINUOUS
 10
3.3162998358
 20
4.5434932183
 40
0.2244803498
100
AcDbArc
 50
257.6099342544
 51
258.5641353948
  0
ARC
  5
387
100
AcDbEntity
  8
ALL_ASSEMBLY_MEMBERS
100
AcDbCircle
 62
7
  6
CONTINUOUS
 10
3.3182090413
 20
4.5429709862
 40
0.2243557171
100
AcDbArc
 50
257.3217103727
 51
258.0597943329
  0
ARC
  5
388
100
AcDbEntity
  8
ALL_ASSEMBLY_MEMBERS
100
AcDbCircle
 62
7
  6
CONTINUOUS
 10
3.3197233556
 20
4.5439172776
 40
0.2243086692
100
AcDbArc
 50
347.4551030509
 51
348.0367940193
  0
ARC
  5
389
100
AcDbEntity
  8
ALL_ASSEMBLY_MEMBERS
100
AcDbCircle
 62
7
  6
CONTINUOUS
 10
3.3240008008
 20
4.5364102839
 40
0.1285936847
100
AcDbArc
 50
37.6662385118
 51
37.8524176967
  0
ARC
  5
38A
100
AcDbEntity
  8
ALL_ASSEMBLY_MEMBERS
100
AcDbCircle
 62
7
  6
CONTINUOUS
 10
3.324531964
 20
4.5368361869
 40
0.1279129352
100
AcDbArc
 50
37.8477803561
 51
45.6696871123
  0
ARC
  5
38B
100
AcDbEntity
  8
ALL_ASSEMBLY_MEMBERS
100
AcDbCircle
 62
7
  6
CONTINUOUS
 10
3.3181219242
 20
4.5439428371
 40
0.1276674139
100
AcDbArc
 50
33.2278356161
 51
33.3923224818
  0
ARC
  5
38C
100
AcDbEntity
  8
ALL_ASSEMBLY_MEMBERS
100
AcDbCircle
 62
7
  6
CONTINUOUS
 10
3.3184279562
 20
4.5441682078
 40
0.1272878657
100
AcDbArc
 50
33.3834385834
 51
41.3940500989
  0
ARC
  5
38D
100
AcDbEntity
  8
ALL_ASSEMBLY_MEMBERS
100
AcDbCircle
 62
7
  6
CONTINUOUS
 10
3.3188367261
 20
4.5437643406
 40
0.1266896309
100
AcDbArc
 50
308.9596258042
 51
311.3990126734
  0
ARC
  5
38E
100
AcDbEntity
  8
0
100
AcDbCircle
 62
7
  6
CONTINUOUS
 10
2.6098034732
 20
4.4260733353
 40
0.0787401575
100
AcDbArc
 50
180.0
 51
270.0
  0
ARC
  5
38F
100
AcDbEntity
  8
0
100
AcDbCircle
 62
7
  6
CONTINUOUS
 10
2.7279137094
 20
4.4949709731
 40
0.0688976378
100
AcDbArc
 50
180.0
 51
360.0
  0
ARC
  5
390
100
AcDbEntity
  8
ALL_ASSEMBLY_MEMBERS
100
AcDbCircle
 62
7
  6
CONTINUOUS
 10
3.411840161
 20
4.4818121227
 40
0.04
100
AcDbArc
 50
205.0218776943
 51
210.4008272528
  0
ARC
  5
391
100
AcDbEntity
  8
ALL_ASSEMBLY_MEMBERS
100
AcDbCircle
 62
7
  6
CONTINUOUS
 10
3.22508962
 20
4.4818121227
 40
0.04
100
AcDbArc
 50
329.5991727472
 51
334.9781223057
  0
ARC
  5
392
100
AcDbEntity
  8
ALL_ASSEMBLY_MEMBERS
100
AcDbCircle
 62
7
  6
CONTINUOUS
 10
3.411840161
 20
4.4818121227
 40
0.02
100
AcDbArc
 50
185.8842981878
 51
198.974875381
  0
ARC
  5
393
100
AcDbEntity
  8
ALL_ASSEMBLY_MEMBERS
100
AcDbCircle
 62
7
  6
CONTINUOUS
 10
3.22508962
 20
4.4818121227
 40
0.02
100
AcDbArc
 50
341.025124619
 51
354.1157018122
  0
ARC
  5
394
100
AcDbEntity
  8
ALL_ASSEMBLY_MEMBERS
100
AcDbCircle
 62
7
  6
CONTINUOUS
 10
3.811333413
 20
3.3537611764
 40
1.3068012547
100
AcDbArc
 50
112.8245152994
 51
113.3249720231
  0
ARC
  5
395
100
AcDbEntity
  8
ALL_ASSEMBLY_MEMBERS
100
AcDbCircle
 62
7
  6
CONTINUOUS
 10
4.5156799139
 20
4.0484212859
 40
1.3141845215
100
AcDbArc
 50
156.6764338026
 51
157.1740788749
  0
ARC
  5
396
100
AcDbEntity
  8
ALL_ASSEMBLY_MEMBERS
100
AcDbCircle
 62
7
  6
CONTINUOUS
 10
4.4685733633
 20
4.5410642902
 40
1.1598856318
100
AcDbArc
 50
181.0588828916
 51
182.1057296296
  0
ARC
  5
397
100
AcDbEntity
  8
0
100
AcDbCircle
 62
9
  6
CONTINUOUS
 10
5.1079309686
 20
4.4268796818
 40
0.352192418
100
AcDbArc
 50
95.2627018071
 51
97.1486747824
  0
ARC
  5
398
100
AcDbEntity
  8
DTM-AXIS
100
AcDbCircle
 62
7
  6
CONTINUOUS
 10
3.8504133343
 20
4.5311773008
 40
0.282017945
100
AcDbArc
 50
78.006665185
 51
80.2700243365
  0
ARC
  5
399
100
AcDbEntity
  8
DTM-AXIS
100
AcDbCircle
 62
7
  6
CONTINUOUS
 10
3.85175815
 20
4.5397969317
 40
0.2732950569
100
AcDbArc
 50
80.2424995569
 51
86.8054842235
  0
ARC
  5
39A
100
AcDbEntity
  8
DTM-AXIS
100
AcDbCircle
 62
7
  6
CONTINUOUS
 10
3.854493925
 20
4.5418326019
 40
0.2609839264
100
AcDbArc
 50
80.2319584194
 51
87.2560821282
  0
ARC
  5
39B
100
AcDbEntity
  8
0
100
AcDbCircle
 62
7
  6
CONTINUOUS
 10
5.2869098447
 20
4.5441608478
 40
0.2063097599
100
AcDbArc
 50
1.3812439405
 51
15.2540760203
  0
ARC
  5
39C
100
AcDbEntity
  8
0
100
AcDbCircle
 62
7
  6
CONTINUOUS
 10
5.2862519073
 20
4.5414533724
 40
0.1979729736
100
AcDbArc
 50
151.3287275208
 51
179.2098327605
  0
ARC
  5
39D
100
AcDbEntity
  8
0
100
AcDbCircle
 62
7
  6
CONTINUOUS
 10
5.2850316393
 20
4.5420300467
 40
0.1966246525
100
AcDbArc
 50
150.4936365341
 51
151.3055620066
  0
ARC
  5
39E
100
AcDbEntity
  8
0
100
AcDbCircle
 62
7
  6
CONTINUOUS
 10
5.28503394
 20
4.5421208318
 40
0.1965819576
100
AcDbArc
 50
123.3976537991
 51
150.5169951735
  0
ARC
  5
39F
100
AcDbEntity
  8
0
100
AcDbCircle
 62
7
  6
CONTINUOUS
 10
5.2842569824
 20
4.5433600881
 40
0.1951171063
100
AcDbArc
 50
90.576336909
 51
123.4074866136
  0
ARC
  5
3A0
100
AcDbEntity
  8
0
100
AcDbCircle
 62
9
  6
CONTINUOUS
 10
5.0254049546
 20
4.2595438376
 40
0.0716813791
100
AcDbArc
 50
60.2439676341
 51
72.7961164427
  0
ARC
  5
3A1
100
AcDbEntity
  8
0
100
AcDbCircle
 62
9
  6
CONTINUOUS
 10
5.0269791998
 20
4.2622429422
 40
0.0685568556
100
AcDbArc
 50
47.461917971
 51
60.2666067269
  0
ARC
  5
3A2
100
AcDbEntity
  8
0
100
AcDbCircle
 62
7
  6
CONTINUOUS
 10
5.1474688275
 20
4.2183276399
 40
0.058996539
100
AcDbArc
 50
0.0
 51
66.8240730632
  0
ARC
  5
3A3
100
AcDbEntity
  8
0
100
AcDbCircle
 62
7
  6
CONTINUOUS
 10
5.2264688275
 20
4.2151842772
 40
0.0395
100
AcDbArc
 50
180.0
 51
259.5802338725
  0
ARC
  5
3A4
100
AcDbEntity
  8
0
100
AcDbCircle
 62
7
  6
CONTINUOUS
 10
5.1474688275
 20
4.2183276399
 40
0.0395
100
AcDbArc
 50
0.0
 51
66.8240730632
  0
ARC
  5
3A5
100
AcDbEntity
  8
0
100
AcDbCircle
 62
7
  6
CONTINUOUS
 10
5.2264688275
 20
4.2151842772
 40
0.0199993005
100
AcDbArc
 50
180.0
 51
259.5802338725
  0
ARC
  5
3A6
100
AcDbEntity
  8
ALL_ASSEMBLY_MEMBERS
100
AcDbCircle
 62
7
  6
CONTINUOUS
 10
-1.8921379243
 20
6.2774424815
 40
5.4974143089
100
AcDbArc
 50
341.1188547481
 51
341.238042366
  0
ARC
  5
3A7
100
AcDbEntity
  8
ALL_ASSEMBLY_MEMBERS
100
AcDbCircle
 62
7
  6
CONTINUOUS
 10
1.5852059801
 20
9.7547863878
 40
5.4974143103
100
AcDbArc
 50
288.761957634
 51
288.8811452519
  0
ARC
  5
3A8
100
AcDbEntity
  8
ALL_ASSEMBLY_MEMBERS
100
AcDbCircle
 62
7
  6
CONTINUOUS
 10
2.1683564178
 20
4.5473028528
 40
1.1598856318
100
AcDbArc
 50
1.0588828916
 51
2.1057296296
  0
ARC
  5
3A9
100
AcDbEntity
  8
0
100
AcDbCircle
 62
7
  6
CONTINUOUS
 10
2.6098034732
 20
4.6622938078
 40
0.0787401575
100
AcDbArc
 50
90.0
 51
180.0
  0
ARC
  5
3AA
100
AcDbEntity
  8
0
100
AcDbCircle
 62
7
  6
CONTINUOUS
 10
2.7279137094
 20
4.59339617
 40
0.0688976378
100
AcDbArc
 50
0.0
 51
180.0
  0
ARC
  5
3AB
100
AcDbEntity
  8
ALL_ASSEMBLY_MEMBERS
100
AcDbCircle
 62
7
  6
CONTINUOUS
 10
2.1212498671
 20
5.0399458572
 40
1.3141845216
100
AcDbArc
 50
336.6764338026
 51
337.1740788749
  0
ARC
  5
3AC
100
AcDbEntity
  8
0
100
AcDbCircle
 62
7
  6
CONTINUOUS
 10
3.316892635
 20
4.5457770585
 40
0.3256174911
100
AcDbArc
 50
249.8421656298
 51
253.6072248825
  0
ARC
  5
3AD
100
AcDbEntity
  8
0
100
AcDbCircle
 62
7
  6
CONTINUOUS
 10
3.3156648968
 20
4.5510980291
 40
0.324714498
100
AcDbArc
 50
204.8865702134
 51
205.7093237733
  0
ARC
  5
3AE
100
AcDbEntity
  8
0
100
AcDbCircle
 62
7
  6
CONTINUOUS
 10
3.3165004652
 20
4.5447171057
 40
0.3244873191
100
AcDbArc
 50
246.2262822378
 51
249.8426742588
  0
ARC
  5
3AF
100
AcDbEntity
  8
0
100
AcDbCircle
 62
7
  6
CONTINUOUS
 10
3.3164812337
 20
4.5442542015
 40
0.3240349294
100
AcDbArc
 50
253.6033763731
 51
277.1595911003
  0
ARC
  5
3B0
100
AcDbEntity
  8
0
100
AcDbCircle
 62
7
  6
CONTINUOUS
 10
3.3147751981
 20
4.5506944158
 40
0.3237375647
100
AcDbArc
 50
202.3143072548
 51
204.8880340272
  0
ARC
  5
3B1
100
AcDbEntity
  8
0
100
AcDbCircle
 62
7
  6
CONTINUOUS
 10
3.3139315425
 20
4.5503446083
 40
0.3228242689
100
AcDbArc
 50
202.0074043145
 51
202.3137238929
  0
ARC
  5
3B2
100
AcDbEntity
  8
0
100
AcDbCircle
 62
7
  6
CONTINUOUS
 10
3.3116398504
 20
4.5471358552
 40
0.31894964
100
AcDbArc
 50
247.0035520481
 51
252.7055479033
  0
ARC
  5
3B3
100
AcDbEntity
  8
0
100
AcDbCircle
 62
7
  6
CONTINUOUS
 10
3.3115470917
 20
4.5468429149
 40
0.3186423682
100
AcDbArc
 50
252.7058138461
 51
252.8859551406
  0
ARC
  5
3B4
100
AcDbEntity
  8
0
100
AcDbCircle
 62
7
  6
CONTINUOUS
 10
3.3114055354
 20
4.5465783174
 40
0.3183448695
100
AcDbArc
 50
245.6438158331
 51
247.0031701651
  0
ARC
  5
3B5
100
AcDbEntity
  8
0
100
AcDbCircle
 62
7
  6
CONTINUOUS
 10
3.3110239572
 20
4.54472837
 40
0.3164651416
100
AcDbArc
 50
252.8638154666
 51
278.1031962384
  0
ARC
  5
3B6
100
AcDbEntity
  8
ALL_ASSEMBLY_MEMBERS
100
AcDbCircle
 62
7
  6
CONTINUOUS
 10
3.3177594976
 20
4.5444134224
 40
0.2263347698
100
AcDbArc
 50
340.4212604309
 51
342.2445308325
  0
ARC
  5
3B7
100
AcDbEntity
  8
ALL_ASSEMBLY_MEMBERS
100
AcDbCircle
 62
7
  6
CONTINUOUS
 10
3.3176025021
 20
4.5466014271
 40
0.1322136468
100
AcDbArc
 50
181.0478305869
 51
218.4821982468
  0
ARC
  5
3B8
100
AcDbEntity
  8
ALL_ASSEMBLY_MEMBERS
100
AcDbCircle
 62
7
  6
CONTINUOUS
 10
3.3182097093
 20
4.5445493454
 40
0.1276944335
100
AcDbArc
 50
303.2550096353
 51
307.3160454135
  0
ARC
  5
3B9
100
AcDbEntity
  8
ALL_ASSEMBLY_MEMBERS
100
AcDbCircle
 62
7
  6
CONTINUOUS
 10
3.3184078129
 20
4.5442891144
 40
0.1273673782
100
AcDbArc
 50
307.3161364662
 51
308.961224988
  0
ARC
  5
3BA
100
AcDbEntity
  8
ALL_ASSEMBLY_MEMBERS
100
AcDbCircle
 62
7
  6
CONTINUOUS
 10
3.2581262673
 20
4.599518015
 40
0.02
100
AcDbArc
 50
150.1388857292
 51
178.853228133
  0
ARC
  5
3BB
100
AcDbEntity
  8
ALL_ASSEMBLY_MEMBERS
100
AcDbCircle
 62
7
  6
CONTINUOUS
 10
3.2581262673
 20
4.599518015
 40
0.02
100
AcDbArc
 50
96.1252274213
 51
124.5963507672
  0
CIRCLE
  5
3BC
100
AcDbEntity
  8
0
100
AcDbCircle
 62
7
  6
CONTINUOUS
 10
3.3184648905
 20
4.5441835715
 40
0.3937007874
  0
CIRCLE
  5
3BD
100
AcDbEntity
  8
0
100
AcDbCircle
 62
7
  6
CONTINUOUS
 10
3.3184648905
 20
4.5441835715
 40
0.374015748
  0
CIRCLE
  5
3BE
100
AcDbEntity
  8
0
100
AcDbCircle
 62
7
  6
CONTINUOUS
 10
3.3184648905
 20
4.5441835715
 40
0.3346456693
  0
ARC
  5
3BF
100
AcDbEntity
  8
0
100
AcDbCircle
 62
7
  6
CONTINUOUS
 10
3.3187728716
 20
4.5451670023
 40
0.3258292877
100
AcDbArc
 50
249.8640313504
 51
251.3716751426
  0
ARC
  5
3C0
100
AcDbEntity
  8
0
100
AcDbCircle
 62
7
  6
CONTINUOUS
 10
3.3188327233
 20
4.5444069139
 40
0.3252276595
100
AcDbArc
 50
203.5811872421
 51
204.8320351221
  0
ARC
  5
3C1
100
AcDbEntity
  8
0
100
AcDbCircle
 62
7
  6
CONTINUOUS
 10
3.3184648905
 20
4.5441835715
 40
0.3248031496
100
AcDbArc
 50
200.6999999988
 51
245.699999999
  0
ARC
  5
3C2
100
AcDbEntity
  8
0
100
AcDbCircle
 62
7
  6
CONTINUOUS
 10
3.3194262191
 20
4.5460911233
 40
0.315567995
100
AcDbArc
 50
170.034879967
 51
180.3463447877
  0
ARC
  5
3C3
100
AcDbEntity
  8
0
100
AcDbCircle
 62
7
  6
CONTINUOUS
 10
3.3184648905
 20
4.5441835715
 40
0.3149606299
100
AcDbArc
 50
180.0
 51
169.6656555152
  0
ARC
  5
3C4
100
AcDbEntity
  8
ALL_ASSEMBLY_MEMBERS
100
AcDbCircle
 62
7
  6
CONTINUOUS
 10
3.3184648905
 20
4.5441835715
 40
0.23625
100
AcDbArc
 50
311.0065992274
 51
310.6997096313
  0
ARC
  5
3C5
100
AcDbEntity
  8
ALL_ASSEMBLY_MEMBERS
100
AcDbCircle
 62
7
  6
CONTINUOUS
 10
3.318922759
 20
4.5461362042
 40
0.2287672936
100
AcDbArc
 50
165.6751141129
 51
180.4890515209
  0
ARC
  5
3C6
100
AcDbEntity
  8
ALL_ASSEMBLY_MEMBERS
100
AcDbCircle
 62
7
  6
CONTINUOUS
 10
3.3186831707
 20
4.5448559593
 40
0.2262997794
100
AcDbArc
 50
250.4261011481
 51
251.3984903445
  0
ARC
  5
3C7
100
AcDbEntity
  8
ALL_ASSEMBLY_MEMBERS
100
AcDbCircle
 62
7
  6
CONTINUOUS
 10
3.3185232192
 20
4.5443201304
 40
0.225740921
100
AcDbArc
 50
251.3935853485
 51
257.3190676891
  0
ARC
  5
3C8
100
AcDbEntity
  8
ALL_ASSEMBLY_MEMBERS
100
AcDbCircle
 62
7
  6
CONTINUOUS
 10
3.3184648905
 20
4.5441835715
 40
0.2255949998
100
AcDbArc
 50
258.0599363234
 51
348.0368826088
  0
ARC
  5
3C9
100
AcDbEntity
  8
ALL_ASSEMBLY_MEMBERS
100
AcDbCircle
 62
7
  6
CONTINUOUS
 10
3.3184728556
 20
4.5442047372
 40
0.2255917526
100
AcDbArc
 50
342.2397566705
 51
347.4528216927
  0
CIRCLE
  5
3CA
100
AcDbEntity
  8
ALL_ASSEMBLY_MEMBERS
100
AcDbCircle
 62
7
  6
CONTINUOUS
 10
3.3184648905
 20
4.5441835715
 40
0.22125
  0
ARC
  5
3CB
100
AcDbEntity
  8
ALL_ASSEMBLY_MEMBERS
100
AcDbCircle
 62
7
  6
CONTINUOUS
 10
3.3184648905
 20
4.5441835715
 40
0.1595559337
100
AcDbArc
 50
282.9464553575
 51
317.0535446425
  0
ARC
  5
3CC
100
AcDbEntity
  8
ALL_ASSEMBLY_MEMBERS
100
AcDbCircle
 62
7
  6
CONTINUOUS
 10
3.3184648905
 20
4.5441835715
 40
0.1595559337
100
AcDbArc
 50
222.9464553575
 51
257.0535446425
  0
ARC
  5
3CD
100
AcDbEntity
  8
ALL_ASSEMBLY_MEMBERS
100
AcDbCircle
 62
7
  6
CONTINUOUS
 10
3.3184648905
 20
4.5441835715
 40
0.1595559337
100
AcDbArc
 50
102.9464553575
 51
137.0535446425
  0
ARC
  5
3CE
100
AcDbEntity
  8
ALL_ASSEMBLY_MEMBERS
100
AcDbCircle
 62
7
  6
CONTINUOUS
 10
3.3184648905
 20
4.5441835715
 40
0.1595559337
100
AcDbArc
 50
42.9464553575
 51
77.0535446425
  0
ARC
  5
3CF
100
AcDbEntity
  8
ALL_ASSEMBLY_MEMBERS
100
AcDbCircle
 62
7
  6
CONTINUOUS
 10
3.3184648905
 20
4.5441835715
 40
0.1595559337
100
AcDbArc
 50
162.9464553575
 51
197.0535446425
  0
ARC
  5
3D0
100
AcDbEntity
  8
ALL_ASSEMBLY_MEMBERS
100
AcDbCircle
 62
7
  6
CONTINUOUS
 10
3.3184648905
 20
4.5441835715
 40
0.1595559337
100
AcDbArc
 50
342.9464553575
 51
17.0535446425
  0
CIRCLE
  5
3D1
100
AcDbEntity
  8
ALL_ASSEMBLY_MEMBERS
100
AcDbCircle
 62
7
  6
CONTINUOUS
 10
3.3184648905
 20
4.5441835715
 40
0.15625
  0
ARC
  5
3D2
100
AcDbEntity
  8
ALL_ASSEMBLY_MEMBERS
100
AcDbCircle
 62
7
  6
CONTINUOUS
 10
3.3184648905
 20
4.5441835715
 40
0.14075
100
AcDbArc
 50
7.9667569308
 51
5.9200164875
  0
ARC
  5
3D3
100
AcDbEntity
  8
ALL_ASSEMBLY_MEMBERS
100
AcDbCircle
 62
7
  6
CONTINUOUS
 10
3.3184648905
 20
4.5441835715
 40
0.1272499999
100
AcDbArc
 50
311.3997714769
 51
41.3998569654
  0
CIRCLE
  5
3D4
100
AcDbEntity
  8
ALL_ASSEMBLY_MEMBERS
100
AcDbCircle
 62
7
  6
CONTINUOUS
 10
3.3184648905
 20
4.5441835715
 40
0.12075
  0
CIRCLE
  5
3D5
100
AcDbEntity
  8
ALL_ASSEMBLY_MEMBERS
100
AcDbCircle
 62
7
  6
CONTINUOUS
 10
3.3184648905
 20
4.5441835715
 40
0.1015
  0
CIRCLE
  5
3D6
100
AcDbEntity
  8
ALL_ASSEMBLY_MEMBERS
100
AcDbCircle
 62
7
  6
CONTINUOUS
 10
3.3184648905
 20
4.5441835715
 40
0.09775
  0
ARC
  5
3D7
100
AcDbEntity
  8
ALL_ASSEMBLY_MEMBERS
100
AcDbCircle
 62
7
  6
CONTINUOUS
 10
3.3184648905
 20
4.5441835715
 40
0.0925
100
AcDbArc
 50
141.6665846093
 51
150.8334153907
  0
ARC
  5
3D8
100
AcDbEntity
  8
ALL_ASSEMBLY_MEMBERS
100
AcDbCircle
 62
7
  6
CONTINUOUS
 10
3.3184648905
 20
4.5441835715
 40
0.0925
100
AcDbArc
 50
119.1665846093
 51
128.3334153907
  0
ARC
  5
3D9
100
AcDbEntity
  8
ALL_ASSEMBLY_MEMBERS
100
AcDbCircle
 62
7
  6
CONTINUOUS
 10
3.3184648905
 20
4.5441835715
 40
0.0925
100
AcDbArc
 50
96.6665846093
 51
105.8334153907
  0
ARC
  5
3DA
100
AcDbEntity
  8
ALL_ASSEMBLY_MEMBERS
100
AcDbCircle
 62
7
  6
CONTINUOUS
 10
3.3184648905
 20
4.5441835715
 40
0.0925
100
AcDbArc
 50
74.1665846093
 51
83.3334153907
  0
ARC
  5
3DB
100
AcDbEntity
  8
ALL_ASSEMBLY_MEMBERS
100
AcDbCircle
 62
7
  6
CONTINUOUS
 10
3.3184648905
 20
4.5441835715
 40
0.0925
100
AcDbArc
 50
51.6665846093
 51
60.8334153907
  0
ARC
  5
3DC
100
AcDbEntity
  8
ALL_ASSEMBLY_MEMBERS
100
AcDbCircle
 62
7
  6
CONTINUOUS
 10
3.3184648905
 20
4.5441835715
 40
0.0925
100
AcDbArc
 50
29.1665846093
 51
38.3334153907
  0
ARC
  5
3DD
100
AcDbEntity
  8
ALL_ASSEMBLY_MEMBERS
100
AcDbCircle
 62
7
  6
CONTINUOUS
 10
3.3184648905
 20
4.5441835715
 40
0.0925
100
AcDbArc
 50
6.6665846093
 51
15.8334153907
  0
ARC
  5
3DE
100
AcDbEntity
  8
ALL_ASSEMBLY_MEMBERS
100
AcDbCircle
 62
7
  6
CONTINUOUS
 10
3.3184648905
 20
4.5441835715
 40
0.0925
100
AcDbArc
 50
164.1665846093
 51
173.3334153907
  0
ARC
  5
3DF
100
AcDbEntity
  8
ALL_ASSEMBLY_MEMBERS
100
AcDbCircle
 62
7
  6
CONTINUOUS
 10
3.3184648905
 20
4.5441835715
 40
0.0925
100
AcDbArc
 50
344.1665846093
 51
353.3334153907
  0
ARC
  5
3E0
100
AcDbEntity
  8
ALL_ASSEMBLY_MEMBERS
100
AcDbCircle
 62
7
  6
CONTINUOUS
 10
3.3184648905
 20
4.5441835715
 40
0.0925
100
AcDbArc
 50
321.6665846093
 51
330.8334153907
  0
ARC
  5
3E1
100
AcDbEntity
  8
ALL_ASSEMBLY_MEMBERS
100
AcDbCircle
 62
7
  6
CONTINUOUS
 10
3.3184648905
 20
4.5441835715
 40
0.0925
100
AcDbArc
 50
299.1665846093
 51
308.3334153907
  0
ARC
  5
3E2
100
AcDbEntity
  8
ALL_ASSEMBLY_MEMBERS
100
AcDbCircle
 62
7
  6
CONTINUOUS
 10
3.3184648905
 20
4.5441835715
 40
0.0925
100
AcDbArc
 50
276.6665846093
 51
285.8334153907
  0
ARC
  5
3E3
100
AcDbEntity
  8
ALL_ASSEMBLY_MEMBERS
100
AcDbCircle
 62
7
  6
CONTINUOUS
 10
3.3184648905
 20
4.5441835715
 40
0.0925
100
AcDbArc
 50
254.1665846093
 51
263.3334153907
  0
ARC
  5
3E4
100
AcDbEntity
  8
ALL_ASSEMBLY_MEMBERS
100
AcDbCircle
 62
7
  6
CONTINUOUS
 10
3.3184648905
 20
4.5441835715
 40
0.0925
100
AcDbArc
 50
231.6665846093
 51
240.8334153907
  0
ARC
  5
3E5
100
AcDbEntity
  8
ALL_ASSEMBLY_MEMBERS
100
AcDbCircle
 62
7
  6
CONTINUOUS
 10
3.3184648905
 20
4.5441835715
 40
0.0925
100
AcDbArc
 50
209.1665846093
 51
218.3334153907
  0
ARC
  5
3E6
100
AcDbEntity
  8
ALL_ASSEMBLY_MEMBERS
100
AcDbCircle
 62
7
  6
CONTINUOUS
 10
3.3184648905
 20
4.5441835715
 40
0.0925
100
AcDbArc
 50
186.6665846093
 51
195.8334153907
  0
ARC
  5
3E7
100
AcDbEntity
  8
ALL_ASSEMBLY_MEMBERS
100
AcDbCircle
 62
7
  6
CONTINUOUS
 10
3.3184648905
 20
4.5441835715
 40
0.08175
100
AcDbArc
 50
154.1260218921
 51
160.8739781079
  0
ARC
  5
3E8
100
AcDbEntity
  8
ALL_ASSEMBLY_MEMBERS
100
AcDbCircle
 62
7
  6
CONTINUOUS
 10
3.3184648905
 20
4.5441835715
 40
0.08175
100
AcDbArc
 50
131.6260218921
 51
138.3739781079
  0
ARC
  5
3E9
100
AcDbEntity
  8
ALL_ASSEMBLY_MEMBERS
100
AcDbCircle
 62
7
  6
CONTINUOUS
 10
3.3184648905
 20
4.5441835715
 40
0.08175
100
AcDbArc
 50
109.1260218921
 51
115.8739781079
  0
ARC
  5
3EA
100
AcDbEntity
  8
ALL_ASSEMBLY_MEMBERS
100
AcDbCircle
 62
7
  6
CONTINUOUS
 10
3.3184648905
 20
4.5441835715
 40
0.08175
100
AcDbArc
 50
86.6260218921
 51
93.3739781079
  0
ARC
  5
3EB
100
AcDbEntity
  8
ALL_ASSEMBLY_MEMBERS
100
AcDbCircle
 62
7
  6
CONTINUOUS
 10
3.3184648905
 20
4.5441835715
 40
0.08175
100
AcDbArc
 50
64.1260218921
 51
70.8739781079
  0
ARC
  5
3EC
100
AcDbEntity
  8
ALL_ASSEMBLY_MEMBERS
100
AcDbCircle
 62
7
  6
CONTINUOUS
 10
3.3184648905
 20
4.5441835715
 40
0.08175
100
AcDbArc
 50
41.6260218921
 51
48.3739781079
  0
ARC
  5
3ED
100
AcDbEntity
  8
ALL_ASSEMBLY_MEMBERS
100
AcDbCircle
 62
7
  6
CONTINUOUS
 10
3.3184648905
 20
4.5441835715
 40
0.08175
100
AcDbArc
 50
19.1260218921
 51
25.8739781079
  0
ARC
  5
3EE
100
AcDbEntity
  8
ALL_ASSEMBLY_MEMBERS
100
AcDbCircle
 62
7
  6
CONTINUOUS
 10
3.3184648905
 20
4.5441835715
 40
0.08175
100
AcDbArc
 50
356.6260218921
 51
3.3739781079
  0
ARC
  5
3EF
100
AcDbEntity
  8
ALL_ASSEMBLY_MEMBERS
100
AcDbCircle
 62
7
  6
CONTINUOUS
 10
3.3184648905
 20
4.5441835715
 40
0.08175
100
AcDbArc
 50
334.1260218921
 51
340.8739781079
  0
ARC
  5
3F0
100
AcDbEntity
  8
ALL_ASSEMBLY_MEMBERS
100
AcDbCircle
 62
7
  6
CONTINUOUS
 10
3.3184648905
 20
4.5441835715
 40
0.08175
100
AcDbArc
 50
311.6260218921
 51
318.3739781079
  0
ARC
  5
3F1
100
AcDbEntity
  8
ALL_ASSEMBLY_MEMBERS
100
AcDbCircle
 62
7
  6
CONTINUOUS
 10
3.3184648905
 20
4.5441835715
 40
0.08175
100
AcDbArc
 50
289.1260218921
 51
295.8739781079
  0
ARC
  5
3F2
100
AcDbEntity
  8
ALL_ASSEMBLY_MEMBERS
100
AcDbCircle
 62
7
  6
CONTINUOUS
 10
3.3184648905
 20
4.5441835715
 40
0.08175
100
AcDbArc
 50
266.6260218921
 51
273.3739781079
  0
ARC
  5
3F3
100
AcDbEntity
  8
ALL_ASSEMBLY_MEMBERS
100
AcDbCircle
 62
7
  6
CONTINUOUS
 10
3.3184648905
 20
4.5441835715
 40
0.08175
100
AcDbArc
 50
244.1260218921
 51
250.8739781079
  0
ARC
  5
3F4
100
AcDbEntity
  8
ALL_ASSEMBLY_MEMBERS
100
AcDbCircle
 62
7
  6
CONTINUOUS
 10
3.3184648905
 20
4.5441835715
 40
0.08175
100
AcDbArc
 50
221.6260218921
 51
228.3739781079
  0
ARC
  5
3F5
100
AcDbEntity
  8
ALL_ASSEMBLY_MEMBERS
100
AcDbCircle
 62
7
  6
CONTINUOUS
 10
3.3184648905
 20
4.5441835715
 40
0.08175
100
AcDbArc
 50
199.1260218921
 51
205.8739781079
  0
ARC
  5
3F6
100
AcDbEntity
  8
ALL_ASSEMBLY_MEMBERS
100
AcDbCircle
 62
7
  6
CONTINUOUS
 10
3.3184648905
 20
4.5441835715
 40
0.08175
100
AcDbArc
 50
176.6260218921
 51
183.3739781079
  0
CIRCLE
  5
3F7
100
AcDbEntity
  8
ALL_ASSEMBLY_MEMBERS
100
AcDbCircle
 62
7
  6
CONTINUOUS
 10
3.3184648905
 20
4.5441835715
 40
0.0787401575
  0
CIRCLE
  5
3F8
100
AcDbEntity
  8
ALL_ASSEMBLY_MEMBERS
100
AcDbCircle
 62
9
  6
CONTINUOUS
 10
3.3184648905
 20
4.5441835715
 40
0.0747856107
  0
ARC
  5
3F9
100
AcDbEntity
  8
ALL_ASSEMBLY_MEMBERS
100
AcDbCircle
 62
7
  6
CONTINUOUS
 10
3.3184648905
 20
4.5441835715
 40
0.0466136043
100
AcDbArc
 50
168.8752303572
 51
191.1247696428
  0
ARC
  5
3FA
100
AcDbEntity
  8
ALL_ASSEMBLY_MEMBERS
100
AcDbCircle
 62
7
  6
CONTINUOUS
 10
3.3184648905
 20
4.5441835715
 40
0.0466136043
100
AcDbArc
 50
258.8752303572
 51
281.1247696428
  0
ARC
  5
3FB
100
AcDbEntity
  8
ALL_ASSEMBLY_MEMBERS
100
AcDbCircle
 62
7
  6
CONTINUOUS
 10
3.3184648905
 20
4.5441835715
 40
0.0466136043
100
AcDbArc
 50
348.8752303572
 51
11.1247696428
  0
ARC
  5
3FC
100
AcDbEntity
  8
ALL_ASSEMBLY_MEMBERS
100
AcDbCircle
 62
7
  6
CONTINUOUS
 10
3.3184648905
 20
4.5441835715
 40
0.0466136043
100
AcDbArc
 50
78.8752303572
 51
101.1247696428
  0
ARC
  5
3FD
100
AcDbEntity
  8
ALL_ASSEMBLY_MEMBERS
100
AcDbCircle
 62
7
  6
CONTINUOUS
 10
3.3184648905
 20
4.5441835715
 40
0.0353140527
100
AcDbArc
 50
261.3609822788
 51
278.6390177212
  0
ARC
  5
3FE
100
AcDbEntity
  8
ALL_ASSEMBLY_MEMBERS
100
AcDbCircle
 62
7
  6
CONTINUOUS
 10
3.3184648905
 20
4.5441835715
 40
0.0353140527
100
AcDbArc
 50
171.3609822788
 51
188.6390177212
  0
ARC
  5
3FF
100
AcDbEntity
  8
ALL_ASSEMBLY_MEMBERS
100
AcDbCircle
 62
7
  6
CONTINUOUS
 10
3.3184648905
 20
4.5441835715
 40
0.0353140527
100
AcDbArc
 50
81.3609822788
 51
98.6390177212
  0
ARC
  5
400
100
AcDbEntity
  8
ALL_ASSEMBLY_MEMBERS
100
AcDbCircle
 62
7
  6
CONTINUOUS
 10
3.3184648905
 20
4.5441835715
 40
0.0353140527
100
AcDbArc
 50
351.3609822788
 51
8.6390177212
  0
ARC
  5
401
100
AcDbEntity
  8
ALL_ASSEMBLY_MEMBERS
100
AcDbCircle
 62
7
  6
CONTINUOUS
 10
3.3788035137
 20
4.599518015
 40
0.02
100
AcDbArc
 50
55.4036492329
 51
83.8747725787
  0
ARC
  5
402
100
AcDbEntity
  8
ALL_ASSEMBLY_MEMBERS
100
AcDbCircle
 62
7
  6
CONTINUOUS
 10
3.3788035137
 20
4.599518015
 40
0.02
100
AcDbArc
 50
1.146771867
 51
29.8611142707
  0
ARC
  5
403
100
AcDbEntity
  8
ALL_ASSEMBLY_MEMBERS
100
AcDbCircle
 62
7
  6
CONTINUOUS
 10
2.0448699471
 20
6.2774424823
 40
5.4974143116
100
AcDbArc
 50
341.1188547481
 51
341.238042366
  0
ARC
  5
404
100
AcDbEntity
  8
ALL_ASSEMBLY_MEMBERS
100
AcDbCircle
 62
7
  6
CONTINUOUS
 10
2.8255963681
 20
5.7346059666
 40
1.3068012547
100
AcDbArc
 50
292.8245152994
 51
293.3249720231
  0
ARC
  5
405
100
AcDbEntity
  8
ALL_ASSEMBLY_MEMBERS
100
AcDbCircle
 62
7
  6
CONTINUOUS
 10
3.3153456989
 20
5.6942952901
 40
1.1598888787
100
AcDbArc
 50
267.8942718356
 51
268.9411156431
  0
ARC
  5
406
100
AcDbEntity
  8
ALL_ASSEMBLY_MEMBERS
100
AcDbCircle
 62
7
  6
CONTINUOUS
 10
3.3215840822
 20
5.69429529
 40
1.1598888786
100
AcDbArc
 50
271.0588843569
 51
272.1057281644
  0
ARC
  5
407
100
AcDbEntity
  8
ALL_ASSEMBLY_MEMBERS
100
AcDbCircle
 62
7
  6
CONTINUOUS
 10
4.5088840152
 20
5.0370507008
 40
1.3067976999
100
AcDbArc
 50
202.8245146187
 51
203.3249727038
  0
ARC
  5
408
100
AcDbEntity
  8
ALL_ASSEMBLY_MEMBERS
100
AcDbCircle
 62
7
  6
CONTINUOUS
 10
4.4685733633
 20
4.5473028528
 40
1.1598856318
100
AcDbArc
 50
177.8942703704
 51
178.9411171084
  0
ARC
  5
409
100
AcDbEntity
  8
0
100
AcDbCircle
 62
9
  6
CONTINUOUS
 10
5.1127135072
 20
4.710127512
 40
0.4010660101
100
AcDbArc
 50
264.2996063883
 51
264.7053983061
  0
ARC
  5
40A
100
AcDbEntity
  8
0
100
AcDbCircle
 62
9
  6
CONTINUOUS
 10
5.213784759
 20
4.6512804826
 40
0.3829189017
100
AcDbArc
 50
232.3270635235
 51
237.0720305633
  0
ARC
  5
40B
100
AcDbEntity
  8
0
100
AcDbCircle
 62
9
  6
CONTINUOUS
 10
5.1082309962
 20
4.6656808541
 40
0.3563939163
100
AcDbArc
 50
263.0052385439
 51
264.3069388506
  0
ARC
  5
40C
100
AcDbEntity
  8
0
100
AcDbCircle
 62
7
  6
CONTINUOUS
 10
5.2861926676
 20
4.5446769074
 40
0.2071656073
100
AcDbArc
 50
325.702979753
 51
330.2742273117
  0
ARC
  5
40D
100
AcDbEntity
  8
0
100
AcDbCircle
 62
7
  6
CONTINUOUS
 10
5.2867759827
 20
4.5441900506
 40
0.2064428697
100
AcDbArc
 50
356.7509112658
 51
1.3720739138
  0
ARC
  5
40E
100
AcDbEntity
  8
0
100
AcDbCircle
 62
7
  6
CONTINUOUS
 10
5.2848159545
 20
4.5544552523
 40
0.2050455442
100
AcDbArc
 50
12.6114678489
 51
16.9729607236
  0
ARC
  5
40F
100
AcDbEntity
  8
0
100
AcDbCircle
 62
7
  6
CONTINUOUS
 10
5.2863557883
 20
4.5546451531
 40
0.2035014551
100
AcDbArc
 50
355.1964049762
 51
12.6539497871
  0
ARC
  5
410
100
AcDbEntity
  8
0
100
AcDbCircle
 62
7
  6
CONTINUOUS
 10
5.2856135837
 20
4.546687582
 40
0.1912829476
100
AcDbArc
 50
18.305612516
 51
19.1698859403
  0
ARC
  5
411
100
AcDbEntity
  8
0
100
AcDbCircle
 62
7
  6
CONTINUOUS
 10
5.2857169575
 20
4.5467212285
 40
0.1911742372
100
AcDbArc
 50
15.8664386435
 51
18.3057696798
  0
ARC
  5
412
100
AcDbEntity
  8
0
100
AcDbCircle
 62
7
  6
CONTINUOUS
 10
5.1474688275
 20
4.8700395031
 40
0.058996539
100
AcDbArc
 50
293.1759269368
 51
360.0
  0
ARC
  5
413
100
AcDbEntity
  8
0
100
AcDbCircle
 62
7
  6
CONTINUOUS
 10
5.2264688275
 20
4.8731828659
 40
0.0395
100
AcDbArc
 50
100.4197661275
 51
180.0
  0
ARC
  5
414
100
AcDbEntity
  8
0
100
AcDbCircle
 62
7
  6
CONTINUOUS
 10
5.1474688275
 20
4.8700395031
 40
0.0395
100
AcDbArc
 50
293.1759269368
 51
360.0
  0
ARC
  5
415
100
AcDbEntity
  8
0
100
AcDbCircle
 62
7
  6
CONTINUOUS
 10
5.2264688275
 20
4.8731828659
 40
0.0199993598
100
AcDbArc
 50
100.4197661275
 51
180.0
  0
ARC
  5
416
100
AcDbEntity
  8
ALL_ASSEMBLY_MEMBERS
100
AcDbCircle
 62
7
  6
CONTINUOUS
 10
3.814225818
 20
5.7413954068
 40
1.3141810563
100
AcDbArc
 50
246.6764331465
 51
247.174079531
  0
ARC
  5
417
100
AcDbEntity
  8
ALL_ASSEMBLY_MEMBERS
100
AcDbCircle
 62
7
  6
CONTINUOUS
 10
5.0517238005
 20
9.7547863866
 40
5.4974143091
100
AcDbArc
 50
251.1188547481
 51
251.238042366
  0
ARC
  5
418
100
AcDbEntity
  8
ALL_ASSEMBLY_MEMBERS
100
AcDbCircle
 62
7
  6
CONTINUOUS
 10
5.5222138543
 20
-0.6664192444
 40
5.49741431
100
AcDbArc
 50
71.1188547481
 51
71.238042366
  0
ARC
  5
419
100
AcDbEntity
  8
ALL_ASSEMBLY_MEMBERS
100
AcDbCircle
 62
7
  6
CONTINUOUS
 10
6.7597118371
 20
3.3469717362
 40
1.3141810564
100
AcDbArc
 50
66.6764331465
 51
67.174079531
  0
ARC
  5
41A
100
AcDbEntity
  8
ALL_ASSEMBLY_MEMBERS
100
AcDbCircle
 62
7
  6
CONTINUOUS
 10
6.0650536397
 20
4.0513164423
 40
1.3067977001
100
AcDbArc
 50
22.8245146187
 51
23.3249727038
  0
ARC
  5
41B
100
AcDbEntity
  8
ALL_ASSEMBLY_MEMBERS
100
AcDbCircle
 62
7
  6
CONTINUOUS
 10
6.1053642918
 20
4.5410642902
 40
1.1598856318
100
AcDbArc
 50
357.8942703704
 51
358.9411171084
  0
ARC
  5
41C
100
AcDbEntity
  8
0
100
AcDbCircle
 62
9
  6
CONTINUOUS
 10
5.3589632257
 20
4.4354064741
 40
0.3849758695
100
AcDbArc
 50
52.3396459689
 51
57.0593454591
  0
ARC
  5
41D
100
AcDbEntity
  8
0
100
AcDbCircle
 62
9
  6
CONTINUOUS
 10
5.4644422213
 20
4.412504807
 40
0.3666503307
100
AcDbArc
 50
82.8779394597
 51
84.7000015158
  0
ARC
  5
41E
100
AcDbEntity
  8
DTM-AXIS
100
AcDbCircle
 62
7
  6
CONTINUOUS
 10
6.7235243208
 20
4.5311773008
 40
0.282017945
100
AcDbArc
 50
99.7299756635
 51
101.993334815
  0
ARC
  5
41F
100
AcDbEntity
  8
DTM-AXIS
100
AcDbCircle
 62
7
  6
CONTINUOUS
 10
6.7221795051
 20
4.5397969317
 40
0.2732950569
100
AcDbArc
 50
93.1945157765
 51
99.7575004431
  0
ARC
  5
420
100
AcDbEntity
  8
DTM-AXIS
100
AcDbCircle
 62
7
  6
CONTINUOUS
 10
6.7194437301
 20
4.5418326019
 40
0.2609839264
100
AcDbArc
 50
92.7439178718
 51
99.7680415806
  0
ARC
  5
421
100
AcDbEntity
  8
0
100
AcDbCircle
 62
7
  6
CONTINUOUS
 10
5.2873993149
 20
4.5440048915
 40
0.2057845263
100
AcDbArc
 50
330.2701258492
 51
334.2392063745
  0
ARC
  5
422
100
AcDbEntity
  8
0
100
AcDbCircle
 62
7
  6
CONTINUOUS
 10
5.2885357846
 20
4.5434493237
 40
0.2045195451
100
AcDbArc
 50
334.2410068097
 51
334.8778249356
  0
ARC
  5
423
100
AcDbEntity
  8
0
100
AcDbCircle
 62
7
  6
CONTINUOUS
 10
5.2882032224
 20
4.5416557892
 40
0.1999669108
100
AcDbArc
 50
198.0149948951
 51
202.7288401126
  0
ARC
  5
424
100
AcDbEntity
  8
0
100
AcDbCircle
 62
7
  6
CONTINUOUS
 10
5.287671183
 20
4.5414401147
 40
0.1993950536
100
AcDbArc
 50
179.2116477054
 51
198.0033401295
  0
ARC
  5
425
100
AcDbEntity
  8
0
100
AcDbCircle
 62
7
  6
CONTINUOUS
 10
5.4264688275
 20
4.2183276399
 40
0.058996539
100
AcDbArc
 50
113.1759269368
 51
180.0
  0
ARC
  5
426
100
AcDbEntity
  8
0
100
AcDbCircle
 62
7
  6
CONTINUOUS
 10
5.3474688275
 20
4.2151842772
 40
0.0395
100
AcDbArc
 50
280.4197661275
 51
360.0
  0
ARC
  5
427
100
AcDbEntity
  8
0
100
AcDbCircle
 62
7
  6
CONTINUOUS
 10
5.4264688275
 20
4.2183276399
 40
0.0395
100
AcDbArc
 50
113.1759269368
 51
180.0
  0
ARC
  5
428
100
AcDbEntity
  8
0
100
AcDbCircle
 62
7
  6
CONTINUOUS
 10
5.3474688275
 20
4.2151842772
 40
0.0199993598
100
AcDbArc
 50
280.4197661275
 51
360.0
  0
ARC
  5
429
100
AcDbEntity
  8
ALL_ASSEMBLY_MEMBERS
100
AcDbCircle
 62
7
  6
CONTINUOUS
 10
8.5290677056
 20
2.8109246616
 40
5.4974143091
100
AcDbArc
 50
161.1188547481
 51
161.238042366
  0
ARC
  5
42A
100
AcDbEntity
  8
ALL_ASSEMBLY_MEMBERS
100
AcDbCircle
 62
7
  6
CONTINUOUS
 10
7.748341287
 20
3.3537611765
 40
1.3068012546
100
AcDbArc
 50
112.8245152994
 51
113.3249720232
  0
ARC
  5
42B
100
AcDbEntity
  8
ALL_ASSEMBLY_MEMBERS
100
AcDbCircle
 62
7
  6
CONTINUOUS
 10
7.2585919562
 20
3.394071853
 40
1.1598888787
100
AcDbArc
 50
87.8942718356
 51
88.9411156431
  0
ARC
  5
42C
100
AcDbEntity
  8
ALL_ASSEMBLY_MEMBERS
100
AcDbCircle
 62
7
  6
CONTINUOUS
 10
7.2523535729
 20
3.394071853
 40
1.1598888786
100
AcDbArc
 50
91.0588843569
 51
92.1057281644
  0
ARC
  5
42D
100
AcDbEntity
  8
ALL_ASSEMBLY_MEMBERS
100
AcDbCircle
 62
7
  6
CONTINUOUS
 10
8.452687788
 20
4.0484212859
 40
1.3141845217
100
AcDbArc
 50
156.6764338026
 51
157.1740788748
  0
ARC
  5
42E
100
AcDbEntity
  8
ALL_ASSEMBLY_MEMBERS
100
AcDbCircle
 62
7
  6
CONTINUOUS
 10
8.4055812372
 20
4.5410642902
 40
1.1598856317
100
AcDbArc
 50
181.0588828916
 51
182.1057296296
  0
ARC
  5
42F
100
AcDbEntity
  8
0
100
AcDbCircle
 62
7
  6
CONTINUOUS
 10
7.2554790838
 20
4.5440768926
 40
0.3246964585
100
AcDbArc
 50
261.0534190751
 51
288.6372143759
  0
ARC
  5
430
100
AcDbEntity
  8
0
100
AcDbCircle
 62
7
  6
CONTINUOUS
 10
7.2558159767
 20
4.5434614542
 40
0.3240038138
100
AcDbArc
 50
290.131678996
 51
294.1181359841
  0
ARC
  5
431
100
AcDbEntity
  8
0
100
AcDbCircle
 62
7
  6
CONTINUOUS
 10
7.2564934064
 20
4.543811496
 40
0.3237169351
100
AcDbArc
 50
336.4170853732
 51
338.8923473909
  0
ARC
  5
432
100
AcDbEntity
  8
0
100
AcDbCircle
 62
7
  6
CONTINUOUS
 10
7.2581169096
 20
4.5431236414
 40
0.322755057
100
AcDbArc
 50
293.7773257077
 51
293.9496236902
  0
ARC
  5
433
100
AcDbEntity
  8
0
100
AcDbCircle
 62
7
  6
CONTINUOUS
 10
7.2576137989
 20
4.5433748265
 40
0.3225144608
100
AcDbArc
 50
338.8930391652
 51
339.2999527313
  0
ARC
  5
434
100
AcDbEntity
  8
0
100
AcDbCircle
 62
7
  6
CONTINUOUS
 10
7.2564815544
 20
4.5419494782
 40
0.3223518581
100
AcDbArc
 50
294.1199750291
 51
294.2999905967
  0
ARC
  5
435
100
AcDbEntity
  8
0
100
AcDbCircle
 62
7
  6
CONTINUOUS
 10
7.2552216109
 20
4.5422060291
 40
0.3205946576
100
AcDbArc
 50
159.6937641476
 51
179.6465781226
  0
ARC
  5
436
100
AcDbEntity
  8
0
100
AcDbCircle
 62
7
  6
CONTINUOUS
 10
7.2546113646
 20
4.5423620052
 40
0.3199691079
100
AcDbArc
 50
151.6941187457
 51
155.6873636288
  0
ARC
  5
437
100
AcDbEntity
  8
0
100
AcDbCircle
 62
7
  6
CONTINUOUS
 10
7.2545289825
 20
4.5424237057
 40
0.3198686297
100
AcDbArc
 50
155.691359944
 51
159.6872763304
  0
ARC
  5
438
100
AcDbEntity
  8
0
100
AcDbCircle
 62
7
  6
CONTINUOUS
 10
7.253950288
 20
4.5428613242
 40
0.319146978
100
AcDbArc
 50
111.7539832337
 51
151.7167653064
  0
ARC
  5
439
100
AcDbEntity
  8
0
100
AcDbCircle
 62
7
  6
CONTINUOUS
 10
7.2537617336
 20
4.5431612786
 40
0.318795262
100
AcDbArc
 50
111.147287183
 51
111.7424885851
  0
ARC
  5
43A
100
AcDbEntity
  8
0
100
AcDbCircle
 62
7
  6
CONTINUOUS
 10
7.2534995953
 20
4.5437936541
 40
0.3181121841
100
AcDbArc
 50
103.7373611412
 51
107.738382711
  0
ARC
  5
43B
100
AcDbEntity
  8
0
100
AcDbCircle
 62
7
  6
CONTINUOUS
 10
7.2535179546
 20
4.5438064115
 40
0.3181056276
100
AcDbArc
 50
107.7422323583
 51
111.1482562814
  0
ARC
  5
43C
100
AcDbEntity
  8
ALL_ASSEMBLY_MEMBERS
100
AcDbCircle
 62
7
  6
CONTINUOUS
 10
7.2552429137
 20
4.5434781786
 40
0.2263347698
100
AcDbArc
 50
70.421260431
 51
72.2445308324
  0
ARC
  5
43D
100
AcDbEntity
  8
ALL_ASSEMBLY_MEMBERS
100
AcDbCircle
 62
7
  6
CONTINUOUS
 10
7.2627107249
 20
4.5426511499
 40
0.225715124
100
AcDbArc
 50
74.1221719271
 51
79.915238241
  0
ARC
  5
43E
100
AcDbEntity
  8
ALL_ASSEMBLY_MEMBERS
100
AcDbCircle
 62
7
  6
CONTINUOUS
 10
7.2555566185
 20
4.5421517461
 40
0.2251013098
100
AcDbArc
 50
346.6134999697
 51
347.6099362559
  0
ARC
  5
43F
100
AcDbEntity
  8
ALL_ASSEMBLY_MEMBERS
100
AcDbCircle
 62
7
  6
CONTINUOUS
 10
7.2561631178
 20
4.5420185168
 40
0.2244803497
100
AcDbArc
 50
347.6099342544
 51
348.5641353948
  0
ARC
  5
440
100
AcDbEntity
  8
ALL_ASSEMBLY_MEMBERS
100
AcDbCircle
 62
7
  6
CONTINUOUS
 10
7.2566853498
 20
4.5439277224
 40
0.2243557171
100
AcDbArc
 50
347.3217103727
 51
348.0597943328
  0
ARC
  5
441
100
AcDbEntity
  8
ALL_ASSEMBLY_MEMBERS
100
AcDbCircle
 62
7
  6
CONTINUOUS
 10
7.2610086755
 20
4.5364102844
 40
0.1285936839
100
AcDbArc
 50
37.6662385112
 51
37.8524176973
  0
ARC
  5
442
100
AcDbEntity
  8
ALL_ASSEMBLY_MEMBERS
100
AcDbCircle
 62
7
  6
CONTINUOUS
 10
7.2615398381
 20
4.5368361869
 40
0.1279129352
100
AcDbArc
 50
37.8477803561
 51
45.6696871123
  0
ARC
  5
443
100
AcDbEntity
  8
ALL_ASSEMBLY_MEMBERS
100
AcDbCircle
 62
7
  6
CONTINUOUS
 10
7.255129799
 20
4.5439428375
 40
0.1276674131
100
AcDbArc
 50
33.2278356153
 51
33.3923224821
  0
ARC
  5
444
100
AcDbEntity
  8
ALL_ASSEMBLY_MEMBERS
100
AcDbCircle
 62
7
  6
CONTINUOUS
 10
7.2554358302
 20
4.5441682078
 40
0.1272878657
100
AcDbArc
 50
33.3834385834
 51
41.3940500989
  0
ARC
  5
445
100
AcDbEntity
  8
ALL_ASSEMBLY_MEMBERS
100
AcDbCircle
 62
7
  6
CONTINUOUS
 10
7.2558446001
 20
4.5437643407
 40
0.1266896309
100
AcDbArc
 50
308.9596258043
 51
311.3990126734
  0
ARC
  5
446
100
AcDbEntity
  8
0
100
AcDbCircle
 62
7
  6
CONTINUOUS
 10
7.9641341819
 20
4.4260733353
 40
0.0787401575
100
AcDbArc
 50
270.0
 51
360.0
  0
ARC
  5
447
100
AcDbEntity
  8
ALL_ASSEMBLY_MEMBERS
100
AcDbCircle
 62
7
  6
CONTINUOUS
 10
7.3178442134
 20
4.450808301
 40
0.04
100
AcDbArc
 50
59.6373704656
 51
64.9955518539
  0
ARC
  5
448
100
AcDbEntity
  8
ALL_ASSEMBLY_MEMBERS
100
AcDbCircle
 62
7
  6
CONTINUOUS
 10
7.2001383211
 20
4.4838449484
 40
0.02
100
AcDbArc
 50
239.8837685094
 51
269.0245095238
  0
ARC
  5
449
100
AcDbEntity
  8
ALL_ASSEMBLY_MEMBERS
100
AcDbCircle
 62
7
  6
CONTINUOUS
 10
7.2001383211
 20
4.4838449484
 40
0.02
100
AcDbArc
 50
185.9952068658
 51
214.5396036424
  0
ARC
  5
44A
100
AcDbEntity
  8
ALL_ASSEMBLY_MEMBERS
100
AcDbCircle
 62
7
  6
CONTINUOUS
 10
7.3178442134
 20
4.450808301
 40
0.02
100
AcDbArc
 50
71.027140205
 51
84.2283446586
  0
ARC
  5
44B
100
AcDbEntity
  8
ALL_ASSEMBLY_MEMBERS
100
AcDbCircle
 62
7
  6
CONTINUOUS
 10
8.988731675
 20
-0.6664192449
 40
5.4974143105
100
AcDbArc
 50
108.761957634
 51
108.8811452519
  0
ARC
  5
44C
100
AcDbEntity
  8
ALL_ASSEMBLY_MEMBERS
100
AcDbCircle
 62
7
  6
CONTINUOUS
 10
12.4660755796
 20
2.8109246616
 40
5.4974143091
100
AcDbArc
 50
161.1188547481
 51
161.238042366
  0
ARC
  5
44D
100
AcDbEntity
  8
0
100
AcDbCircle
 62
7
  6
CONTINUOUS
 10
5.2869688275
 20
4.5441835715
 40
0.374015748
100
AcDbArc
 50
259.5802338725
 51
280.4197661275
  0
ARC
  5
44E
100
AcDbEntity
  8
0
100
AcDbCircle
 62
7
  6
CONTINUOUS
 10
5.2869688275
 20
4.5441835715
 40
0.374015748
100
AcDbArc
 50
79.5802338725
 51
100.4197661275
  0
ARC
  5
44F
100
AcDbEntity
  8
0
100
AcDbCircle
 62
7
  6
CONTINUOUS
 10
5.2869688275
 20
4.5441835715
 40
0.35451372
100
AcDbArc
 50
79.5802338725
 51
100.4197661275
  0
ARC
  5
450
100
AcDbEntity
  8
0
100
AcDbCircle
 62
7
  6
CONTINUOUS
 10
5.2869688275
 20
4.5441835715
 40
0.35451372
100
AcDbArc
 50
259.5802338725
 51
280.4197661275
  0
ARC
  5
451
100
AcDbEntity
  8
DTM-AXIS
100
AcDbCircle
 62
7
  6
CONTINUOUS
 10
5.2869688275
 20
4.5441835715
 40
0.3248031496
100
AcDbArc
 50
108.7705696659
 51
113.5781784782
  0
ARC
  5
452
100
AcDbEntity
  8
DTM-AXIS
100
AcDbCircle
 62
7
  6
CONTINUOUS
 10
5.2869688275
 20
4.5441835715
 40
0.3248031496
100
AcDbArc
 50
65.2801488171
 51
71.2270236463
  0
ARC
  5
453
100
AcDbEntity
  8
0
100
AcDbCircle
 62
7
  6
CONTINUOUS
 10
5.2869688275
 20
4.5441835715
 40
0.3149606299
100
AcDbArc
 50
113.1759269368
 51
246.8240730632
  0
ARC
  5
454
100
AcDbEntity
  8
0
100
AcDbCircle
 62
7
  6
CONTINUOUS
 10
5.2869688275
 20
4.5441835715
 40
0.3149606299
100
AcDbArc
 50
293.1759269368
 51
66.8240730632
  0
ARC
  5
455
100
AcDbEntity
  8
0
100
AcDbCircle
 62
7
  6
CONTINUOUS
 10
5.2869688275
 20
4.5441835715
 40
0.2954600403
100
AcDbArc
 50
113.1759269368
 51
246.8240730632
  0
ARC
  5
456
100
AcDbEntity
  8
0
100
AcDbCircle
 62
7
  6
CONTINUOUS
 10
5.2869688275
 20
4.5441835715
 40
0.2954600065
100
AcDbArc
 50
293.1759269368
 51
66.8240730632
  0
CIRCLE
  5
457
100
AcDbEntity
  8
0
100
AcDbCircle
 62
7
  6
CONTINUOUS
 10
5.2869688275
 20
4.5441835715
 40
0.212007874
  0
ARC
  5
458
100
AcDbEntity
  8
0
100
AcDbCircle
 62
7
  6
CONTINUOUS
 10
5.2876779566
 20
4.5470721445
 40
0.2068578491
100
AcDbArc
 50
324.7874013337
 51
329.4235896059
  0
ARC
  5
459
100
AcDbEntity
  8
0
100
AcDbCircle
 62
7
  6
CONTINUOUS
 10
5.2869688275
 20
4.5441835715
 40
0.20625
100
AcDbArc
 50
334.8779527553
 51
19.8779527556
  0
ARC
  5
45A
100
AcDbEntity
  8
0
100
AcDbCircle
 62
7
  6
CONTINUOUS
 10
5.2887767393
 20
4.5464414502
 40
0.205591025
100
AcDbArc
 50
329.4191475375
 51
333.5844611677
  0
ARC
  5
45B
100
AcDbEntity
  8
0
100
AcDbCircle
 62
7
  6
CONTINUOUS
 10
5.2876259153
 20
4.5444320245
 40
0.205547584
100
AcDbArc
 50
15.233664826
 51
19.8751015979
  0
ARC
  5
45C
100
AcDbEntity
  8
0
100
AcDbCircle
 62
7
  6
CONTINUOUS
 10
5.2890779667
 20
4.5461504759
 40
0.2052088914
100
AcDbArc
 50
300.5269953114
 51
301.480263004
  0
ARC
  5
45D
100
AcDbEntity
  8
0
100
AcDbCircle
 62
7
  6
CONTINUOUS
 10
5.28913531
 20
4.5459909329
 40
0.2050437321
100
AcDbArc
 50
301.489878459
 51
324.7994286559
  0
ARC
  5
45E
100
AcDbEntity
  8
0
100
AcDbCircle
 62
7
  6
CONTINUOUS
 10
5.2898706914
 20
4.5458902455
 40
0.2043660725
100
AcDbArc
 50
333.5864177223
 51
334.0993135998
  0
ARC
  5
45F
100
AcDbEntity
  8
0
100
AcDbCircle
 62
7
  6
CONTINUOUS
 10
5.2884018691
 20
4.5465715377
 40
0.1883739251
100
AcDbArc
 50
326.7968034104
 51
333.9344588238
  0
ARC
  5
460
100
AcDbEntity
  8
0
100
AcDbCircle
 62
7
  6
CONTINUOUS
 10
5.2889895249
 20
4.5461611039
 40
0.1876568654
100
AcDbArc
 50
300.6799473305
 51
326.803403756
  0
ARC
  5
461
100
AcDbEntity
  8
0
100
AcDbCircle
 62
7
  6
CONTINUOUS
 10
5.2869688275
 20
4.5441835715
 40
0.187007874
100
AcDbArc
 50
306.517536138
 51
301.5215718459
  0
CIRCLE
  5
462
100
AcDbEntity
  8
DTM-AXIS
100
AcDbCircle
 62
7
  6
CONTINUOUS
 10
5.2869688275
 20
4.5441835715
 40
0.1732283465
  0
ARC
  5
463
100
AcDbEntity
  8
0
100
AcDbCircle
 62
7
  6
CONTINUOUS
 10
5.2897398408
 20
4.5543138477
 40
0.2001001335
100
AcDbArc
 50
333.3002525041
 51
355.209793894
  0
ARC
  5
464
100
AcDbEntity
  8
0
100
AcDbCircle
 62
7
  6
CONTINUOUS
 10
5.2916371009
 20
4.5535418951
 40
0.1980558787
100
AcDbArc
 50
328.8656192308
 51
333.2531485221
  0
ARC
  5
465
100
AcDbEntity
  8
0
100
AcDbCircle
 62
7
  6
CONTINUOUS
 10
5.2927802757
 20
4.5528498752
 40
0.1967195634
100
AcDbArc
 50
324.5513629249
 51
328.8659873972
  0
ARC
  5
466
100
AcDbEntity
  8
0
100
AcDbCircle
 62
7
  6
CONTINUOUS
 10
5.2948614775
 20
4.5511640833
 40
0.1940464995
100
AcDbArc
 50
298.4210183125
 51
324.6004559272
  0
ARC
  5
467
100
AcDbEntity
  8
0
100
AcDbCircle
 62
9
  6
CONTINUOUS
 10
5.4615976329
 20
4.7062489353
 40
0.3971695189
100
AcDbArc
 50
275.2918289534
 51
275.6982575335
  0
ARC
  5
468
100
AcDbEntity
  8
0
100
AcDbCircle
 62
9
  6
CONTINUOUS
 10
5.466933152
 20
4.6546457477
 40
0.3452916127
100
AcDbArc
 50
275.6674766727
 51
277.0104994596
  0
ARC
  5
469
100
AcDbEntity
  8
0
100
AcDbCircle
 62
9
  6
CONTINUOUS
 10
5.5485312433
 20
4.8288252997
 40
0.0716833919
100
AcDbArc
 50
240.2455845311
 51
252.7974650165
  0
ARC
  5
46A
100
AcDbEntity
  8
0
100
AcDbCircle
 62
9
  6
CONTINUOUS
 10
5.546956587
 20
4.8261253302
 40
0.0685579144
100
AcDbArc
 50
227.4632697782
 51
240.2682364369
  0
ARC
  5
46B
100
AcDbEntity
  8
0
100
AcDbCircle
 62
7
  6
CONTINUOUS
 10
5.4264688275
 20
4.8700395031
 40
0.058996539
100
AcDbArc
 50
180.0
 51
246.8240730632
  0
ARC
  5
46C
100
AcDbEntity
  8
0
100
AcDbCircle
 62
7
  6
CONTINUOUS
 10
5.3474688275
 20
4.8731828659
 40
0.0395
100
AcDbArc
 50
0.0
 51
79.5802338725
  0
ARC
  5
46D
100
AcDbEntity
  8
0
100
AcDbCircle
 62
7
  6
CONTINUOUS
 10
5.4264688275
 20
4.8700395031
 40
0.0395
100
AcDbArc
 50
180.0
 51
246.8240730632
  0
ARC
  5
46E
100
AcDbEntity
  8
0
100
AcDbCircle
 62
7
  6
CONTINUOUS
 10
5.3474688275
 20
4.8731828659
 40
0.0199993005
100
AcDbArc
 50
0.0
 51
79.5802338725
  0
ARC
  5
46F
100
AcDbEntity
  8
ALL_ASSEMBLY_MEMBERS
100
AcDbCircle
 62
7
  6
CONTINUOUS
 10
6.1053642918
 20
4.5473028528
 40
1.1598856318
100
AcDbArc
 50
1.0588828916
 51
2.1057296296
  0
ARC
  5
470
100
AcDbEntity
  8
ALL_ASSEMBLY_MEMBERS
100
AcDbCircle
 62
7
  6
CONTINUOUS
 10
6.0582577411
 20
5.0399458572
 40
1.3141845217
100
AcDbArc
 50
336.6764338026
 51
337.1740788748
  0
ARC
  5
471
100
AcDbEntity
  8
ALL_ASSEMBLY_MEMBERS
100
AcDbCircle
 62
7
  6
CONTINUOUS
 10
6.7626042421
 20
5.7346059665
 40
1.3068012545
100
AcDbArc
 50
292.8245152994
 51
293.3249720232
  0
CIRCLE
  5
472
100
AcDbEntity
  8
DTM-AXIS
100
AcDbCircle
 62
7
  6
CONTINUOUS
 10
7.2554727646
 20
4.5441835715
 40
0.3937007874
  0
CIRCLE
  5
473
100
AcDbEntity
  8
DTM-AXIS
100
AcDbCircle
 62
7
  6
CONTINUOUS
 10
7.2554727646
 20
4.5441835715
 40
0.374015748
  0
CIRCLE
  5
474
100
AcDbEntity
  8
DTM-AXIS
100
AcDbCircle
 62
7
  6
CONTINUOUS
 10
7.2554727646
 20
4.5441835715
 40
0.3346456693
  0
ARC
  5
475
100
AcDbEntity
  8
0
100
AcDbCircle
 62
7
  6
CONTINUOUS
 10
7.2551647835
 20
4.5451670023
 40
0.3258292877
100
AcDbArc
 50
288.6283248574
 51
290.1359686496
  0
ARC
  5
476
100
AcDbEntity
  8
0
100
AcDbCircle
 62
7
  6
CONTINUOUS
 10
7.2570449785
 20
4.5457771995
 40
0.3256176374
100
AcDbArc
 50
286.392752659
 51
290.1578345787
  0
ARC
  5
477
100
AcDbEntity
  8
0
100
AcDbCircle
 62
7
  6
CONTINUOUS
 10
7.2551049318
 20
4.5444069139
 40
0.3252276595
100
AcDbArc
 50
335.167964878
 51
336.4188127578
  0
ARC
  5
478
100
AcDbEntity
  8
0
100
AcDbCircle
 62
7
  6
CONTINUOUS
 10
7.2554727646
 20
4.5441835715
 40
0.3248031496
100
AcDbArc
 50
294.300000001
 51
339.3000000012
  0
ARC
  5
479
100
AcDbEntity
  8
0
100
AcDbCircle
 62
7
  6
CONTINUOUS
 10
7.2575900748
 20
4.544338061
 40
0.3240788068
100
AcDbArc
 50
290.1550465855
 51
293.7759967611
  0
ARC
  5
47A
100
AcDbEntity
  8
0
100
AcDbCircle
 62
7
  6
CONTINUOUS
 10
7.2574564978
 20
4.5442550864
 40
0.3240358128
100
AcDbArc
 50
262.840315199
 51
286.3966071377
  0
ARC
  5
47B
100
AcDbEntity
  8
0
100
AcDbCircle
 62
7
  6
CONTINUOUS
 10
7.2545115451
 20
4.5460911289
 40
0.3155678858
100
AcDbArc
 50
359.6536540716
 51
9.971185829
  0
ARC
  5
47C
100
AcDbEntity
  8
0
100
AcDbCircle
 62
7
  6
CONTINUOUS
 10
7.2554727646
 20
4.5441835715
 40
0.3149606299
100
AcDbArc
 50
10.3403894334
 51
360.0
  0
ARC
  5
47D
100
AcDbEntity
  8
ALL_ASSEMBLY_MEMBERS
100
AcDbCircle
 62
7
  6
CONTINUOUS
 10
7.2554727646
 20
4.5441835715
 40
0.23625
100
AcDbArc
 50
41.0065992274
 51
40.6997096313
  0
ARC
  5
47E
100
AcDbEntity
  8
ALL_ASSEMBLY_MEMBERS
100
AcDbCircle
 62
7
  6
CONTINUOUS
 10
7.2562377199
 20
4.5460247694
 40
0.2322110136
100
AcDbArc
 50
165.1829666856
 51
165.3794954336
  0
ARC
  5
47F
100
AcDbEntity
  8
ALL_ASSEMBLY_MEMBERS
100
AcDbCircle
 62
7
  6
CONTINUOUS
 10
7.2535201361
 20
4.54464144
 40
0.2287672936
100
AcDbArc
 50
255.6751131093
 51
270.4890504841
  0
ARC
  5
480
100
AcDbEntity
  8
ALL_ASSEMBLY_MEMBERS
100
AcDbCircle
 62
7
  6
CONTINUOUS
 10
7.2548003768
 20
4.5444018517
 40
0.2262997794
100
AcDbArc
 50
340.4261011481
 51
341.3984903445
  0
ARC
  5
481
100
AcDbEntity
  8
ALL_ASSEMBLY_MEMBERS
100
AcDbCircle
 62
7
  6
CONTINUOUS
 10
7.2553362057
 20
4.5442419002
 40
0.225740921
100
AcDbArc
 50
341.3935853485
 51
347.3190676891
  0
ARC
  5
482
100
AcDbEntity
  8
ALL_ASSEMBLY_MEMBERS
100
AcDbCircle
 62
7
  6
CONTINUOUS
 10
7.2554727646
 20
4.5441835715
 40
0.2255949998
100
AcDbArc
 50
348.0599363234
 51
78.0368826088
  0
ARC
  5
483
100
AcDbEntity
  8
ALL_ASSEMBLY_MEMBERS
100
AcDbCircle
 62
7
  6
CONTINUOUS
 10
7.2554515989
 20
4.5441915366
 40
0.2255917526
100
AcDbArc
 50
72.2397566705
 51
77.4528216927
  0
ARC
  5
484
100
AcDbEntity
  8
ALL_ASSEMBLY_MEMBERS
100
AcDbCircle
 62
7
  6
CONTINUOUS
 10
7.2557390584
 20
4.5454420366
 40
0.2243086692
100
AcDbArc
 50
77.4551030509
 51
78.0367940193
  0
CIRCLE
  5
485
100
AcDbEntity
  8
ALL_ASSEMBLY_MEMBERS
100
AcDbCircle
 62
7
  6
CONTINUOUS
 10
7.2554727646
 20
4.5441835715
 40
0.22125
  0
ARC
  5
486
100
AcDbEntity
  8
ALL_ASSEMBLY_MEMBERS
100
AcDbCircle
 62
7
  6
CONTINUOUS
 10
7.2554727646
 20
4.5441835715
 40
0.1595559337
100
AcDbArc
 50
252.9464553575
 51
287.0535446425
  0
ARC
  5
487
100
AcDbEntity
  8
ALL_ASSEMBLY_MEMBERS
100
AcDbCircle
 62
7
  6
CONTINUOUS
 10
7.2554727646
 20
4.5441835715
 40
0.1595559337
100
AcDbArc
 50
72.9464553575
 51
107.0535446425
  0
ARC
  5
488
100
AcDbEntity
  8
ALL_ASSEMBLY_MEMBERS
100
AcDbCircle
 62
7
  6
CONTINUOUS
 10
7.2554727646
 20
4.5441835715
 40
0.1595559337
100
AcDbArc
 50
192.9464553575
 51
227.0535446425
  0
ARC
  5
489
100
AcDbEntity
  8
ALL_ASSEMBLY_MEMBERS
100
AcDbCircle
 62
7
  6
CONTINUOUS
 10
7.2554727646
 20
4.5441835715
 40
0.1595559337
100
AcDbArc
 50
132.9464553575
 51
167.0535446425
  0
ARC
  5
48A
100
AcDbEntity
  8
ALL_ASSEMBLY_MEMBERS
100
AcDbCircle
 62
7
  6
CONTINUOUS
 10
7.2554727646
 20
4.5441835715
 40
0.1595559337
100
AcDbArc
 50
12.9464553575
 51
47.0535446425
  0
ARC
  5
48B
100
AcDbEntity
  8
ALL_ASSEMBLY_MEMBERS
100
AcDbCircle
 62
7
  6
CONTINUOUS
 10
7.2554727646
 20
4.5441835715
 40
0.1595559337
100
AcDbArc
 50
312.9464553575
 51
347.0535446425
  0
CIRCLE
  5
48C
100
AcDbEntity
  8
ALL_ASSEMBLY_MEMBERS
100
AcDbCircle
 62
7
  6
CONTINUOUS
 10
7.2554727646
 20
4.5441835715
 40
0.15625
  0
ARC
  5
48D
100
AcDbEntity
  8
ALL_ASSEMBLY_MEMBERS
100
AcDbCircle
 62
7
  6
CONTINUOUS
 10
7.2554727646
 20
4.5441835715
 40
0.14075
100
AcDbArc
 50
7.9667569308
 51
5.9200164875
  0
ARC
  5
48E
100
AcDbEntity
  8
ALL_ASSEMBLY_MEMBERS
100
AcDbCircle
 62
7
  6
CONTINUOUS
 10
7.2546103761
 20
4.546601427
 40
0.1322136467
100
AcDbArc
 50
181.0478305764
 51
218.4821982604
  0
ARC
  5
48F
100
AcDbEntity
  8
ALL_ASSEMBLY_MEMBERS
100
AcDbCircle
 62
7
  6
CONTINUOUS
 10
7.2552175833
 20
4.5445493454
 40
0.1276944335
100
AcDbArc
 50
303.2550096353
 51
307.3160454135
  0
ARC
  5
490
100
AcDbEntity
  8
ALL_ASSEMBLY_MEMBERS
100
AcDbCircle
 62
7
  6
CONTINUOUS
 10
7.2554156869
 20
4.5442891144
 40
0.1273673782
100
AcDbArc
 50
307.3161364662
 51
308.961224988
  0
ARC
  5
491
100
AcDbEntity
  8
ALL_ASSEMBLY_MEMBERS
100
AcDbCircle
 62
7
  6
CONTINUOUS
 10
7.2554727646
 20
4.5441835715
 40
0.1272499999
100
AcDbArc
 50
311.3997714769
 51
41.3998569654
  0
CIRCLE
  5
492
100
AcDbEntity
  8
ALL_ASSEMBLY_MEMBERS
100
AcDbCircle
 62
7
  6
CONTINUOUS
 10
7.2554727646
 20
4.5441835715
 40
0.12075
  0
CIRCLE
  5
493
100
AcDbEntity
  8
ALL_ASSEMBLY_MEMBERS
100
AcDbCircle
 62
7
  6
CONTINUOUS
 10
7.2554727646
 20
4.5441835715
 40
0.1015
  0
CIRCLE
  5
494
100
AcDbEntity
  8
ALL_ASSEMBLY_MEMBERS
100
AcDbCircle
 62
7
  6
CONTINUOUS
 10
7.2554727646
 20
4.5441835715
 40
0.09775
  0
ARC
  5
495
100
AcDbEntity
  8
ALL_ASSEMBLY_MEMBERS
100
AcDbCircle
 62
7
  6
CONTINUOUS
 10
7.2554727646
 20
4.5441835715
 40
0.0925
100
AcDbArc
 50
141.6665846093
 51
150.8334153907
  0
ARC
  5
496
100
AcDbEntity
  8
ALL_ASSEMBLY_MEMBERS
100
AcDbCircle
 62
7
  6
CONTINUOUS
 10
7.2554727646
 20
4.5441835715
 40
0.0925
100
AcDbArc
 50
119.1665846093
 51
128.3334153907
  0
ARC
  5
497
100
AcDbEntity
  8
ALL_ASSEMBLY_MEMBERS
100
AcDbCircle
 62
7
  6
CONTINUOUS
 10
7.2554727646
 20
4.5441835715
 40
0.0925
100
AcDbArc
 50
96.6665846093
 51
105.8334153907
  0
ARC
  5
498
100
AcDbEntity
  8
ALL_ASSEMBLY_MEMBERS
100
AcDbCircle
 62
7
  6
CONTINUOUS
 10
7.2554727646
 20
4.5441835715
 40
0.0925
100
AcDbArc
 50
74.1665846093
 51
83.3334153907
  0
ARC
  5
499
100
AcDbEntity
  8
ALL_ASSEMBLY_MEMBERS
100
AcDbCircle
 62
7
  6
CONTINUOUS
 10
7.2554727646
 20
4.5441835715
 40
0.0925
100
AcDbArc
 50
51.6665846093
 51
60.8334153907
  0
ARC
  5
49A
100
AcDbEntity
  8
ALL_ASSEMBLY_MEMBERS
100
AcDbCircle
 62
7
  6
CONTINUOUS
 10
7.2554727646
 20
4.5441835715
 40
0.0925
100
AcDbArc
 50
29.1665846093
 51
38.3334153907
  0
ARC
  5
49B
100
AcDbEntity
  8
ALL_ASSEMBLY_MEMBERS
100
AcDbCircle
 62
7
  6
CONTINUOUS
 10
7.2554727646
 20
4.5441835715
 40
0.0925
100
AcDbArc
 50
6.6665846093
 51
15.8334153907
  0
ARC
  5
49C
100
AcDbEntity
  8
ALL_ASSEMBLY_MEMBERS
100
AcDbCircle
 62
7
  6
CONTINUOUS
 10
7.2554727646
 20
4.5441835715
 40
0.0925
100
AcDbArc
 50
164.1665846093
 51
173.3334153907
  0
ARC
  5
49D
100
AcDbEntity
  8
ALL_ASSEMBLY_MEMBERS
100
AcDbCircle
 62
7
  6
CONTINUOUS
 10
7.2554727646
 20
4.5441835715
 40
0.0925
100
AcDbArc
 50
344.1665846093
 51
353.3334153907
  0
ARC
  5
49E
100
AcDbEntity
  8
ALL_ASSEMBLY_MEMBERS
100
AcDbCircle
 62
7
  6
CONTINUOUS
 10
7.2554727646
 20
4.5441835715
 40
0.0925
100
AcDbArc
 50
321.6665846093
 51
330.8334153907
  0
ARC
  5
49F
100
AcDbEntity
  8
ALL_ASSEMBLY_MEMBERS
100
AcDbCircle
 62
7
  6
CONTINUOUS
 10
7.2554727646
 20
4.5441835715
 40
0.0925
100
AcDbArc
 50
299.1665846093
 51
308.3334153907
  0
ARC
  5
4A0
100
AcDbEntity
  8
ALL_ASSEMBLY_MEMBERS
100
AcDbCircle
 62
7
  6
CONTINUOUS
 10
7.2554727646
 20
4.5441835715
 40
0.0925
100
AcDbArc
 50
276.6665846093
 51
285.8334153907
  0
ARC
  5
4A1
100
AcDbEntity
  8
ALL_ASSEMBLY_MEMBERS
100
AcDbCircle
 62
7
  6
CONTINUOUS
 10
7.2554727646
 20
4.5441835715
 40
0.0925
100
AcDbArc
 50
254.1665846093
 51
263.3334153907
  0
ARC
  5
4A2
100
AcDbEntity
  8
ALL_ASSEMBLY_MEMBERS
100
AcDbCircle
 62
7
  6
CONTINUOUS
 10
7.2554727646
 20
4.5441835715
 40
0.0925
100
AcDbArc
 50
231.6665846093
 51
240.8334153907
  0
ARC
  5
4A3
100
AcDbEntity
  8
ALL_ASSEMBLY_MEMBERS
100
AcDbCircle
 62
7
  6
CONTINUOUS
 10
7.2554727646
 20
4.5441835715
 40
0.0925
100
AcDbArc
 50
209.1665846093
 51
218.3334153907
  0
ARC
  5
4A4
100
AcDbEntity
  8
ALL_ASSEMBLY_MEMBERS
100
AcDbCircle
 62
7
  6
CONTINUOUS
 10
7.2554727646
 20
4.5441835715
 40
0.0925
100
AcDbArc
 50
186.6665846093
 51
195.8334153907
  0
ARC
  5
4A5
100
AcDbEntity
  8
ALL_ASSEMBLY_MEMBERS
100
AcDbCircle
 62
7
  6
CONTINUOUS
 10
7.2554727646
 20
4.5441835715
 40
0.08175
100
AcDbArc
 50
154.1260218921
 51
160.8739781079
  0
ARC
  5
4A6
100
AcDbEntity
  8
ALL_ASSEMBLY_MEMBERS
100
AcDbCircle
 62
7
  6
CONTINUOUS
 10
7.2554727646
 20
4.5441835715
 40
0.08175
100
AcDbArc
 50
131.6260218921
 51
138.3739781079
  0
ARC
  5
4A7
100
AcDbEntity
  8
ALL_ASSEMBLY_MEMBERS
100
AcDbCircle
 62
7
  6
CONTINUOUS
 10
7.2554727646
 20
4.5441835715
 40
0.08175
100
AcDbArc
 50
109.1260218921
 51
115.8739781079
  0
ARC
  5
4A8
100
AcDbEntity
  8
ALL_ASSEMBLY_MEMBERS
100
AcDbCircle
 62
7
  6
CONTINUOUS
 10
7.2554727646
 20
4.5441835715
 40
0.08175
100
AcDbArc
 50
86.6260218921
 51
93.3739781079
  0
ARC
  5
4A9
100
AcDbEntity
  8
ALL_ASSEMBLY_MEMBERS
100
AcDbCircle
 62
7
  6
CONTINUOUS
 10
7.2554727646
 20
4.5441835715
 40
0.08175
100
AcDbArc
 50
64.1260218921
 51
70.8739781079
  0
ARC
  5
4AA
100
AcDbEntity
  8
ALL_ASSEMBLY_MEMBERS
100
AcDbCircle
 62
7
  6
CONTINUOUS
 10
7.2554727646
 20
4.5441835715
 40
0.08175
100
AcDbArc
 50
41.6260218921
 51
48.3739781079
  0
ARC
  5
4AB
100
AcDbEntity
  8
ALL_ASSEMBLY_MEMBERS
100
AcDbCircle
 62
7
  6
CONTINUOUS
 10
7.2554727646
 20
4.5441835715
 40
0.08175
100
AcDbArc
 50
19.1260218921
 51
25.8739781079
  0
ARC
  5
4AC
100
AcDbEntity
  8
ALL_ASSEMBLY_MEMBERS
100
AcDbCircle
 62
7
  6
CONTINUOUS
 10
7.2554727646
 20
4.5441835715
 40
0.08175
100
AcDbArc
 50
356.6260218921
 51
3.3739781079
  0
ARC
  5
4AD
100
AcDbEntity
  8
ALL_ASSEMBLY_MEMBERS
100
AcDbCircle
 62
7
  6
CONTINUOUS
 10
7.2554727646
 20
4.5441835715
 40
0.08175
100
AcDbArc
 50
334.1260218921
 51
340.8739781079
  0
ARC
  5
4AE
100
AcDbEntity
  8
ALL_ASSEMBLY_MEMBERS
100
AcDbCircle
 62
7
  6
CONTINUOUS
 10
7.2554727646
 20
4.5441835715
 40
0.08175
100
AcDbArc
 50
311.6260218921
 51
318.3739781079
  0
ARC
  5
4AF
100
AcDbEntity
  8
ALL_ASSEMBLY_MEMBERS
100
AcDbCircle
 62
7
  6
CONTINUOUS
 10
7.2554727646
 20
4.5441835715
 40
0.08175
100
AcDbArc
 50
289.1260218921
 51
295.8739781079
  0
ARC
  5
4B0
100
AcDbEntity
  8
ALL_ASSEMBLY_MEMBERS
100
AcDbCircle
 62
7
  6
CONTINUOUS
 10
7.2554727646
 20
4.5441835715
 40
0.08175
100
AcDbArc
 50
266.6260218921
 51
273.3739781079
  0
ARC
  5
4B1
100
AcDbEntity
  8
ALL_ASSEMBLY_MEMBERS
100
AcDbCircle
 62
7
  6
CONTINUOUS
 10
7.2554727646
 20
4.5441835715
 40
0.08175
100
AcDbArc
 50
244.1260218921
 51
250.8739781079
  0
ARC
  5
4B2
100
AcDbEntity
  8
ALL_ASSEMBLY_MEMBERS
100
AcDbCircle
 62
7
  6
CONTINUOUS
 10
7.2554727646
 20
4.5441835715
 40
0.08175
100
AcDbArc
 50
221.6260218921
 51
228.3739781079
  0
ARC
  5
4B3
100
AcDbEntity
  8
ALL_ASSEMBLY_MEMBERS
100
AcDbCircle
 62
7
  6
CONTINUOUS
 10
7.2554727646
 20
4.5441835715
 40
0.08175
100
AcDbArc
 50
199.1260218921
 51
205.8739781079
  0
ARC
  5
4B4
100
AcDbEntity
  8
ALL_ASSEMBLY_MEMBERS
100
AcDbCircle
 62
7
  6
CONTINUOUS
 10
7.2554727646
 20
4.5441835715
 40
0.08175
100
AcDbArc
 50
176.6260218921
 51
183.3739781079
  0
CIRCLE
  5
4B5
100
AcDbEntity
  8
ALL_ASSEMBLY_MEMBERS
100
AcDbCircle
 62
7
  6
CONTINUOUS
 10
7.2554727646
 20
4.5441835715
 40
0.0787401575
  0
CIRCLE
  5
4B6
100
AcDbEntity
  8
ALL_ASSEMBLY_MEMBERS
100
AcDbCircle
 62
9
  6
CONTINUOUS
 10
7.2554727646
 20
4.5441835715
 40
0.0747856107
  0
ARC
  5
4B7
100
AcDbEntity
  8
ALL_ASSEMBLY_MEMBERS
100
AcDbCircle
 62
7
  6
CONTINUOUS
 10
7.2554727646
 20
4.5441835715
 40
0.0466136043
100
AcDbArc
 50
168.8752303572
 51
191.1247696428
  0
ARC
  5
4B8
100
AcDbEntity
  8
ALL_ASSEMBLY_MEMBERS
100
AcDbCircle
 62
7
  6
CONTINUOUS
 10
7.2554727646
 20
4.5441835715
 40
0.0466136043
100
AcDbArc
 50
258.8752303572
 51
281.1247696428
  0
ARC
  5
4B9
100
AcDbEntity
  8
ALL_ASSEMBLY_MEMBERS
100
AcDbCircle
 62
7
  6
CONTINUOUS
 10
7.2554727646
 20
4.5441835715
 40
0.0466136043
100
AcDbArc
 50
348.8752303572
 51
11.1247696428
  0
ARC
  5
4BA
100
AcDbEntity
  8
ALL_ASSEMBLY_MEMBERS
100
AcDbCircle
 62
7
  6
CONTINUOUS
 10
7.2554727646
 20
4.5441835715
 40
0.0466136043
100
AcDbArc
 50
78.8752303572
 51
101.1247696428
  0
ARC
  5
4BB
100
AcDbEntity
  8
ALL_ASSEMBLY_MEMBERS
100
AcDbCircle
 62
7
  6
CONTINUOUS
 10
7.2554727646
 20
4.5441835715
 40
0.0353140527
100
AcDbArc
 50
261.3609822788
 51
278.6390177212
  0
ARC
  5
4BC
100
AcDbEntity
  8
ALL_ASSEMBLY_MEMBERS
100
AcDbCircle
 62
7
  6
CONTINUOUS
 10
7.2554727646
 20
4.5441835715
 40
0.0353140527
100
AcDbArc
 50
171.3609822788
 51
188.6390177212
  0
ARC
  5
4BD
100
AcDbEntity
  8
ALL_ASSEMBLY_MEMBERS
100
AcDbCircle
 62
7
  6
CONTINUOUS
 10
7.2554727646
 20
4.5441835715
 40
0.0353140527
100
AcDbArc
 50
81.3609822788
 51
98.6390177212
  0
ARC
  5
4BE
100
AcDbEntity
  8
ALL_ASSEMBLY_MEMBERS
100
AcDbCircle
 62
7
  6
CONTINUOUS
 10
7.2554727646
 20
4.5441835715
 40
0.0353140527
100
AcDbArc
 50
351.3609822788
 51
8.6390177212
  0
ARC
  5
4BF
100
AcDbEntity
  8
0
100
AcDbCircle
 62
7
  6
CONTINUOUS
 10
7.2622976262
 20
4.5471363156
 40
0.3189501325
100
AcDbArc
 50
287.2944170152
 51
292.9964023902
  0
ARC
  5
4C0
100
AcDbEntity
  8
0
100
AcDbCircle
 62
7
  6
CONTINUOUS
 10
7.2623904994
 20
4.5468430525
 40
0.3186425184
100
AcDbArc
 50
287.1160447205
 51
287.2941486425
  0
ARC
  5
4C1
100
AcDbEntity
  8
0
100
AcDbCircle
 62
7
  6
CONTINUOUS
 10
7.2625319079
 20
4.5465788737
 40
0.3183454632
100
AcDbArc
 50
292.996782965
 51
294.3586304457
  0
ARC
  5
4C2
100
AcDbEntity
  8
0
100
AcDbCircle
 62
7
  6
CONTINUOUS
 10
7.2629035199
 20
4.5448635787
 40
0.316599342
100
AcDbArc
 50
261.9020764259
 51
287.1327440736
  0
ARC
  5
4C3
100
AcDbEntity
  8
0
100
AcDbCircle
 62
7
  6
CONTINUOUS
 10
7.2582727103
 20
4.5510980326
 40
0.3247145435
100
AcDbArc
 50
334.2913905833
 51
335.1134325725
  0
ARC
  5
4C4
100
AcDbEntity
  8
0
100
AcDbCircle
 62
7
  6
CONTINUOUS
 10
7.2589163195
 20
4.5508019457
 40
0.324006098
100
AcDbArc
 50
335.1130342279
 51
337.684603235
  0
ARC
  5
4C5
100
AcDbEntity
  8
0
100
AcDbCircle
 62
7
  6
CONTINUOUS
 10
7.260005723
 20
4.5503447658
 40
0.3228246891
100
AcDbArc
 50
337.6862518727
 51
337.9925956835
  0
ARC
  5
4C6
100
AcDbEntity
  8
ALL_ASSEMBLY_MEMBERS
100
AcDbCircle
 62
7
  6
CONTINUOUS
 10
7.3178442134
 20
4.637558842
 40
0.04
100
AcDbArc
 50
295.0044481461
 51
300.3626295344
  0
ARC
  5
4C7
100
AcDbEntity
  8
ALL_ASSEMBLY_MEMBERS
100
AcDbCircle
 62
7
  6
CONTINUOUS
 10
7.2001383211
 20
4.6045221947
 40
0.02
100
AcDbArc
 50
145.4603963576
 51
174.0047931342
  0
ARC
  5
4C8
100
AcDbEntity
  8
ALL_ASSEMBLY_MEMBERS
100
AcDbCircle
 62
7
  6
CONTINUOUS
 10
7.2001383211
 20
4.6045221947
 40
0.02
100
AcDbArc
 50
90.9754904762
 51
120.1162314906
  0
ARC
  5
4C9
100
AcDbEntity
  8
ALL_ASSEMBLY_MEMBERS
100
AcDbCircle
 62
7
  6
CONTINUOUS
 10
7.3178442134
 20
4.637558842
 40
0.02
100
AcDbArc
 50
275.7716553414
 51
288.972859795
  0
ARC
  5
4CA
100
AcDbEntity
  8
0
100
AcDbCircle
 62
7
  6
CONTINUOUS
 10
7.7967739457
 20
4.5441835715
 40
0.069
100
AcDbArc
 50
90.0
 51
270.0
  0
ARC
  5
4CB
100
AcDbEntity
  8
ALL_ASSEMBLY_MEMBERS
100
AcDbCircle
 62
7
  6
CONTINUOUS
 10
8.4055812373
 20
4.5473028528
 40
1.1598856318
100
AcDbArc
 50
177.8942703704
 51
178.9411171084
  0
ARC
  5
4CC
100
AcDbEntity
  8
0
100
AcDbCircle
 62
7
  6
CONTINUOUS
 10
7.9641341819
 20
4.6622938078
 40
0.0787401575
100
AcDbArc
 50
0.0
 51
90.0
  0
ARC
  5
4CD
100
AcDbEntity
  8
0
100
AcDbCircle
 62
7
  6
CONTINUOUS
 10
7.8952739457
 20
4.5441835715
 40
0.069
100
AcDbArc
 50
270.0
 51
90.0
  0
ARC
  5
4CE
100
AcDbEntity
  8
ALL_ASSEMBLY_MEMBERS
100
AcDbCircle
 62
7
  6
CONTINUOUS
 10
8.4458918892
 20
5.0370507007
 40
1.3067976999
100
AcDbArc
 50
202.8245146187
 51
203.3249727038
  0
ARC
  5
4CF
100
AcDbEntity
  8
ALL_ASSEMBLY_MEMBERS
100
AcDbCircle
 62
7
  6
CONTINUOUS
 10
8.5290677059
 20
6.2774424816
 40
5.4974143094
100
AcDbArc
 50
198.761957634
 51
198.8811452519
  0
ARC
  5
4D0
100
AcDbEntity
  8
ALL_ASSEMBLY_MEMBERS
100
AcDbCircle
 62
7
  6
CONTINUOUS
 10
7.751233692
 20
5.7413954069
 40
1.3141810564
100
AcDbArc
 50
246.6764331465
 51
247.174079531
  0
ARC
  5
4D1
100
AcDbEntity
  8
ALL_ASSEMBLY_MEMBERS
100
AcDbCircle
 62
7
  6
CONTINUOUS
 10
7.2585919562
 20
5.69429529
 40
1.1598888787
100
AcDbArc
 50
271.0588843569
 51
272.1057281644
  0
ARC
  5
4D2
100
AcDbEntity
  8
ALL_ASSEMBLY_MEMBERS
100
AcDbCircle
 62
7
  6
CONTINUOUS
 10
7.2523535729
 20
5.69429529
 40
1.1598888787
100
AcDbArc
 50
267.8942718356
 51
268.9411156431
  0
ARC
  5
4D3
100
AcDbEntity
  8
ALL_ASSEMBLY_MEMBERS
100
AcDbCircle
 62
7
  6
CONTINUOUS
 10
5.5222138541
 20
9.754786388
 40
5.4974143105
100
AcDbArc
 50
288.761957634
 51
288.8811452519
  0
ARC
  5
4D4
100
AcDbEntity
  8
ALL_ASSEMBLY_MEMBERS
100
AcDbCircle
 62
7
  6
CONTINUOUS
 10
12.4660755775
 20
6.2774424808
 40
5.4974143069
100
AcDbArc
 50
198.761957634
 51
198.8811452519
  0
ARC
  5
4D5
100
AcDbEntity
  8
ALL_ASSEMBLY_MEMBERS
100
AcDbCircle
 62
7
  6
CONTINUOUS
 10
8.9887316751
 20
9.7547863882
 40
5.4974143107
100
AcDbArc
 50
251.1188547481
 51
251.238042366
  0
SPLINE
  5
4D6
100
AcDbEntity
  8
ALL_ASSEMBLY_MEMBERS
100
AcDbSpline
 62
7
  6
CONTINUOUS
 70
0
 71
3
 72
40
 73
36
 74
0
 42
0.0000001
 43
0.0000001
 44
0.0000000001
 40
0.0
 40
0.0
 40
0.0
 40
0.0
 40
0.0312314816
 40
0.0624985231
 40
0.0937584466
 40
0.1250070481
 40
0.1562549099
 40
0.1875054315
 40
0.2187550545
 40
0.2500037099
 40
0.2812522056
 40
0.3125021196
 40
0.3437525294
 40
0.3750037623
 40
0.406254665
 40
0.4375050105
 40
0.468754417
 40
0.5000028369
 40
0.5312510851
 40
0.5624998629
 40
0.5937492989
 40
0.6249981999
 40
0.6406270843
 40
0.6562557621
 40
0.6875035736
 40
0.718751357
 40
0.7499987013
 40
0.7812470016
 40
0.8124969508
 40
0.8437488589
 40
0.8749981069
 40
0.9062459543
 40
0.9375029743
 40
0.9687691954
 40
1.0
 40
1.0
 40
1.0
 40
1.0
 10
3.458464249
 20
4.5587005313
 30
0.0
 10
3.4579403322
 20
4.5629980938
 30
0.0
 10
3.4564915248
 20
4.5715545404
 30
0.0
 10
3.4531479165
 20
4.5841323578
 30
0.0
 10
3.448650311
 20
4.5963491196
 30
0.0
 10
3.4430410675
 20
4.6080937561
 30
0.0
 10
3.4363647588
 20
4.61926502
 30
0.0
 10
3.4286792705
 20
4.6297677135
 30
0.0
 10
3.4200486727
 20
4.6395090259
 30
0.0
 10
3.4105458491
 20
4.6484011309
 30
0.0
 10
3.4002540181
 20
4.6563670123
 30
0.0
 10
3.3892601324
 20
4.6633325101
 30
0.0
 10
3.377662032
 20
4.6692385083
 30
0.0
 10
3.3655588438
 20
4.6740253579
 30
0.0
 10
3.3530596825
 20
4.6776549511
 30
0.0
 10
3.3402734345
 20
4.6800860388
 30
0.0
 10
3.3273153266
 20
4.6813016828
 30
0.0
 10
3.3143005164
 20
4.6812826948
 30
0.0
 10
3.3013459557
 20
4.6800326285
 30
0.0
 10
3.2885687069
 20
4.6775556067
 30
0.0
 10
3.2760849256
 20
4.6738764128
 30
0.0
 10
3.2660192869
 20
4.6698310354
 30
0.0
 10
3.2582292633
 20
4.666030592
 30
0.0
 10
3.2506294152
 20
4.6618631379
 30
0.0
 10
3.2415173112
 20
4.6559771363
 30
0.0
 10
3.2313120874
 20
4.647900802
 30
0.0
 10
3.221928184
 20
4.6388821552
 30
0.0
 10
3.213455324
 20
4.6290024167
 30
0.0
 10
3.2059724667
 20
4.6183522351
 30
0.0
 10
3.1995538294
 20
4.6070286548
 30
0.0
 10
3.1942571695
 20
4.5951390099
 30
0.0
 10
3.1901392226
 20
4.5827907581
 30
0.0
 10
3.1872369194
 20
4.5700987501
 30
0.0
 10
3.1855865302
 20
4.5571878562
 30
0.0
 10
3.1853256006
 20
4.5485120742
 30
0.0
 10
3.1854079716
 20
4.5441835715
 30
0.0
  0
SPLINE
  5
4D7
100
AcDbEntity
  8
ALL_ASSEMBLY_MEMBERS
100
AcDbSpline
 62
7
  6
CONTINUOUS
 70
0
 71
3
 72
21
 73
17
 74
0
 42
0.0000001
 43
0.0000001
 44
0.0000000001
 40
0.0
 40
0.0
 40
0.0
 40
0.0
 40
0.0625173606
 40
0.12503459
 40
0.187555421
 40
0.2500775317
 40
0.3126018559
 40
0.3751254792
 40
0.4376487109
 40
0.5001681753
 40
0.5626848967
 40
0.6252028537
 40
0.6877261043
 40
0.7502458468
 40
0.8751278803
 40
1.0
 40
1.0
 40
1.0
 40
1.0
 10
3.2141083102
 20
4.4643309176
 30
0.0
 10
3.2168602936
 20
4.4608749059
 30
0.0
 10
3.222717229
 20
4.4542356467
 30
0.0
 10
3.2324594692
 20
4.4452176105
 30
0.0
 10
3.2430659294
 20
4.4372310556
 30
0.0
 10
3.2544264408
 20
4.4303587441
 30
0.0
 10
3.266427507
 20
4.4246777879
 30
0.0
 10
3.2789435503
 20
4.4202446892
 30
0.0
 10
3.2918468729
 20
4.4171140615
 30
0.0
 10
3.3050015958
 20
4.4153144213
 30
0.0
 10
3.3182713532
 20
4.4148739635
 30
0.0
 10
3.3315165885
 20
4.4157938686
 30
0.0
 10
3.344597893
 20
4.4180742954
 30
0.0
 10
3.3616194241
 20
4.4228832623
 30
0.0
 10
3.3818235414
 20
4.4321598841
 30
0.0
 10
3.3961146829
 20
4.4427655405
 30
0.0
 10
3.4026164446
 20
4.4487316024
 30
0.0
  0
SPLINE
  5
4D8
100
AcDbEntity
  8
ALL_ASSEMBLY_MEMBERS
100
AcDbSpline
 62
7
  6
CONTINUOUS
 70
0
 71
3
 72
20
 73
16
 74
0
 42
0.0000001
 43
0.0000001
 44
0.0000000001
 40
0.0
 40
0.0
 40
0.0
 40
0.0
 40
0.1249424358
 40
0.1874961045
 40
0.2500232404
 40
0.3125366302
 40
0.3750538724
 40
0.4375748637
 40
0.5000937344
 40
0.6250237067
 40
0.7499479506
 40
0.8124517264
 40
0.8749513079
 40
0.9374621636
 40
1.0
 40
1.0
 40
1.0
 40
1.0
 10
3.4269142799
 20
4.4544657225
 30
0.0
 10
3.4310948898
 20
4.4602796097
 30
0.0
 10
3.4367102332
 20
4.4695075116
 30
0.0
 10
3.4426994546
 20
4.4825363876
 30
0.0
 10
3.4464195205
 20
4.492636658
 30
0.0
 10
3.4493394188
 20
4.5029933791
 30
0.0
 10
3.4514348215
 20
4.5135477638
 30
0.0
 10
3.4526917145
 20
4.5242354322
 30
0.0
 10
3.4532310972
 20
4.538564604
 30
0.0
 10
3.451752626
 20
4.5564893004
 30
0.0
 10
3.4474008287
 20
4.5739418194
 30
0.0
 10
3.4422586908
 20
4.5873257446
 30
0.0
 10
3.4375856671
 20
4.5970180657
 30
0.0
 10
3.4321278429
 20
4.6062919882
 30
0.0
 10
3.4279836822
 20
4.6121515753
 30
0.0
 10
3.4257934704
 20
4.6149888318
 30
0.0
  0
SPLINE
  5
4D9
100
AcDbEntity
  8
ALL_ASSEMBLY_MEMBERS
100
AcDbSpline
 62
7
  6
CONTINUOUS
 70
0
 71
3
 72
40
 73
36
 74
0
 42
0.0000001
 43
0.0000001
 44
0.0000000001
 40
0.0
 40
0.0
 40
0.0
 40
0.0
 40
0.0312314816
 40
0.0624985231
 40
0.0937584466
 40
0.1250070481
 40
0.1562549099
 40
0.1875054315
 40
0.2187550545
 40
0.2500037099
 40
0.2812522056
 40
0.3125021196
 40
0.3437525294
 40
0.3750037623
 40
0.406254665
 40
0.4375050105
 40
0.468754417
 40
0.5000028369
 40
0.5312510851
 40
0.5624998629
 40
0.5937492989
 40
0.6249981999
 40
0.6406270843
 40
0.6562557621
 40
0.6875035736
 40
0.718751357
 40
0.7499987013
 40
0.7812470016
 40
0.8124969508
 40
0.8437488589
 40
0.8749981069
 40
0.9062459543
 40
0.9375029743
 40
0.9687691954
 40
1.0
 40
1.0
 40
1.0
 40
1.0
 10
7.3954721231
 20
4.5587005313
 30
0.0
 10
7.3949482062
 20
4.5629980938
 30
0.0
 10
7.3934993989
 20
4.5715545404
 30
0.0
 10
7.3901557905
 20
4.5841323578
 30
0.0
 10
7.385658185
 20
4.5963491196
 30
0.0
 10
7.3800489415
 20
4.6080937561
 30
0.0
 10
7.3733726328
 20
4.61926502
 30
0.0
 10
7.3656871445
 20
4.6297677135
 30
0.0
 10
7.3570565467
 20
4.6395090259
 30
0.0
 10
7.3475537231
 20
4.6484011309
 30
0.0
 10
7.3372618921
 20
4.6563670123
 30
0.0
 10
7.3262680064
 20
4.6633325101
 30
0.0
 10
7.314669906
 20
4.6692385083
 30
0.0
 10
7.3025667178
 20
4.6740253579
 30
0.0
 10
7.2900675565
 20
4.6776549511
 30
0.0
 10
7.2772813086
 20
4.6800860388
 30
0.0
 10
7.2643232006
 20
4.6813016828
 30
0.0
 10
7.2513083904
 20
4.6812826948
 30
0.0
 10
7.2383538297
 20
4.6800326285
 30
0.0
 10
7.2255765809
 20
4.6775556067
 30
0.0
 10
7.2130927996
 20
4.6738764128
 30
0.0
 10
7.2030271609
 20
4.6698310354
 30
0.0
 10
7.1952371374
 20
4.666030592
 30
0.0
 10
7.1876372892
 20
4.6618631379
 30
0.0
 10
7.1785251852
 20
4.6559771363
 30
0.0
 10
7.1683199614
 20
4.647900802
 30
0.0
 10
7.158936058
 20
4.6388821552
 30
0.0
 10
7.150463198
 20
4.6290024167
 30
0.0
 10
7.1429803407
 20
4.6183522351
 30
0.0
 10
7.1365617034
 20
4.6070286548
 30
0.0
 10
7.1312650435
 20
4.5951390099
 30
0.0
 10
7.1271470966
 20
4.5827907581
 30
0.0
 10
7.1242447934
 20
4.5700987501
 30
0.0
 10
7.1225944042
 20
4.5571878562
 30
0.0
 10
7.1223334746
 20
4.5485120742
 30
0.0
 10
7.1224158456
 20
4.5441835715
 30
0.0
  0
SPLINE
  5
4DA
100
AcDbEntity
  8
ALL_ASSEMBLY_MEMBERS
100
AcDbSpline
 62
7
  6
CONTINUOUS
 70
0
 71
3
 72
21
 73
17
 74
0
 42
0.0000001
 43
0.0000001
 44
0.0000000001
 40
0.0
 40
0.0
 40
0.0
 40
0.0
 40
0.0625173606
 40
0.12503459
 40
0.187555421
 40
0.2500775317
 40
0.3126018559
 40
0.3751254792
 40
0.4376487109
 40
0.5001681753
 40
0.5626848967
 40
0.6252028537
 40
0.6877261043
 40
0.7502458468
 40
0.8751278803
 40
1.0
 40
1.0
 40
1.0
 40
1.0
 10
7.1511161842
 20
4.4643309176
 30
0.0
 10
7.1538681676
 20
4.4608749059
 30
0.0
 10
7.159725103
 20
4.4542356467
 30
0.0
 10
7.1694673432
 20
4.4452176105
 30
0.0
 10
7.1800738034
 20
4.4372310556
 30
0.0
 10
7.1914343149
 20
4.4303587441
 30
0.0
 10
7.203435381
 20
4.4246777879
 30
0.0
 10
7.2159514243
 20
4.4202446892
 30
0.0
 10
7.2288547469
 20
4.4171140615
 30
0.0
 10
7.2420094698
 20
4.4153144213
 30
0.0
 10
7.2552792272
 20
4.4148739635
 30
0.0
 10
7.2685244625
 20
4.4157938686
 30
0.0
 10
7.281605767
 20
4.4180742954
 30
0.0
 10
7.2986272981
 20
4.4228832623
 30
0.0
 10
7.3188314154
 20
4.4321598841
 30
0.0
 10
7.3331225569
 20
4.4427655405
 30
0.0
 10
7.3396243186
 20
4.4487316024
 30
0.0
  0
SPLINE
  5
4DB
100
AcDbEntity
  8
ALL_ASSEMBLY_MEMBERS
100
AcDbSpline
 62
7
  6
CONTINUOUS
 70
0
 71
3
 72
20
 73
16
 74
0
 42
0.0000001
 43
0.0000001
 44
0.0000000001
 40
0.0
 40
0.0
 40
0.0
 40
0.0
 40
0.1249424358
 40
0.1874961045
 40
0.2500232404
 40
0.3125366302
 40
0.3750538724
 40
0.4375748637
 40
0.5000937344
 40
0.6250237067
 40
0.7499479506
 40
0.8124517264
 40
0.8749513079
 40
0.9374621636
 40
1.0
 40
1.0
 40
1.0
 40
1.0
 10
7.3639221539
 20
4.4544657225
 30
0.0
 10
7.3681027638
 20
4.4602796097
 30
0.0
 10
7.3737181072
 20
4.4695075116
 30
0.0
 10
7.3797073286
 20
4.4825363876
 30
0.0
 10
7.3834273946
 20
4.492636658
 30
0.0
 10
7.3863472928
 20
4.5029933791
 30
0.0
 10
7.3884426955
 20
4.5135477638
 30
0.0
 10
7.3896995885
 20
4.5242354322
 30
0.0
 10
7.3902389712
 20
4.538564604
 30
0.0
 10
7.3887605
 20
4.5564893004
 30
0.0
 10
7.3844087027
 20
4.5739418194
 30
0.0
 10
7.3792665648
 20
4.5873257446
 30
0.0
 10
7.3745935411
 20
4.5970180657
 30
0.0
 10
7.3691357169
 20
4.6062919882
 30
0.0
 10
7.3649915562
 20
4.6121515753
 30
0.0
 10
7.3628013444
 20
4.6149888318
 30
0.0
  0
SPLINE
  5
4DC
100
AcDbEntity
  8
ALL_ASSEMBLY_MEMBERS
100
AcDbSpline
 62
7
  6
CONTINUOUS
 70
0
 71
3
 72
21
 73
17
 74
0
 42
0.0000001
 43
0.0000001
 44
0.0000000001
 40
0.0
 40
0.0
 40
0.0
 40
0.0
 40
0.1249074912
 40
0.1874414323
 40
0.2499529613
 40
0.3124594037
 40
0.3749735707
 40
0.4374909133
 40
0.5000059575
 40
0.562519051
 40
0.6250306612
 40
0.7499504044
 40
0.8124617784
 40
0.8749736931
 40
0.9374861055
 40
1.0
 40
1.0
 40
1.0
 40
1.0
 10
3.5530058386
 20
4.5441835715
 30
0.0
 10
3.5528986744
 20
4.5568379259
 30
0.0
 10
3.5511892872
 20
4.575861556
 30
0.0
 10
3.5458770307
 20
4.6006408174
 30
0.0
 10
3.5403922749
 20
4.6188572877
 30
0.0
 10
3.5334493646
 20
4.6365648458
 30
0.0
 10
3.5250880948
 20
4.6536497161
 30
0.0
 10
3.5153696446
 20
4.6700017385
 30
0.0
 10
3.5043506497
 20
4.6855066967
 30
0.0
 10
3.4921060612
 20
4.7000646125
 30
0.0
 10
3.4742687346
 20
4.7180683896
 30
0.0
 10
3.4542765904
 20
4.7338295344
 30
0.0
 10
3.4326027469
 20
4.7469652332
 30
0.0
 10
3.4155855537
 20
4.7554668998
 30
0.0
 10
3.3979321732
 20
4.7625464562
 30
0.0
 10
3.38581304
 20
4.7662883257
 30
0.0
 10
3.3796901472
 20
4.767908011
 30
0.0
  0
SPLINE
  5
4DD
100
AcDbEntity
  8
ALL_ASSEMBLY_MEMBERS
100
AcDbSpline
 62
7
  6
CONTINUOUS
 70
0
 71
3
 72
26
 73
22
 74
0
 42
0.0000001
 43
0.0000001
 44
0.0000000001
 40
0.0
 40
0.0
 40
0.0
 40
0.0
 40
0.062497202
 40
0.0937550928
 40
0.1250129132
 40
0.1875090522
 40
0.2500057963
 40
0.3125024055
 40
0.3749999792
 40
0.4374963893
 40
0.4999924553
 40
0.5624878632
 40
0.624984193
 40
0.6562416258
 40
0.6874989327
 40
0.7187565933
 40
0.7500146943
 40
0.8125136839
 40
0.8750146647
 40
0.9375082086
 40
1.0
 40
1.0
 40
1.0
 40
1.0
 10
3.3789197842
 20
4.7681103817
 30
0.0
 10
3.371615672
 20
4.7700157516
 30
0.0
 10
3.3605086643
 20
4.772340678
 30
0.0
 10
3.3455381614
 20
4.7743415218
 30
0.0
 10
3.3304869895
 20
4.7756105378
 30
0.0
 10
3.3115830738
 20
4.7758135592
 30
0.0
 10
3.2889886317
 20
4.7738362768
 30
0.0
 10
3.2666943293
 20
4.7696600795
 30
0.0
 10
3.2449171836
 20
4.7633180525
 30
0.0
 10
3.223865384
 20
4.7548748861
 30
0.0
 10
3.203744649
 20
4.7444047204
 30
0.0
 10
3.1847482632
 20
4.7320128278
 30
0.0
 10
3.1700076177
 20
4.7201753239
 30
0.0
 10
3.1589590659
 20
4.7098766232
 30
0.0
 10
3.1510621165
 20
4.7017510273
 30
0.0
 10
3.1435755351
 20
4.6932457836
 30
0.0
 10
3.1341652206
 20
4.6814308045
 30
0.0
 10
3.1235121621
 20
4.6658112014
 30
0.0
 10
3.1126440285
 20
4.6459022084
 30
0.0
 10
3.1037896471
 20
4.6250216439
 30
0.0
 10
3.0992917622
 20
4.610580756
 30
0.0
 10
3.0974058523
 20
4.60327227
 30
0.0
  0
LINE
  5
4DE
100
AcDbEntity
  8
ALL_ASSEMBLY_MEMBERS
100
AcDbLine
 62
7
  6
CONTINUOUS
 10
3.0974058523
 20
4.60327227
 11
3.0972685928
 21
4.6027376826
  0
SPLINE
  5
4DF
100
AcDbEntity
  8
ALL_ASSEMBLY_MEMBERS
100
AcDbSpline
 62
7
  6
CONTINUOUS
 70
0
 71
3
 72
21
 73
17
 74
0
 42
0.0000001
 43
0.0000001
 44
0.0000000001
 40
0.0
 40
0.0
 40
0.0
 40
0.0
 40
0.1249028734
 40
0.1874339938
 40
0.2499441106
 40
0.3124503453
 40
0.3749632167
 40
0.4374766232
 40
0.4999860613
 40
0.5624939394
 40
0.6250035027
 40
0.6875144889
 40
0.7500208691
 40
0.8125270974
 40
0.8750502844
 40
1.0
 40
1.0
 40
1.0
 40
1.0
 10
3.0901638523
 20
4.5441835715
 30
0.0
 10
3.0902730216
 20
4.5316354211
 30
0.0
 10
3.0920010369
 20
4.5127702708
 30
0.0
 10
3.0973688737
 20
4.4882198459
 30
0.0
 10
3.1029081026
 20
4.4701856304
 30
0.0
 10
3.1099181759
 20
4.4526750754
 30
0.0
 10
3.1183553966
 20
4.4358047865
 30
0.0
 10
3.1281568677
 20
4.4196885105
 30
0.0
 10
3.1392636111
 20
4.4044429025
 30
0.0
 10
3.1515939824
 20
4.3901693558
 30
0.0
 10
3.1650684242
 20
4.3769700811
 30
0.0
 10
3.1795919043
 20
4.3649348896
 30
0.0
 10
3.1950634369
 20
4.3541470026
 30
0.0
 10
3.2113833863
 20
4.344684319
 30
0.0
 10
3.2340989604
 20
4.3339263951
 30
0.0
 10
3.2521056306
 20
4.3280205952
 30
0.0
 10
3.2643179041
 20
4.3251143079
 30
0.0
  0
LINE
  5
4E0
100
AcDbEntity
  8
ALL_ASSEMBLY_MEMBERS
100
AcDbLine
 62
7
  6
CONTINUOUS
 10
3.4725222307
 20
4.3650735539
 11
3.4729679467
 21
4.3654644863
  0
SPLINE
  5
4E1
100
AcDbEntity
  8
ALL_ASSEMBLY_MEMBERS
100
AcDbSpline
 62
7
  6
CONTINUOUS
 70
0
 71
3
 72
15
 73
11
 74
0
 42
0.0000001
 43
0.0000001
 44
0.0000000001
 40
0.0
 40
0.0
 40
0.0
 40
0.0
 40
0.1249709519
 40
0.2500054918
 40
0.3749966191
 40
0.4999972641
 40
0.6249989086
 40
0.749995096
 40
0.8750336095
 40
1.0
 40
1.0
 40
1.0
 40
1.0
 10
3.4729679467
 20
4.3654644863
 30
0.0
 10
3.4792828509
 20
4.3710173177
 30
0.0
 10
3.4913308011
 20
4.3828119578
 30
0.0
 10
3.5074068156
 20
4.4023201125
 30
0.0
 10
3.5213070663
 20
4.4234401038
 30
0.0
 10
3.53286543
 20
4.4459238471
 30
0.0
 10
3.5419551479
 20
4.469514375
 30
0.0
 10
3.5484637099
 20
4.4939471004
 30
0.0
 10
3.5523111226
 20
4.5189318776
 30
0.0
 10
3.5530770459
 20
4.5357751402
 30
0.0
 10
3.5530058386
 20
4.5441835715
 30
0.0
  0
SPLINE
  5
4E2
100
AcDbEntity
  8
ALL_ASSEMBLY_MEMBERS
100
AcDbSpline
 62
7
  6
CONTINUOUS
 70
0
 71
3
 72
15
 73
11
 74
0
 42
0.0000001
 43
0.0000001
 44
0.0000000001
 40
0.0
 40
0.0
 40
0.0
 40
0.0
 40
0.1250519163
 40
0.2500715525
 40
0.3750559176
 40
0.5000329618
 40
0.6250201973
 40
0.7500141729
 40
0.8750070073
 40
1.0
 40
1.0
 40
1.0
 40
1.0
 10
3.5340359407
 20
4.4751928808
 30
0.0
 10
3.5325980723
 20
4.4701352163
 30
0.0
 10
3.5293702373
 20
4.4601175365
 30
0.0
 10
3.5234950077
 20
4.4454697088
 30
0.0
 10
3.5166192909
 20
4.4312668042
 30
0.0
 10
3.5087784862
 20
4.4175748148
 30
0.0
 10
3.5000100042
 20
4.4044572024
 30
0.0
 10
3.4903606083
 20
4.3919723143
 30
0.0
 10
3.4798751338
 20
4.3801815397
 30
0.0
 10
3.472360862
 20
4.372817748
 30
0.0
 10
3.4684837154
 20
4.3692696328
 30
0.0
  0
SPLINE
  5
4E3
100
AcDbEntity
  8
ALL_ASSEMBLY_MEMBERS
100
AcDbSpline
 62
7
  6
CONTINUOUS
 70
0
 71
3
 72
18
 73
14
 74
0
 42
0.0000001
 43
0.0000001
 44
0.0000000001
 40
0.0
 40
0.0
 40
0.0
 40
0.0
 40
0.1249825325
 40
0.1874946617
 40
0.2500083736
 40
0.3125230555
 40
0.3750383815
 40
0.4375536595
 40
0.500066622
 40
0.6250407722
 40
0.750028332
 40
0.875060684
 40
1.0
 40
1.0
 40
1.0
 40
1.0
 10
3.4684837154
 20
4.3692696328
 30
0.0
 10
3.4628576473
 20
4.3641210171
 30
0.0
 10
3.4540252457
 20
4.3568101114
 30
0.0
 10
3.4415796263
 20
4.3479807858
 30
0.0
 10
3.4319267824
 20
4.3418250243
 30
0.0
 10
3.4219821969
 20
4.3361532202
 30
0.0
 10
3.4117693678
 20
4.3309796689
 30
0.0
 10
3.4013144267
 20
4.326314534
 30
0.0
 10
3.3870909122
 20
4.3207865533
 30
0.0
 10
3.3688271189
 20
4.3151964618
 30
0.0
 10
3.3463625029
 20
4.3106608651
 30
0.0
 10
3.3235660937
 20
4.3083390429
 30
0.0
 10
3.308284992
 20
4.3082692136
 30
0.0
 10
3.3006686903
 20
4.3086047997
 30
0.0
  0
SPLINE
  5
4E4
100
AcDbEntity
  8
ALL_ASSEMBLY_MEMBERS
100
AcDbSpline
 62
7
  6
CONTINUOUS
 70
0
 71
3
 72
21
 73
17
 74
0
 42
0.0000001
 43
0.0000001
 44
0.0000000001
 40
0.0
 40
0.0
 40
0.0
 40
0.0
 40
0.1249074912
 40
0.1874414323
 40
0.2499529613
 40
0.3124594037
 40
0.3749735707
 40
0.4374909133
 40
0.5000059575
 40
0.562519051
 40
0.6250306612
 40
0.7499504044
 40
0.8124617784
 40
0.8749736931
 40
0.9374861055
 40
1.0
 40
1.0
 40
1.0
 40
1.0
 10
7.2554727646
 20
4.7787245196
 30
0.0
 10
7.2428184102
 20
4.7786173554
 30
0.0
 10
7.2237947801
 20
4.7769079682
 30
0.0
 10
7.1990155187
 20
4.7715957117
 30
0.0
 10
7.1807990484
 20
4.7661109559
 30
0.0
 10
7.1630914903
 20
4.7591680456
 30
0.0
 10
7.14600662
 20
4.7508067758
 30
0.0
 10
7.1296545976
 20
4.7410883256
 30
0.0
 10
7.1141496394
 20
4.7300693307
 30
0.0
 10
7.0995917236
 20
4.7178247422
 30
0.0
 10
7.0815879465
 20
4.6999874156
 30
0.0
 10
7.0658268017
 20
4.6799952714
 30
0.0
 10
7.0526911029
 20
4.6583214279
 30
0.0
 10
7.0441894363
 20
4.6413042347
 30
0.0
 10
7.0371098798
 20
4.6236508542
 30
0.0
 10
7.0333680104
 20
4.611531721
 30
0.0
 10
7.0317483251
 20
4.6054088282
 30
0.0
  0
SPLINE
  5
4E5
100
AcDbEntity
  8
ALL_ASSEMBLY_MEMBERS
100
AcDbSpline
 62
7
  6
CONTINUOUS
 70
0
 71
3
 72
26
 73
22
 74
0
 42
0.0000001
 43
0.0000001
 44
0.0000000001
 40
0.0
 40
0.0
 40
0.0
 40
0.0
 40
0.062497202
 40
0.0937550928
 40
0.1250129132
 40
0.1875090522
 40
0.2500057963
 40
0.3125024055
 40
0.3749999792
 40
0.4374963893
 40
0.4999924553
 40
0.5624878632
 40
0.624984193
 40
0.6562416258
 40
0.6874989327
 40
0.7187565933
 40
0.7500146943
 40
0.8125136839
 40
0.8750146647
 40
0.9375082086
 40
1.0
 40
1.0
 40
1.0
 40
1.0
 10
7.0315459544
 20
4.6046384652
 30
0.0
 10
7.0296405845
 20
4.597334353
 30
0.0
 10
7.0273156581
 20
4.5862273453
 30
0.0
 10
7.0253148143
 20
4.5712568424
 30
0.0
 10
7.0240457983
 20
4.5562056705
 30
0.0
 10
7.0238427769
 20
4.5373017548
 30
0.0
 10
7.0258200593
 20
4.5147073127
 30
0.0
 10
7.0299962565
 20
4.4924130103
 30
0.0
 10
7.0363382836
 20
4.4706358646
 30
0.0
 10
7.04478145
 20
4.449584065
 30
0.0
 10
7.0552516157
 20
4.42946333
 30
0.0
 10
7.0676435083
 20
4.4104669442
 30
0.0
 10
7.0794810122
 20
4.3957262987
 30
0.0
 10
7.0897797129
 20
4.3846777469
 30
0.0
 10
7.0979053088
 20
4.3767807975
 30
0.0
 10
7.1064105525
 20
4.3692942161
 30
0.0
 10
7.1182255316
 20
4.3598839016
 30
0.0
 10
7.1338451347
 20
4.3492308431
 30
0.0
 10
7.1537541276
 20
4.3383627095
 30
0.0
 10
7.1746346922
 20
4.3295083281
 30
0.0
 10
7.1890755801
 20
4.3250104432
 30
0.0
 10
7.1963840661
 20
4.3231245333
 30
0.0
  0
LINE
  5
4E6
100
AcDbEntity
  8
ALL_ASSEMBLY_MEMBERS
100
AcDbLine
 62
7
  6
CONTINUOUS
 10
7.1963840661
 20
4.3231245333
 11
7.1969186535
 21
4.3229872738
  0
SPLINE
  5
4E7
100
AcDbEntity
  8
ALL_ASSEMBLY_MEMBERS
100
AcDbSpline
 62
7
  6
CONTINUOUS
 70
0
 71
3
 72
21
 73
17
 74
0
 42
0.0000001
 43
0.0000001
 44
0.0000000001
 40
0.0
 40
0.0
 40
0.0
 40
0.0
 40
0.1249028734
 40
0.1874339938
 40
0.2499441106
 40
0.3124503453
 40
0.3749632167
 40
0.4374766232
 40
0.4999860613
 40
0.5624939394
 40
0.6250035027
 40
0.6875144889
 40
0.7500208691
 40
0.8125270974
 40
0.8750502844
 40
1.0
 40
1.0
 40
1.0
 40
1.0
 10
7.2554727646
 20
4.3158825333
 30
0.0
 10
7.268020915
 20
4.3159917026
 30
0.0
 10
7.2868860653
 20
4.3177197179
 30
0.0
 10
7.3114364902
 20
4.3230875547
 30
0.0
 10
7.3294707057
 20
4.3286267836
 30
0.0
 10
7.3469812607
 20
4.3356368569
 30
0.0
 10
7.3638515496
 20
4.3440740776
 30
0.0
 10
7.3799678256
 20
4.3538755487
 30
0.0
 10
7.3952134336
 20
4.3649822921
 30
0.0
 10
7.4094869803
 20
4.3773126634
 30
0.0
 10
7.422686255
 20
4.3907871052
 30
0.0
 10
7.4347214465
 20
4.4053105853
 30
0.0
 10
7.4455093335
 20
4.4207821179
 30
0.0
 10
7.4549720171
 20
4.4371020673
 30
0.0
 10
7.465729941
 20
4.4598176414
 30
0.0
 10
7.4716357409
 20
4.4778243116
 30
0.0
 10
7.4745420282
 20
4.4900365851
 30
0.0
  0
LINE
  5
4E8
100
AcDbEntity
  8
ALL_ASSEMBLY_MEMBERS
100
AcDbLine
 62
7
  6
CONTINUOUS
 10
7.4345827822
 20
4.6982409117
 11
7.4341918497
 21
4.6986866277
  0
SPLINE
  5
4E9
100
AcDbEntity
  8
ALL_ASSEMBLY_MEMBERS
100
AcDbSpline
 62
7
  6
CONTINUOUS
 70
0
 71
3
 72
15
 73
11
 74
0
 42
0.0000001
 43
0.0000001
 44
0.0000000001
 40
0.0
 40
0.0
 40
0.0
 40
0.0
 40
0.1249709519
 40
0.2500054918
 40
0.3749966191
 40
0.4999972641
 40
0.6249989086
 40
0.749995096
 40
0.8750336095
 40
1.0
 40
1.0
 40
1.0
 40
1.0
 10
7.4341918497
 20
4.6986866277
 30
0.0
 10
7.4286390184
 20
4.7050015319
 30
0.0
 10
7.4168443783
 20
4.7170494821
 30
0.0
 10
7.3973362235
 20
4.7331254966
 30
0.0
 10
7.3762162323
 20
4.7470257473
 30
0.0
 10
7.353732489
 20
4.758584111
 30
0.0
 10
7.3301419611
 20
4.7676738289
 30
0.0
 10
7.3057092357
 20
4.7741823909
 30
0.0
 10
7.2807244585
 20
4.7780298036
 30
0.0
 10
7.2638811959
 20
4.7787957269
 30
0.0
 10
7.2554727646
 20
4.7787245196
 30
0.0
  0
SPLINE
  5
4EA
100
AcDbEntity
  8
ALL_ASSEMBLY_MEMBERS
100
AcDbSpline
 62
7
  6
CONTINUOUS
 70
0
 71
3
 72
15
 73
11
 74
0
 42
0.0000001
 43
0.0000001
 44
0.0000000001
 40
0.0
 40
0.0
 40
0.0
 40
0.0
 40
0.1250519163
 40
0.2500715525
 40
0.3750559176
 40
0.5000329618
 40
0.6250201973
 40
0.7500141729
 40
0.8750070073
 40
1.0
 40
1.0
 40
1.0
 40
1.0
 10
7.3244634553
 20
4.7597546217
 30
0.0
 10
7.3295211198
 20
4.7583167533
 30
0.0
 10
7.3395387996
 20
4.7550889183
 30
0.0
 10
7.3541866273
 20
4.7492136887
 30
0.0
 10
7.3683895319
 20
4.7423379719
 30
0.0
 10
7.3820815213
 20
4.7344971672
 30
0.0
 10
7.3951991337
 20
4.7257286852
 30
0.0
 10
7.4076840218
 20
4.7160792893
 30
0.0
 10
7.4194747964
 20
4.7055938148
 30
0.0
 10
7.4268385881
 20
4.698079543
 30
0.0
 10
7.4303867033
 20
4.6942023964
 30
0.0
  0
SPLINE
  5
4EB
100
AcDbEntity
  8
ALL_ASSEMBLY_MEMBERS
100
AcDbSpline
 62
7
  6
CONTINUOUS
 70
0
 71
3
 72
18
 73
14
 74
0
 42
0.0000001
 43
0.0000001
 44
0.0000000001
 40
0.0
 40
0.0
 40
0.0
 40
0.0
 40
0.1249825325
 40
0.1874946617
 40
0.2500083736
 40
0.3125230555
 40
0.3750383815
 40
0.4375536595
 40
0.500066622
 40
0.6250407722
 40
0.750028332
 40
0.875060684
 40
1.0
 40
1.0
 40
1.0
 40
1.0
 10
7.4303867033
 20
4.6942023964
 30
0.0
 10
7.435535319
 20
4.6885763283
 30
0.0
 10
7.4428462247
 20
4.6797439267
 30
0.0
 10
7.4516755503
 20
4.6672983073
 30
0.0
 10
7.4578313118
 20
4.6576454634
 30
0.0
 10
7.4635031159
 20
4.6477008779
 30
0.0
 10
7.4686766672
 20
4.6374880488
 30
0.0
 10
7.4733418021
 20
4.6270331077
 30
0.0
 10
7.4788697828
 20
4.6128095932
 30
0.0
 10
7.4844598743
 20
4.5945457999
 30
0.0
 10
7.488995471
 20
4.5720811839
 30
0.0
 10
7.4913172932
 20
4.5492847747
 30
0.0
 10
7.4913871225
 20
4.534003673
 30
0.0
 10
7.4910515364
 20
4.5263873713
 30
0.0
  0
SPLINE
  5
4EC
100
AcDbEntity
  8
0
100
AcDbSpline
 62
7
  6
CONTINUOUS
 70
0
 71
3
 72
23
 73
19
 74
0
 42
0.0000001
 43
0.0000001
 44
0.0000000001
 40
0.0
 40
0.0
 40
0.0
 40
0.0
 40
0.0625060113
 40
0.125008955
 40
0.1875088967
 40
0.2500044026
 40
0.3125000346
 40
0.3749968215
 40
0.4374989129
 40
0.5000048888
 40
0.5625116986
 40
0.6250197686
 40
0.6875228416
 40
0.7500230807
 40
0.8125206959
 40
0.8750189564
 40
0.9375135355
 40
1.0
 40
1.0
 40
1.0
 40
1.0
 10
5.3933126471
 20
4.3693856024
 30
0.0
 10
5.3871213147
 20
4.3657346967
 30
0.0
 10
5.3743454669
 20
4.3590773012
 30
0.0
 10
5.3542423452
 20
4.3511757545
 30
0.0
 10
5.3334166038
 20
4.3454399893
 30
0.0
 10
5.3121028912
 20
4.3419341457
 30
0.0
 10
5.2905377969
 20
4.3407103711
 30
0.0
 10
5.2689630461
 20
4.3417707369
 30
0.0
 10
5.2476230674
 20
4.3451257389
 30
0.0
 10
5.2267572108
 20
4.3507216724
 30
0.0
 10
5.2066072252
 20
4.3585144284
 30
0.0
 10
5.187402827
 20
4.3684094191
 30
0.0
 10
5.1693633105
 20
4.3802957924
 30
0.0
 10
5.1527039366
 20
4.3940478134
 30
0.0
 10
5.1376075004
 20
4.409498762
 30
0.0
 10
5.1242638762
 20
4.426486611
 30
0.0
 10
5.1128154005
 20
4.4448005229
 30
0.0
 10
5.1065412368
 20
4.4577671428
 30
0.0
 10
5.103764997
 20
4.4643945024
 30
0.0
  0
SPLINE
  5
4ED
100
AcDbEntity
  8
0
100
AcDbSpline
 62
7
  6
CONTINUOUS
 70
0
 71
3
 72
15
 73
11
 74
0
 42
0.0000001
 43
0.0000001
 44
0.0000000001
 40
0.0
 40
0.0
 40
0.0
 40
0.0
 40
0.1250045233
 40
0.2500075577
 40
0.3750072106
 40
0.5000061991
 40
0.6250025919
 40
0.7500027068
 40
0.8750023221
 40
1.0
 40
1.0
 40
1.0
 40
1.0
 10
5.4576166593
 20
4.4638002237
 30
0.0
 10
5.4601572492
 20
4.4689934316
 30
0.0
 10
5.4647651774
 20
4.4796190879
 30
0.0
 10
5.4701849144
 20
4.4961188804
 30
0.0
 10
5.4740646703
 20
4.5130480931
 30
0.0
 10
5.4763855633
 20
4.530259594
 30
0.0
 10
5.4771206004
 20
4.547611537
 30
0.0
 10
5.476268388
 20
4.5649581112
 30
0.0
 10
5.4738454412
 20
4.5821544648
 30
0.0
 10
5.4711882326
 20
4.5934266695
 30
0.0
 10
5.4696077656
 20
4.5989874669
 30
0.0
  0
SPLINE
  5
4EE
100
AcDbEntity
  8
0
100
AcDbSpline
 62
7
  6
CONTINUOUS
 70
0
 71
3
 72
19
 73
15
 74
0
 42
0.0000001
 43
0.0000001
 44
0.0000000001
 40
0.0
 40
0.0
 40
0.0
 40
0.0
 40
0.0625242662
 40
0.1250471667
 40
0.1875713194
 40
0.2500956506
 40
0.3750466824
 40
0.4999987818
 40
0.5625222592
 40
0.6250465848
 40
0.6875695058
 40
0.7500925962
 40
0.8750462931
 40
1.0
 40
1.0
 40
1.0
 40
1.0
 10
5.4662897176
 20
4.6094992107
 30
0.0
 10
5.4646488907
 20
4.6142190098
 30
0.0
 10
5.4609960188
 20
4.6235342395
 30
0.0
 10
5.4544361269
 20
4.637029455
 30
0.0
 10
5.4468377465
 20
4.6499702155
 30
0.0
 10
5.4354006452
 20
4.6663733725
 30
0.0
 10
5.4187425662
 20
4.6851186828
 30
0.0
 10
5.39937692
 20
4.7010501537
 30
0.0
 10
5.3825556697
 20
4.7118628229
 30
0.0
 10
5.3693427397
 20
4.7189759828
 30
0.0
 10
5.3556174758
 20
4.7250422079
 30
0.0
 10
5.3367540579
 20
4.731678658
 30
0.0
 10
5.3122991034
 20
4.7372123449
 30
0.0
 10
5.2922800945
 20
4.7385597204
 30
0.0
 10
5.2822943669
 20
4.7384643643
 30
0.0
  0
SPLINE
  5
4EF
100
AcDbEntity
  8
DTM-AXIS
100
AcDbSpline
 62
7
  6
CONTINUOUS
 70
0
 71
3
 72
9
 73
5
 74
0
 42
0.0000001
 43
0.0000001
 44
0.0000000001
 40
0.0
 40
0.0
 40
0.0
 40
0.0
 40
0.5040011535
 40
1.0
 40
1.0
 40
1.0
 40
1.0
 10
3.6618108706
 20
4.8464778176
 30
0.0
 10
3.6638830566
 20
4.8471451506
 30
0.0
 10
3.6681605485
 20
4.8480181102
 30
0.0
 10
3.6725252546
 20
4.847804249
 30
0.0
 10
3.6746368856
 20
4.8474423085
 30
0.0
  0
SPLINE
  5
4F0
100
AcDbEntity
  8
DTM-AXIS
100
AcDbSpline
 62
7
  6
CONTINUOUS
 70
0
 71
3
 72
9
 73
5
 74
0
 42
0.0000001
 43
0.0000001
 44
0.0000000001
 40
0.0
 40
0.0
 40
0.0
 40
0.0
 40
0.5040011535
 40
1.0
 40
1.0
 40
1.0
 40
1.0
 10
6.9121267845
 20
4.8464778176
 30
0.0
 10
6.9100545985
 20
4.8471451506
 30
0.0
 10
6.9057771066
 20
4.8480181102
 30
0.0
 10
6.9014124005
 20
4.847804249
 30
0.0
 10
6.8993007695
 20
4.8474423085
 30
0.0
  0
SPLINE
  5
4F1
100
AcDbEntity
  8
0
100
AcDbSpline
 62
7
  6
CONTINUOUS
 70
0
 71
3
 72
24
 73
20
 74
0
 42
0.0000001
 43
0.0000001
 44
0.0000000001
 40
0.0
 40
0.0
 40
0.0
 40
0.0
 40
0.0624984354
 40
0.1249961814
 40
0.1874946238
 40
0.2499923315
 40
0.2812517465
 40
0.3125110799
 40
0.3750087554
 40
0.437507225
 40
0.5000049757
 40
0.5625035229
 40
0.62500088
 40
0.6874990471
 40
0.7499981373
 40
0.8124981745
 40
0.8749904998
 40
0.9374821074
 40
1.0
 40
1.0
 40
1.0
 40
1.0
 10
7.1779569801
 20
4.8528060729
 30
0.0
 10
7.1884363351
 20
4.8553680757
 30
0.0
 10
7.2096708794
 20
4.859431628
 30
0.0
 10
7.2419656709
 20
4.8622504348
 30
0.0
 10
7.2743812994
 20
4.8617742892
 30
0.0
 10
7.301219885
 20
4.8586277139
 30
0.0
 10
7.3224053568
 20
4.8544812772
 30
0.0
 10
7.3433527492
 20
4.8492636578
 30
0.0
 10
7.368996815
 20
4.8407427825
 30
0.0
 10
7.3985592845
 20
4.8274373573
 30
0.0
 10
7.4266118492
 20
4.8111844909
 30
0.0
 10
7.4528572239
 20
4.7921518735
 30
0.0
 10
7.4770226261
 20
4.7705390396
 30
0.0
 10
7.4988502839
 20
4.7465673865
 30
0.0
 10
7.5181134827
 20
4.7204894066
 30
0.0
 10
7.5346021015
 20
4.6925757724
 30
0.0
 10
7.5481511869
 20
4.6631232658
 30
0.0
 10
7.5586060705
 20
4.6324360007
 30
0.0
 10
7.5634440078
 20
4.6113609311
 30
0.0
 10
7.5653127643
 20
4.6007326215
 30
0.0
  0
SPLINE
  5
4F2
100
AcDbEntity
  8
0
100
AcDbSpline
 62
7
  6
CONTINUOUS
 70
0
 71
3
 72
22
 73
18
 74
0
 42
0.0000001
 43
0.0000001
 44
0.0000000001
 40
0.0
 40
0.0
 40
0.0
 40
0.0
 40
0.1248779649
 40
0.187401541
 40
0.2499039422
 40
0.3124052985
 40
0.3749122149
 40
0.4374178761
 40
0.4999219735
 40
0.5624265381
 40
0.6249342591
 40
0.6874440014
 40
0.7499553413
 40
0.812467519
 40
0.8749787296
 40
0.9374899307
 40
1.0
 40
1.0
 40
1.0
 40
1.0
 10
3.6393056989
 20
4.5441835715
 30
0.0
 10
3.6394262213
 20
4.5247152192
 30
0.0
 10
3.6369270284
 20
4.49539161
 30
0.0
 10
3.6283554553
 20
4.4573486885
 30
0.0
 10
3.619353842
 20
4.4294869362
 30
0.0
 10
3.6078580206
 20
4.4025660026
 30
0.0
 10
3.5939683596
 20
4.3767967378
 30
0.0
 10
3.5777987128
 20
4.3523931097
 30
0.0
 10
3.5594809785
 20
4.3295583255
 30
0.0
 10
3.5391716878
 20
4.30847466
 30
0.0
 10
3.5170325498
 20
4.2893203176
 30
0.0
 10
3.4932535623
 20
4.2722424059
 30
0.0
 10
3.4680223642
 20
4.2573924586
 30
0.0
 10
3.4415551417
 20
4.2448777621
 30
0.0
 10
3.4140622908
 20
4.2348121266
 30
0.0
 10
3.3857767802
 20
4.2272671559
 30
0.0
 10
3.3665362964
 20
4.2239604442
 30
0.0
 10
3.3568668396
 20
4.2227458216
 30
0.0
  0
SPLINE
  5
4F3
100
AcDbEntity
  8
0
100
AcDbSpline
 62
7
  6
CONTINUOUS
 70
0
 71
3
 72
24
 73
20
 74
0
 42
0.0000001
 43
0.0000001
 44
0.0000000001
 40
0.0
 40
0.0
 40
0.0
 40
0.0
 40
0.0624984331
 40
0.1249961767
 40
0.1874946165
 40
0.2499923215
 40
0.2812517366
 40
0.3125110698
 40
0.3750087427
 40
0.4375072097
 40
0.500004958
 40
0.5625035025
 40
0.6250008566
 40
0.6874990215
 40
0.7499981102
 40
0.8124981423
 40
0.8749904563
 40
0.9374820729
 40
1.0
 40
1.0
 40
1.0
 40
1.0
 10
3.3959808423
 20
4.852806032
 30
0.0
 10
3.3855008106
 20
4.8553682063
 30
0.0
 10
3.3642648756
 20
4.8594319645
 30
0.0
 10
3.3319679612
 20
4.862250651
 30
0.0
 10
3.2995502357
 20
4.8617739594
 30
0.0
 10
3.2727099783
 20
4.8586265714
 30
0.0
 10
3.2515232483
 20
4.8544792839
 30
0.0
 10
3.2305746598
 20
4.8492606818
 30
0.0
 10
3.2049292351
 20
4.8407383304
 30
0.0
 10
3.175365409
 20
4.8274307913
 30
0.0
 10
3.1473118246
 20
4.811175486
 30
0.0
 10
3.1210658029
 20
4.7921401754
 30
0.0
 10
3.0969001866
 20
4.7705244234
 30
0.0
 10
3.0750727616
 20
4.7465497112
 30
0.0
 10
3.0558102975
 20
4.7204685719
 30
0.0
 10
3.0393229018
 20
4.6925517727
 30
0.0
 10
3.0257755705
 20
4.6630961421
 30
0.0
 10
3.0153229413
 20
4.6324058782
 30
0.0
 10
3.0104868606
 20
4.6113289322
 30
0.0
 10
3.0086191094
 20
4.6006997306
 30
0.0
  0
SPLINE
  5
4F4
100
AcDbEntity
  8
0
100
AcDbSpline
 62
7
  6
CONTINUOUS
 70
0
 71
3
 72
22
 73
18
 74
0
 42
0.0000001
 43
0.0000001
 44
0.0000000001
 40
0.0
 40
0.0
 40
0.0
 40
0.0
 40
0.0625101481
 40
0.1250214023
 40
0.1875326402
 40
0.250044818
 40
0.3125561371
 40
0.375065837
 40
0.4375735241
 40
0.5000780902
 40
0.5625822104
 40
0.6250878798
 40
0.6875947886
 40
0.7500961368
 40
0.8125985226
 40
0.8751220679
 40
1.0
 40
1.0
 40
1.0
 40
1.0
 10
7.217070256
 20
4.2227458961
 30
0.0
 10
7.2074008006
 20
4.2239605345
 30
0.0
 10
7.1881603237
 20
4.2272672704
 30
0.0
 10
7.1598748392
 20
4.2348122988
 30
0.0
 10
7.1323820233
 20
4.244877963
 30
0.0
 10
7.105914854
 20
4.2573926928
 30
0.0
 10
7.0806837176
 20
4.2722426547
 30
0.0
 10
7.0569047884
 20
4.2893205613
 30
0.0
 10
7.0347657133
 20
4.3084749047
 30
0.0
 10
7.0144564691
 20
4.3295585637
 30
0.0
 10
6.9961387783
 20
4.3523933438
 30
0.0
 10
6.9799691607
 20
4.3767969532
 30
0.0
 10
6.9660795426
 20
4.4025662
 30
0.0
 10
6.9545837514
 20
4.4294871025
 30
0.0
 10
6.945582168
 20
4.4573488183
 30
0.0
 10
6.937010615
 20
4.4953916834
 30
0.0
 10
6.9345114339
 20
4.5247152478
 30
0.0
 10
6.9346319562
 20
4.5441835715
 30
0.0
  0
SPLINE
  5
4F5
100
AcDbEntity
  8
DTM-AXIS
100
AcDbSpline
 62
7
  6
CONTINUOUS
 70
0
 71
3
 72
9
 73
5
 74
0
 42
0.0000001
 43
0.0000001
 44
0.0000000001
 40
0.0
 40
0.0
 40
0.0
 40
0.0
 40
0.2422244092
 40
1.0
 40
1.0
 40
1.0
 40
1.0
 10
6.7136825622
 20
4.8054524612
 30
0.0
 10
6.7131130044
 20
4.8052844409
 30
0.0
 10
6.710784479
 20
4.8045139935
 30
0.0
 10
6.7085582213
 20
4.8034470193
 30
0.0
 10
6.7069498822
 20
4.8025173034
 30
0.0
  0
LINE
  5
4F6
100
AcDbEntity
  8
DTM-AXIS
100
AcDbLine
 62
7
  6
CONTINUOUS
 10
6.8986614245
 20
4.8373320593
 11
6.7136825622
 21
4.8054524612
  0
SPLINE
  5
4F7
100
AcDbEntity
  8
0
100
AcDbSpline
 62
9
  6
CONTINUOUS
 70
0
 71
3
 72
12
 73
8
 74
0
 42
0.0000001
 43
0.0000001
 44
0.0000000001
 40
0.0
 40
0.0
 40
0.0
 40
0.0
 40
0.2522489779
 40
0.3779445721
 40
0.5032467143
 40
0.7524899618
 40
1.0
 40
1.0
 40
1.0
 40
1.0
 10
6.8436107921
 20
4.4654532207
 30
0.0
 10
6.8474592775
 20
4.4531877911
 30
0.0
 10
6.8544304352
 20
4.435161122
 30
0.0
 10
6.8658262698
 20
4.4121749876
 30
0.0
 10
6.8784693934
 20
4.3900221742
 30
0.0
 10
6.896489313
 20
4.3638605932
 30
0.0
 10
6.9129874337
 20
4.3445952321
 30
0.0
 10
6.921648806
 20
4.335425637
 30
0.0
  0
SPLINE
  5
4F8
100
AcDbEntity
  8
0
100
AcDbSpline
 62
9
  6
CONTINUOUS
 70
0
 71
3
 72
16
 73
12
 74
0
 42
0.0000001
 43
0.0000001
 44
0.0000000001
 40
0.0
 40
0.0
 40
0.0
 40
0.0
 40
0.1487433382
 40
0.2919765035
 40
0.4291226825
 40
0.5596062214
 40
0.6828030031
 40
0.7978755577
 40
0.9038618615
 40
0.9532003943
 40
1.0
 40
1.0
 40
1.0
 40
1.0
 10
6.9907662096
 20
4.2527634333
 30
0.0
 10
6.9838943225
 20
4.2531771471
 30
0.0
 10
6.9703969286
 20
4.2538578006
 30
0.0
 10
6.9505464608
 20
4.2545295826
 30
0.0
 10
6.9315346403
 20
4.2549444511
 30
0.0
 10
6.9134484505
 20
4.255242652
 30
0.0
 10
6.8963845053
 20
4.2555864149
 30
0.0
 10
6.8804604637
 20
4.2561481273
 30
0.0
 10
6.8679680861
 20
4.2569727808
 30
0.0
 10
6.8586668119
 20
4.2579869738
 30
0.0
 10
6.8542626151
 20
4.2586320281
 30
0.0
 10
6.8521276745
 20
4.2589977525
 30
0.0
  0
SPLINE
  5
4F9
100
AcDbEntity
  8
0
100
AcDbSpline
 62
9
  6
CONTINUOUS
 70
0
 71
3
 72
15
 73
11
 74
0
 42
0.0000001
 43
0.0000001
 44
0.0000000001
 40
0.0
 40
0.0
 40
0.0
 40
0.0
 40
0.1248800852
 40
0.249877947
 40
0.3749042727
 40
0.5000010413
 40
0.6250992821
 40
0.7501265397
 40
0.8751217514
 40
1.0
 40
1.0
 40
1.0
 40
1.0
 10
6.8436105332
 20
4.6229035987
 30
0.0
 10
6.8418401332
 20
4.6165017038
 30
0.0
 10
6.8386276588
 20
4.603596992
 30
0.0
 10
6.8349759104
 20
4.5839800989
 30
0.0
 10
6.8326903049
 20
4.5641406486
 30
0.0
 10
6.8319374905
 20
4.5441778714
 30
0.0
 10
6.8326918425
 20
4.5242151819
 30
0.0
 10
6.8349752733
 20
4.5043755415
 30
0.0
 10
6.8386258725
 20
4.4847585667
 30
0.0
 10
6.8418401153
 20
4.4718544576
 30
0.0
 10
6.8436125269
 20
4.4654532208
 30
0.0
  0
SPLINE
  5
4FA
100
AcDbEntity
  8
0
100
AcDbSpline
 62
9
  6
CONTINUOUS
 70
0
 71
3
 72
16
 73
12
 74
0
 42
0.0000001
 43
0.0000001
 44
0.0000000001
 40
0.0
 40
0.0
 40
0.0
 40
0.0
 40
0.1069322025
 40
0.2199090624
 40
0.3381616535
 40
0.4615181266
 40
0.5898943214
 40
0.7230590535
 40
0.8602812564
 40
0.9300224176
 40
1.0
 40
1.0
 40
1.0
 40
1.0
 10
4.9797626318
 20
4.3481954627
 30
0.0
 10
4.9732305213
 20
4.3532444652
 30
0.0
 10
4.9601539284
 20
4.3641000456
 30
0.0
 10
4.9413628175
 20
4.3822652613
 30
0.0
 10
4.9233660993
 20
4.4029471747
 30
0.0
 10
4.9068020534
 20
4.4262849272
 30
0.0
 10
4.8924099525
 20
4.4523670465
 30
0.0
 10
4.8810603873
 20
4.481084208
 30
0.0
 10
4.8749583088
 20
4.5067377418
 30
0.0
 10
4.8724428222
 20
4.5279884359
 30
0.0
 10
4.8720091297
 20
4.538780782
 30
0.0
 10
4.8720081976
 20
4.5441835715
 30
0.0
  0
SPLINE
  5
4FB
100
AcDbEntity
  8
0
100
AcDbSpline
 62
9
  6
CONTINUOUS
 70
0
 71
3
 72
12
 73
8
 74
0
 42
0.0000001
 43
0.0000001
 44
0.0000000001
 40
0.0
 40
0.0
 40
0.0
 40
0.0
 40
0.2388114467
 40
0.3618337597
 40
0.4869358927
 40
0.7418013851
 40
1.0
 40
1.0
 40
1.0
 40
1.0
 10
3.5143913749
 20
4.2028088189
 30
0.0
 10
3.5134250669
 20
4.1986831366
 30
0.0
 10
3.512203063
 20
4.1923731122
 30
0.0
 10
3.5109786039
 20
4.1838195975
 30
0.0
 10
3.5099867623
 20
4.1749488409
 30
0.0
 10
3.5092540344
 20
4.163640895
 30
0.0
 10
3.5093592393
 20
4.154524919
 30
0.0
 10
3.5096237602
 20
4.1499512323
 30
0.0
  0
SPLINE
  5
4FC
100
AcDbEntity
  8
0
100
AcDbSpline
 62
9
  6
CONTINUOUS
 70
0
 71
3
 72
9
 73
5
 74
0
 42
0.0000001
 43
0.0000001
 44
0.0000000001
 40
0.0
 40
0.0
 40
0.0
 40
0.0
 40
0.5217579504
 40
1.0
 40
1.0
 40
1.0
 40
1.0
 10
3.730322982
 20
4.4654435105
 30
0.0
 10
3.7259100542
 20
4.4661885142
 30
0.0
 10
3.7174423523
 20
4.4675585588
 30
0.0
 10
3.7089534424
 20
4.4687919313
 30
0.0
 10
3.7048879453
 20
4.4693388191
 30
0.0
  0
SPLINE
  5
4FD
100
AcDbEntity
  8
0
100
AcDbSpline
 62
9
  6
CONTINUOUS
 70
0
 71
3
 72
9
 73
5
 74
0
 42
0.0000001
 43
0.0000001
 44
0.0000000001
 40
0.0
 40
0.0
 40
0.0
 40
0.0
 40
0.5217580472
 40
1.0
 40
1.0
 40
1.0
 40
1.0
 10
3.7303231253
 20
4.6229236893
 30
0.0
 10
3.7259101852
 20
4.6221786056
 30
0.0
 10
3.7174424569
 20
4.6208084263
 30
0.0
 10
3.7089535129
 20
4.6195749573
 30
0.0
 10
3.7048879985
 20
4.6190280338
 30
0.0
  0
SPLINE
  5
4FE
100
AcDbEntity
  8
0
100
AcDbSpline
 62
9
  6
CONTINUOUS
 70
0
 71
3
 72
12
 73
8
 74
0
 42
0.0000001
 43
0.0000001
 44
0.0000000001
 40
0.0
 40
0.0
 40
0.0
 40
0.0
 40
0.238825864
 40
0.3618510693
 40
0.4869535592
 40
0.7418126869
 40
1.0
 40
1.0
 40
1.0
 40
1.0
 10
7.0595541519
 20
4.2027742913
 30
0.0
 10
7.0605189694
 20
4.1986508928
 30
0.0
 10
7.0617391166
 20
4.1923445669
 30
0.0
 10
7.0629617195
 20
4.1837962789
 30
0.0
 10
7.0639520415
 20
4.1749313857
 30
0.0
 10
7.0646834024
 20
4.1636312212
 30
0.0
 10
7.0645779778
 20
4.1545216446
 30
0.0
 10
7.0643136471
 20
4.1499512008
 30
0.0
  0
SPLINE
  5
4FF
100
AcDbEntity
  8
0
100
AcDbSpline
 62
9
  6
CONTINUOUS
 70
0
 71
3
 72
9
 73
5
 74
0
 42
0.0000001
 43
0.0000001
 44
0.0000000001
 40
0.0
 40
0.0
 40
0.0
 40
0.0
 40
0.5216887968
 40
1.0
 40
1.0
 40
1.0
 40
1.0
 10
6.8436144869
 20
4.4654434367
 30
0.0
 10
6.8480172658
 20
4.4661867986
 30
0.0
 10
6.8564665947
 20
4.4675541243
 30
0.0
 10
6.8649370393
 20
4.4687854073
 30
0.0
 10
6.8689942641
 20
4.4693316174
 30
0.0
  0
SPLINE
  5
500
100
AcDbEntity
  8
0
100
AcDbSpline
 62
9
  6
CONTINUOUS
 70
0
 71
3
 72
9
 73
5
 74
0
 42
0.0000001
 43
0.0000001
 44
0.0000000001
 40
0.0
 40
0.0
 40
0.0
 40
0.0
 40
0.5216885833
 40
1.0
 40
1.0
 40
1.0
 40
1.0
 10
6.84361468
 20
4.6229236298
 30
0.0
 10
6.8480174337
 20
4.6221803255
 30
0.0
 10
6.8564667151
 20
4.6208130967
 30
0.0
 10
6.8649371067
 20
4.6195818839
 30
0.0
 10
6.8689943068
 20
4.6190356995
 30
0.0
  0
SPLINE
  5
501
100
AcDbEntity
  8
0
100
AcDbSpline
 62
9
  6
CONTINUOUS
 70
0
 71
3
 72
10
 73
6
 74
0
 42
0.0000001
 43
0.0000001
 44
0.0000000001
 40
0.0
 40
0.0
 40
0.0
 40
0.0
 40
0.2669225699
 40
0.524014632
 40
1.0
 40
1.0
 40
1.0
 40
1.0
 10
3.5096237602
 20
4.1499512323
 30
0.0
 10
3.5079907667
 20
4.1536251083
 30
0.0
 10
3.5049838088
 20
4.1609289732
 30
0.0
 10
3.5000284078
 20
4.175154951
 30
0.0
 10
3.4973195065
 20
4.1859067915
 30
0.0
 10
3.4961365404
 20
4.192977928
 30
0.0
  0
SPLINE
  5
502
100
AcDbEntity
  8
0
100
AcDbSpline
 62
9
  6
CONTINUOUS
 70
0
 71
3
 72
11
 73
7
 74
0
 42
0.0000001
 43
0.0000001
 44
0.0000000001
 40
0.0
 40
0.0
 40
0.0
 40
0.0
 40
0.219991899
 40
0.4650589083
 40
0.7279324312
 40
1.0
 40
1.0
 40
1.0
 40
1.0
 10
3.3830267448
 20
4.1560856933
 30
0.0
 10
3.3834093334
 20
4.1504710738
 30
0.0
 10
3.3844992972
 20
4.1386206226
 30
0.0
 10
3.3868380633
 20
4.1201440838
 30
0.0
 10
3.3899175667
 20
4.1004271478
 30
0.0
 10
3.3923817841
 20
4.0869646862
 30
0.0
 10
3.3937213569
 20
4.0801350251
 30
0.0
  0
SPLINE
  5
503
100
AcDbEntity
  8
0
100
AcDbSpline
 62
9
  6
CONTINUOUS
 70
0
 71
3
 72
11
 73
7
 74
0
 42
0.0000001
 43
0.0000001
 44
0.0000000001
 40
0.0
 40
0.0
 40
0.0
 40
0.0
 40
0.2488867495
 40
0.4986939074
 40
0.7491814438
 40
1.0
 40
1.0
 40
1.0
 40
1.0
 10
3.3937213569
 20
4.0801350251
 30
0.0
 10
3.3876368799
 20
4.0784090933
 30
0.0
 10
3.3753315614
 20
4.0753362283
 30
0.0
 10
3.3565747139
 20
4.071992013
 30
0.0
 10
3.3375823211
 20
4.0699553111
 30
0.0
 10
3.3248385006
 20
4.0694888865
 30
0.0
 10
3.3184648905
 20
4.0695009059
 30
0.0
  0
SPLINE
  5
504
100
AcDbEntity
  8
0
100
AcDbSpline
 62
9
  6
CONTINUOUS
 70
0
 71
3
 72
11
 73
7
 74
0
 42
0.0000001
 43
0.0000001
 44
0.0000000001
 40
0.0
 40
0.0
 40
0.0
 40
0.0
 40
0.2508212421
 40
0.501307795
 40
0.7511161477
 40
1.0
 40
1.0
 40
1.0
 40
1.0
 10
3.3184648905
 20
4.0695009907
 30
0.0
 10
3.3120912167
 20
4.0694925086
 30
0.0
 10
3.2993474498
 20
4.0699549778
 30
0.0
 10
3.2803548424
 20
4.0719921738
 30
0.0
 10
3.2615981939
 20
4.0753359507
 30
0.0
 10
3.249292303
 20
4.0784069199
 30
0.0
 10
3.2432086382
 20
4.0801354059
 30
0.0
  0
SPLINE
  5
505
100
AcDbEntity
  8
0
100
AcDbSpline
 62
9
  6
CONTINUOUS
 70
0
 71
3
 72
11
 73
7
 74
0
 42
0.0000001
 43
0.0000001
 44
0.0000000001
 40
0.0
 40
0.0
 40
0.0
 40
0.0
 40
0.2199921578
 40
0.4650595592
 40
0.7279332482
 40
1.0
 40
1.0
 40
1.0
 40
1.0
 10
3.2539031658
 20
4.1560856622
 30
0.0
 10
3.2535205651
 20
4.1504708149
 30
0.0
 10
3.2524305603
 20
4.1386198802
 30
0.0
 10
3.2500916937
 20
4.120142594
 30
0.0
 10
3.2470120457
 20
4.1004248921
 30
0.0
 10
3.2445477034
 20
4.0869619226
 30
0.0
 10
3.2432080604
 20
4.0801320174
 30
0.0
  0
SPLINE
  5
506
100
AcDbEntity
  8
0
100
AcDbSpline
 62
9
  6
CONTINUOUS
 70
0
 71
3
 72
11
 73
7
 74
0
 42
0.0000001
 43
0.0000001
 44
0.0000000001
 40
0.0
 40
0.0
 40
0.0
 40
0.0
 40
0.2746016627
 40
0.5329502764
 40
0.7743345089
 40
1.0
 40
1.0
 40
1.0
 40
1.0
 10
5.064829846
 20
4.3119394744
 30
0.0
 10
5.0591674341
 20
4.3126374501
 30
0.0
 10
5.0482090893
 20
4.3142834019
 30
0.0
 10
5.032508467
 20
4.3178939834
 30
0.0
 10
5.0182323979
 20
4.3228315284
 30
0.0
 10
5.0095706446
 20
4.3273259141
 30
0.0
 10
5.0056360739
 20
4.3298757375
 30
0.0
  0
SPLINE
  5
507
100
AcDbEntity
  8
0
100
AcDbSpline
 62
9
  6
CONTINUOUS
 70
0
 71
3
 72
11
 73
7
 74
0
 42
0.0000001
 43
0.0000001
 44
0.0000000001
 40
0.0
 40
0.0
 40
0.0
 40
0.0
 40
0.2201911076
 40
0.4652924813
 40
0.7280822485
 40
1.0
 40
1.0
 40
1.0
 40
1.0
 10
7.3200487283
 20
4.1558795474
 30
0.0
 10
7.3204339748
 20
4.1502752316
 30
0.0
 10
7.3215264775
 20
4.1384513132
 30
0.0
 10
7.3238639566
 20
4.1200214175
 30
0.0
 10
7.3269369057
 20
4.1003631059
 30
0.0
 10
7.329393929
 20
4.0869429289
 30
0.0
 10
7.330729149
 20
4.0801354407
 30
0.0
  0
SPLINE
  5
508
100
AcDbEntity
  8
0
100
AcDbSpline
 62
9
  6
CONTINUOUS
 70
0
 71
3
 72
11
 73
7
 74
0
 42
0.0000001
 43
0.0000001
 44
0.0000000001
 40
0.0
 40
0.0
 40
0.0
 40
0.0
 40
0.2508212441
 40
0.5013077981
 40
0.7511161497
 40
1.0
 40
1.0
 40
1.0
 40
1.0
 10
7.2554727646
 20
4.0695009907
 30
0.0
 10
7.2618464498
 20
4.0694925094
 30
0.0
 10
7.2745902396
 20
4.0699549797
 30
0.0
 10
7.2935828809
 20
4.071992182
 30
0.0
 10
7.3123395617
 20
4.0753359721
 30
0.0
 10
7.3246454733
 20
4.0784069514
 30
0.0
 10
7.330729149
 20
4.0801354407
 30
0.0
  0
SPLINE
  5
509
100
AcDbEntity
  8
0
100
AcDbSpline
 62
9
  6
CONTINUOUS
 70
0
 71
3
 72
11
 73
7
 74
0
 42
0.0000001
 43
0.0000001
 44
0.0000000001
 40
0.0
 40
0.0
 40
0.0
 40
0.0
 40
0.2256558221
 40
0.4670375465
 40
0.7253900947
 40
1.0
 40
1.0
 40
1.0
 40
1.0
 10
5.5683015812
 20
4.3298757375
 30
0.0
 10
5.5643651858
 20
4.3273247293
 30
0.0
 10
5.555699028
 20
4.3228285494
 30
0.0
 10
5.5414154228
 20
4.3178898529
 30
0.0
 10
5.5257062579
 20
4.3142790678
 30
0.0
 10
5.5147419379
 20
4.3126333925
 30
0.0
 10
5.5090764166
 20
4.3119356033
 30
0.0
  0
SPLINE
  5
50A
100
AcDbEntity
  8
0
100
AcDbSpline
 62
9
  6
CONTINUOUS
 70
0
 71
3
 72
15
 73
11
 74
0
 42
0.0000001
 43
0.0000001
 44
0.0000000001
 40
0.0
 40
0.0
 40
0.0
 40
0.0
 40
0.1441198118
 40
0.2849356495
 40
0.420468654
 40
0.5499949164
 40
0.6733686586
 40
0.7903081004
 40
0.8999886875
 40
1.0
 40
1.0
 40
1.0
 40
1.0
 10
5.7019294575
 20
4.5441835715
 30
0.0
 10
5.7019275306
 20
4.5315370625
 30
0.0
 10
5.6995900386
 20
4.5064735214
 30
0.0
 10
5.6896086947
 20
4.4707735553
 30
0.0
 10
5.6745580095
 20
4.4383414761
 30
0.0
 10
5.6559535407
 20
4.409666828
 30
0.0
 10
5.6350930637
 20
4.3847187259
 30
0.0
 10
5.6130432056
 20
4.3632731138
 30
0.0
 10
5.5907798664
 20
4.3451727111
 30
0.0
 10
5.5756658376
 20
4.3346491768
 30
0.0
 10
5.5683015812
 20
4.3298757375
 30
0.0
  0
SPLINE
  5
50B
100
AcDbEntity
  8
0
100
AcDbSpline
 62
9
  6
CONTINUOUS
 70
0
 71
3
 72
11
 73
7
 74
0
 42
0.0000001
 43
0.0000001
 44
0.0000000001
 40
0.0
 40
0.0
 40
0.0
 40
0.0
 40
0.248886752
 40
0.4986939099
 40
0.749181446
 40
1.0
 40
1.0
 40
1.0
 40
1.0
 10
7.1802164303
 20
4.0801349903
 30
0.0
 10
7.1863008969
 20
4.0784090631
 30
0.0
 10
7.1986061944
 20
4.0753362074
 30
0.0
 10
7.2173630094
 20
4.0719920041
 30
0.0
 10
7.2363553684
 20
4.0699553094
 30
0.0
 10
7.249099166
 20
4.069488886
 30
0.0
 10
7.2554727646
 20
4.0695009059
 30
0.0
  0
SPLINE
  5
50C
100
AcDbEntity
  8
0
100
AcDbSpline
 62
9
  6
CONTINUOUS
 70
0
 71
3
 72
10
 73
6
 74
0
 42
0.0000001
 43
0.0000001
 44
0.0000000001
 40
0.0
 40
0.0
 40
0.0
 40
0.0
 40
0.4760801005
 40
0.7331436615
 40
1.0
 40
1.0
 40
1.0
 40
1.0
 10
7.0777825853
 20
4.192867375
 30
0.0
 10
7.076596186
 20
4.1858133571
 30
0.0
 10
7.073888227
 20
4.1750888978
 30
0.0
 10
7.0689417361
 20
4.1608992844
 30
0.0
 10
7.0659422108
 20
4.1536150712
 30
0.0
 10
7.0643136471
 20
4.1499512008
 30
0.0
  0
SPLINE
  5
50D
100
AcDbEntity
  8
0
100
AcDbSpline
 62
9
  6
CONTINUOUS
 70
0
 71
3
 72
11
 73
7
 74
0
 42
0.0000001
 43
0.0000001
 44
0.0000000001
 40
0.0
 40
0.0
 40
0.0
 40
0.0
 40
0.2201917828
 40
0.4652937442
 40
0.7280835888
 40
1.0
 40
1.0
 40
1.0
 40
1.0
 10
7.1908969132
 20
4.1558795082
 30
0.0
 10
7.1905116503
 20
4.1502749244
 30
0.0
 10
7.1894191045
 20
4.1384504441
 30
0.0
 10
7.1870815312
 20
4.1200196878
 30
0.0
 10
7.1840084502
 20
4.100360513
 30
0.0
 10
7.1815513104
 20
4.0869397693
 30
0.0
 10
7.1802160241
 20
4.0801320126
 30
0.0
  0
SPLINE
  5
50E
100
AcDbEntity
  8
0
100
AcDbSpline
 62
9
  6
CONTINUOUS
 70
0
 71
3
 72
12
 73
8
 74
0
 42
0.0000001
 43
0.0000001
 44
0.0000000001
 40
0.0
 40
0.0
 40
0.0
 40
0.0
 40
0.2468048663
 40
0.3709420159
 40
0.4956273541
 40
0.7466464382
 40
1.0
 40
1.0
 40
1.0
 40
1.0
 10
7.5376461783
 20
4.2696251012
 30
0.0
 10
7.5338623695
 20
4.2626092301
 30
0.0
 10
7.5279397678
 20
4.2521889098
 30
0.0
 10
7.519556994
 20
4.2385506281
 30
0.0
 10
7.510788326
 20
4.22499448
 30
0.0
 10
7.4991291723
 20
4.2083446368
 30
0.0
 10
7.4890674725
 20
4.1955208496
 30
0.0
 10
7.4838366703
 20
4.1892283932
 30
0.0
  0
SPLINE
  5
50F
100
AcDbEntity
  8
0
100
AcDbSpline
 62
9
  6
CONTINUOUS
 70
0
 71
3
 72
15
 73
11
 74
0
 42
0.0000001
 43
0.0000001
 44
0.0000000001
 40
0.0
 40
0.0
 40
0.0
 40
0.0
 40
0.1194616742
 40
0.2402298478
 40
0.3011684188
 40
0.3625061793
 40
0.4864201287
 40
0.6121048152
 40
0.7396307148
 40
1.0
 40
1.0
 40
1.0
 40
1.0
 10
7.4838366703
 20
4.1892283932
 30
0.0
 10
7.4789849977
 20
4.1833920152
 30
0.0
 10
7.4689181198
 20
4.1719094524
 30
0.0
 10
7.4555193447
 20
4.1582350984
 30
0.0
 10
7.4442408742
 20
4.1476859732
 30
0.0
 10
7.4325045441
 20
4.1373439453
 30
0.0
 10
7.4170679983
 20
4.1249929547
 30
0.0
 10
7.3973272379
 20
4.1113725019
 30
0.0
 10
7.3691241405
 20
4.09492755
 30
0.0
 10
7.346318906
 20
4.0851595503
 30
0.0
 10
7.3305790783
 20
4.0800717643
 30
0.0
  0
SPLINE
  5
510
100
AcDbEntity
  8
0
100
AcDbSpline
 62
7
  6
CONTINUOUS
 70
0
 71
3
 72
36
 73
32
 74
0
 42
0.0000001
 43
0.0000001
 44
0.0000000001
 40
0.0
 40
0.0
 40
0.0
 40
0.0
 40
0.0077379864
 40
0.0154819144
 40
0.0232663812
 40
0.0310654972
 40
0.0388705654
 40
0.0466781688
 40
0.054487726
 40
0.0622984113
 40
0.0701099182
 40
0.077921996
 40
0.0935470342
 40
0.1091732267
 40
0.1248001371
 40
0.1404275234
 40
0.1560552271
 40
0.1873110806
 40
0.2185675236
 40
0.249824301
 40
0.2810812836
 40
0.3123383959
 40
0.3748527651
 40
0.4373673427
 40
0.4998820198
 40
0.562396745
 40
0.6249114931
 40
0.6874262509
 40
0.749941011
 40
0.8749705101
 40
1.0
 40
1.0
 40
1.0
 40
1.0
 10
7.3305790783
 20
4.0800717643
 30
0.0
 10
7.3313923145
 20
4.080304744
 30
0.0
 10
7.3332450936
 20
4.0804012498
 30
0.0
 10
7.3352626889
 20
4.0786025416
 30
0.0
 10
7.3365649557
 20
4.0764171823
 30
0.0
 10
7.3375509931
 20
4.0740469477
 30
0.0
 10
7.3383275395
 20
4.0716076727
 30
0.0
 10
7.3389698852
 20
4.069127652
 30
0.0
 10
7.3395151578
 20
4.0666247584
 30
0.0
 10
7.3399878615
 20
4.0641067878
 30
0.0
 10
7.3404039211
 20
4.0615786938
 30
0.0
 10
7.3408979309
 20
4.0581982204
 30
0.0
 10
7.3414226631
 20
4.0539595064
 30
0.0
 10
7.3419471836
 20
4.0488612578
 30
0.0
 10
7.342392583
 20
4.0437553024
 30
0.0
 10
7.3427764352
 20
4.0386442531
 30
0.0
 10
7.3432224273
 20
4.0318247684
 30
0.0
 10
7.3436798279
 20
4.0232941296
 30
0.0
 10
7.3441165159
 20
4.0130520564
 30
0.0
 10
7.3444697903
 20
4.0028066842
 30
0.0
 10
7.3447590638
 20
3.9925592704
 30
0.0
 10
7.3450772564
 20
3.9788942695
 30
0.0
 10
7.345373835
 20
3.9618108216
 30
0.0
 10
7.3456195384
 20
3.9413091383
 30
0.0
 10
7.3457853662
 20
3.9208066342
 30
0.0
 10
7.3458914404
 20
3.900303734
 30
0.0
 10
7.345951389
 20
3.879800646
 30
0.0
 10
7.3459749543
 20
3.8592974849
 30
0.0
 10
7.3459672598
 20
3.8319599247
 30
0.0
 10
7.3458981701
 20
3.7977880298
 30
0.0
 10
7.3457989617
 20
3.7704506504
 30
0.0
 10
7.3457413547
 20
3.7567819967
 30
0.0
  0
SPLINE
  5
511
100
AcDbEntity
  8
0
100
AcDbSpline
 62
9
  6
CONTINUOUS
 70
0
 71
3
 72
12
 73
8
 74
0
 42
0.0000001
 43
0.0000001
 44
0.0000000001
 40
0.0
 40
0.0
 40
0.0
 40
0.0
 40
0.2574893853
 40
0.5099786759
 40
0.6343382055
 40
0.7574393383
 40
1.0
 40
1.0
 40
1.0
 40
1.0
 10
7.1802075708
 20
4.0801352257
 30
0.0
 10
7.169075705
 20
4.0837356436
 30
0.0
 10
7.1474731835
 20
4.0923160153
 30
0.0
 10
7.1220933228
 20
4.1061076447
 30
0.0
 10
7.1030791186
 20
4.1185545372
 30
0.0
 10
7.0851054607
 20
4.1317086652
 30
0.0
 10
7.0724134698
 20
4.1424758741
 30
0.0
 10
7.064314716
 20
4.1499511348
 30
0.0
  0
SPLINE
  5
512
100
AcDbEntity
  8
0
100
AcDbSpline
 62
9
  6
CONTINUOUS
 70
0
 71
3
 72
28
 73
24
 74
0
 42
0.0000001
 43
0.0000001
 44
0.0000000001
 40
0.0
 40
0.0
 40
0.0
 40
0.0
 40
0.1028083662
 40
0.2008773166
 40
0.2938170865
 40
0.3812653967
 40
0.4628748578
 40
0.5383731587
 40
0.6075207256
 40
0.670061205
 40
0.725761689
 40
0.7510066311
 40
0.7745207571
 40
0.7963460297
 40
0.8165826226
 40
0.8529613898
 40
0.8697212456
 40
0.8860235124
 40
0.9023425243
 40
0.919178472
 40
0.9561554936
 40
0.9771026757
 40
1.0
 40
1.0
 40
1.0
 40
1.0
 10
7.064314716
 20
4.1499511348
 30
0.0
 10
7.0594090192
 20
4.1507002488
 30
0.0
 10
7.0497864271
 20
4.1519314295
 30
0.0
 10
7.0356423812
 20
4.1530435354
 30
0.0
 10
7.022203773
 20
4.1534767842
 30
0.0
 10
7.0095545037
 20
4.1533554795
 30
0.0
 10
6.9977599729
 20
4.1528217081
 30
0.0
 10
6.9868649968
 20
4.1520553146
 30
0.0
 10
6.9768974544
 20
4.1512386275
 30
0.0
 10
6.9678784827
 20
4.1505510358
 30
0.0
 10
6.960957565
 20
4.1502191929
 30
0.0
 10
6.9559140774
 20
4.1502179479
 30
0.0
 10
6.952508949
 20
4.1503624499
 30
0.0
 10
6.9493559811
 20
4.1506744428
 30
0.0
 10
6.9456246328
 20
4.1513196448
 30
0.0
 10
6.9422100075
 20
4.1523918516
 30
0.0
 10
6.9392783233
 20
4.1540400279
 30
0.0
 10
6.9373953623
 20
4.1555180516
 30
0.0
 10
6.9357738229
 20
4.1572846408
 30
0.0
 10
6.9339052221
 20
4.1601229957
 30
0.0
 10
6.9326365261
 20
4.1635519895
 30
0.0
 10
6.9318602357
 20
4.1673762855
 30
0.0
 10
6.9316197598
 20
4.1694823709
 30
0.0
 10
6.9315316107
 20
4.1705841047
 30
0.0
  0
SPLINE
  5
513
100
AcDbEntity
  8
0
100
AcDbSpline
 62
7
  6
CONTINUOUS
 70
0
 71
3
 72
41
 73
37
 74
0
 42
0.0000001
 43
0.0000001
 44
0.0000000001
 40
0.0
 40
0.0
 40
0.0
 40
0.0
 40
0.1250105087
 40
0.2500210265
 40
0.3125262957
 40
0.3750315624
 40
0.4375368196
 40
0.5000420537
 40
0.5625472399
 40
0.6250523271
 40
0.6875572074
 40
0.7188095761
 40
0.7500618156
 40
0.7813138521
 40
0.8125655608
 40
0.8438166922
 40
0.8594420432
 40
0.8750670885
 40
0.8906916911
 40
0.906315624
 40
0.9219384624
 40
0.929749492
 40
0.9375599894
 40
0.9453697346
 40
0.9531786315
 40
0.9609854738
 40
0.968789474
 40
0.9765906906
 40
0.9843663496
 40
0.9883092884
 40
0.9902800579
 40
0.9922200761
 40
0.9941422063
 40
0.9960828665
 40
0.9980460356
 40
1.0
 40
1.0
 40
1.0
 40
1.0
 10
7.1652048793
 20
3.7567819967
 30
0.0
 10
7.1651473297
 20
3.7704443033
 30
0.0
 10
7.1650482323
 20
3.7977689885
 30
0.0
 10
7.1649792254
 20
3.8319250153
 30
0.0
 10
7.1649715534
 20
3.859249881
 30
0.0
 10
7.1649951023
 20
3.879743521
 30
0.0
 10
7.1650549819
 20
3.9002370882
 30
0.0
 10
7.1651609177
 20
3.9207304679
 30
0.0
 10
7.1653265002
 20
3.9412234526
 30
0.0
 10
7.1655717951
 20
3.9617156192
 30
0.0
 10
7.1658678125
 20
3.9787911413
 30
0.0
 10
7.1661853166
 20
3.9924498097
 30
0.0
 10
7.1664739135
 20
4.0026924809
 30
0.0
 10
7.1668262782
 20
4.0129331224
 30
0.0
 10
7.1672617009
 20
4.0231704881
 30
0.0
 10
7.1677176121
 20
4.0316972371
 30
0.0
 10
7.1681619578
 20
4.0385136563
 30
0.0
 10
7.1685442683
 20
4.0436224458
 30
0.0
 10
7.168987672
 20
4.0487262067
 30
0.0
 10
7.1695095926
 20
4.0538223639
 30
0.0
 10
7.1700313128
 20
4.0580594899
 30
0.0
 10
7.1705221466
 20
4.0614388703
 30
0.0
 10
7.1709353118
 20
4.0639663017
 30
0.0
 10
7.1714041034
 20
4.0664838462
 30
0.0
 10
7.1719446787
 20
4.0689868322
 30
0.0
 10
7.1725803332
 20
4.0714667913
 30
0.0
 10
7.1733476204
 20
4.0739104999
 30
0.0
 10
7.17431737
 20
4.0762762988
 30
0.0
 10
7.1753925976
 20
4.0781410435
 30
0.0
 10
7.1764290209
 20
4.0792348217
 30
0.0
 10
7.1771192683
 20
4.0797487546
 30
0.0
 10
7.1776850243
 20
4.0800498076
 30
0.0
 10
7.1782974699
 20
4.0802317637
 30
0.0
 10
7.1789350712
 20
4.0802874701
 30
0.0
 10
7.1795757345
 20
4.0802505604
 30
0.0
 10
7.1799986063
 20
4.0801792383
 30
0.0
 10
7.1802075708
 20
4.0801352257
 30
0.0
  0
SPLINE
  5
514
100
AcDbEntity
  8
0
100
AcDbSpline
 62
9
  6
CONTINUOUS
 70
0
 71
3
 72
14
 73
10
 74
0
 42
0.0000001
 43
0.0000001
 44
0.0000000001
 40
0.0
 40
0.0
 40
0.0
 40
0.0
 40
0.2604500315
 40
0.3879918322
 40
0.5136767603
 40
0.6375776836
 40
0.7598188442
 40
0.8805627481
 40
1.0
 40
1.0
 40
1.0
 40
1.0
 10
3.2431988119
 20
4.0801356821
 30
0.0
 10
3.2273202304
 20
4.085269633
 30
0.0
 10
3.2043237536
 20
4.0951539453
 30
0.0
 10
3.1759147722
 20
4.1118105331
 30
0.0
 10
3.156043734
 20
4.1256037472
 30
0.0
 10
3.1374769214
 20
4.1405596957
 30
0.0
 10
3.1201225824
 20
4.15643768
 30
0.0
 10
3.1039229084
 20
4.1730921816
 30
0.0
 10
3.0938190863
 20
4.1847117312
 30
0.0
 10
3.088951573
 20
4.1906169782
 30
0.0
  0
SPLINE
  5
515
100
AcDbEntity
  8
0
100
AcDbSpline
 62
9
  6
CONTINUOUS
 70
0
 71
3
 72
11
 73
7
 74
0
 42
0.0000001
 43
0.0000001
 44
0.0000000001
 40
0.0
 40
0.0
 40
0.0
 40
0.0
 40
0.2532992866
 40
0.5043059686
 40
0.7531366534
 40
1.0
 40
1.0
 40
1.0
 40
1.0
 10
3.088951573
 20
4.1906169782
 30
0.0
 10
3.083816918
 20
4.1968463205
 30
0.0
 10
3.0739364239
 20
4.2095352935
 30
0.0
 10
3.0602183759
 20
4.2292436225
 30
0.0
 10
3.0475651339
 20
4.2494080913
 30
0.0
 10
3.0397716629
 20
4.2631568511
 30
0.0
 10
3.0360436076
 20
4.2700851524
 30
0.0
  0
SPLINE
  5
516
100
AcDbEntity
  8
0
100
AcDbSpline
 62
7
  6
CONTINUOUS
 70
0
 71
3
 72
42
 73
38
 74
0
 42
0.0000001
 43
0.0000001
 44
0.0000000001
 40
0.0
 40
0.0
 40
0.0
 40
0.0
 40
0.1250054335
 40
0.2500108764
 40
0.3125136083
 40
0.3750163377
 40
0.4375190578
 40
0.5000217551
 40
0.5625244044
 40
0.6250269551
 40
0.6875292992
 40
0.7187803996
 40
0.7500313717
 40
0.7812821414
 40
0.8125325816
 40
0.8437824484
 40
0.8594071711
 40
0.8750315921
 40
0.890655576
 40
0.9062789044
 40
0.9219011608
 40
0.9297119842
 40
0.9375221653
 40
0.9453315959
 40
0.953140476
 40
0.9609463744
 40
0.9687515288
 40
0.9765492496
 40
0.9804335951
 40
0.9843413963
 40
0.9883213008
 40
0.9902919634
 40
0.9922261087
 40
0.994143174
 40
0.9960821186
 40
0.9980455751
 40
1.0
 40
1.0
 40
1.0
 40
1.0
 10
3.2281963004
 20
3.7567819967
 30
0.0
 10
3.2281387215
 20
3.770443984
 30
0.0
 10
3.2280395602
 20
3.7977680306
 30
0.0
 10
3.227970454
 20
3.8319232593
 30
0.0
 10
3.2279626876
 20
3.8592474867
 30
0.0
 10
3.2279861568
 20
3.8797406481
 30
0.0
 10
3.2280459473
 20
3.9002337369
 30
0.0
 10
3.2281517775
 20
3.9207266386
 30
0.0
 10
3.2283172462
 20
3.9412191457
 30
0.0
 10
3.228562402
 20
3.9617108354
 30
0.0
 10
3.2288582825
 20
3.9787859611
 30
0.0
 10
3.2291756633
 20
3.9924443135
 30
0.0
 10
3.2294641516
 20
4.0026867486
 30
0.0
 10
3.2298163854
 20
4.0129271556
 30
0.0
 10
3.2302516826
 20
4.0231642876
 30
0.0
 10
3.2307074516
 20
4.0316908454
 30
0.0
 10
3.2311516561
 20
4.038507116
 30
0.0
 10
3.2315338479
 20
4.043615798
 30
0.0
 10
3.231977121
 20
4.0487194556
 30
0.0
 10
3.2324988678
 20
4.0538155224
 30
0.0
 10
3.2330205096
 20
4.0580525753
 30
0.0
 10
3.2335110277
 20
4.0614319416
 30
0.0
 10
3.2339241353
 20
4.0639593278
 30
0.0
 10
3.2343926534
 20
4.0664769193
 30
0.0
 10
3.234933215
 20
4.0689797273
 30
0.0
 10
3.235567955
 20
4.0714602715
 30
0.0
 10
3.2363352795
 20
4.073902605
 30
0.0
 10
3.2371438976
 20
4.0758775976
 30
0.0
 10
3.2379436654
 20
4.0773847629
 30
0.0
 10
3.2386758033
 20
4.07844649
 30
0.0
 10
3.2394189078
 20
4.0792370403
 30
0.0
 10
3.2401120154
 20
4.0797531087
 30
0.0
 10
3.2406774074
 20
4.0800523842
 30
0.0
 10
3.2412890739
 20
4.0802321028
 30
0.0
 10
3.2419260438
 20
4.0802863166
 30
0.0
 10
3.2425665411
 20
4.0802492095
 30
0.0
 10
3.2429896191
 20
4.0801788646
 30
0.0
 10
3.2431988119
 20
4.0801356821
 30
0.0
  0
SPLINE
  5
517
100
AcDbEntity
  8
0
100
AcDbSpline
 62
9
  6
CONTINUOUS
 70
0
 71
3
 72
28
 73
24
 74
0
 42
0.0000001
 43
0.0000001
 44
0.0000000001
 40
0.0
 40
0.0
 40
0.0
 40
0.0
 40
0.0228972876
 40
0.0438443228
 40
0.0808214335
 40
0.0976576257
 40
0.1139768319
 40
0.1302792542
 40
0.147039212
 40
0.1834181005
 40
0.2036549333
 40
0.225480148
 40
0.248994404
 40
0.274239617
 40
0.3299404381
 40
0.3924811869
 40
0.4616287106
 40
0.5371268555
 40
0.6187362671
 40
0.706184335
 40
0.7991238028
 40
0.8971922166
 40
1.0
 40
1.0
 40
1.0
 40
1.0
 10
3.6424060444
 20
4.1705841047
 30
0.0
 10
3.6423178984
 20
4.1694823768
 30
0.0
 10
3.6420774364
 20
4.1673763075
 30
0.0
 10
3.6413011517
 20
4.1635520292
 30
0.0
 10
3.6400324408
 20
4.1601230505
 30
0.0
 10
3.638163858
 20
4.1572846691
 30
0.0
 10
3.6365423025
 20
4.1555180684
 30
0.0
 10
3.6346593418
 20
4.1540400241
 30
0.0
 10
3.6317276416
 20
4.1523918628
 30
0.0
 10
3.6283130099
 20
4.1513196622
 30
0.0
 10
3.6245816678
 20
4.1506744281
 30
0.0
 10
3.6214286988
 20
4.1503624136
 30
0.0
 10
3.6180235654
 20
4.1502179519
 30
0.0
 10
3.6129800629
 20
4.1502191986
 30
0.0
 10
3.6060591299
 20
4.1505510392
 30
0.0
 10
3.5970401674
 20
4.1512386335
 30
0.0
 10
3.5870726603
 20
4.1520553043
 30
0.0
 10
3.5761777418
 20
4.1528217259
 30
0.0
 10
3.5643832781
 20
4.1533554656
 30
0.0
 10
3.5517340884
 20
4.1534767856
 30
0.0
 10
3.5382955856
 20
4.1530435469
 30
0.0
 10
3.5241516634
 20
4.1519314711
 30
0.0
 10
3.5145291598
 20
4.1507003254
 30
0.0
 10
3.509623511
 20
4.1499512145
 30
0.0
  0
SPLINE
  5
518
100
AcDbEntity
  8
0
100
AcDbSpline
 62
9
  6
CONTINUOUS
 70
0
 71
3
 72
12
 73
8
 74
0
 42
0.0000001
 43
0.0000001
 44
0.0000000001
 40
0.0
 40
0.0
 40
0.0
 40
0.0
 40
0.2425514914
 40
0.3656505014
 40
0.4900096169
 40
0.7425015041
 40
1.0
 40
1.0
 40
1.0
 40
1.0
 10
3.509623511
 20
4.1499512145
 30
0.0
 10
3.5015152525
 20
4.1424671926
 30
0.0
 10
3.4888074482
 20
4.1316881507
 30
0.0
 10
3.4708105904
 20
4.1185209586
 30
0.0
 10
3.4517708905
 20
4.1060626789
 30
0.0
 10
3.4263540884
 20
4.0922643263
 30
0.0
 10
3.4047227335
 20
4.0836798855
 30
0.0
 10
3.3935767463
 20
4.0800757528
 30
0.0
  0
SPLINE
  5
519
100
AcDbEntity
  8
0
100
AcDbSpline
 62
7
  6
CONTINUOUS
 70
0
 71
3
 72
39
 73
35
 74
0
 42
0.0000001
 43
0.0000001
 44
0.0000000001
 40
0.0
 40
0.0
 40
0.0
 40
0.0
 40
0.0039219004
 40
0.0077999133
 40
0.0116716535
 40
0.0156329085
 40
0.0195440137
 40
0.0234329968
 40
0.0312290683
 40
0.0390362973
 40
0.046842089
 40
0.0546508969
 40
0.0624604103
 40
0.0702706363
 40
0.078081484
 40
0.0937039014
 40
0.1093274392
 40
0.1249516636
 40
0.1405763511
 40
0.1562013498
 40
0.1874517852
 40
0.2187028052
 40
0.2499541608
 40
0.281205722
 40
0.312457416
 40
0.3749609554
 40
0.4374647085
 40
0.4999685641
 40
0.5624724695
 40
0.6249763989
 40
0.6874803383
 40
0.7499842805
 40
0.8749921447
 40
1.0
 40
1.0
 40
1.0
 40
1.0
 10
3.3935767463
 20
4.0800757528
 30
0.0
 10
3.393989044
 20
4.080193657
 30
0.0
 10
3.3948395739
 20
4.0803344409
 30
0.0
 10
3.3961355228
 20
4.0801662413
 30
0.0
 10
3.3972544497
 20
4.0794876568
 30
0.0
 10
3.3981549838
 20
4.078564003
 30
0.0
 10
3.3989046571
 20
4.0775140281
 30
0.0
 10
3.3997223086
 20
4.0760148182
 30
0.0
 10
3.400542102
 20
4.0740422519
 30
0.0
 10
3.4013200635
 20
4.0716020948
 30
0.0
 10
3.4019609702
 20
4.0691216455
 30
0.0
 10
3.4025064408
 20
4.0666187465
 30
0.0
 10
3.4029789605
 20
4.0641007143
 30
0.0
 10
3.4033949004
 20
4.0615726084
 30
0.0
 10
3.4038887573
 20
4.0581921536
 30
0.0
 10
3.4044134096
 20
4.0539534891
 30
0.0
 10
3.4049378305
 20
4.0488553182
 30
0.0
 10
3.4053831683
 20
4.043749454
 30
0.0
 10
3.4057669917
 20
4.0386385043
 30
0.0
 10
3.4062129592
 20
4.0318191574
 30
0.0
 10
3.4066703477
 20
4.0232886943
 30
0.0
 10
3.4071070579
 20
4.0130468341
 30
0.0
 10
3.4074603508
 20
4.0028016749
 30
0.0
 10
3.4077496687
 20
3.9925544741
 30
0.0
 10
3.4080679166
 20
3.9788897553
 30
0.0
 10
3.408364568
 20
3.9618066582
 30
0.0
 10
3.4086103584
 20
3.9413053942
 30
0.0
 10
3.4087762726
 20
3.9208033078
 30
0.0
 10
3.4088824258
 20
3.9003008245
 30
0.0
 10
3.4089424506
 20
3.8797981527
 30
0.0
 10
3.4089660904
 20
3.8592954076
 30
0.0
 10
3.4089584835
 20
3.8319584016
 30
0.0
 10
3.4088894872
 20
3.7977871991
 30
0.0
 10
3.408790351
 20
3.7704503735
 30
0.0
 10
3.4087327758
 20
3.7567819967
 30
0.0
  0
LINE
  5
51A
100
AcDbEntity
  8
DTM-AXIS
100
AcDbLine
 62
9
  6
CONTINUOUS
 10
6.5780775033
 20
4.6229237348
 11
6.5781908485
 21
4.544183571
  0
LINE
  5
51B
100
AcDbEntity
  8
DTM-AXIS
100
AcDbLine
 62
9
  6
CONTINUOUS
 10
6.5538188183
 20
4.6212590716
 11
6.5536380101
 21
4.5441835715
  0
SPLINE
  5
51C
100
AcDbEntity
  8
DTM-AXIS
100
AcDbSpline
 62
9
  6
CONTINUOUS
 70
0
 71
3
 72
9
 73
5
 74
0
 42
0.0000001
 43
0.0000001
 44
0.0000000001
 40
0.0
 40
0.0
 40
0.0
 40
0.0
 40
0.4898390059
 40
1.0
 40
1.0
 40
1.0
 40
1.0
 10
6.5780775033
 20
4.6229237348
 30
0.0
 10
6.5741460595
 20
4.6223516399
 30
0.0
 10
6.5660697558
 20
4.6215164734
 30
0.0
 10
6.5579564864
 20
4.6212529085
 30
0.0
 10
6.5538188183
 20
4.6212590655
 30
0.0
  0
LINE
  5
51D
100
AcDbEntity
  8
DTM-AXIS
100
AcDbLine
 62
9
  6
CONTINUOUS
 10
6.5781909881
 20
4.544183571
 11
6.5780775395
 21
4.4654434346
  0
LINE
  5
51E
100
AcDbEntity
  8
DTM-AXIS
100
AcDbLine
 62
9
  6
CONTINUOUS
 10
6.5536380101
 20
4.5441835715
 11
6.5538188183
 21
4.4671080715
  0
SPLINE
  5
51F
100
AcDbEntity
  8
0
100
AcDbSpline
 62
9
  6
CONTINUOUS
 70
0
 71
3
 72
15
 73
11
 74
0
 42
0.0000001
 43
0.0000001
 44
0.0000000001
 40
0.0
 40
0.0
 40
0.0
 40
0.0
 40
0.1441199015
 40
0.2849366415
 40
0.4204702885
 40
0.5499967285
 40
0.6733702882
 40
0.7903102229
 40
0.8999882888
 40
1.0
 40
1.0
 40
1.0
 40
1.0
 10
4.8720081976
 20
4.5441835715
 30
0.0
 10
4.8720111469
 20
4.5568300966
 30
0.0
 10
4.8743459285
 20
4.5818938973
 30
0.0
 10
4.884329423
 20
4.617593703
 30
0.0
 10
4.8993800996
 20
4.6500258065
 30
0.0
 10
4.9179842882
 20
4.6787007419
 30
0.0
 10
4.9388443585
 20
4.7036492985
 30
0.0
 10
4.9608946118
 20
4.7250942785
 30
0.0
 10
4.9831578243
 20
4.7431946019
 30
0.0
 10
4.9982717083
 20
4.7537180596
 30
0.0
 10
5.0056360739
 20
4.7584914056
 30
0.0
  0
SPLINE
  5
520
100
AcDbEntity
  8
0
100
AcDbSpline
 62
9
  6
CONTINUOUS
 70
0
 71
3
 72
11
 73
7
 74
0
 42
0.0000001
 43
0.0000001
 44
0.0000000001
 40
0.0
 40
0.0
 40
0.0
 40
0.0
 40
0.2257661315
 40
0.4673622022
 40
0.7256412429
 40
1.0
 40
1.0
 40
1.0
 40
1.0
 10
5.0056360739
 20
4.7584914056
 30
0.0
 10
5.0095262944
 20
4.7610120514
 30
0.0
 10
5.0180888523
 20
4.765459815
 30
0.0
 10
5.0321882893
 20
4.7703775746
 30
0.0
 10
5.0476939582
 20
4.7739825541
 30
0.0
 10
5.0585134364
 20
4.7756314363
 30
0.0
 10
5.0641025758
 20
4.7763343588
 30
0.0
  0
SPLINE
  5
521
100
AcDbEntity
  8
0
100
AcDbSpline
 62
9
  6
CONTINUOUS
 70
0
 71
3
 72
16
 73
12
 74
0
 42
0.0000001
 43
0.0000001
 44
0.0000000001
 40
0.0
 40
0.0
 40
0.0
 40
0.0
 40
0.1069326514
 40
0.219910019
 40
0.3381614483
 40
0.4615156216
 40
0.58989199
 40
0.7230590594
 40
0.860284037
 40
0.9300232442
 40
1.0
 40
1.0
 40
1.0
 40
1.0
 10
5.5941755532
 20
4.7401712704
 30
0.0
 10
5.6007076904
 20
4.7351222794
 30
0.0
 10
5.6137844263
 20
4.7242668246
 30
0.0
 10
5.6325755135
 20
4.7061016824
 30
0.0
 10
5.6505717477
 20
4.6854197317
 30
0.0
 10
5.6671353479
 20
4.6620820786
 30
0.0
 10
5.6815275096
 20
4.6360000716
 30
0.0
 10
5.6928776075
 20
4.6072827987
 30
0.0
 10
5.6989802581
 20
4.5816291467
 30
0.0
 10
5.7014947097
 20
4.5603783609
 30
0.0
 10
5.7019281719
 20
4.5495862838
 30
0.0
 10
5.7019294575
 20
4.5441835715
 30
0.0
  0
SPLINE
  5
522
100
AcDbEntity
  8
DTM-AXIS
100
AcDbSpline
 62
9
  6
CONTINUOUS
 70
0
 71
3
 72
26
 73
22
 74
0
 42
0.0000001
 43
0.0000001
 44
0.0000000001
 40
0.0
 40
0.0
 40
0.0
 40
0.0
 40
0.2095247219
 40
0.4025068503
 40
0.5743396915
 40
0.6510256356
 40
0.7209393777
 40
0.7836697805
 40
0.8388518932
 40
0.8861716755
 40
0.9068009961
 40
0.9253736376
 40
0.9418682181
 40
0.9562688004
 40
0.9685668552
 40
0.9787648056
 40
0.9830827474
 40
0.9868865825
 40
0.9901858838
 40
0.9929962219
 40
1.0
 40
1.0
 40
1.0
 40
1.0
 10
6.5538188183
 20
4.4671080715
 30
0.0
 10
6.553842597
 20
4.4559343957
 30
0.0
 10
6.5539521035
 20
4.4344692714
 30
0.0
 10
6.5543346758
 20
4.4038425305
 30
0.0
 10
6.5548513154
 20
4.3803028928
 30
0.0
 10
6.5554001168
 20
4.363329986
 30
0.0
 10
6.555853636
 20
4.3521757296
 30
0.0
 10
6.5563625037
 20
4.342171883
 30
0.0
 10
6.5569244858
 20
4.3333779162
 30
0.0
 10
6.5574566987
 20
4.3268324995
 30
0.0
 10
6.5579211498
 20
4.3222416845
 30
0.0
 10
6.5582667355
 20
4.3192914762
 30
0.0
 10
6.5586251309
 20
4.3166776584
 30
0.0
 10
6.5589951257
 20
4.3144038271
 30
0.0
 10
6.5593760103
 20
4.3124728442
 30
0.0
 10
6.5597166467
 20
4.3110834913
 30
0.0
 10
6.5600020513
 20
4.3101481516
 30
0.0
 10
6.5602052199
 20
4.3095754581
 30
0.0
 10
6.5604145156
 20
4.3090839259
 30
0.0
 10
6.5607251105
 20
4.3084829261
 30
0.0
 10
6.5611368863
 20
4.3079630944
 30
0.0
 10
6.5615103893
 20
4.3079630998
 30
0.0
  0
SPLINE
  5
523
100
AcDbEntity
  8
DTM-AXIS
100
AcDbSpline
 62
9
  6
CONTINUOUS
 70
0
 71
3
 72
9
 73
5
 74
0
 42
0.0000001
 43
0.0000001
 44
0.0000000001
 40
0.0
 40
0.0
 40
0.0
 40
0.0
 40
0.4898390651
 40
1.0
 40
1.0
 40
1.0
 40
1.0
 10
6.5780775436
 20
4.4654434376
 30
0.0
 10
6.5741460941
 20
4.4660155429
 30
0.0
 10
6.5660697764
 20
4.4668507131
 30
0.0
 10
6.5579564929
 20
4.4671142658
 30
0.0
 10
6.5538188183
 20
4.467108102
 30
0.0
  0
SPLINE
  5
524
100
AcDbEntity
  8
DTM-AXIS
100
AcDbSpline
 62
9
  6
CONTINUOUS
 70
0
 71
3
 72
11
 73
7
 74
0
 42
0.0000001
 43
0.0000001
 44
0.0000000001
 40
0.0
 40
0.0
 40
0.0
 40
0.0
 40
0.2808122451
 40
0.5439737971
 40
0.7850365894
 40
1.0
 40
1.0
 40
1.0
 40
1.0
 10
6.5780775436
 20
4.4654434376
 30
0.0
 10
6.5780655107
 20
4.4561055017
 30
0.0
 10
6.5780001386
 20
4.4380166138
 30
0.0
 10
6.577795423
 20
4.411912224
 30
0.0
 10
6.5774661543
 20
4.3879989448
 30
0.0
 10
6.5771410615
 20
4.3728377843
 30
0.0
 10
6.5769482404
 20
4.3656921352
 30
0.0
  0
SPLINE
  5
525
100
AcDbEntity
  8
DTM-AXIS
100
AcDbSpline
 62
9
  6
CONTINUOUS
 70
0
 71
3
 72
25
 73
21
 74
0
 42
0.0000001
 43
0.0000001
 44
0.0000000001
 40
0.0
 40
0.0
 40
0.0
 40
0.0
 40
0.2270470206
 40
0.427001062
 40
0.5163225575
 40
0.5983005987
 40
0.6727995014
 40
0.7396971685
 40
0.7988741151
 40
0.8502436195
 40
0.8937792448
 40
0.9294826759
 40
0.9444113094
 40
0.9574073968
 40
0.9685011712
 40
0.977746309
 40
0.9852367249
 40
0.9911497859
 40
0.9958432281
 40
1.0
 40
1.0
 40
1.0
 40
1.0
 10
6.5769482404
 20
4.3656921352
 30
0.0
 10
6.5768269338
 20
4.3611966985
 30
0.0
 10
6.5765691835
 20
4.3527429965
 30
0.0
 10
6.5761512091
 20
4.3425245555
 30
0.0
 10
6.5757703685
 20
4.3351810104
 30
0.0
 10
6.5754758147
 20
4.3303213746
 30
0.0
 10
6.5751614292
 20
4.3259081275
 30
0.0
 10
6.5748284447
 20
4.3219492506
 30
0.0
 10
6.5744767647
 20
4.3184521018
 30
0.0
 10
6.5741055897
 20
4.3154225276
 30
0.0
 10
6.5737167498
 20
4.3128646252
 30
0.0
 10
6.5733625945
 20
4.311032372
 30
0.0
 10
6.5730609509
 20
4.3098084405
 30
0.0
 10
6.5728439484
 20
4.3090663842
 30
0.0
 10
6.5726226662
 20
4.3084437961
 30
0.0
 10
6.5723972393
 20
4.3079399382
 30
0.0
 10
6.5721671256
 20
4.3075530913
 30
0.0
 10
6.5719302504
 20
4.3072804815
 30
0.0
 10
6.5716763042
 20
4.3071212745
 30
0.0
 10
6.5714931836
 20
4.3071066278
 30
0.0
 10
6.5714120261
 20
4.3071204868
 30
0.0
  0
SPLINE
  5
526
100
AcDbEntity
  8
0
100
AcDbSpline
 62
9
  6
CONTINUOUS
 70
0
 71
3
 72
16
 73
12
 74
0
 42
0.0000001
 43
0.0000001
 44
0.0000000001
 40
0.0
 40
0.0
 40
0.0
 40
0.0
 40
0.0467880292
 40
0.0961170737
 40
0.2020917385
 40
0.3171629578
 40
0.440359234
 40
0.5708479507
 40
0.7080028276
 40
0.8512461246
 40
1.0
 40
1.0
 40
1.0
 40
1.0
 10
3.721808483
 20
4.2589974946
 30
0.0
 10
3.7196702974
 20
4.2586312405
 30
0.0
 10
3.7152592561
 20
4.2579853987
 30
0.0
 10
3.7059429819
 20
4.2569703287
 30
0.0
 10
3.693429491
 20
4.2561457083
 30
0.0
 10
3.6774779199
 20
4.2555842227
 30
0.0
 10
3.660383669
 20
4.2552409219
 30
0.0
 10
3.6422649268
 20
4.2549420453
 30
0.0
 10
3.6232184501
 20
4.254525026
 30
0.0
 10
3.6033316585
 20
4.2538492666
 30
0.0
 10
3.5898096049
 20
4.253164664
 30
0.0
 10
3.5829251928
 20
4.2527485902
 30
0.0
  0
SPLINE
  5
527
100
AcDbEntity
  8
0
100
AcDbSpline
 62
7
  6
CONTINUOUS
 70
0
 71
3
 72
11
 73
7
 74
0
 42
0.0000001
 43
0.0000001
 44
0.0000000001
 40
0.0
 40
0.0
 40
0.0
 40
0.0
 40
0.2499661942
 40
0.5000054528
 40
0.7501818302
 40
1.0
 40
1.0
 40
1.0
 40
1.0
 10
5.3872173009
 20
4.3805052251
 30
0.0
 10
5.3806633259
 20
4.3769656043
 30
0.0
 10
5.3671257617
 20
4.37064684
 30
0.0
 10
5.3458542661
 20
4.3636110619
 30
0.0
 10
5.323903578
 20
4.3591439815
 30
0.0
 10
5.309013569
 20
4.3579125699
 30
0.0
 10
5.3015711038
 20
4.3577466694
 30
0.0
  0
SPLINE
  5
528
100
AcDbEntity
  8
DTM-AXIS
100
AcDbSpline
 62
9
  6
CONTINUOUS
 70
0
 71
3
 72
27
 73
23
 74
0
 42
0.0000001
 43
0.0000001
 44
0.0000000001
 40
0.0
 40
0.0
 40
0.0
 40
0.0
 40
0.0039364989
 40
0.0084639097
 40
0.0142751911
 40
0.0217141236
 40
0.0261006551
 40
0.0309479587
 40
0.0420569846
 40
0.0550916879
 40
0.0700764821
 40
0.0870228794
 40
0.1059364773
 40
0.1496694514
 40
0.2012700685
 40
0.2606885127
 40
0.3278077811
 40
0.4024993894
 40
0.4846263145
 40
0.5740185021
 40
0.7737728847
 40
1.0
 40
1.0
 40
1.0
 40
1.0
 10
6.5714120124
 20
4.7812466589
 30
0.0
 10
6.5714982679
 20
4.7812613893
 30
0.0
 10
6.5716955244
 20
4.7812419105
 30
0.0
 10
6.5719641348
 20
4.7810577992
 30
0.0
 10
6.5722137979
 20
4.7807481012
 30
0.0
 10
6.5724043669
 20
4.7804039457
 30
0.0
 10
6.5725576672
 20
4.7800664737
 30
0.0
 10
6.5727250224
 20
4.779646196
 30
0.0
 10
6.572927445
 20
4.7790338377
 30
0.0
 10
6.573155722
 20
4.7781942641
 30
0.0
 10
6.5733790466
 20
4.7772197688
 30
0.0
 10
6.5735975252
 20
4.7761107218
 30
0.0
 10
6.5738968854
 20
4.7743668234
 30
0.0
 10
6.5742500149
 20
4.7718513534
 30
0.0
 10
6.5746355389
 20
4.7684327862
 30
0.0
 10
6.5749988706
 20
4.7644894449
 30
0.0
 10
6.5753419301
 20
4.7600293766
 30
0.0
 10
6.5756631437
 20
4.7550617455
 30
0.0
 10
6.5759618729
 20
4.7495968266
 30
0.0
 10
6.57634629
 20
4.7413526927
 30
0.0
 10
6.5767606028
 20
4.7299036806
 30
0.0
 10
6.5770132136
 20
4.7204378303
 30
0.0
 10
6.5771309628
 20
4.7154104176
 30
0.0
  0
SPLINE
  5
529
100
AcDbEntity
  8
DTM-AXIS
100
AcDbSpline
 62
9
  6
CONTINUOUS
 70
0
 71
3
 72
11
 73
7
 74
0
 42
0.0000001
 43
0.0000001
 44
0.0000000001
 40
0.0
 40
0.0
 40
0.0
 40
0.0
 40
0.2197005116
 40
0.4618940397
 40
0.7232204586
 40
1.0
 40
1.0
 40
1.0
 40
1.0
 10
6.5771309628
 20
4.7154104176
 30
0.0
 10
6.5772895668
 20
4.7086386757
 30
0.0
 10
6.5775592725
 20
4.6944003841
 30
0.0
 10
6.5778353343
 20
4.6721043307
 30
0.0
 10
6.5780095052
 20
4.6480474281
 30
0.0
 10
6.5780665961
 20
4.6314571012
 30
0.0
 10
6.5780775479
 20
4.6229237024
 30
0.0
  0
SPLINE
  5
52A
100
AcDbEntity
  8
0
100
AcDbSpline
 62
9
  6
CONTINUOUS
 70
0
 71
3
 72
11
 73
7
 74
0
 42
0.0000001
 43
0.0000001
 44
0.0000000001
 40
0.0
 40
0.0
 40
0.0
 40
0.0
 40
0.2474603821
 40
0.4966765939
 40
0.7476997913
 40
1.0
 40
1.0
 40
1.0
 40
1.0
 10
6.9216608718
 20
4.7529570484
 30
0.0
 10
6.9129998816
 20
4.7437889992
 30
0.0
 10
6.8965041353
 20
4.724522168
 30
0.0
 10
6.8748420677
 20
4.6930807532
 30
0.0
 10
6.8567434869
 20
4.6591713715
 30
0.0
 10
6.847455188
 20
4.6351728753
 30
0.0
 10
6.8436063442
 20
4.6229035989
 30
0.0
  0
LINE
  5
52B
100
AcDbEntity
  8
DTM-AXIS
100
AcDbLine
 62
7
  6
CONTINUOUS
 10
6.8986614245
 20
4.8473248035
 11
6.897849286
 21
4.8471853464
  0
LINE
  5
52C
100
AcDbEntity
  8
DTM-AXIS
100
AcDbLine
 62
7
  6
CONTINUOUS
 10
6.897849286
 20
4.8471853464
 11
6.7136825622
 21
4.8154701371
  0
SPLINE
  5
52D
100
AcDbEntity
  8
DTM-AXIS
100
AcDbSpline
 62
7
  6
CONTINUOUS
 70
0
 71
3
 72
9
 73
5
 74
0
 42
0.0000001
 43
0.0000001
 44
0.0000000001
 40
0.0
 40
0.0
 40
0.0
 40
0.0
 40
0.2428015481
 40
1.0
 40
1.0
 40
1.0
 40
1.0
 10
6.7136825622
 20
4.8154701371
 30
0.0
 10
6.7131136996
 20
4.8153099591
 30
0.0
 10
6.7107917502
 20
4.8145764691
 30
0.0
 10
6.7085636175
 20
4.8135576181
 30
0.0
 10
6.7069498822
 20
4.8126673161
 30
0.0
  0
SPLINE
  5
52E
100
AcDbEntity
  8
0
100
AcDbSpline
 62
7
  6
CONTINUOUS
 70
0
 71
3
 72
14
 73
10
 74
0
 42
0.0000001
 43
0.0000001
 44
0.0000000001
 40
0.0
 40
0.0
 40
0.0
 40
0.0
 40
0.1250685723
 40
0.2501383785
 40
0.375154491
 40
0.5001588878
 40
0.6251779253
 40
0.7501998402
 40
1.0
 40
1.0
 40
1.0
 40
1.0
 10
3.0230950429
 20
4.4102350252
 30
0.0
 10
3.0271477765
 20
4.4018175529
 30
0.0
 10
3.0359833477
 20
4.3853227761
 30
0.0
 10
3.051321187
 20
4.3618297701
 30
0.0
 10
3.0686390153
 20
4.3397587135
 30
0.0
 10
3.0878037107
 20
4.3192780298
 30
0.0
 10
3.108682806
 20
4.3005413495
 30
0.0
 10
3.1385586186
 20
4.2780949158
 30
0.0
 10
3.1631189118
 20
4.2642617149
 30
0.0
 10
3.1801176022
 20
4.2565663616
 30
0.0
  0
SPLINE
  5
52F
100
AcDbEntity
  8
DTM-AXIS
100
AcDbSpline
 62
9
  6
CONTINUOUS
 70
0
 71
3
 72
26
 73
22
 74
0
 42
0.0000001
 43
0.0000001
 44
0.0000000001
 40
0.0
 40
0.0
 40
0.0
 40
0.0
 40
0.2095247219
 40
0.4025068503
 40
0.5743396915
 40
0.6510256356
 40
0.7209393777
 40
0.7836697805
 40
0.8388518932
 40
0.8861716755
 40
0.9068009961
 40
0.9253736376
 40
0.9418682181
 40
0.9562688004
 40
0.9685668552
 40
0.9787648056
 40
0.9830827474
 40
0.9868865825
 40
0.9901858838
 40
0.9929962219
 40
1.0
 40
1.0
 40
1.0
 40
1.0
 10
4.0201188367
 20
4.4671080715
 30
0.0
 10
4.0200950581
 20
4.4559343957
 30
0.0
 10
4.0199855516
 20
4.4344692714
 30
0.0
 10
4.0196029793
 20
4.4038425305
 30
0.0
 10
4.0190863396
 20
4.3803028928
 30
0.0
 10
4.0185375383
 20
4.363329986
 30
0.0
 10
4.018084019
 20
4.3521757296
 30
0.0
 10
4.0175751513
 20
4.342171883
 30
0.0
 10
4.0170131693
 20
4.3333779162
 30
0.0
 10
4.0164809564
 20
4.3268324995
 30
0.0
 10
4.0160165053
 20
4.3222416845
 30
0.0
 10
4.0156709195
 20
4.3192914762
 30
0.0
 10
4.0153125242
 20
4.3166776584
 30
0.0
 10
4.0149425293
 20
4.3144038271
 30
0.0
 10
4.0145616448
 20
4.3124728442
 30
0.0
 10
4.0142210084
 20
4.3110834913
 30
0.0
 10
4.0139356038
 20
4.3101481516
 30
0.0
 10
4.0137324352
 20
4.3095754581
 30
0.0
 10
4.0135231395
 20
4.3090839259
 30
0.0
 10
4.0132125446
 20
4.3084829261
 30
0.0
 10
4.0128007688
 20
4.3079630944
 30
0.0
 10
4.0124272658
 20
4.3079630998
 30
0.0
  0
SPLINE
  5
530
100
AcDbEntity
  8
DTM-AXIS
100
AcDbSpline
 62
9
  6
CONTINUOUS
 70
0
 71
3
 72
11
 73
7
 74
0
 42
0.0000001
 43
0.0000001
 44
0.0000000001
 40
0.0
 40
0.0
 40
0.0
 40
0.0
 40
0.2808122451
 40
0.5439737971
 40
0.7850365894
 40
1.0
 40
1.0
 40
1.0
 40
1.0
 10
3.9958601115
 20
4.4654434376
 30
0.0
 10
3.9958721444
 20
4.4561055017
 30
0.0
 10
3.9959375165
 20
4.4380166138
 30
0.0
 10
3.9961422321
 20
4.411912224
 30
0.0
 10
3.9964715008
 20
4.3879989448
 30
0.0
 10
3.9967965936
 20
4.3728377843
 30
0.0
 10
3.9969894146
 20
4.3656921352
 30
0.0
  0
SPLINE
  5
531
100
AcDbEntity
  8
DTM-AXIS
100
AcDbSpline
 62
9
  6
CONTINUOUS
 70
0
 71
3
 72
25
 73
21
 74
0
 42
0.0000001
 43
0.0000001
 44
0.0000000001
 40
0.0
 40
0.0
 40
0.0
 40
0.0
 40
0.2270470206
 40
0.427001062
 40
0.5163225575
 40
0.5983005987
 40
0.6727995014
 40
0.7396971685
 40
0.7988741151
 40
0.8502436195
 40
0.8937792448
 40
0.9294826759
 40
0.9444113094
 40
0.9574073968
 40
0.9685011712
 40
0.977746309
 40
0.9852367249
 40
0.9911497859
 40
0.9958432281
 40
1.0
 40
1.0
 40
1.0
 40
1.0
 10
3.9969894146
 20
4.3656921352
 30
0.0
 10
3.9971107213
 20
4.3611966985
 30
0.0
 10
3.9973684716
 20
4.3527429965
 30
0.0
 10
3.997786446
 20
4.3425245555
 30
0.0
 10
3.9981672866
 20
4.3351810104
 30
0.0
 10
3.9984618404
 20
4.3303213746
 30
0.0
 10
3.9987762259
 20
4.3259081275
 30
0.0
 10
3.9991092104
 20
4.3219492506
 30
0.0
 10
3.9994608904
 20
4.3184521018
 30
0.0
 10
3.9998320654
 20
4.3154225276
 30
0.0
 10
4.0002209053
 20
4.3128646252
 30
0.0
 10
4.0005750606
 20
4.311032372
 30
0.0
 10
4.0008767042
 20
4.3098084405
 30
0.0
 10
4.0010937067
 20
4.3090663842
 30
0.0
 10
4.0013149889
 20
4.3084437961
 30
0.0
 10
4.0015404157
 20
4.3079399382
 30
0.0
 10
4.0017705295
 20
4.3075530913
 30
0.0
 10
4.0020074047
 20
4.3072804815
 30
0.0
 10
4.0022613509
 20
4.3071212745
 30
0.0
 10
4.0024444714
 20
4.3071066278
 30
0.0
 10
4.0025256289
 20
4.3071204868
 30
0.0
  0
SPLINE
  5
532
100
AcDbEntity
  8
DTM-AXIS
100
AcDbSpline
 62
9
  6
CONTINUOUS
 70
0
 71
3
 72
9
 73
5
 74
0
 42
0.0000001
 43
0.0000001
 44
0.0000000001
 40
0.0
 40
0.0
 40
0.0
 40
0.0
 40
0.4898390651
 40
1.0
 40
1.0
 40
1.0
 40
1.0
 10
3.9958601115
 20
4.4654434376
 30
0.0
 10
3.999791561
 20
4.4660155429
 30
0.0
 10
4.0078678787
 20
4.4668507131
 30
0.0
 10
4.0159811622
 20
4.4671142658
 30
0.0
 10
4.0201188367
 20
4.467108102
 30
0.0
  0
LINE
  5
533
100
AcDbEntity
  8
DTM-AXIS
100
AcDbLine
 62
9
  6
CONTINUOUS
 10
3.995746667
 20
4.544183571
 11
3.9958601156
 21
4.4654434346
  0
LINE
  5
534
100
AcDbEntity
  8
DTM-AXIS
100
AcDbLine
 62
9
  6
CONTINUOUS
 10
4.020299645
 20
4.5441835715
 11
4.0201188367
 21
4.4671080715
  0
LINE
  5
535
100
AcDbEntity
  8
DTM-AXIS
100
AcDbLine
 62
9
  6
CONTINUOUS
 10
3.9958601518
 20
4.6229237348
 11
3.9957468066
 21
4.544183571
  0
SPLINE
  5
536
100
AcDbEntity
  8
DTM-AXIS
100
AcDbSpline
 62
9
  6
CONTINUOUS
 70
0
 71
3
 72
9
 73
5
 74
0
 42
0.0000001
 43
0.0000001
 44
0.0000000001
 40
0.0
 40
0.0
 40
0.0
 40
0.0
 40
0.4898390059
 40
1.0
 40
1.0
 40
1.0
 40
1.0
 10
3.9958601518
 20
4.6229237348
 30
0.0
 10
3.9997915956
 20
4.6223516399
 30
0.0
 10
4.0078678993
 20
4.6215164734
 30
0.0
 10
4.0159811686
 20
4.6212529085
 30
0.0
 10
4.0201188367
 20
4.6212590655
 30
0.0
  0
LINE
  5
537
100
AcDbEntity
  8
DTM-AXIS
100
AcDbLine
 62
9
  6
CONTINUOUS
 10
4.0201188367
 20
4.6212590716
 11
4.020299645
 21
4.5441835715
  0
SPLINE
  5
538
100
AcDbEntity
  8
0
100
AcDbSpline
 62
7
  6
CONTINUOUS
 70
0
 71
3
 72
14
 73
10
 74
0
 42
0.0000001
 43
0.0000001
 44
0.0000000001
 40
0.0
 40
0.0
 40
0.0
 40
0.0
 40
0.2498003574
 40
0.3748223748
 40
0.4998414837
 40
0.6248458536
 40
0.7498618347
 40
0.8749315014
 40
1.0
 40
1.0
 40
1.0
 40
1.0
 10
7.3938324681
 20
4.2565719826
 30
0.0
 10
7.4108301164
 20
4.264267739
 30
0.0
 10
7.4353888265
 20
4.2781013075
 30
0.0
 10
7.4652626344
 20
4.3005477915
 30
0.0
 10
7.4861402848
 20
4.3192842971
 30
0.0
 10
7.5053036337
 20
4.3397645855
 30
0.0
 10
7.5226202169
 20
4.3618350621
 30
0.0
 10
7.5379569599
 20
4.3853273168
 30
0.0
 10
7.5467919084
 20
4.4018214987
 30
0.0
 10
7.5508443614
 20
4.4102386567
 30
0.0
  0
SPLINE
  5
539
100
AcDbEntity
  8
DTM-AXIS
100
AcDbSpline
 62
7
  6
CONTINUOUS
 70
0
 71
3
 72
9
 73
5
 74
0
 42
0.0000001
 43
0.0000001
 44
0.0000000001
 40
0.0
 40
0.0
 40
0.0
 40
0.0
 40
0.2428015481
 40
1.0
 40
1.0
 40
1.0
 40
1.0
 10
3.8602550929
 20
4.8154701371
 30
0.0
 10
3.8608239555
 20
4.8153099591
 30
0.0
 10
3.8631459049
 20
4.8145764691
 30
0.0
 10
3.8653740375
 20
4.8135576181
 30
0.0
 10
3.8669877729
 20
4.8126673161
 30
0.0
  0
LINE
  5
53A
100
AcDbEntity
  8
DTM-AXIS
100
AcDbLine
 62
7
  6
CONTINUOUS
 10
3.6752762306
 20
4.8473248035
 11
3.6760883691
 21
4.8471853464
  0
LINE
  5
53B
100
AcDbEntity
  8
DTM-AXIS
100
AcDbLine
 62
7
  6
CONTINUOUS
 10
3.6760883691
 20
4.8471853464
 11
3.8602550929
 21
4.8154701371
  0
SPLINE
  5
53C
100
AcDbEntity
  8
0
100
AcDbSpline
 62
9
  6
CONTINUOUS
 70
0
 71
3
 72
11
 73
7
 74
0
 42
0.0000001
 43
0.0000001
 44
0.0000000001
 40
0.0
 40
0.0
 40
0.0
 40
0.0
 40
0.2419946091
 40
0.4891874578
 40
0.7420186827
 40
1.0
 40
1.0
 40
1.0
 40
1.0
 10
5.5273308576
 20
4.7603486444
 30
0.0
 10
5.5305197622
 20
4.7593567752
 30
0.0
 10
5.5371083406
 20
4.7577833807
 30
0.0
 10
5.5473172102
 20
4.7567015611
 30
0.0
 10
5.5578004971
 20
4.7568809136
 30
0.0
 10
5.5648051191
 20
4.7578209718
 30
0.0
 10
5.5683015812
 20
4.7584917306
 30
0.0
  0
SPLINE
  5
53D
100
AcDbEntity
  8
0
100
AcDbSpline
 62
9
  6
CONTINUOUS
 70
0
 71
3
 72
11
 73
7
 74
0
 42
0.0000001
 43
0.0000001
 44
0.0000000001
 40
0.0
 40
0.0
 40
0.0
 40
0.0
 40
0.2743408334
 40
0.5326111735
 40
0.7742128741
 40
1.0
 40
1.0
 40
1.0
 40
1.0
 10
5.5099008288
 20
4.7763261643
 30
0.0
 10
5.5154834512
 20
4.7756228685
 30
0.0
 10
5.5262904007
 20
4.7739734014
 30
0.0
 10
5.5417781595
 20
4.7703688567
 30
0.0
 10
5.5558618399
 20
4.7654536036
 30
0.0
 10
5.5644151905
 20
4.7610095961
 30
0.0
 10
5.5683015812
 20
4.7584914056
 30
0.0
  0
SPLINE
  5
53E
100
AcDbEntity
  8
0
100
AcDbSpline
 62
9
  6
CONTINUOUS
 70
0
 71
3
 72
14
 73
10
 74
0
 42
0.0000001
 43
0.0000001
 44
0.0000000001
 40
0.0
 40
0.0
 40
0.0
 40
0.0
 40
0.119461086
 40
0.2397976911
 40
0.3613153781
 40
0.4844240808
 40
0.6096381151
 40
0.7373756415
 40
1.0
 40
1.0
 40
1.0
 40
1.0
 10
5.0733305469
 20
4.7756093232
 30
0.0
 10
5.0712076065
 20
4.7736595606
 30
0.0
 10
5.06668898
 20
4.7700162884
 30
0.0
 10
5.0592512652
 20
4.7654271739
 30
0.0
 10
5.0512206912
 20
4.7617582897
 30
0.0
 10
5.0426915143
 20
4.7590631995
 30
0.0
 10
5.0337566912
 20
4.7573610027
 30
0.0
 10
5.021331344
 20
4.7564407055
 30
0.0
 10
5.0118593443
 20
4.7572974499
 30
0.0
 10
5.0056360739
 20
4.7584914653
 30
0.0
  0
SPLINE
  5
53F
100
AcDbEntity
  8
0
100
AcDbSpline
 62
9
  6
CONTINUOUS
 70
0
 71
3
 72
11
 73
7
 74
0
 42
0.0000001
 43
0.0000001
 44
0.0000000001
 40
0.0
 40
0.0
 40
0.0
 40
0.0
 40
0.2419944195
 40
0.4891871811
 40
0.7420184759
 40
1.0
 40
1.0
 40
1.0
 40
1.0
 10
5.0466063567
 20
4.3280180711
 30
0.0
 10
5.043417508
 20
4.3290100048
 30
0.0
 10
5.0368290293
 20
4.3305835286
 30
0.0
 10
5.0266202779
 20
4.3316655273
 30
0.0
 10
5.0161370836
 20
4.3314863335
 30
0.0
 10
5.0091325122
 20
4.3305463646
 30
0.0
 10
5.0056360739
 20
4.3298756458
 30
0.0
  0
SPLINE
  5
540
100
AcDbEntity
  8
DTM-AXIS
100
AcDbSpline
 62
9
  6
CONTINUOUS
 70
0
 71
3
 72
27
 73
23
 74
0
 42
0.0000001
 43
0.0000001
 44
0.0000000001
 40
0.0
 40
0.0
 40
0.0
 40
0.0
 40
0.0039364989
 40
0.0084639097
 40
0.0142751911
 40
0.0217141236
 40
0.0261006551
 40
0.0309479587
 40
0.0420569846
 40
0.0550916879
 40
0.0700764821
 40
0.0870228794
 40
0.1059364773
 40
0.1496694514
 40
0.2012700685
 40
0.2606885127
 40
0.3278077811
 40
0.4024993894
 40
0.4846263145
 40
0.5740185021
 40
0.7737728847
 40
1.0
 40
1.0
 40
1.0
 40
1.0
 10
4.0025256427
 20
4.7812466589
 30
0.0
 10
4.0024393872
 20
4.7812613893
 30
0.0
 10
4.0022421307
 20
4.7812419105
 30
0.0
 10
4.0019735203
 20
4.7810577992
 30
0.0
 10
4.0017238572
 20
4.7807481012
 30
0.0
 10
4.0015332882
 20
4.7804039457
 30
0.0
 10
4.0013799878
 20
4.7800664737
 30
0.0
 10
4.0012126327
 20
4.779646196
 30
0.0
 10
4.00101021
 20
4.7790338377
 30
0.0
 10
4.0007819331
 20
4.7781942641
 30
0.0
 10
4.0005586084
 20
4.7772197688
 30
0.0
 10
4.0003401299
 20
4.7761107218
 30
0.0
 10
4.0000407696
 20
4.7743668234
 30
0.0
 10
3.9996876402
 20
4.7718513534
 30
0.0
 10
3.9993021162
 20
4.7684327862
 30
0.0
 10
3.9989387845
 20
4.7644894449
 30
0.0
 10
3.998595725
 20
4.7600293766
 30
0.0
 10
3.9982745114
 20
4.7550617455
 30
0.0
 10
3.9979757822
 20
4.7495968266
 30
0.0
 10
3.9975913651
 20
4.7413526927
 30
0.0
 10
3.9971770523
 20
4.7299036806
 30
0.0
 10
3.9969244415
 20
4.7204378303
 30
0.0
 10
3.9968066923
 20
4.7154104176
 30
0.0
  0
SPLINE
  5
541
100
AcDbEntity
  8
DTM-AXIS
100
AcDbSpline
 62
9
  6
CONTINUOUS
 70
0
 71
3
 72
11
 73
7
 74
0
 42
0.0000001
 43
0.0000001
 44
0.0000000001
 40
0.0
 40
0.0
 40
0.0
 40
0.0
 40
0.2197005116
 40
0.4618940397
 40
0.7232204586
 40
1.0
 40
1.0
 40
1.0
 40
1.0
 10
3.9968066923
 20
4.7154104176
 30
0.0
 10
3.9966480883
 20
4.7086386757
 30
0.0
 10
3.9963783826
 20
4.6944003841
 30
0.0
 10
3.9961023208
 20
4.6721043307
 30
0.0
 10
3.9959281499
 20
4.6480474281
 30
0.0
 10
3.995871059
 20
4.6314571012
 30
0.0
 10
3.9958601072
 20
4.6229237024
 30
0.0
  0
SPLINE
  5
542
100
AcDbEntity
  8
0
100
AcDbSpline
 62
9
  6
CONTINUOUS
 70
0
 71
3
 72
14
 73
10
 74
0
 42
0.0000001
 43
0.0000001
 44
0.0000000001
 40
0.0
 40
0.0
 40
0.0
 40
0.0
 40
0.1194618425
 40
0.2397991093
 40
0.3613172836
 40
0.4844262392
 40
0.6096402161
 40
0.7373773374
 40
1.0
 40
1.0
 40
1.0
 40
1.0
 10
5.5006094028
 20
4.3127576462
 30
0.0
 10
5.5027323364
 20
4.3147072897
 30
0.0
 10
5.5072509071
 20
4.3183503473
 30
0.0
 10
5.514688443
 20
4.322939233
 30
0.0
 10
5.5227187596
 20
4.3266079879
 30
0.0
 10
5.5312476184
 20
4.3293030595
 30
0.0
 10
5.5401820833
 20
4.3310053444
 30
0.0
 10
5.5526069065
 20
4.3319258993
 30
0.0
 10
5.5620785341
 20
4.3310694922
 30
0.0
 10
5.5683015812
 20
4.3298757415
 30
0.0
  0
SPLINE
  5
543
100
AcDbEntity
  8
DTM-AXIS
100
AcDbSpline
 62
9
  6
CONTINUOUS
 70
0
 71
3
 72
26
 73
22
 74
0
 42
0.0000001
 43
0.0000001
 44
0.0000000001
 40
0.0
 40
0.0
 40
0.0
 40
0.0
 40
0.0070037952
 40
0.0098141276
 40
0.0131134214
 40
0.0169172478
 40
0.02123518
 40
0.0314331126
 40
0.0437311561
 40
0.0581317328
 40
0.0746263131
 40
0.0931989578
 40
0.1138282818
 40
0.1611480655
 40
0.2163301734
 40
0.2790605697
 40
0.3489743055
 40
0.4256602436
 40
0.5974930846
 40
0.7904752331
 40
1.0
 40
1.0
 40
1.0
 40
1.0
 10
4.0124272816
 20
4.7804040433
 30
0.0
 10
4.0128007856
 20
4.7804040484
 30
0.0
 10
4.0132125645
 20
4.7798842187
 30
0.0
 10
4.0135231564
 20
4.7792832168
 30
0.0
 10
4.0137324491
 20
4.7787916846
 30
0.0
 10
4.0139356135
 20
4.7782189911
 30
0.0
 10
4.0142210104
 20
4.7772836511
 30
0.0
 10
4.0145616358
 20
4.7758942977
 30
0.0
 10
4.0149425116
 20
4.7739633152
 30
0.0
 10
4.015312501
 20
4.771689484
 30
0.0
 10
4.0156708975
 20
4.7690756667
 30
0.0
 10
4.0160164903
 20
4.766125459
 30
0.0
 10
4.0164809542
 20
4.761534645
 30
0.0
 10
4.0170131782
 20
4.7549892293
 30
0.0
 10
4.0175751633
 20
4.7461952636
 30
0.0
 10
4.0180840273
 20
4.7361914181
 30
0.0
 10
4.0185375442
 20
4.725037163
 30
0.0
 10
4.0190863165
 20
4.7080642565
 30
0.0
 10
4.0196029773
 20
4.6845246197
 30
0.0
 10
4.0199856207
 20
4.6538978767
 30
0.0
 10
4.0200949749
 20
4.6324327492
 30
0.0
 10
4.0201188367
 20
4.6212590716
 30
0.0
  0
SPLINE
  5
544
100
AcDbEntity
  8
DTM-AXIS
100
AcDbSpline
 62
9
  6
CONTINUOUS
 70
0
 71
3
 72
26
 73
22
 74
0
 42
0.0000001
 43
0.0000001
 44
0.0000000001
 40
0.0
 40
0.0
 40
0.0
 40
0.0
 40
0.0070037952
 40
0.0098141276
 40
0.0131134214
 40
0.0169172478
 40
0.02123518
 40
0.0314331126
 40
0.0437311561
 40
0.0581317328
 40
0.0746263131
 40
0.0931989578
 40
0.1138282818
 40
0.1611480655
 40
0.2163301734
 40
0.2790605697
 40
0.3489743055
 40
0.4256602436
 40
0.5974930846
 40
0.7904752331
 40
1.0
 40
1.0
 40
1.0
 40
1.0
 10
6.5615103734
 20
4.7804040433
 30
0.0
 10
6.5611368695
 20
4.7804040484
 30
0.0
 10
6.5607250906
 20
4.7798842187
 30
0.0
 10
6.5604144986
 20
4.7792832168
 30
0.0
 10
6.560205206
 20
4.7787916846
 30
0.0
 10
6.5600020416
 20
4.7782189911
 30
0.0
 10
6.5597166446
 20
4.7772836511
 30
0.0
 10
6.5593760193
 20
4.7758942977
 30
0.0
 10
6.5589951435
 20
4.7739633152
 30
0.0
 10
6.5586251541
 20
4.771689484
 30
0.0
 10
6.5582667576
 20
4.7690756667
 30
0.0
 10
6.5579211648
 20
4.766125459
 30
0.0
 10
6.5574567009
 20
4.761534645
 30
0.0
 10
6.5569244769
 20
4.7549892293
 30
0.0
 10
6.5563624918
 20
4.7461952636
 30
0.0
 10
6.5558536278
 20
4.7361914181
 30
0.0
 10
6.5554001109
 20
4.725037163
 30
0.0
 10
6.5548513386
 20
4.7080642565
 30
0.0
 10
6.5543346778
 20
4.6845246197
 30
0.0
 10
6.5539520344
 20
4.6538978767
 30
0.0
 10
6.5538426802
 20
4.6324327492
 30
0.0
 10
6.5538188183
 20
4.6212590716
 30
0.0
  0
SPLINE
  5
545
100
AcDbEntity
  8
0
100
AcDbSpline
 62
9
  6
CONTINUOUS
 70
0
 71
3
 72
15
 73
11
 74
0
 42
0.0000001
 43
0.0000001
 44
0.0000000001
 40
0.0
 40
0.0
 40
0.0
 40
0.0
 40
0.1248782349
 40
0.2498734428
 40
0.3749006504
 40
0.4999988596
 40
0.6250956602
 40
0.7501220351
 40
0.8751198995
 40
1.0
 40
1.0
 40
1.0
 40
1.0
 10
3.7303250773
 20
4.4654529584
 30
0.0
 10
3.7320974249
 20
4.471854203
 30
0.0
 10
3.7353116189
 20
4.4847583018
 30
0.0
 10
3.7389622819
 20
4.5043752323
 30
0.0
 10
3.7412457967
 20
4.5242148325
 30
0.0
 10
3.7420001656
 20
4.5441774934
 30
0.0
 10
3.7412473716
 20
4.5641402456
 30
0.0
 10
3.7389618599
 20
4.5839796833
 30
0.0
 10
3.7353101872
 20
4.6035965685
 30
0.0
 10
3.7320976729
 20
4.616501256
 30
0.0
 10
3.7303272134
 20
4.622903126
 30
0.0
  0
SPLINE
  5
546
100
AcDbEntity
  8
0
100
AcDbSpline
 62
9
  6
CONTINUOUS
 70
0
 71
3
 72
12
 73
8
 74
0
 42
0.0000001
 43
0.0000001
 44
0.0000000001
 40
0.0
 40
0.0
 40
0.0
 40
0.0
 40
0.247491489
 40
0.4967279323
 40
0.6220323383
 40
0.7477331384
 40
1.0
 40
1.0
 40
1.0
 40
1.0
 10
3.6515927786
 20
4.3346906496
 30
0.0
 10
3.6603348424
 20
4.3438973729
 30
0.0
 10
3.6769875097
 20
4.3632499872
 30
0.0
 10
3.6951747527
 20
4.3895507311
 30
0.0
 10
3.7079316379
 20
4.4118329965
 30
0.0
 10
3.7194266487
 20
4.4349608464
 30
0.0
 10
3.7264526013
 20
4.4531055478
 30
0.0
 10
3.7303267656
 20
4.4654529584
 30
0.0
  0
LINE
  5
547
100
AcDbEntity
  8
DTM-AXIS
100
AcDbLine
 62
7
  6
CONTINUOUS
 10
3.6752762306
 20
4.8373320593
 11
3.8602550929
 21
4.8054524612
  0
SPLINE
  5
548
100
AcDbEntity
  8
DTM-AXIS
100
AcDbSpline
 62
7
  6
CONTINUOUS
 70
0
 71
3
 72
9
 73
5
 74
0
 42
0.0000001
 43
0.0000001
 44
0.0000000001
 40
0.0
 40
0.0
 40
0.0
 40
0.0
 40
0.2422244092
 40
1.0
 40
1.0
 40
1.0
 40
1.0
 10
3.8602550929
 20
4.8054524612
 30
0.0
 10
3.8608246507
 20
4.8052844409
 30
0.0
 10
3.8631531761
 20
4.8045139935
 30
0.0
 10
3.8653794338
 20
4.8034470193
 30
0.0
 10
3.8669877729
 20
4.8025173034
 30
0.0
  0
SPLINE
  5
549
100
AcDbEntity
  8
0
100
AcDbSpline
 62
9
  6
CONTINUOUS
 70
0
 71
3
 72
11
 73
7
 74
0
 42
0.0000001
 43
0.0000001
 44
0.0000000001
 40
0.0
 40
0.0
 40
0.0
 40
0.0
 40
0.2523201831
 40
0.503347815
 40
0.7525579066
 40
1.0
 40
1.0
 40
1.0
 40
1.0
 10
3.7303315008
 20
4.6229031263
 30
0.0
 10
3.726457249
 20
4.6352532899
 30
0.0
 10
3.7170972931
 20
4.6594062487
 30
0.0
 10
3.6988400239
 20
4.693516879
 30
0.0
 10
3.6769797959
 20
4.7251234416
 30
0.0
 10
3.6603317096
 20
4.7444762373
 30
0.0
 10
3.6515912266
 20
4.753680856
 30
0.0
  0
ENDSEC
  0
SECTION
  2
OBJECTS
  0
DICTIONARY
  5
C
100
AcDbDictionary
280
0
281
1
  3
ACAD_GROUP
350
D
  3
ACAD_MLINESTYLE
350
17
  3
ACAD_LAYOUT
350
1A
  3
ACAD_PLOTSETTINGS
350
19
  3
ACAD_PLOTSTYLENAME
350
E
  0
DICTIONARY
  5
D
102
{ACAD_REACTORS
330
C
102
}
100
AcDbDictionary
280
0
281
1
  0
ACDBDICTIONARYWDFLT
  5
E
102
{ACAD_REACTORS
330
C
102
}
100
AcDbDictionary
281
1
  3
Normal
350
F
100
AcDbDictionaryWithDefault
340
F
  0
DICTIONARY
  5
17
102
{ACAD_REACTORS
330
C
102
}
100
AcDbDictionary
280
0
281
1
  3
Standard
350
18
  0
DICTIONARY
  5
19
102
{ACAD_REACTORS
330
C
102
}
100
AcDbDictionary
281
1
  0
DICTIONARY
  5
1A
102
{ACAD_REACTORS
330
C
102
}
100
AcDbDictionary
281
1
  3
Model
350
54A
  3
Layout1
350
54B
  0
ACDBPLACEHOLDER
  5
F
102
{ACAD_REACTORS
330
E
102
}
  0
MLINESTYLE
  5
18
102
{ACAD_REACTORS
330
17
102
}
100
AcDbMlineStyle
  2
STANDARD
 70
0
  3

 62
256
 51
90.0
 52
90.0
 71
2
 49
0.5
 62
256
  6
BYLAYER
 49
-0.5
 62
256
  6
BYLAYER
  0
LAYOUT
  5
54A
102
{ACAD_REACTORS
330
1A
102
}
100
AcDbPlotSettings
  1

  2
none_device
  4
ANSI_A_(11.00_x_8.50_Inches)
  6

 40
0.0
 41
0.0
 42
0.0
 43
0.0
 44
279.4
 45
215.9
 46
0.0
 47
0.0
 48
0.0
 49
0.0
140
0.0
141
0.0
142
1.0
143
1.0
 70
1024
 72
0
 73
0
 74
0
  7

 75
0
147
1.0
148
0.0
149
0.0
100
AcDbLayout
  1
Model
 70
0
 71
0
 10
0.0
 20
0.0
 11
11.0
 21
8.5
 12
0.0
 22
0.0
 32
0.0
 14
0.0
 24
0.0
 34
0.0
 15
0.0
 25
0.0
 35
0.0
146
0.0
 13
0.0
 23
0.0
 33
0.0
 16
1.0
 26
0.0
 36
0.0
 17
0.0
 27
1.0
 37
0.0
 76
0
330
229
345
0
346
0
  0
LAYOUT
  5
54B
102
{ACAD_REACTORS
330
1A
102
}
100
AcDbPlotSettings
  1

  2
none_device
  4
ANSI_A_(11.00_x_8.50_Inches)
  6

 40
0.0
 41
0.0
 42
0.0
 43
0.0
 44
279.4
 45
215.9
 46
0.0
 47
0.0
 48
0.0
 49
0.0
140
0.0
141
0.0
142
1.0
143
1.0
 70
0
 72
0
 73
0
 74
0
  7

 75
0
147
1.0
148
0.0
149
0.0
100
AcDbLayout
  1
Layout1
 70
0
 71
1
 10
0.0
 20
0.0
 11
11.0
 21
8.5
 12
0.0
 22
0.0
 32
0.0
 14
0.0
 24
0.0
 34
0.0
 15
0.0
 25
0.0
 35
0.0
146
0.0
 13
0.0
 23
0.0
 33
0.0
 16
1.0
 26
0.0
 36
0.0
 17
0.0
 27
1.0
 37
0.0
 76
0
330
22A
345
0
346
0
  0
ENDSEC
  0
EOF
