999
DXF file: 1-607h_FRONT.dxf
999
Pro/ENGINEER 2013150 by Parametric Technology Corporation
  0
SECTION
  2
HEADER
  9
$ACADVER
  1
AC1021
  9
$DWGCODEPAGE
  3
ANSI_1252
  9
$EXTMAX
 10
11.0
 20
8.5
 30
0.0
  9
$EXTMIN
 10
0.0
 20
0.0
 30
0.0
  9
$LIMMIN
 10
0.0
 20
0.0
  9
$LIMMAX
 10
11.0
 20
8.5
  9
$VIEWCTR
 10
5.5
 20
4.25
  9
$VIEWSIZE
 40
8.5
  9
$CLAYER
  8
0
  9
$LTSCALE
 40
0.605
  9
$CELTYPE
  6
BYLAYER
  9
$DIMSCALE
 40
1.0
  9
$DIMASZ
 40
0.1
  9
$DIMEXO
 40
0.0625
  9
$DIMDLI
 40
0.418
  9
$DIMEXE
 40
0.125
  9
$DIMCEN
 40
0.099
  9
$DIMLFAC
 40
1.0
  9
$DIMBLK
  1
_FILLED
  9
$DIMTXT
 40
0.08
  9
$DIMTOL
 70
1
  9
$DIMLIM
 70
0
  9
$DIMTFAC
 40
1.0
  9
$DIMTP
 40
0.001
  9
$DIMTM
 40
0.001
  9
$DIMGAP
 40
0.09
  9
$DIMDSEP
 70
46
  9
$PDMODE
 70
3
  9
$PDSIZE
 40
0.06
  9
$HANDSEED
  5
327
  9
$TILEMODE
 70
1
  9
$MEASUREMENT
 70
0
  9
$INSUNITS
 70
1
  0
ENDSEC
  0
SECTION
  2
CLASSES
  0
CLASS
  1
ACDBDICTIONARYWDFLT
  2
AcDbDictionaryWithDefault
  3
AutoCAD 2000
 90
0
 91
1
280
0
281
0
  0
CLASS
  1
ACDBPLACEHOLDER
  2
AcDbPlaceHolder
  3
AutoCAD 2000
 90
0
 91
1
280
0
281
0
  0
CLASS
  1
LAYOUT
  2
AcDbLayout
  3
AutoCAD 2000
 90
0
 91
0
280
0
281
0
  0
ENDSEC
  0
SECTION
  2
TABLES
  0
TABLE
  2
VPORT
  5
8
100
AcDbSymbolTable
 70
2
  0
VPORT
  5
1F4
100
AcDbSymbolTableRecord
100
AcDbViewportTableRecord
  2
*ACTIVE
 70
0
 10
0.0
 20
0.0
 11
1.0
 21
1.0
 12
5.5
 22
4.25
 13
0.0
 23
0.0
 14
1.0
 24
1.0
 15
0.0
 25
0.0
 16
0.0
 26
0.0
 36
1.0
 17
0.0
 27
0.0
 37
0.0
 40
8.5
 41
1.2941176471
 42
50.0
 43
0.0
 44
0.0
 50
0.0
 51
0.0
 71
0
 72
100
 73
1
 74
1
 75
0
 76
0
 77
0
 78
0
  0
ENDTAB
  0
TABLE
  2
LTYPE
  5
5
100
AcDbSymbolTable
 70
6
  0
LTYPE
  5
14
100
AcDbSymbolTableRecord
100
AcDbLinetypeTableRecord
  2
BYBLOCK
 70
0
  3

 72
65
 73
0
 40
0.0
  0
LTYPE
  5
15
100
AcDbSymbolTableRecord
100
AcDbLinetypeTableRecord
  2
BYLAYER
 70
0
  3

 72
65
 73
0
 40
0.0
  0
LTYPE
  5
16
100
AcDbSymbolTableRecord
100
AcDbLinetypeTableRecord
  2
CONTINUOUS
 70
64
  3
Solid line
 72
65
 73
0
 40
0.0
  0
LTYPE
  5
1F5
100
AcDbSymbolTableRecord
100
AcDbLinetypeTableRecord
  2
CENTER
 70
64
  3
____ _ ____ _ ____ _ ____ _ ____ _ ____ _ ____
 72
65
 73
4
 40
0.6
 49
0.375
 74
0
 49
-0.075
 74
0
 49
0.075
 74
0
 49
-0.075
 74
0
  0
LTYPE
  5
1F6
100
AcDbSymbolTableRecord
100
AcDbLinetypeTableRecord
  2
HIDDEN
 70
64
  3
- - - - - - - - - - - - - - - - - - - -
 72
65
 73
2
 40
0.2
 49
0.1
 74
0
 49
-0.1
 74
0
  0
LTYPE
  5
1F7
100
AcDbSymbolTableRecord
100
AcDbLinetypeTableRecord
  2
PHANTOM
 70
64
  3
_____ _ _ _____ _ _ _____ _ _ _____
 72
65
 73
6
 40
0.8
 49
0.45
 74
0
 49
-0.05
 74
0
 49
0.1
 74
0
 49
-0.05
 74
0
 49
0.1
 74
0
 49
-0.05
 74
0
  0
LTYPE
  5
1F8
100
AcDbSymbolTableRecord
100
AcDbLinetypeTableRecord
  2
DOT
 70
64
  3
. . . . . . . . . . . . . . . . . . . .
 72
65
 73
2
 40
0.2
 49
0.1
 74
0
 49
-0.1
 74
0
  0
LTYPE
  5
1F9
100
AcDbSymbolTableRecord
100
AcDbLinetypeTableRecord
  2
DASHED
 70
64
  3
- - - - - - - - - - - - - - - - - - - -
 72
65
 73
2
 40
0.2
 49
0.1
 74
0
 49
-0.1
 74
0
  0
ENDTAB
  0
TABLE
  2
LAYER
  5
2
100
AcDbSymbolTable
 70
36
  0
LAYER
  5
10
100
AcDbSymbolTableRecord
100
AcDbLayerTableRecord
  2
0
 70
0
 62
7
  6
CONTINUOUS
370
-3
390
F
  0
LAYER
  5
1FA
100
AcDbSymbolTableRecord
100
AcDbLayerTableRecord
  2
DEFAULT_1
 70
0
 62
7
  6
CENTER
370
-3
390
F
  0
LAYER
  5
1FB
100
AcDbSymbolTableRecord
100
AcDbLayerTableRecord
  2
DEFAULT_2
 70
0
 62
8
  6
HIDDEN
370
-3
390
F
  0
LAYER
  5
1FC
100
AcDbSymbolTableRecord
100
AcDbLayerTableRecord
  2
DEFAULT_3
 70
0
 62
7
  6
PHANTOM
370
-3
390
F
  0
LAYER
  5
1FD
100
AcDbSymbolTableRecord
100
AcDbLayerTableRecord
  2
ALL_ASSEMBLY_MEMBERS
 70
0
 62
7
  6
CONTINUOUS
370
-3
390
F
  0
LAYER
  5
1FE
100
AcDbSymbolTableRecord
100
AcDbLayerTableRecord
  2
ALL_FEATURES
 70
0
 62
7
  6
CONTINUOUS
370
-3
390
F
  0
LAYER
  5
1FF
100
AcDbSymbolTableRecord
100
AcDbLayerTableRecord
  2
AXES_FEATURES
 70
0
 62
7
  6
CONTINUOUS
370
-3
390
F
  0
LAYER
  5
200
100
AcDbSymbolTableRecord
100
AcDbLayerTableRecord
  2
CHAMFER_FEATURES
 70
0
 62
7
  6
CONTINUOUS
370
-3
390
F
  0
LAYER
  5
201
100
AcDbSymbolTableRecord
100
AcDbLayerTableRecord
  2
CUT_FEATURES
 70
0
 62
7
  6
CONTINUOUS
370
-3
390
F
  0
LAYER
  5
202
100
AcDbSymbolTableRecord
100
AcDbLayerTableRecord
  2
DATUM_CURVES
 70
0
 62
7
  6
CONTINUOUS
370
-3
390
F
  0
LAYER
  5
203
100
AcDbSymbolTableRecord
100
AcDbLayerTableRecord
  2
DATUM_PLANES
 70
0
 62
7
  6
CONTINUOUS
370
-3
390
F
  0
LAYER
  5
204
100
AcDbSymbolTableRecord
100
AcDbLayerTableRecord
  2
DATUM_POINTS
 70
0
 62
7
  6
CONTINUOUS
370
-3
390
F
  0
LAYER
  5
205
100
AcDbSymbolTableRecord
100
AcDbLayerTableRecord
  2
DEFAULT_COORDINATE_SYSTEM
 70
0
 62
7
  6
CONTINUOUS
370
-3
390
F
  0
LAYER
  5
206
100
AcDbSymbolTableRecord
100
AcDbLayerTableRecord
  2
DEFAULT_DATUM_AXES
 70
0
 62
7
  6
CONTINUOUS
370
-3
390
F
  0
LAYER
  5
207
100
AcDbSymbolTableRecord
100
AcDbLayerTableRecord
  2
DEFAULT_DATUM_PLANES
 70
0
 62
7
  6
CONTINUOUS
370
-3
390
F
  0
LAYER
  5
208
100
AcDbSymbolTableRecord
100
AcDbLayerTableRecord
  2
DIMENSIONS
 70
0
 62
7
  6
CONTINUOUS
370
-3
390
F
  0
LAYER
  5
209
100
AcDbSymbolTableRecord
100
AcDbLayerTableRecord
  2
HOLE_FEATURES
 70
0
 62
7
  6
CONTINUOUS
370
-3
390
F
  0
LAYER
  5
20A
100
AcDbSymbolTableRecord
100
AcDbLayerTableRecord
  2
NONE
 70
0
 62
7
  6
CONTINUOUS
370
-3
390
F
  0
LAYER
  5
20B
100
AcDbSymbolTableRecord
100
AcDbLayerTableRecord
  2
PART_REFERENCE_DIMENSIONS
 70
0
 62
7
  6
CONTINUOUS
370
-3
390
F
  0
LAYER
  5
20C
100
AcDbSymbolTableRecord
100
AcDbLayerTableRecord
  2
POINTS
 70
0
 62
7
  6
CONTINUOUS
370
-3
390
F
  0
LAYER
  5
20D
100
AcDbSymbolTableRecord
100
AcDbLayerTableRecord
  2
PROTRUSION_FEATURES
 70
0
 62
7
  6
CONTINUOUS
370
-3
390
F
  0
LAYER
  5
20E
100
AcDbSymbolTableRecord
100
AcDbLayerTableRecord
  2
QUILTS
 70
0
 62
7
  6
CONTINUOUS
370
-3
390
F
  0
LAYER
  5
20F
100
AcDbSymbolTableRecord
100
AcDbLayerTableRecord
  2
REFERENCE_DIMENSIONS
 70
0
 62
7
  6
CONTINUOUS
370
-3
390
F
  0
LAYER
  5
210
100
AcDbSymbolTableRecord
100
AcDbLayerTableRecord
  2
ROUND_FEATURES
 70
0
 62
7
  6
CONTINUOUS
370
-3
390
F
  0
LAYER
  5
211
100
AcDbSymbolTableRecord
100
AcDbLayerTableRecord
  2
SURFACE_FEATURES
 70
0
 62
7
  6
CONTINUOUS
370
-3
390
F
  0
LAYER
  5
212
100
AcDbSymbolTableRecord
100
AcDbLayerTableRecord
  2
XSEC_DATUMS
 70
0
 62
7
  6
CONTINUOUS
370
-3
390
F
  0
ENDTAB
  0
TABLE
  2
STYLE
  5
3
100
AcDbSymbolTable
 70
1
  0
STYLE
  5
11
100
AcDbSymbolTableRecord
100
AcDbTextStyleTableRecord
  2
STANDARD
 70
0
 40
0.0
 41
0.8
 50
0.0
 71
0
 42
0.2
  3
txt
  4

  0
STYLE
  5
213
100
AcDbSymbolTableRecord
100
AcDbTextStyleTableRecord
  2
TEXTSTYLE_1
 70
0
 40
0.0
 41
0.8
 50
0.0
 71
0
 42
0.2
  3
gdt
  4

  0
ENDTAB
  0
TABLE
  2
VIEW
  5
6
100
AcDbSymbolTable
 70
0
  0
ENDTAB
  0
TABLE
  2
UCS
  5
7
100
AcDbSymbolTable
 70
0
  0
ENDTAB
  0
TABLE
  2
APPID
  5
9
100
AcDbSymbolTable
 70
1
  0
APPID
  5
214
100
AcDbSymbolTableRecord
100
AcDbRegAppTableRecord
  2
ACAD
 70
0
  0
ENDTAB
  0
TABLE
  2
BLOCK_RECORD
  5
1
100
AcDbSymbolTable
 70
0
  0
BLOCK_RECORD
  5
215
100
AcDbSymbolTableRecord
100
AcDbBlockTableRecord
  2
*Model_Space
  0
BLOCK_RECORD
  5
216
100
AcDbSymbolTableRecord
100
AcDbBlockTableRecord
  2
*Paper_Space
  0
ENDTAB
  0
TABLE
  2
DIMSTYLE
  5
A
100
AcDbSymbolTable
 70
1
100
AcDbDimStyleTable
 71
0
  0
DIMSTYLE
105
217
100
AcDbSymbolTableRecord
100
AcDbDimStyleTableRecord
  2
STANDARD
 70
0
  3

  4

 40
1.0
 41
0.1
 42
0.0625
 43
0.38
 44
0.125
 45
0.0
 46
0.0
 47
0.001
 48
0.001
140
0.08
141
0.09
142
0.0
143
25.4
144
1.0
145
0.0
146
1.0
147
0.09
 71
1.0
 72
0.0
 73
1
 74
1
 75
0
 76
0
 77
0
 78
4
170
0
171
2
172
0
173
0
174
0
175
0
176
0
177
0
178
0
270
2
271
3
272
3
273
2
274
2
275
0
280
0
281
0
282
0
283
1
284
4
285
0
286
0
287
3
288
0
340
11
278
46
  0
ENDTAB
  0
ENDSEC
  0
SECTION
  2
BLOCKS
  0
BLOCK
  5
20
100
AcDbEntity
  8
0
100
AcDbBlockBegin
  2
*Model_Space
 70
0
 10
0.0
 20
0.0
 30
0.0
  3
*Model_Space
  1

  0
ENDBLK
  5
21
100
AcDbEntity
  8
0
100
AcDbBlockEnd
  0
BLOCK
  5
1C
100
AcDbEntity
  8
0
100
AcDbBlockBegin
  2
*Paper_Space
 70
0
 10
0.0
 20
0.0
 30
0.0
  3
*Paper_Space
  1

  0
ENDBLK
  5
1D
100
AcDbEntity
  8
0
100
AcDbBlockEnd
  0
ENDSEC
  0
SECTION
  2
ENTITIES
  0
LINE
  5
218
100
AcDbEntity
  8
0
100
AcDbLine
 62
7
  6
CONTINUOUS
 10
0.0
 20
0.0
 11
0.0
 21
8.5
  0
LINE
  5
219
100
AcDbEntity
  8
0
100
AcDbLine
 62
7
  6
CONTINUOUS
 10
0.0
 20
0.0
 11
11.0
 21
0.0
  0
LINE
  5
21A
100
AcDbEntity
  8
0
100
AcDbLine
 62
7
  6
CONTINUOUS
 10
0.0
 20
8.5
 11
11.0
 21
8.5
  0
LINE
  5
21B
100
AcDbEntity
  8
0
100
AcDbLine
 62
7
  6
CONTINUOUS
 10
11.0
 20
0.0
 11
11.0
 21
8.5
  0
LINE
  5
21C
100
AcDbEntity
  8
ALL_ASSEMBLY_MEMBERS
100
AcDbLine
 62
7
  6
CONTINUOUS
 10
4.3310243528
 20
2.8144712515
 11
5.4138190095
 21
2.8144712515
  0
LINE
  5
21D
100
AcDbEntity
  8
ALL_ASSEMBLY_MEMBERS
100
AcDbLine
 62
7
  6
CONTINUOUS
 10
4.8103955527
 20
3.1688019602
 11
4.9344333678
 21
3.1688019602
  0
LINE
  5
21E
100
AcDbEntity
  8
ALL_ASSEMBLY_MEMBERS
100
AcDbLine
 62
7
  6
CONTINUOUS
 10
4.3193115131
 20
4.8330505201
 11
4.3193134345
 21
4.83305546
  0
LINE
  5
21F
100
AcDbEntity
  8
ALL_ASSEMBLY_MEMBERS
100
AcDbLine
 62
7
  6
CONTINUOUS
 10
4.3193031026
 20
3.5518191347
 11
4.3193050126
 21
3.5518142233
  0
LWPOLYLINE
  5
220
100
AcDbEntity
  8
ALL_ASSEMBLY_MEMBERS
100
AcDbPolyline
 62
7
  6
CONTINUOUS
 90
27
 70
0
 10
4.3193049779
 20
3.5518142878
 10
4.3231389476
 20
3.5413481771
 10
4.3278981262
 20
3.5261775517
 10
4.3317856895
 20
3.5108982913
 10
4.334813985
 20
3.4955772431
 10
4.3370003487
 20
3.480279153
 10
4.3383672318
 20
3.4650632573
 10
4.3389412034
 20
3.4499865621
 10
4.3387525107
 20
3.4350934697
 10
4.3378323281
 20
3.4204141206
 10
4.3362134621
 20
3.4059909225
 10
4.3339300437
 20
3.3918574716
 10
4.331012407
 20
3.3780236846
 10
4.3274940817
 20
3.3645189724
 10
4.3234095359
 20
3.3513695936
 10
4.3187853483
 20
3.3385765839
 10
4.3136541863
 20
3.3261613513
 10
4.308049105
 20
3.3141425377
 10
4.3019918351
 20
3.3025151561
 10
4.2955092465
 20
3.2912880808
 10
4.2886357021
 20
3.2804813108
 10
4.2814015754
 20
3.270104999
 10
4.273834511
 20
3.26016423
 10
4.2659685985
 20
3.2506711065
 10
4.2578456428
 20
3.2416429701
 10
4.2494982426
 20
3.2330829849
 10
4.2479100761
 20
3.2315295968
  0
LINE
  5
221
100
AcDbEntity
  8
ALL_ASSEMBLY_MEMBERS
100
AcDbLine
 62
7
  6
CONTINUOUS
 10
4.1991933347
 20
4.5174240074
 11
4.1991933347
 21
3.8674240074
  0
LINE
  5
222
100
AcDbEntity
  8
ALL_ASSEMBLY_MEMBERS
100
AcDbLine
 62
7
  6
CONTINUOUS
 10
4.2479100761
 20
2.8289625429
 11
4.2479100761
 21
3.2315086628
  0
LINE
  5
223
100
AcDbEntity
  8
ALL_ASSEMBLY_MEMBERS
100
AcDbLine
 62
7
  6
CONTINUOUS
 10
4.2479100761
 20
5.1533529675
 11
4.2479100761
 21
5.5558684046
  0
LINE
  5
224
100
AcDbEntity
  8
ALL_FEATURES
100
AcDbLine
 62
7
  6
CONTINUOUS
 10
4.5133098137
 20
4.1924240074
 11
4.5882704188
 21
4.322259584
  0
LINE
  5
225
100
AcDbEntity
  8
ALL_FEATURES
100
AcDbLine
 62
7
  6
CONTINUOUS
 10
4.6179051423
 20
4.3735884308
 11
4.6928657474
 21
4.5034240074
  0
LINE
  5
226
100
AcDbEntity
  8
ALL_ASSEMBLY_MEMBERS
100
AcDbLine
 62
7
  6
CONTINUOUS
 10
4.1991933347
 20
3.8674240074
 11
4.2415796749
 21
3.8674240074
  0
LINE
  5
227
100
AcDbEntity
  8
ALL_FEATURES
100
AcDbLine
 62
7
  6
CONTINUOUS
 10
4.6928657474
 20
3.8814240074
 11
4.8427869576
 21
3.8814240074
  0
LINE
  5
228
100
AcDbEntity
  8
ALL_FEATURES
100
AcDbLine
 62
7
  6
CONTINUOUS
 10
4.9020564047
 20
3.8814240074
 11
5.0519776149
 21
3.8814240074
  0
LINE
  5
229
100
AcDbEntity
  8
ALL_FEATURES
100
AcDbLine
 62
7
  6
CONTINUOUS
 10
4.6928657474
 20
3.8814240074
 11
4.6179051423
 21
4.011259584
  0
LINE
  5
22A
100
AcDbEntity
  8
ALL_FEATURES
100
AcDbLine
 62
7
  6
CONTINUOUS
 10
4.5882704188
 20
4.0625884308
 11
4.5133098137
 21
4.1924240074
  0
LWPOLYLINE
  5
22B
100
AcDbEntity
  8
ALL_ASSEMBLY_MEMBERS
100
AcDbPolyline
 62
7
  6
CONTINUOUS
 90
27
 70
0
 10
5.4969332862
 20
3.2315766479
 10
5.4885305366
 20
3.2400718242
 10
5.4806108679
 20
3.2487371385
 10
5.4729229335
 20
3.2578442231
 10
5.4654971417
 20
3.267389207
 10
5.4583786739
 20
3.2773451767
 10
5.4516002878
 20
3.2876954223
 10
5.4451838533
 20
3.2984373591
 10
5.4391555597
 20
3.3095614557
 10
5.4335460029
 20
3.3210474855
 10
5.4283787223
 20
3.3328864842
 10
5.4236720476
 20
3.3450845938
 10
5.4194553668
 20
3.3576236224
 10
5.415757628
 20
3.3704829437
 10
5.4126019583
 20
3.3836634769
 10
5.4100191171
 20
3.3971403649
 10
5.4080389551
 20
3.4108859559
 10
5.4066884718
 20
3.4248932639
 10
5.4059983097
 20
3.4391313397
 10
5.4059978659
 20
3.4535605673
 10
5.4067152844
 20
3.4681545853
 10
5.4081777964
 20
3.4828721853
 10
5.4104092632
 20
3.4976612839
 10
5.4134303971
 20
3.5124699108
 10
5.4172573606
 20
3.5272395046
 10
5.4219015214
 20
3.5419080776
 10
5.4255674752
 20
3.5518891683
  0
LINE
  5
22C
100
AcDbEntity
  8
ALL_FEATURES
100
AcDbLine
 62
7
  6
CONTINUOUS
 10
4.6803904253
 20
4.1268049245
 11
4.6838520395
 21
4.1409899721
  0
LINE
  5
22D
100
AcDbEntity
  8
ALL_FEATURES
100
AcDbLine
 62
7
  6
CONTINUOUS
 10
4.7993579074
 20
4.0111695417
 11
4.7873844227
 21
4.0081875459
  0
LINE
  5
22E
100
AcDbEntity
  8
ALL_ASSEMBLY_MEMBERS
100
AcDbLine
 62
7
  6
CONTINUOUS
 10
4.1991933347
 20
4.0674240074
 11
4.2154018532
 21
4.0674240074
  0
LINE
  5
22F
100
AcDbEntity
  8
ALL_FEATURES
100
AcDbLine
 62
7
  6
CONTINUOUS
 10
4.9574589396
 20
4.0081875459
 11
4.9454854549
 21
4.0111695417
  0
LINE
  5
230
100
AcDbEntity
  8
0
100
AcDbLine
 62
7
  6
CONTINUOUS
 10
4.8618127295
 20
4.1225972259
 11
4.8618127295
 21
4.1450167551
  0
LINE
  5
231
100
AcDbEntity
  8
0
100
AcDbLine
 62
7
  6
CONTINUOUS
 10
4.8618127295
 20
4.2398312598
 11
4.8618127295
 21
4.262250789
  0
LINE
  5
232
100
AcDbEntity
  8
ALL_ASSEMBLY_MEMBERS
100
AcDbLine
 62
7
  6
CONTINUOUS
 10
4.8724216811
 20
5.4916366059
 11
4.8724216811
 21
5.2160460547
  0
LINE
  5
233
100
AcDbEntity
  8
ALL_ASSEMBLY_MEMBERS
100
AcDbLine
 62
7
  6
CONTINUOUS
 10
4.8724216811
 20
2.893211409
 11
4.8724216811
 21
3.1688019602
  0
LINE
  5
234
100
AcDbEntity
  8
0
100
AcDbLine
 62
7
  6
CONTINUOUS
 10
4.8830306328
 20
4.262250789
 11
4.8830306328
 21
4.2398312598
  0
LINE
  5
235
100
AcDbEntity
  8
0
100
AcDbLine
 62
7
  6
CONTINUOUS
 10
4.8830306328
 20
4.1450167551
 11
4.8830306328
 21
4.1225972259
  0
LINE
  5
236
100
AcDbEntity
  8
ALL_FEATURES
100
AcDbLine
 62
7
  6
CONTINUOUS
 10
4.8188513917
 20
4.3468988406
 11
4.8219460269
 21
4.3704049287
  0
LINE
  5
237
100
AcDbEntity
  8
0
100
AcDbLine
 62
7
  6
CONTINUOUS
 10
4.8233138828
 20
4.1732658336
 11
4.8250144288
 21
4.1818150558
  0
LINE
  5
238
100
AcDbEntity
  8
ALL_FEATURES
100
AcDbLine
 62
7
  6
CONTINUOUS
 10
4.7576779074
 20
4.0473072738
 11
4.7638142278
 21
4.070208333
  0
LINE
  5
239
100
AcDbEntity
  8
0
100
AcDbLine
 62
7
  6
CONTINUOUS
 10
4.8618127295
 20
4.2398312598
 11
4.8510347568
 21
4.2138109318
  0
LINE
  5
23A
100
AcDbEntity
  8
ALL_FEATURES
100
AcDbLine
 62
7
  6
CONTINUOUS
 10
4.8820441465
 20
4.3556406064
 11
4.8938986071
 21
4.3761731344
  0
LINE
  5
23B
100
AcDbEntity
  8
ALL_FEATURES
100
AcDbLine
 62
7
  6
CONTINUOUS
 10
4.7108784874
 20
4.1022641685
 11
4.7253115641
 21
4.1210737203
  0
LINE
  5
23C
100
AcDbEntity
  8
0
100
AcDbLine
 62
7
  6
CONTINUOUS
 10
4.9005271622
 20
4.2205294885
 11
4.8938086055
 21
4.2138109318
  0
LINE
  5
23D
100
AcDbEntity
  8
0
100
AcDbLine
 62
7
  6
CONTINUOUS
 10
4.8443162001
 20
4.1643185264
 11
4.8510347568
 21
4.1710370831
  0
LINE
  5
23E
100
AcDbEntity
  8
ALL_FEATURES
100
AcDbLine
 62
7
  6
CONTINUOUS
 10
4.9437719682
 20
4.3395341245
 11
4.96258152
 21
4.3539672012
  0
LINE
  5
23F
100
AcDbEntity
  8
ALL_FEATURES
100
AcDbLine
 62
7
  6
CONTINUOUS
 10
4.6886725542
 20
4.1709470815
 11
4.7092050822
 21
4.1828015421
  0
LINE
  5
240
100
AcDbEntity
  8
0
100
AcDbLine
 62
7
  6
CONTINUOUS
 10
4.8510347568
 20
4.2138109318
 11
4.8250144288
 21
4.2030329591
  0
LINE
  5
241
100
AcDbEntity
  8
ALL_FEATURES
100
AcDbLine
 62
7
  6
CONTINUOUS
 10
4.7502060067
 20
4.0838165541
 11
4.7273049475
 21
4.0776802337
  0
LINE
  5
242
100
AcDbEntity
  8
0
100
AcDbLine
 62
7
  6
CONTINUOUS
 10
4.8532635073
 20
4.1433162091
 11
4.8618127295
 21
4.1450167551
  0
LINE
  5
243
100
AcDbEntity
  8
ALL_FEATURES
100
AcDbLine
 62
7
  6
CONTINUOUS
 10
5.0504026024
 20
4.1419483532
 11
5.0268965143
 21
4.138853718
  0
LINE
  5
244
100
AcDbEntity
  8
ALL_ASSEMBLY_MEMBERS
100
AcDbLine
 62
7
  6
CONTINUOUS
 10
4.1991933347
 20
4.1174240074
 11
4.2049851484
 21
4.1174240074
  0
LINE
  5
245
100
AcDbEntity
  8
0
100
AcDbLine
 62
7
  6
CONTINUOUS
 10
4.9422484627
 20
4.1818150558
 11
4.9198289335
 21
4.1818150558
  0
LINE
  5
246
100
AcDbEntity
  8
0
100
AcDbLine
 62
7
  6
CONTINUOUS
 10
4.8250144288
 20
4.1818150558
 11
4.8025948996
 21
4.1818150558
  0
LINE
  5
247
100
AcDbEntity
  8
0
100
AcDbLine
 62
7
  6
CONTINUOUS
 10
4.8025948996
 20
4.2030329591
 11
4.8250144288
 21
4.2030329591
  0
LINE
  5
248
100
AcDbEntity
  8
0
100
AcDbLine
 62
7
  6
CONTINUOUS
 10
4.9198289335
 20
4.2030329591
 11
4.9422484627
 21
4.2030329591
  0
LINE
  5
249
100
AcDbEntity
  8
ALL_FEATURES
100
AcDbLine
 62
7
  6
CONTINUOUS
 10
4.717946848
 20
4.138853718
 11
4.6944407599
 21
4.1419483532
  0
LINE
  5
24A
100
AcDbEntity
  8
0
100
AcDbLine
 62
7
  6
CONTINUOUS
 10
4.8915798549
 20
4.1433162091
 11
4.8830306328
 21
4.1450167551
  0
LINE
  5
24B
100
AcDbEntity
  8
ALL_FEATURES
100
AcDbLine
 62
7
  6
CONTINUOUS
 10
5.0175384148
 20
4.0776802337
 11
4.9946373555
 21
4.0838165541
  0
LINE
  5
24C
100
AcDbEntity
  8
0
100
AcDbLine
 62
7
  6
CONTINUOUS
 10
4.8250144288
 20
4.1818150558
 11
4.8510347568
 21
4.1710370831
  0
LINE
  5
24D
100
AcDbEntity
  8
ALL_FEATURES
100
AcDbLine
 62
7
  6
CONTINUOUS
 10
4.7092050822
 20
4.2020464728
 11
4.6886725542
 21
4.2139009334
  0
LINE
  5
24E
100
AcDbEntity
  8
ALL_FEATURES
100
AcDbLine
 62
7
  6
CONTINUOUS
 10
4.96258152
 20
4.0308808137
 11
4.9437719682
 21
4.0453138904
  0
LINE
  5
24F
100
AcDbEntity
  8
0
100
AcDbLine
 62
7
  6
CONTINUOUS
 10
4.9005271622
 20
4.1643185264
 11
4.8938086055
 21
4.1710370831
  0
LINE
  5
250
100
AcDbEntity
  8
0
100
AcDbLine
 62
7
  6
CONTINUOUS
 10
4.8443162001
 20
4.2205294885
 11
4.8510347568
 21
4.2138109318
  0
LINE
  5
251
100
AcDbEntity
  8
ALL_FEATURES
100
AcDbLine
 62
7
  6
CONTINUOUS
 10
4.7253115641
 20
4.2637742945
 11
4.7108784874
 21
4.2825838463
  0
LINE
  5
252
100
AcDbEntity
  8
ALL_FEATURES
100
AcDbLine
 62
7
  6
CONTINUOUS
 10
4.8938986071
 20
4.0086748805
 11
4.8820441465
 21
4.0292074085
  0
LINE
  5
253
100
AcDbEntity
  8
0
100
AcDbLine
 62
7
  6
CONTINUOUS
 10
4.8510347568
 20
4.1710370831
 11
4.8618127295
 21
4.1450167551
  0
LINE
  5
254
100
AcDbEntity
  8
ALL_FEATURES
100
AcDbLine
 62
7
  6
CONTINUOUS
 10
4.7638142278
 20
4.3146396819
 11
4.7576779074
 21
4.3375407411
  0
LINE
  5
255
100
AcDbEntity
  8
0
100
AcDbLine
 62
7
  6
CONTINUOUS
 10
4.8233138828
 20
4.2115821812
 11
4.8250144288
 21
4.2030329591
  0
LINE
  5
256
100
AcDbEntity
  8
ALL_FEATURES
100
AcDbLine
 62
7
  6
CONTINUOUS
 10
4.8219460269
 20
4.0144430862
 11
4.8188513917
 21
4.0379491743
  0
LINE
  5
257
100
AcDbEntity
  8
ALL_FEATURES
100
AcDbLine
 62
7
  6
CONTINUOUS
 10
4.9259919706
 20
4.0379491743
 11
4.9228973354
 21
4.0144430862
  0
LINE
  5
258
100
AcDbEntity
  8
0
100
AcDbLine
 62
7
  6
CONTINUOUS
 10
4.9215294795
 20
4.2115821812
 11
4.9198289335
 21
4.2030329591
  0
LINE
  5
259
100
AcDbEntity
  8
ALL_FEATURES
100
AcDbLine
 62
7
  6
CONTINUOUS
 10
4.9871654549
 20
4.3375407411
 11
4.9810291345
 21
4.3146396819
  0
LINE
  5
25A
100
AcDbEntity
  8
0
100
AcDbLine
 62
7
  6
CONTINUOUS
 10
4.8830306328
 20
4.1450167551
 11
4.8938086055
 21
4.1710370831
  0
LINE
  5
25B
100
AcDbEntity
  8
ALL_FEATURES
100
AcDbLine
 62
7
  6
CONTINUOUS
 10
4.8627992158
 20
4.0292074085
 11
4.8509447552
 21
4.0086748805
  0
LINE
  5
25C
100
AcDbEntity
  8
ALL_FEATURES
100
AcDbLine
 62
7
  6
CONTINUOUS
 10
5.0339648749
 20
4.2825838463
 11
5.0195317982
 21
4.2637742945
  0
LINE
  5
25D
100
AcDbEntity
  8
ALL_FEATURES
100
AcDbLine
 62
7
  6
CONTINUOUS
 10
4.801071394
 20
4.0453138904
 11
4.7822618422
 21
4.0308808137
  0
LINE
  5
25E
100
AcDbEntity
  8
ALL_FEATURES
100
AcDbLine
 62
7
  6
CONTINUOUS
 10
5.0561708081
 20
4.2139009334
 11
5.0356382801
 21
4.2020464728
  0
LINE
  5
25F
100
AcDbEntity
  8
0
100
AcDbLine
 62
7
  6
CONTINUOUS
 10
4.8938086055
 20
4.1710370831
 11
4.9198289335
 21
4.1818150558
  0
LINE
  5
260
100
AcDbEntity
  8
ALL_FEATURES
100
AcDbLine
 62
7
  6
CONTINUOUS
 10
4.9946373555
 20
4.3010314608
 11
5.0175384148
 21
4.3071677812
  0
LINE
  5
261
100
AcDbEntity
  8
0
100
AcDbLine
 62
7
  6
CONTINUOUS
 10
4.8915798549
 20
4.2415318058
 11
4.8830306328
 21
4.2398312598
  0
LINE
  5
262
100
AcDbEntity
  8
ALL_FEATURES
100
AcDbLine
 62
7
  6
CONTINUOUS
 10
4.6944407599
 20
4.2428996617
 11
4.717946848
 21
4.2459942969
  0
LINE
  5
263
100
AcDbEntity
  8
ALL_FEATURES
100
AcDbLine
 62
7
  6
CONTINUOUS
 10
5.0268965143
 20
4.2459942969
 11
5.0504026024
 21
4.2428996617
  0
LINE
  5
264
100
AcDbEntity
  8
0
100
AcDbLine
 62
7
  6
CONTINUOUS
 10
4.8532635073
 20
4.2415318058
 11
4.8618127295
 21
4.2398312598
  0
LINE
  5
265
100
AcDbEntity
  8
ALL_FEATURES
100
AcDbLine
 62
7
  6
CONTINUOUS
 10
4.7273049475
 20
4.3071677812
 11
4.7502060067
 21
4.3010314608
  0
LINE
  5
266
100
AcDbEntity
  8
0
100
AcDbLine
 62
7
  6
CONTINUOUS
 10
4.9198289335
 20
4.2030329591
 11
4.8938086055
 21
4.2138109318
  0
LINE
  5
267
100
AcDbEntity
  8
ALL_FEATURES
100
AcDbLine
 62
7
  6
CONTINUOUS
 10
5.0356382801
 20
4.1828015421
 11
5.0561708081
 21
4.1709470815
  0
LINE
  5
268
100
AcDbEntity
  8
ALL_FEATURES
100
AcDbLine
 62
7
  6
CONTINUOUS
 10
4.7822618422
 20
4.3539672012
 11
4.801071394
 21
4.3395341245
  0
LINE
  5
269
100
AcDbEntity
  8
ALL_FEATURES
100
AcDbLine
 62
7
  6
CONTINUOUS
 10
5.0195317982
 20
4.1210737203
 11
5.0339648749
 21
4.1022641685
  0
LINE
  5
26A
100
AcDbEntity
  8
ALL_FEATURES
100
AcDbLine
 62
7
  6
CONTINUOUS
 10
4.8509447552
 20
4.3761731344
 11
4.8627992158
 21
4.3556406064
  0
LINE
  5
26B
100
AcDbEntity
  8
0
100
AcDbLine
 62
7
  6
CONTINUOUS
 10
4.8938086055
 20
4.2138109318
 11
4.8830306328
 21
4.2398312598
  0
LINE
  5
26C
100
AcDbEntity
  8
ALL_FEATURES
100
AcDbLine
 62
7
  6
CONTINUOUS
 10
4.9810291345
 20
4.070208333
 11
4.9871654549
 21
4.0473072738
  0
LINE
  5
26D
100
AcDbEntity
  8
0
100
AcDbLine
 62
7
  6
CONTINUOUS
 10
4.9215294795
 20
4.1732658336
 11
4.9198289335
 21
4.1818150558
  0
LINE
  5
26E
100
AcDbEntity
  8
ALL_FEATURES
100
AcDbLine
 62
7
  6
CONTINUOUS
 10
4.9228973354
 20
4.3704049287
 11
4.9259919706
 21
4.3468988406
  0
LINE
  5
26F
100
AcDbEntity
  8
ALL_ASSEMBLY_MEMBERS
100
AcDbLine
 62
7
  6
CONTINUOUS
 10
4.1991933347
 20
4.3174240074
 11
4.2154018532
 21
4.3174240074
  0
LINE
  5
270
100
AcDbEntity
  8
ALL_FEATURES
100
AcDbLine
 62
7
  6
CONTINUOUS
 10
5.0609913228
 20
4.1409899721
 11
5.064452937
 21
4.1268049245
  0
LINE
  5
271
100
AcDbEntity
  8
ALL_FEATURES
100
AcDbLine
 62
7
  6
CONTINUOUS
 10
5.0519776149
 20
3.8814240074
 11
5.12693822
 21
4.011259584
  0
LINE
  5
272
100
AcDbEntity
  8
ALL_FEATURES
100
AcDbLine
 62
7
  6
CONTINUOUS
 10
5.1565729435
 20
4.0625884308
 11
5.2315335486
 21
4.1924240074
  0
LINE
  5
273
100
AcDbEntity
  8
ALL_FEATURES
100
AcDbLine
 62
7
  6
CONTINUOUS
 10
4.6928657474
 20
4.5034240074
 11
4.8427869576
 21
4.5034240074
  0
LINE
  5
274
100
AcDbEntity
  8
ALL_FEATURES
100
AcDbLine
 62
7
  6
CONTINUOUS
 10
4.9020564047
 20
4.5034240074
 11
5.0519776149
 21
4.5034240074
  0
LWPOLYLINE
  5
275
100
AcDbEntity
  8
ALL_ASSEMBLY_MEMBERS
100
AcDbPolyline
 62
7
  6
CONTINUOUS
 90
27
 70
0
 10
4.2479100761
 20
5.1533321179
 10
4.2499141227
 20
5.1513684884
 10
4.2582468305
 20
5.1427916758
 10
4.2663564111
 20
5.1337443297
 10
4.2742099225
 20
5.1242293864
 10
4.2817628014
 20
5.1142673184
 10
4.2889807078
 20
5.1038707786
 10
4.2958363535
 20
5.0930445389
 10
4.3022981823
 20
5.0818010982
 10
4.3083317255
 20
5.0701616724
 10
4.3139110242
 20
5.0581344552
 10
4.3190149253
 20
5.045714076
 10
4.3236106788
 20
5.0329194571
 10
4.3276660386
 20
5.0197720138
 10
4.3311549956
 20
5.0062718954
 10
4.3340433453
 20
4.9924454178
 10
4.336297836
 20
4.9783220093
 10
4.3378884651
 20
4.963910559
 10
4.3387812422
 20
4.9492445878
 10
4.3389435039
 20
4.9343664874
 10
4.3383441339
 20
4.9193054275
 10
4.3369528806
 20
4.9041057701
 10
4.3347431739
 20
4.8888244339
 10
4.3316923349
 20
4.8735196346
 10
4.3277827719
 20
4.8582557791
 10
4.3230020253
 20
4.843100061
 10
4.3193134085
 20
4.8330553581
  0
LINE
  5
276
100
AcDbEntity
  8
ALL_FEATURES
100
AcDbLine
 62
7
  6
CONTINUOUS
 10
5.2315335486
 20
4.1924240074
 11
5.1565729435
 21
4.322259584
  0
LINE
  5
277
100
AcDbEntity
  8
ALL_FEATURES
100
AcDbLine
 62
7
  6
CONTINUOUS
 10
5.12693822
 20
4.3735884308
 11
5.0519776149
 21
4.5034240074
  0
LINE
  5
278
100
AcDbEntity
  8
ALL_ASSEMBLY_MEMBERS
100
AcDbLine
 62
7
  6
CONTINUOUS
 10
4.1991933347
 20
4.5174240074
 11
4.229314663
 21
4.5174240074
  0
LINE
  5
279
100
AcDbEntity
  8
ALL_ASSEMBLY_MEMBERS
100
AcDbLine
 62
7
  6
CONTINUOUS
 10
5.4969332862
 20
2.8289625429
 11
5.4969332862
 21
3.2315549079
  0
LINE
  5
27A
100
AcDbEntity
  8
ALL_ASSEMBLY_MEMBERS
100
AcDbLine
 62
7
  6
CONTINUOUS
 10
5.4969332862
 20
5.1532764946
 11
5.4969332862
 21
5.5558684046
  0
LINE
  5
27B
100
AcDbEntity
  8
ALL_ASSEMBLY_MEMBERS
100
AcDbLine
 62
7
  6
CONTINUOUS
 10
5.4255674758
 20
3.5518891689
 11
5.4255692753
 21
3.5518937967
  0
LINE
  5
27C
100
AcDbEntity
  8
ALL_ASSEMBLY_MEMBERS
100
AcDbLine
 62
7
  6
CONTINUOUS
 10
5.4255780819
 20
4.8329315515
 11
5.425580104
 21
4.8329263512
  0
LWPOLYLINE
  5
27D
100
AcDbEntity
  8
ALL_ASSEMBLY_MEMBERS
100
AcDbPolyline
 62
7
  6
CONTINUOUS
 90
27
 70
0
 10
5.4255780807
 20
4.832931552
 10
5.4219133693
 20
4.8429096377
 10
5.417148653
 20
4.8579989952
 10
5.4132458847
 20
4.8732031089
 10
5.4101937389
 20
4.888456716
 10
5.4079762758
 20
4.9036951089
 10
5.4065724162
 20
4.9188574277
 10
5.4059565008
 20
4.9338871146
 10
5.406099179
 20
4.948739946
 10
5.4069699116
 20
4.963383517
 10
5.4085363985
 20
4.9777754755
 10
5.4107650034
 20
4.9918823872
 10
5.4136252976
 20
5.0056922405
 10
5.4170839196
 20
5.0191757179
 10
5.4211065756
 20
5.0323066542
 10
5.4256659885
 20
5.0450820815
 10
5.4307292824
 20
5.0574805318
 10
5.4362634139
 20
5.0694838357
 10
5.4422458636
 20
5.0810960758
 10
5.4486483506
 20
5.0923067306
 10
5.4554374342
 20
5.1030982438
 10
5.4625859692
 20
5.1134654521
 10
5.4700664033
 20
5.1234027412
 10
5.4778455404
 20
5.1328984699
 10
5.4858873436
 20
5.1419407467
 10
5.4941603795
 20
5.1505256459
 10
5.4969332862
 20
5.1532553293
  0
LINE
  5
27E
100
AcDbEntity
  8
ALL_ASSEMBLY_MEMBERS
100
AcDbLine
 62
7
  6
CONTINUOUS
 10
4.8103970946
 20
5.2160460547
 11
4.9344344033
 21
5.2160460547
  0
LINE
  5
27F
100
AcDbEntity
  8
ALL_ASSEMBLY_MEMBERS
100
AcDbLine
 62
7
  6
CONTINUOUS
 10
4.3310243528
 20
5.5703767633
 11
5.4138190095
 21
5.5703767633
  0
ARC
  5
280
100
AcDbEntity
  8
0
100
AcDbCircle
 62
7
  6
CONTINUOUS
 10
-5.5487839507
 20
0.7259061869
 40
10.9948286199
100
AcDbArc
 50
18.761957634
 51
18.8811452519
  0
ARC
  5
281
100
AcDbEntity
  8
0
100
AcDbCircle
 62
7
  6
CONTINUOUS
 10
1.4059038611
 20
-6.2287816228
 40
10.9948286183
100
AcDbArc
 50
71.1188547481
 51
71.238042366
  0
ARC
  5
282
100
AcDbEntity
  8
0
100
AcDbCircle
 62
7
  6
CONTINUOUS
 10
3.8808998263
 20
1.798000337
 40
2.6283621125
100
AcDbArc
 50
66.6764331465
 51
67.174079531
  0
ARC
  5
283
100
AcDbEntity
  8
0
100
AcDbCircle
 62
7
  6
CONTINUOUS
 10
2.4915834316
 20
3.2066897489
 40
2.6135954
100
AcDbArc
 50
22.8245146187
 51
23.3249727038
  0
ARC
  5
284
100
AcDbEntity
  8
0
100
AcDbCircle
 62
7
  6
CONTINUOUS
 10
4.8661832978
 20
1.8922005704
 40
2.3197777573
100
AcDbArc
 50
91.0588843569
 51
92.1057281644
  0
ARC
  5
285
100
AcDbEntity
  8
0
100
AcDbCircle
 62
7
  6
CONTINUOUS
 10
2.5722047357
 20
4.1861854448
 40
2.3197712636
100
AcDbArc
 50
357.8942703704
 51
358.9411171084
  0
ARC
  5
286
100
AcDbEntity
  8
ALL_FEATURES
100
AcDbCircle
 62
7
  6
CONTINUOUS
 10
4.8712489849
 20
4.188534701
 40
0.457791297
100
AcDbArc
 50
349.2354611981
 51
0.4867797353
  0
ARC
  5
287
100
AcDbEntity
  8
ALL_FEATURES
100
AcDbCircle
 62
7
  6
CONTINUOUS
 10
4.8721831665
 20
4.1917807355
 40
0.451870594
100
AcDbArc
 50
74.1896149958
 51
74.8851435077
  0
ARC
  5
288
100
AcDbEntity
  8
ALL_ASSEMBLY_MEMBERS
100
AcDbCircle
 62
7
  6
CONTINUOUS
 10
3.7718496039
 20
4.135953021
 40
0.4322644622
100
AcDbArc
 50
1.4513971592
 51
2.9605573683
  0
ARC
  5
289
100
AcDbEntity
  8
ALL_FEATURES
100
AcDbCircle
 62
7
  6
CONTINUOUS
 10
4.8717357483
 20
4.1919425383
 40
0.2553348282
100
AcDbArc
 50
33.2278356162
 51
33.3923224816
  0
ARC
  5
28A
100
AcDbEntity
  8
ALL_FEATURES
100
AcDbCircle
 62
7
  6
CONTINUOUS
 10
4.8723478125
 20
4.19239328
 40
0.2545757314
100
AcDbArc
 50
33.3834385834
 51
41.3940500989
  0
ARC
  5
28B
100
AcDbEntity
  8
ALL_ASSEMBLY_MEMBERS
100
AcDbCircle
 62
7
  6
CONTINUOUS
 10
4.3310148897
 20
3.0597944603
 40
0.2453232088
100
AcDbArc
 50
250.0219391753
 51
270.0
  0
ARC
  5
28C
100
AcDbEntity
  8
ALL_FEATURES
100
AcDbCircle
 62
7
  6
CONTINUOUS
 10
4.7517444348
 20
4.0817551206
 40
0.04
100
AcDbArc
 50
235.4036492329
 51
263.8747725787
  0
ARC
  5
28D
100
AcDbEntity
  8
ALL_FEATURES
100
AcDbCircle
 62
7
  6
CONTINUOUS
 10
4.7517444348
 20
4.0817551206
 40
0.04
100
AcDbArc
 50
181.146771867
 51
209.8611142707
  0
ARC
  5
28E
100
AcDbEntity
  8
0
100
AcDbCircle
 62
7
  6
CONTINUOUS
 10
1.4059038609
 20
14.6136296384
 40
10.994828619
100
AcDbArc
 50
288.761957634
 51
288.8811452519
  0
ARC
  5
28F
100
AcDbEntity
  8
0
100
AcDbCircle
 62
7
  6
CONTINUOUS
 10
-5.5487839488
 20
7.6589418273
 40
10.9948286179
100
AcDbArc
 50
341.1188547481
 51
341.238042366
  0
ARC
  5
290
100
AcDbEntity
  8
0
100
AcDbCircle
 62
7
  6
CONTINUOUS
 10
2.4779916344
 20
5.1839485787
 40
2.6283690432
100
AcDbArc
 50
336.6764338026
 51
337.1740788749
  0
ARC
  5
291
100
AcDbEntity
  8
0
100
AcDbCircle
 62
7
  6
CONTINUOUS
 10
3.8866846363
 20
6.5732687975
 40
2.6136025092
100
AcDbArc
 50
292.8245152994
 51
293.3249720232
  0
ARC
  5
292
100
AcDbEntity
  8
0
100
AcDbCircle
 62
7
  6
CONTINUOUS
 10
4.8661832978
 20
6.4926474445
 40
2.3197777573
100
AcDbArc
 50
267.8942718356
 51
268.9411156431
  0
ARC
  5
293
100
AcDbEntity
  8
0
100
AcDbCircle
 62
7
  6
CONTINUOUS
 10
2.5722047357
 20
4.1986625701
 40
2.3197712636
100
AcDbArc
 50
1.0588828916
 51
2.1057296296
  0
ARC
  5
294
100
AcDbEntity
  8
ALL_ASSEMBLY_MEMBERS
100
AcDbCircle
 62
7
  6
CONTINUOUS
 10
3.7772636309
 20
4.1924240074
 40
1.7683863967
100
AcDbArc
 50
338.763856092
 51
21.235215409
  0
ARC
  5
295
100
AcDbEntity
  8
ALL_ASSEMBLY_MEMBERS
100
AcDbCircle
 62
7
  6
CONTINUOUS
 10
4.6963328697
 20
4.1937034142
 40
0.4972334775
100
AcDbArc
 50
188.8244553822
 51
194.7122064277
  0
ARC
  5
296
100
AcDbEntity
  8
ALL_FEATURES
100
AcDbCircle
 62
7
  6
CONTINUOUS
 10
4.8703316914
 20
4.1928633695
 40
0.4490543303
100
AcDbArc
 50
166.7349282084
 51
168.03648477
  0
ARC
  5
297
100
AcDbEntity
  8
ALL_ASSEMBLY_MEMBERS
100
AcDbCircle
 62
7
  6
CONTINUOUS
 10
3.7726235311
 20
4.2488651774
 40
0.4314900945
100
AcDbArc
 50
357.0380976986
 51
358.549943178
  0
ARC
  5
298
100
AcDbEntity
  8
ALL_FEATURES
100
AcDbCircle
 62
7
  6
CONTINUOUS
 10
4.8706839894
 20
4.1972501793
 40
0.2644114265
100
AcDbArc
 50
181.0458151047
 51
218.4823216086
  0
ARC
  5
299
100
AcDbEntity
  8
ALL_FEATURES
100
AcDbCircle
 62
7
  6
CONTINUOUS
 10
4.8719113186
 20
4.1931555551
 40
0.2553888669
100
AcDbArc
 50
303.2550096353
 51
307.3160454135
  0
ARC
  5
29A
100
AcDbEntity
  8
ALL_FEATURES
100
AcDbCircle
 62
7
  6
CONTINUOUS
 10
4.8723075258
 20
4.1926350931
 40
0.2547347564
100
AcDbArc
 50
307.3161364662
 51
308.9612249877
  0
ARC
  5
29B
100
AcDbEntity
  8
ALL_ASSEMBLY_MEMBERS
100
AcDbCircle
 62
7
  6
CONTINUOUS
 10
4.3310148897
 20
5.3250535546
 40
0.2453232088
100
AcDbArc
 50
90.0
 51
109.9793361437
  0
ARC
  5
29C
100
AcDbEntity
  8
ALL_FEATURES
100
AcDbCircle
 62
7
  6
CONTINUOUS
 10
4.6856711401
 20
4.3171669051
 40
0.08
100
AcDbArc
 50
25.0218776943
 51
30.4008272528
  0
ARC
  5
29D
100
AcDbEntity
  8
ALL_FEATURES
100
AcDbCircle
 62
7
  6
CONTINUOUS
 10
4.6856711401
 20
4.3171669051
 40
0.04
100
AcDbArc
 50
5.8842981878
 51
18.974875381
  0
ARC
  5
29E
100
AcDbEntity
  8
0
100
AcDbCircle
 62
7
  6
CONTINUOUS
 10
15.293627311
 20
0.7259061876
 40
10.9948286179
100
AcDbArc
 50
161.1188547481
 51
161.238042366
  0
ARC
  5
29F
100
AcDbEntity
  8
0
100
AcDbCircle
 62
7
  6
CONTINUOUS
 10
8.3389395009
 20
-6.2287816221
 40
10.9948286176
100
AcDbArc
 50
108.761957634
 51
108.8811452519
  0
ARC
  5
2A0
100
AcDbEntity
  8
0
100
AcDbCircle
 62
7
  6
CONTINUOUS
 10
7.2668517279
 20
3.2008994362
 40
2.6283690431
100
AcDbArc
 50
156.6764338026
 51
157.1740788749
  0
ARC
  5
2A1
100
AcDbEntity
  8
0
100
AcDbCircle
 62
7
  6
CONTINUOUS
 10
5.858158726
 20
1.8115792173
 40
2.6136025092
100
AcDbArc
 50
112.8245152994
 51
113.3249720232
  0
ARC
  5
2A2
100
AcDbEntity
  8
0
100
AcDbCircle
 62
7
  6
CONTINUOUS
 10
4.8786600644
 20
1.8922005704
 40
2.3197777573
100
AcDbArc
 50
87.8942718356
 51
88.9411156431
  0
ARC
  5
2A3
100
AcDbEntity
  8
0
100
AcDbCircle
 62
7
  6
CONTINUOUS
 10
7.1726386266
 20
4.1861854448
 40
2.3197712636
100
AcDbArc
 50
181.0588828916
 51
182.1057296296
  0
ARC
  5
2A4
100
AcDbEntity
  8
ALL_ASSEMBLY_MEMBERS
100
AcDbCircle
 62
7
  6
CONTINUOUS
 10
5.9458339342
 20
4.1922055238
 40
1.7349252473
100
AcDbArc
 50
184.1244616293
 51
190.7895423027
  0
ARC
  5
2A5
100
AcDbEntity
  8
ALL_ASSEMBLY_MEMBERS
100
AcDbCircle
 62
7
  6
CONTINUOUS
 10
5.9371592743
 20
4.1915159938
 40
1.7337580064
100
AcDbArc
 50
181.4745343384
 51
182.4492756754
  0
ARC
  5
2A6
100
AcDbEntity
  8
ALL_ASSEMBLY_MEMBERS
100
AcDbCircle
 62
9
  6
CONTINUOUS
 10
4.9949071178
 20
4.1571305855
 40
0.7950514374
100
AcDbArc
 50
168.3861970035
 51
174.1658916482
  0
ARC
  5
2A7
100
AcDbEntity
  8
ALL_FEATURES
100
AcDbCircle
 62
7
  6
CONTINUOUS
 10
4.8729422128
 20
4.1882466648
 40
0.4560740685
100
AcDbArc
 50
347.8862584112
 51
349.2312800147
  0
ARC
  5
2A8
100
AcDbEntity
  8
ALL_FEATURES
100
AcDbCircle
 62
7
  6
CONTINUOUS
 10
4.8763189496
 20
4.1918821735
 40
0.450931418
100
AcDbArc
 50
76.0980756369
 51
76.8124979874
  0
ARC
  5
2A9
100
AcDbEntity
  8
ALL_FEATURES
100
AcDbCircle
 62
7
  6
CONTINUOUS
 10
4.8834935018
 20
4.1768774323
 40
0.2571873694
100
AcDbArc
 50
37.6662385117
 51
37.8524176967
  0
ARC
  5
2AA
100
AcDbEntity
  8
ALL_FEATURES
100
AcDbCircle
 62
7
  6
CONTINUOUS
 10
4.8845558282
 20
4.1777292381
 40
0.2558258705
100
AcDbArc
 50
37.8477803561
 51
45.6696871123
  0
ARC
  5
2AB
100
AcDbEntity
  8
ALL_FEATURES
100
AcDbCircle
 62
7
  6
CONTINUOUS
 10
4.8731653522
 20
4.1915855457
 40
0.2533792617
100
AcDbArc
 50
308.9596258039
 51
311.3990126735
  0
ARC
  5
2AC
100
AcDbEntity
  8
ALL_ASSEMBLY_MEMBERS
100
AcDbCircle
 62
7
  6
CONTINUOUS
 10
5.4138284725
 20
3.0597944603
 40
0.2453232088
100
AcDbArc
 50
270.0
 51
289.9780608247
  0
ARC
  5
2AD
100
AcDbEntity
  8
ALL_FEATURES
100
AcDbCircle
 62
7
  6
CONTINUOUS
 10
4.9930989275
 20
4.0817551206
 40
0.04
100
AcDbArc
 50
330.1388857293
 51
358.853228133
  0
ARC
  5
2AE
100
AcDbEntity
  8
ALL_FEATURES
100
AcDbCircle
 62
7
  6
CONTINUOUS
 10
4.9930989275
 20
4.0817551206
 40
0.04
100
AcDbArc
 50
276.1252274213
 51
304.5963507672
  0
ARC
  5
2AF
100
AcDbEntity
  8
ALL_ASSEMBLY_MEMBERS
100
AcDbCircle
 62
7
  6
CONTINUOUS
 10
4.8724216811
 20
4.1924240074
 40
0.6697573704
100
AcDbArc
 50
177.0776990351
 51
182.9222952492
  0
CIRCLE
  5
2B0
100
AcDbEntity
  8
ALL_ASSEMBLY_MEMBERS
100
AcDbCircle
 62
7
  6
CONTINUOUS
 10
4.8724216811
 20
4.1924240074
 40
0.6062992126
  0
CIRCLE
  5
2B1
100
AcDbEntity
  8
ALL_FEATURES
100
AcDbCircle
 62
7
  6
CONTINUOUS
 10
4.8724216811
 20
4.1924240074
 40
0.555
  0
ARC
  5
2B2
100
AcDbEntity
  8
ALL_FEATURES
100
AcDbCircle
 62
7
  6
CONTINUOUS
 10
4.8724216811
 20
4.1924240074
 40
0.4725
100
AcDbArc
 50
131.2380281414
 51
130.6996978816
  0
ARC
  5
2B3
100
AcDbEntity
  8
ALL_FEATURES
100
AcDbCircle
 62
7
  6
CONTINUOUS
 10
4.8724216811
 20
4.1924240074
 40
0.4511899998
100
AcDbArc
 50
78.0599741776
 51
168.0369181015
  0
ARC
  5
2B4
100
AcDbEntity
  8
ALL_FEATURES
100
AcDbCircle
 62
7
  6
CONTINUOUS
 10
4.872515806
 20
4.19304338
 40
0.4505648933
100
AcDbArc
 50
74.8841123637
 51
76.9265640017
  0
ARC
  5
2B5
100
AcDbEntity
  8
ALL_FEATURES
100
AcDbCircle
 62
7
  6
CONTINUOUS
 10
4.8766013478
 20
4.1930958368
 40
0.4496853347
100
AcDbArc
 50
76.8122517786
 51
78.5632934161
  0
ARC
  5
2B6
100
AcDbEntity
  8
ALL_FEATURES
100
AcDbCircle
 62
7
  6
CONTINUOUS
 10
4.8735317114
 20
4.2072726698
 40
0.4494403783
100
AcDbArc
 50
168.6177475136
 51
169.9184208172
  0
ARC
  5
2B7
100
AcDbEntity
  8
ALL_FEATURES
100
AcDbCircle
 62
7
  6
CONTINUOUS
 10
4.8728895794
 20
4.1946492796
 40
0.4489160696
100
AcDbArc
 50
76.9266701307
 51
78.0596415359
  0
CIRCLE
  5
2B8
100
AcDbEntity
  8
ALL_FEATURES
100
AcDbCircle
 62
7
  6
CONTINUOUS
 10
4.8724216811
 20
4.1924240074
 40
0.4425
  0
ARC
  5
2B9
100
AcDbEntity
  8
ALL_FEATURES
100
AcDbCircle
 62
7
  6
CONTINUOUS
 10
4.8724216811
 20
4.1924240074
 40
0.3191118674
100
AcDbArc
 50
102.9464553575
 51
137.0535446425
  0
ARC
  5
2BA
100
AcDbEntity
  8
ALL_FEATURES
100
AcDbCircle
 62
7
  6
CONTINUOUS
 10
4.8724216811
 20
4.1924240074
 40
0.3191118674
100
AcDbArc
 50
342.9464553575
 51
17.0535446425
  0
ARC
  5
2BB
100
AcDbEntity
  8
ALL_FEATURES
100
AcDbCircle
 62
7
  6
CONTINUOUS
 10
4.8724216811
 20
4.1924240074
 40
0.3191118674
100
AcDbArc
 50
162.9464553575
 51
197.0535446425
  0
ARC
  5
2BC
100
AcDbEntity
  8
ALL_FEATURES
100
AcDbCircle
 62
7
  6
CONTINUOUS
 10
4.8724216811
 20
4.1924240074
 40
0.3191118674
100
AcDbArc
 50
42.9464553575
 51
77.0535446425
  0
ARC
  5
2BD
100
AcDbEntity
  8
ALL_FEATURES
100
AcDbCircle
 62
7
  6
CONTINUOUS
 10
4.8724216811
 20
4.1924240074
 40
0.3191118674
100
AcDbArc
 50
282.9464553575
 51
317.0535446425
  0
ARC
  5
2BE
100
AcDbEntity
  8
ALL_FEATURES
100
AcDbCircle
 62
7
  6
CONTINUOUS
 10
4.8724216811
 20
4.1924240074
 40
0.3191118674
100
AcDbArc
 50
222.9464553575
 51
257.0535446425
  0
CIRCLE
  5
2BF
100
AcDbEntity
  8
ALL_FEATURES
100
AcDbCircle
 62
7
  6
CONTINUOUS
 10
4.8724216811
 20
4.1924240074
 40
0.3125
  0
ARC
  5
2C0
100
AcDbEntity
  8
ALL_FEATURES
100
AcDbCircle
 62
7
  6
CONTINUOUS
 10
4.8724216811
 20
4.1924240074
 40
0.2815
100
AcDbArc
 50
7.9667569308
 51
5.9200164875
  0
ARC
  5
2C1
100
AcDbEntity
  8
ALL_FEATURES
100
AcDbCircle
 62
7
  6
CONTINUOUS
 10
4.8724216811
 20
4.1924240074
 40
0.2544999998
100
AcDbArc
 50
311.3997714769
 51
41.3998569654
  0
CIRCLE
  5
2C2
100
AcDbEntity
  8
ALL_FEATURES
100
AcDbCircle
 62
7
  6
CONTINUOUS
 10
4.8724216811
 20
4.1924240074
 40
0.2415
  0
CIRCLE
  5
2C3
100
AcDbEntity
  8
ALL_FEATURES
100
AcDbCircle
 62
7
  6
CONTINUOUS
 10
4.8724216811
 20
4.1924240074
 40
0.203
  0
CIRCLE
  5
2C4
100
AcDbEntity
  8
ALL_FEATURES
100
AcDbCircle
 62
7
  6
CONTINUOUS
 10
4.8724216811
 20
4.1924240074
 40
0.1955
  0
ARC
  5
2C5
100
AcDbEntity
  8
ALL_FEATURES
100
AcDbCircle
 62
7
  6
CONTINUOUS
 10
4.8724216811
 20
4.1924240074
 40
0.185
100
AcDbArc
 50
141.6665846093
 51
150.8334153907
  0
ARC
  5
2C6
100
AcDbEntity
  8
ALL_FEATURES
100
AcDbCircle
 62
7
  6
CONTINUOUS
 10
4.8724216811
 20
4.1924240074
 40
0.185
100
AcDbArc
 50
119.1665846093
 51
128.3334153907
  0
ARC
  5
2C7
100
AcDbEntity
  8
ALL_FEATURES
100
AcDbCircle
 62
7
  6
CONTINUOUS
 10
4.8724216811
 20
4.1924240074
 40
0.185
100
AcDbArc
 50
96.6665846093
 51
105.8334153907
  0
ARC
  5
2C8
100
AcDbEntity
  8
ALL_FEATURES
100
AcDbCircle
 62
7
  6
CONTINUOUS
 10
4.8724216811
 20
4.1924240074
 40
0.185
100
AcDbArc
 50
74.1665846093
 51
83.3334153907
  0
ARC
  5
2C9
100
AcDbEntity
  8
ALL_FEATURES
100
AcDbCircle
 62
7
  6
CONTINUOUS
 10
4.8724216811
 20
4.1924240074
 40
0.185
100
AcDbArc
 50
51.6665846093
 51
60.8334153907
  0
ARC
  5
2CA
100
AcDbEntity
  8
ALL_FEATURES
100
AcDbCircle
 62
7
  6
CONTINUOUS
 10
4.8724216811
 20
4.1924240074
 40
0.185
100
AcDbArc
 50
29.1665846093
 51
38.3334153907
  0
ARC
  5
2CB
100
AcDbEntity
  8
ALL_FEATURES
100
AcDbCircle
 62
7
  6
CONTINUOUS
 10
4.8724216811
 20
4.1924240074
 40
0.185
100
AcDbArc
 50
6.6665846093
 51
15.8334153907
  0
ARC
  5
2CC
100
AcDbEntity
  8
ALL_FEATURES
100
AcDbCircle
 62
7
  6
CONTINUOUS
 10
4.8724216811
 20
4.1924240074
 40
0.185
100
AcDbArc
 50
164.1665846093
 51
173.3334153907
  0
ARC
  5
2CD
100
AcDbEntity
  8
ALL_FEATURES
100
AcDbCircle
 62
7
  6
CONTINUOUS
 10
4.8724216811
 20
4.1924240074
 40
0.185
100
AcDbArc
 50
344.1665846093
 51
353.3334153907
  0
ARC
  5
2CE
100
AcDbEntity
  8
ALL_FEATURES
100
AcDbCircle
 62
7
  6
CONTINUOUS
 10
4.8724216811
 20
4.1924240074
 40
0.185
100
AcDbArc
 50
321.6665846093
 51
330.8334153907
  0
ARC
  5
2CF
100
AcDbEntity
  8
ALL_FEATURES
100
AcDbCircle
 62
7
  6
CONTINUOUS
 10
4.8724216811
 20
4.1924240074
 40
0.185
100
AcDbArc
 50
299.1665846093
 51
308.3334153907
  0
ARC
  5
2D0
100
AcDbEntity
  8
ALL_FEATURES
100
AcDbCircle
 62
7
  6
CONTINUOUS
 10
4.8724216811
 20
4.1924240074
 40
0.185
100
AcDbArc
 50
276.6665846093
 51
285.8334153907
  0
ARC
  5
2D1
100
AcDbEntity
  8
ALL_FEATURES
100
AcDbCircle
 62
7
  6
CONTINUOUS
 10
4.8724216811
 20
4.1924240074
 40
0.185
100
AcDbArc
 50
254.1665846093
 51
263.3334153907
  0
ARC
  5
2D2
100
AcDbEntity
  8
ALL_FEATURES
100
AcDbCircle
 62
7
  6
CONTINUOUS
 10
4.8724216811
 20
4.1924240074
 40
0.185
100
AcDbArc
 50
231.6665846093
 51
240.8334153907
  0
ARC
  5
2D3
100
AcDbEntity
  8
ALL_FEATURES
100
AcDbCircle
 62
7
  6
CONTINUOUS
 10
4.8724216811
 20
4.1924240074
 40
0.185
100
AcDbArc
 50
209.1665846093
 51
218.3334153907
  0
ARC
  5
2D4
100
AcDbEntity
  8
ALL_FEATURES
100
AcDbCircle
 62
7
  6
CONTINUOUS
 10
4.8724216811
 20
4.1924240074
 40
0.185
100
AcDbArc
 50
186.6665846093
 51
195.8334153907
  0
ARC
  5
2D5
100
AcDbEntity
  8
ALL_FEATURES
100
AcDbCircle
 62
7
  6
CONTINUOUS
 10
4.8724216811
 20
4.1924240074
 40
0.1635
100
AcDbArc
 50
154.1260218921
 51
160.8739781079
  0
ARC
  5
2D6
100
AcDbEntity
  8
ALL_FEATURES
100
AcDbCircle
 62
7
  6
CONTINUOUS
 10
4.8724216811
 20
4.1924240074
 40
0.1635
100
AcDbArc
 50
131.6260218921
 51
138.3739781079
  0
ARC
  5
2D7
100
AcDbEntity
  8
ALL_FEATURES
100
AcDbCircle
 62
7
  6
CONTINUOUS
 10
4.8724216811
 20
4.1924240074
 40
0.1635
100
AcDbArc
 50
109.1260218921
 51
115.8739781079
  0
ARC
  5
2D8
100
AcDbEntity
  8
ALL_FEATURES
100
AcDbCircle
 62
7
  6
CONTINUOUS
 10
4.8724216811
 20
4.1924240074
 40
0.1635
100
AcDbArc
 50
86.6260218921
 51
93.3739781079
  0
ARC
  5
2D9
100
AcDbEntity
  8
ALL_FEATURES
100
AcDbCircle
 62
7
  6
CONTINUOUS
 10
4.8724216811
 20
4.1924240074
 40
0.1635
100
AcDbArc
 50
64.1260218921
 51
70.8739781079
  0
ARC
  5
2DA
100
AcDbEntity
  8
ALL_FEATURES
100
AcDbCircle
 62
7
  6
CONTINUOUS
 10
4.8724216811
 20
4.1924240074
 40
0.1635
100
AcDbArc
 50
41.6260218921
 51
48.3739781079
  0
ARC
  5
2DB
100
AcDbEntity
  8
ALL_FEATURES
100
AcDbCircle
 62
7
  6
CONTINUOUS
 10
4.8724216811
 20
4.1924240074
 40
0.1635
100
AcDbArc
 50
19.1260218921
 51
25.8739781079
  0
ARC
  5
2DC
100
AcDbEntity
  8
ALL_FEATURES
100
AcDbCircle
 62
7
  6
CONTINUOUS
 10
4.8724216811
 20
4.1924240074
 40
0.1635
100
AcDbArc
 50
356.6260218921
 51
3.3739781079
  0
ARC
  5
2DD
100
AcDbEntity
  8
ALL_FEATURES
100
AcDbCircle
 62
7
  6
CONTINUOUS
 10
4.8724216811
 20
4.1924240074
 40
0.1635
100
AcDbArc
 50
334.1260218921
 51
340.8739781079
  0
ARC
  5
2DE
100
AcDbEntity
  8
ALL_FEATURES
100
AcDbCircle
 62
7
  6
CONTINUOUS
 10
4.8724216811
 20
4.1924240074
 40
0.1635
100
AcDbArc
 50
311.6260218921
 51
318.3739781079
  0
ARC
  5
2DF
100
AcDbEntity
  8
ALL_FEATURES
100
AcDbCircle
 62
7
  6
CONTINUOUS
 10
4.8724216811
 20
4.1924240074
 40
0.1635
100
AcDbArc
 50
289.1260218921
 51
295.8739781079
  0
ARC
  5
2E0
100
AcDbEntity
  8
ALL_FEATURES
100
AcDbCircle
 62
7
  6
CONTINUOUS
 10
4.8724216811
 20
4.1924240074
 40
0.1635
100
AcDbArc
 50
266.6260218921
 51
273.3739781079
  0
ARC
  5
2E1
100
AcDbEntity
  8
ALL_FEATURES
100
AcDbCircle
 62
7
  6
CONTINUOUS
 10
4.8724216811
 20
4.1924240074
 40
0.1635
100
AcDbArc
 50
244.1260218921
 51
250.8739781079
  0
ARC
  5
2E2
100
AcDbEntity
  8
ALL_FEATURES
100
AcDbCircle
 62
7
  6
CONTINUOUS
 10
4.8724216811
 20
4.1924240074
 40
0.1635
100
AcDbArc
 50
221.6260218921
 51
228.3739781079
  0
ARC
  5
2E3
100
AcDbEntity
  8
ALL_FEATURES
100
AcDbCircle
 62
7
  6
CONTINUOUS
 10
4.8724216811
 20
4.1924240074
 40
0.1635
100
AcDbArc
 50
199.1260218921
 51
205.8739781079
  0
ARC
  5
2E4
100
AcDbEntity
  8
ALL_FEATURES
100
AcDbCircle
 62
7
  6
CONTINUOUS
 10
4.8724216811
 20
4.1924240074
 40
0.1635
100
AcDbArc
 50
176.6260218921
 51
183.3739781079
  0
CIRCLE
  5
2E5
100
AcDbEntity
  8
0
100
AcDbCircle
 62
7
  6
CONTINUOUS
 10
4.8724216811
 20
4.1924240074
 40
0.157480315
  0
CIRCLE
  5
2E6
100
AcDbEntity
  8
0
100
AcDbCircle
 62
9
  6
CONTINUOUS
 10
4.8724216811
 20
4.1924240074
 40
0.1495712214
  0
ARC
  5
2E7
100
AcDbEntity
  8
0
100
AcDbCircle
 62
7
  6
CONTINUOUS
 10
4.8724216811
 20
4.1924240074
 40
0.0932272086
100
AcDbArc
 50
168.8752303572
 51
191.1247696428
  0
ARC
  5
2E8
100
AcDbEntity
  8
0
100
AcDbCircle
 62
7
  6
CONTINUOUS
 10
4.8724216811
 20
4.1924240074
 40
0.0932272086
100
AcDbArc
 50
258.8752303572
 51
281.1247696428
  0
ARC
  5
2E9
100
AcDbEntity
  8
0
100
AcDbCircle
 62
7
  6
CONTINUOUS
 10
4.8724216811
 20
4.1924240074
 40
0.0932272086
100
AcDbArc
 50
78.8752303572
 51
101.1247696428
  0
ARC
  5
2EA
100
AcDbEntity
  8
0
100
AcDbCircle
 62
7
  6
CONTINUOUS
 10
4.8724216811
 20
4.1924240074
 40
0.0932272086
100
AcDbArc
 50
348.8752303572
 51
11.1247696428
  0
ARC
  5
2EB
100
AcDbEntity
  8
0
100
AcDbCircle
 62
7
  6
CONTINUOUS
 10
4.8724216811
 20
4.1924240074
 40
0.0706281054
100
AcDbArc
 50
351.3609822788
 51
8.6390177212
  0
ARC
  5
2EC
100
AcDbEntity
  8
0
100
AcDbCircle
 62
7
  6
CONTINUOUS
 10
4.8724216811
 20
4.1924240074
 40
0.0706281054
100
AcDbArc
 50
81.3609822788
 51
98.6390177212
  0
ARC
  5
2ED
100
AcDbEntity
  8
0
100
AcDbCircle
 62
7
  6
CONTINUOUS
 10
4.8724216811
 20
4.1924240074
 40
0.0706281054
100
AcDbArc
 50
171.3609822788
 51
188.6390177212
  0
ARC
  5
2EE
100
AcDbEntity
  8
0
100
AcDbCircle
 62
7
  6
CONTINUOUS
 10
4.8724216811
 20
4.1924240074
 40
0.0706281054
100
AcDbArc
 50
261.3609822788
 51
278.6390177212
  0
ARC
  5
2EF
100
AcDbEntity
  8
ALL_ASSEMBLY_MEMBERS
100
AcDbCircle
 62
7
  6
CONTINUOUS
 10
5.0824742794
 20
4.3575908547
 40
0.8680022856
100
AcDbArc
 50
169.389056265
 51
182.6523121102
  0
ARC
  5
2F0
100
AcDbEntity
  8
ALL_FEATURES
100
AcDbCircle
 62
7
  6
CONTINUOUS
 10
5.0591722221
 20
4.3171669051
 40
0.08
100
AcDbArc
 50
149.5991727472
 51
154.9781223057
  0
ARC
  5
2F1
100
AcDbEntity
  8
ALL_FEATURES
100
AcDbCircle
 62
7
  6
CONTINUOUS
 10
5.0591722221
 20
4.3171669051
 40
0.04
100
AcDbArc
 50
161.025124619
 51
174.1157018122
  0
ARC
  5
2F2
100
AcDbEntity
  8
ALL_ASSEMBLY_MEMBERS
100
AcDbCircle
 62
7
  6
CONTINUOUS
 10
5.4138284725
 20
5.3250535546
 40
0.2453232088
100
AcDbArc
 50
70.0206638563
 51
90.0
  0
ARC
  5
2F3
100
AcDbEntity
  8
ALL_ASSEMBLY_MEMBERS
100
AcDbCircle
 62
7
  6
CONTINUOUS
 10
5.9675797313
 20
4.1924240074
 40
1.7683863967
100
AcDbArc
 50
158.7604740119
 51
169.4097918922
  0
ARC
  5
2F4
100
AcDbEntity
  8
ALL_ASSEMBLY_MEMBERS
100
AcDbCircle
 62
7
  6
CONTINUOUS
 10
5.9675797313
 20
4.1924240074
 40
1.7683863967
100
AcDbArc
 50
190.5904587088
 51
201.2387857797
  0
ARC
  5
2F5
100
AcDbEntity
  8
ALL_ASSEMBLY_MEMBERS
100
AcDbCircle
 62
7
  6
CONTINUOUS
 10
5.9572344321
 20
4.1926315131
 40
1.7538444858
100
AcDbArc
 50
175.9197463746
 51
178.5194683775
  0
ARC
  5
2F6
100
AcDbEntity
  8
0
100
AcDbCircle
 62
7
  6
CONTINUOUS
 10
5.863943536
 20
6.5868476779
 40
2.6283621125
100
AcDbArc
 50
246.6764331465
 51
247.174079531
  0
ARC
  5
2F7
100
AcDbEntity
  8
0
100
AcDbCircle
 62
7
  6
CONTINUOUS
 10
4.8786600644
 20
6.4926474445
 40
2.3197777573
100
AcDbArc
 50
271.0588843569
 51
272.1057281644
  0
ARC
  5
2F8
100
AcDbEntity
  8
0
100
AcDbCircle
 62
7
  6
CONTINUOUS
 10
7.2532599306
 20
5.1781582659
 40
2.6135953999
100
AcDbArc
 50
202.8245146187
 51
203.3249727038
  0
ARC
  5
2F9
100
AcDbEntity
  8
0
100
AcDbCircle
 62
7
  6
CONTINUOUS
 10
7.1726386266
 20
4.1986625701
 40
2.3197712635
100
AcDbArc
 50
177.8942703704
 51
178.9411171084
  0
ARC
  5
2FA
100
AcDbEntity
  8
0
100
AcDbCircle
 62
7
  6
CONTINUOUS
 10
8.3389395015
 20
14.6136296386
 40
10.9948286192
100
AcDbArc
 50
251.1188547481
 51
251.238042366
  0
ARC
  5
2FB
100
AcDbEntity
  8
0
100
AcDbCircle
 62
7
  6
CONTINUOUS
 10
15.2936273116
 20
7.6589418275
 40
10.9948286185
100
AcDbArc
 50
198.761957634
 51
198.8811452519
  0
SPLINE
  5
2FC
100
AcDbEntity
  8
ALL_FEATURES
100
AcDbSpline
 62
7
  6
CONTINUOUS
 70
0
 71
3
 72
43
 73
39
 74
0
 42
0.0000001
 43
0.0000001
 44
0.0000000001
 40
0.0
 40
0.0
 40
0.0
 40
0.0
 40
0.0312306487
 40
0.0624968565
 40
0.0937559464
 40
0.1250037147
 40
0.1562507432
 40
0.1875004315
 40
0.2031293007
 40
0.218757776
 40
0.2500055981
 40
0.2812532605
 40
0.3125023413
 40
0.3437519178
 40
0.3750023173
 40
0.4062523866
 40
0.4375018988
 40
0.468750472
 40
0.4999980586
 40
0.5312454736
 40
0.5624934181
 40
0.5937420207
 40
0.6093705303
 40
0.6249990345
 40
0.6562468446
 40
0.6718748529
 40
0.687502834
 40
0.7187497841
 40
0.7343775406
 40
0.7500053679
 40
0.7812528349
 40
0.8125019508
 40
0.8437530255
 40
0.8750014402
 40
0.9062484543
 40
0.9375046409
 40
0.9687700282
 40
1.0
 40
1.0
 40
1.0
 40
1.0
 10
5.1524203981
 20
4.2214579269
 30
0.0
 10
5.1513725644
 20
4.230053052
 30
0.0
 10
5.148474953
 20
4.2471659428
 30
0.0
 10
5.1417877216
 20
4.2723215879
 30
0.0
 10
5.1327925644
 20
4.2967550737
 30
0.0
 10
5.1215738772
 20
4.3202444876
 30
0.0
 10
5.1082220065
 20
4.34258649
 30
0.0
 10
5.0954098269
 20
4.3600935839
 30
0.0
 10
5.0842203189
 20
4.3733344265
 30
0.0
 10
5.0724233861
 20
4.3860363871
 30
0.0
 10
5.0565832612
 20
4.4008597567
 30
0.0
 10
5.0360000266
 20
4.4167907201
 30
0.0
 10
5.0140121406
 20
4.4307219299
 30
0.0
 10
4.9908159704
 20
4.4425338687
 30
0.0
 10
4.9666095861
 20
4.4521075835
 30
0.0
 10
4.9416112644
 20
4.459366765
 30
0.0
 10
4.9160387731
 20
4.4642289447
 30
0.0
 10
4.8901225381
 20
4.4666602209
 30
0.0
 10
4.8640929897
 20
4.4666222879
 30
0.0
 10
4.8381835994
 20
4.4641219952
 30
0.0
 10
4.8126301052
 20
4.4591685483
 30
0.0
 10
4.7918194718
 20
4.453034346
 30
0.0
 10
4.7755841735
 20
4.4469565566
 30
0.0
 10
4.7596591622
 20
4.4401088509
 30
0.0
 10
4.7442418583
 20
4.4321273586
 30
0.0
 10
4.7294590724
 20
4.4230740609
 30
0.0
 10
4.7151284961
 20
4.4133211798
 30
0.0
 10
4.7015151906
 20
4.4025477272
 30
0.0
 10
4.6887315997
 20
4.3908405467
 30
0.0
 10
4.6765268261
 20
4.378530167
 30
0.0
 10
4.6624018989
 20
4.3620613071
 30
0.0
 10
4.6474370074
 20
4.3407614393
 30
0.0
 10
4.6345995122
 20
4.318114146
 30
0.0
 10
4.6240062515
 20
4.2943348917
 30
0.0
 10
4.6157703419
 20
4.2696383785
 30
0.0
 10
4.6099657398
 20
4.244254365
 30
0.0
 10
4.6066649601
 20
4.2184325766
 30
0.0
 10
4.6061431013
 20
4.2010810127
 30
0.0
 10
4.6063078432
 20
4.1924240074
 30
0.0
  0
SPLINE
  5
2FD
100
AcDbEntity
  8
ALL_FEATURES
100
AcDbSpline
 62
7
  6
CONTINUOUS
 70
0
 71
3
 72
24
 73
20
 74
0
 42
0.0000001
 43
0.0000001
 44
0.0000000001
 40
0.0
 40
0.0
 40
0.0
 40
0.0
 40
0.0624950952
 40
0.1249900594
 40
0.1874886238
 40
0.218748465
 40
0.2500087077
 40
0.3125107641
 40
0.3750121199
 40
0.4375130842
 40
0.5000102825
 40
0.5625047389
 40
0.6250004303
 40
0.6875014135
 40
0.7499988899
 40
0.8124922157
 40
0.8750040656
 40
0.9375392323
 40
1.0
 40
1.0
 40
1.0
 40
1.0
 10
4.6637085204
 20
4.0327186996
 30
0.0
 10
4.6692124872
 20
4.0258066762
 30
0.0
 10
4.6809265925
 20
4.0125280656
 30
0.0
 10
4.7004100178
 20
3.994492408
 30
0.0
 10
4.7180916821
 20
3.9811794577
 30
0.0
 10
4.7329835083
 20
3.9716461585
 30
0.0
 10
4.7483418969
 20
3.9628829851
 30
0.0
 10
4.7683475386
 20
3.9534118891
 30
0.0
 10
4.7933788352
 20
3.9445463912
 30
0.0
 10
4.8191856836
 20
3.9382849444
 30
0.0
 10
4.8454951065
 20
3.9346857303
 30
0.0
 10
4.8720345094
 20
3.9338047412
 30
0.0
 10
4.8985254501
 20
3.9356447792
 30
0.0
 10
4.924686291
 20
3.9402047947
 30
0.0
 10
4.9502408289
 20
3.947425788
 30
0.0
 10
4.9749129608
 20
3.9572517573
 30
0.0
 10
4.9984443201
 20
3.9695757479
 30
0.0
 10
5.0205604749
 20
3.9842753511
 30
0.0
 10
5.0342181373
 20
3.99554952
 30
0.0
 10
5.0407247892
 20
4.0015200692
 30
0.0
  0
SPLINE
  5
2FE
100
AcDbEntity
  8
ALL_FEATURES
100
AcDbSpline
 62
7
  6
CONTINUOUS
 70
0
 71
3
 72
23
 73
19
 74
0
 42
0.0000001
 43
0.0000001
 44
0.0000000001
 40
0.0
 40
0.0
 40
0.0
 40
0.0
 40
0.0624645169
 40
0.124997643
 40
0.1875327755
 40
0.250041383
 40
0.3125362485
 40
0.3750349654
 40
0.43753743
 40
0.5000377748
 40
0.5625361106
 40
0.6250315702
 40
0.6875279031
 40
0.7500220473
 40
0.8125073017
 40
0.874988363
 40
0.9374806951
 40
1.0
 40
1.0
 40
1.0
 40
1.0
 10
5.0893204599
 20
4.0129883093
 30
0.0
 10
5.0935018604
 20
4.018803296
 30
0.0
 10
5.1014245441
 20
4.0307668435
 30
0.0
 10
5.1118985371
 20
4.0495693222
 30
0.0
 10
5.1208915935
 20
4.0691309784
 30
0.0
 10
5.1283307315
 20
4.0893298368
 30
0.0
 10
5.1341707921
 20
4.1100436586
 30
0.0
 10
5.1383615349
 20
4.1311525913
 30
0.0
 10
5.1408753069
 20
4.1525268957
 30
0.0
 10
5.1416848419
 20
4.1740337165
 30
0.0
 10
5.1407696431
 20
4.1955356304
 30
0.0
 10
5.1381347697
 20
4.2168949277
 30
0.0
 10
5.1337782599
 20
4.2379704593
 30
0.0
 10
5.1277259479
 20
4.2586218426
 30
0.0
 10
5.1200091301
 20
4.2787091819
 30
0.0
 10
5.110663275
 20
4.2980927727
 30
0.0
 10
5.0997475741
 20
4.3166409046
 30
0.0
 10
5.0914592645
 20
4.3283600149
 30
0.0
 10
5.0870788409
 20
4.3340345279
 30
0.0
  0
SPLINE
  5
2FF
100
AcDbEntity
  8
ALL_FEATURES
100
AcDbSpline
 62
7
  6
CONTINUOUS
 70
0
 71
3
 72
23
 73
19
 74
0
 42
0.0000001
 43
0.0000001
 44
0.0000000001
 40
0.0
 40
0.0
 40
0.0
 40
0.0
 40
0.0624610195
 40
0.1249885365
 40
0.1875084538
 40
0.2500052182
 40
0.3124972666
 40
0.3749961676
 40
0.4374972479
 40
0.499997309
 40
0.5624967011
 40
0.6249958911
 40
0.6874963434
 40
0.749997118
 40
0.8124992112
 40
0.8750005798
 40
0.937500673
 40
1.0
 40
1.0
 40
1.0
 40
1.0
 10
4.4033397848
 20
4.1924240074
 30
0.0
 10
4.4034495405
 20
4.1794636391
 30
0.0
 10
4.4047514126
 20
4.1535256804
 30
0.0
 10
4.4099099094
 20
4.1149178771
 30
0.0
 10
4.4182609316
 20
4.0768618113
 30
0.0
 10
4.4297443648
 20
4.0396396677
 30
0.0
 10
4.444278847
 20
4.0035038658
 30
0.0
 10
4.4617716788
 20
3.9687029988
 30
0.0
 10
4.482093252
 20
3.9354722437
 30
0.0
 10
4.505119833
 20
3.9040550304
 30
0.0
 10
4.5306788372
 20
3.8746617727
 30
0.0
 10
4.5586040071
 20
3.8475059183
 30
0.0
 10
4.5886971086
 20
3.8227740527
 30
0.0
 10
4.6207502051
 20
3.8006395122
 30
0.0
 10
4.6545441166
 20
3.7812669115
 30
0.0
 10
4.6898370311
 20
3.7647807176
 30
0.0
 10
4.7263859348
 20
3.7513154972
 30
0.0
 10
4.7514235529
 20
3.7444057374
 30
0.0
 10
4.7640586922
 20
3.7414829715
 30
0.0
  0
SPLINE
  5
300
100
AcDbEntity
  8
ALL_FEATURES
100
AcDbSpline
 62
7
  6
CONTINUOUS
 70
0
 71
3
 72
29
 73
25
 74
0
 42
0.0000001
 43
0.0000001
 44
0.0000000001
 40
0.0
 40
0.0
 40
0.0
 40
0.0
 40
0.0624900958
 40
0.1249807893
 40
0.1562355742
 40
0.1874908064
 40
0.2499832828
 40
0.2812394216
 40
0.312496224
 40
0.3437534012
 40
0.3750104411
 40
0.4062671875
 40
0.4375239201
 40
0.5000171747
 40
0.5312723167
 40
0.5625271725
 40
0.6250171331
 40
0.6562716726
 40
0.6875268612
 40
0.7500200663
 40
0.812516958
 40
0.8750131883
 40
0.9375021199
 40
1.0
 40
1.0
 40
1.0
 40
1.0
 10
4.7640586922
 20
3.7414829715
 30
0.0
 10
4.7788856566
 20
3.7380531917
 30
0.0
 10
4.8088982025
 20
3.7326553384
 30
0.0
 10
4.846890257
 20
3.7296292081
 30
0.0
 10
4.8773431254
 20
3.7294624888
 30
0.0
 10
4.9077657858
 20
3.7308006499
 30
0.0
 10
4.9380560365
 20
3.7343873392
 30
0.0
 10
4.9679485939
 20
3.7402001893
 30
0.0
 10
4.9901313541
 20
3.7456657265
 30
0.0
 10
5.0120167942
 20
3.7522193083
 30
0.0
 10
5.0335520644
 20
3.7598452937
 30
0.0
 10
5.054683604
 20
3.7685293636
 30
0.0
 10
5.0822420252
 20
3.7814871483
 30
0.0
 10
5.108808016
 20
3.7964753731
 30
0.0
 10
5.1341442585
 20
3.8133705348
 30
0.0
 10
5.1586097186
 20
3.8315022707
 30
0.0
 10
5.1816992156
 20
3.8514318
 30
0.0
 10
5.203204659
 20
3.8729916707
 30
0.0
 10
5.2236126443
 20
3.8955953483
 30
0.0
 10
5.2469849936
 20
3.9257087582
 30
0.0
 10
5.271287584
 20
3.9644500263
 30
0.0
 10
5.2916281197
 20
4.0054130382
 30
0.0
 10
5.3077855187
 20
4.0481941878
 30
0.0
 10
5.3156668597
 20
4.0776566457
 30
0.0
 10
5.3188608501
 20
4.0925381239
 30
0.0
  0
SPLINE
  5
301
100
AcDbEntity
  8
ALL_FEATURES
100
AcDbSpline
 62
7
  6
CONTINUOUS
 70
0
 71
3
 72
23
 73
19
 74
0
 42
0.0000001
 43
0.0000001
 44
0.0000000001
 40
0.0
 40
0.0
 40
0.0
 40
0.0
 40
0.0624580467
 40
0.1249822035
 40
0.1875014315
 40
0.2499994802
 40
0.3124929614
 40
0.3749931411
 40
0.4374947338
 40
0.4999928421
 40
0.5624886848
 40
0.6249839866
 40
0.6874794245
 40
0.7499703429
 40
0.8124599764
 40
0.8749648494
 40
0.9374955568
 40
1.0
 40
1.0
 40
1.0
 40
1.0
 10
5.3290237601
 20
4.1924240074
 30
0.0
 10
5.3289152904
 20
4.2048917521
 30
0.0
 10
5.3276694924
 20
4.2298433259
 30
0.0
 10
5.3227524685
 20
4.2669891854
 30
0.0
 10
5.3147992876
 20
4.3036165937
 30
0.0
 10
5.3038652018
 20
4.3394598562
 30
0.0
 10
5.2900268999
 20
4.3742814
 30
0.0
 10
5.2733682383
 20
4.4078457394
 30
0.0
 10
5.2540130109
 20
4.4399320667
 30
0.0
 10
5.2320757744
 20
4.4703107549
 30
0.0
 10
5.2077150203
 20
4.4987810021
 30
0.0
 10
5.1810885397
 20
4.5251441351
 30
0.0
 10
5.1523782988
 20
4.5492193161
 30
0.0
 10
5.1217829391
 20
4.5708469282
 30
0.0
 10
5.0895009343
 20
4.5898687568
 30
0.0
 10
5.0557510361
 20
4.6061649091
 30
0.0
 10
5.0207642307
 20
4.6196026549
 30
0.0
 10
4.9967720211
 20
4.6266072668
 30
0.0
 10
4.9846600231
 20
4.6296050945
 30
0.0
  0
SPLINE
  5
302
100
AcDbEntity
  8
ALL_FEATURES
100
AcDbSpline
 62
7
  6
CONTINUOUS
 70
0
 71
3
 72
17
 73
13
 74
0
 42
0.0000001
 43
0.0000001
 44
0.0000000001
 40
0.0
 40
0.0
 40
0.0
 40
0.0
 40
0.1249577508
 40
0.1875005141
 40
0.2500305306
 40
0.3750103542
 40
0.4999956121
 40
0.6249823743
 40
0.749966671
 40
0.8124985378
 40
0.8750424827
 40
1.0
 40
1.0
 40
1.0
 40
1.0
 10
4.5643070742
 20
4.550644106
 30
0.0
 10
4.5516123681
 20
4.5395380125
 30
0.0
 10
4.5334409389
 20
4.5218294748
 30
0.0
 10
4.5112267961
 20
4.4964058328
 30
0.0
 10
4.4904070138
 20
4.4698205505
 30
0.0
 10
4.4671064202
 20
4.4345532355
 30
0.0
 10
4.443859408
 20
4.3894879896
 30
0.0
 10
4.4255744302
 20
4.3421906587
 30
0.0
 10
4.4146626108
 20
4.3013523734
 30
0.0
 10
4.4086074888
 20
4.2681310819
 30
0.0
 10
4.40435535
 20
4.2346380884
 30
0.0
 10
4.4031969496
 20
4.2092905249
 30
0.0
 10
4.4033397848
 20
4.1924240074
 30
0.0
  0
SPLINE
  5
303
100
AcDbEntity
  8
ALL_FEATURES
100
AcDbSpline
 62
7
  6
CONTINUOUS
 70
0
 71
3
 72
13
 73
9
 74
0
 42
0.0000001
 43
0.0000001
 44
0.0000000001
 40
0.0
 40
0.0
 40
0.0
 40
0.0
 40
0.2499318271
 40
0.4998258852
 40
0.6248605883
 40
0.7499073527
 40
0.8749544695
 40
1.0
 40
1.0
 40
1.0
 40
1.0
 10
4.432930768
 20
4.2959713866
 30
0.0
 10
4.4376587171
 20
4.3194578466
 30
0.0
 10
4.4508764545
 20
4.3657528608
 30
0.0
 10
4.4763352977
 20
4.4202575946
 30
0.0
 10
4.5016234463
 20
4.4610181528
 30
0.0
 10
4.5229422907
 20
4.4900237107
 30
0.0
 10
4.5464675968
 20
4.5172661968
 30
0.0
 10
4.5635292566
 20
4.5341479993
 30
0.0
 10
4.5723715688
 20
4.5422404797
 30
0.0
  0
SPLINE
  5
304
100
AcDbEntity
  8
ALL_FEATURES
100
AcDbSpline
 62
7
  6
CONTINUOUS
 70
0
 71
3
 72
19
 73
15
 74
0
 42
0.0000001
 43
0.0000001
 44
0.0000000001
 40
0.0
 40
0.0
 40
0.0
 40
0.0
 40
0.0625086123
 40
0.1250174258
 40
0.187527381
 40
0.2500386344
 40
0.312550492
 40
0.375062556
 40
0.5000460832
 40
0.5625504847
 40
0.6250514009
 40
0.750034326
 40
0.87506391
 40
1.0
 40
1.0
 40
1.0
 40
1.0
 10
4.5723715688
 20
4.5422404797
 30
0.0
 10
4.5779994907
 20
4.5473911515
 30
0.0
 10
4.5895129764
 20
4.5574150622
 30
0.0
 10
4.6075073301
 20
4.5715730092
 30
0.0
 10
4.6261816707
 20
4.5848226714
 30
0.0
 10
4.6454871403
 20
4.5971345189
 30
0.0
 10
4.6653774483
 20
4.6084795327
 30
0.0
 10
4.6926050428
 20
4.6222734651
 30
0.0
 10
4.7208196284
 20
4.6340423016
 30
0.0
 10
4.7497752911
 20
4.6436896223
 30
0.0
 10
4.7791699585
 20
4.6519057015
 30
0.0
 10
4.8166225309
 20
4.6594693987
 30
0.0
 10
4.8622157849
 20
4.6641126923
 30
0.0
 10
4.8927802771
 20
4.664252776
 30
0.0
 10
4.9080137635
 20
4.6635815752
 30
0.0
  0
SPLINE
  5
305
100
AcDbEntity
  8
ALL_ASSEMBLY_MEMBERS
100
AcDbSpline
 62
9
  6
CONTINUOUS
 70
0
 71
3
 72
23
 73
19
 74
0
 42
0.0000001
 43
0.0000001
 44
0.0000000001
 40
0.0
 40
0.0
 40
0.0
 40
0.0
 40
0.0457845968
 40
0.0950752594
 40
0.1477993231
 40
0.2038212528
 40
0.2629326547
 40
0.3248224648
 40
0.3891248993
 40
0.4554220051
 40
0.5232659165
 40
0.592176982
 40
0.6616594192
 40
0.7311997195
 40
0.8002879334
 40
0.8684480382
 40
0.9352002579
 40
1.0
 40
1.0
 40
1.0
 40
1.0
 10
5.2637026296
 20
3.1884505463
 30
0.0
 10
5.2601533447
 20
3.1915141716
 30
0.0
 10
5.2531748456
 20
3.1983380062
 30
0.0
 10
5.2434757542
 20
3.2099848252
 30
0.0
 10
5.2342597463
 20
3.2233119316
 30
0.0
 10
5.2256104319
 20
3.2381848375
 30
0.0
 10
5.2176101559
 20
3.2544671553
 30
0.0
 10
5.2103289348
 20
3.2720034478
 30
0.0
 10
5.2038423602
 20
3.2906287317
 30
0.0
 10
5.1982070398
 20
3.3101634441
 30
0.0
 10
5.1934817912
 20
3.3304223203
 30
0.0
 10
5.1897071321
 20
3.3512108515
 30
0.0
 10
5.1869246158
 20
3.3723302961
 30
0.0
 10
5.185155239
 20
3.393576822
 30
0.0
 10
5.1844205986
 20
3.414748857
 30
0.0
 10
5.1847246028
 20
3.4356464881
 30
0.0
 10
5.186068821
 20
3.4560627503
 30
0.0
 10
5.1876708162
 20
3.4694471639
 30
0.0
 10
5.1886517962
 20
3.4760101505
 30
0.0
  0
SPLINE
  5
306
100
AcDbEntity
  8
ALL_ASSEMBLY_MEMBERS
100
AcDbSpline
 62
7
  6
CONTINUOUS
 70
0
 71
3
 72
15
 73
11
 74
0
 42
0.0000001
 43
0.0000001
 44
0.0000000001
 40
0.0
 40
0.0
 40
0.0
 40
0.0
 40
0.1250557556
 40
0.2501312031
 40
0.3752034581
 40
0.5002504638
 40
0.6252553253
 40
0.7502103945
 40
0.8751199173
 40
1.0
 40
1.0
 40
1.0
 40
1.0
 10
4.2479100761
 20
3.1688019446
 30
0.0
 10
4.2576172564
 20
3.1698064208
 30
0.0
 10
4.2770208445
 20
3.1719341493
 30
0.0
 10
4.3061073755
 20
3.1752929247
 30
0.0
 10
4.335196438
 20
3.1786246342
 30
0.0
 10
4.3643045701
 20
3.1817383671
 30
0.0
 10
4.3934447036
 20
3.1844483349
 30
0.0
 10
4.4226229287
 20
3.1865837518
 30
0.0
 10
4.4518358917
 20
3.1880006194
 30
0.0
 10
4.4713280525
 20
3.1883972122
 30
0.0
 10
4.481073212
 20
3.1884501686
 30
0.0
  0
SPLINE
  5
307
100
AcDbEntity
  8
ALL_ASSEMBLY_MEMBERS
100
AcDbSpline
 62
7
  6
CONTINUOUS
 70
0
 71
3
 72
15
 73
11
 74
0
 42
0.0000001
 43
0.0000001
 44
0.0000000001
 40
0.0
 40
0.0
 40
0.0
 40
0.0
 40
0.1249340699
 40
0.2498933424
 40
0.3748987928
 40
0.499949431
 40
0.6250184146
 40
0.7500659136
 40
0.8750594852
 40
1.0
 40
1.0
 40
1.0
 40
1.0
 10
4.481073212
 20
3.1884501686
 30
0.0
 10
4.4948178415
 20
3.1885249134
 30
0.0
 10
4.5223144405
 20
3.188241248
 30
0.0
 10
4.563528621
 20
3.1864908247
 30
0.0
 10
4.6046884978
 20
3.1835901011
 30
0.0
 10
4.6457944991
 20
3.1799023544
 30
0.0
 10
4.6868774648
 20
3.1759323285
 30
0.0
 10
4.7279846694
 20
3.1722710123
 30
0.0
 10
4.7691544085
 20
3.1695521377
 30
0.0
 10
4.7966534223
 20
3.1688019602
 30
0.0
 10
4.8103989641
 20
3.1688019602
 30
0.0
  0
SPLINE
  5
308
100
AcDbEntity
  8
ALL_ASSEMBLY_MEMBERS
100
AcDbSpline
 62
9
  6
CONTINUOUS
 70
0
 71
3
 72
23
 73
19
 74
0
 42
0.0000001
 43
0.0000001
 44
0.0000000001
 40
0.0
 40
0.0
 40
0.0
 40
0.0
 40
0.0457637863
 40
0.0950407153
 40
0.1477571893
 40
0.2037766603
 40
0.2628897514
 40
0.3247844353
 40
0.3890940121
 40
0.4553996387
 40
0.5232525996
 40
0.5921724234
 40
0.6616625385
 40
0.7312086814
 40
0.8003001749
 40
0.8684603121
 40
0.9352086555
 40
1.0
 40
1.0
 40
1.0
 40
1.0
 10
4.4810734015
 20
3.1884501663
 30
0.0
 10
4.4846191842
 20
3.1915142082
 30
0.0
 10
4.4915911156
 20
3.1983389075
 30
0.0
 10
4.501281696
 20
3.2099860901
 30
0.0
 10
4.5104912124
 20
3.2233136229
 30
0.0
 10
4.5191360921
 20
3.2381870138
 30
0.0
 10
4.5271340069
 20
3.254469847
 30
0.0
 10
4.5344149319
 20
3.2720066562
 30
0.0
 10
4.5409032665
 20
3.2906324154
 30
0.0
 10
4.5465423606
 20
3.3101675228
 30
0.0
 10
4.5512733539
 20
3.330426669
 30
0.0
 10
4.5550556551
 20
3.3512153018
 30
0.0
 10
4.5578476367
 20
3.3723346372
 30
0.0
 10
4.559628196
 20
3.3935807998
 30
0.0
 10
4.5603756335
 20
3.4147521805
 30
0.0
 10
4.5600859146
 20
3.4356488273
 30
0.0
 10
4.5587573352
 20
3.4560637503
 30
0.0
 10
4.5571666942
 20
3.4694475149
 30
0.0
 10
4.5561915661
 20
3.4760101505
 30
0.0
  0
SPLINE
  5
309
100
AcDbEntity
  8
ALL_ASSEMBLY_MEMBERS
100
AcDbSpline
 62
7
  6
CONTINUOUS
 70
0
 71
3
 72
35
 73
31
 74
0
 42
0.0000001
 43
0.0000001
 44
0.0000000001
 40
0.0
 40
0.0
 40
0.0
 40
0.0
 40
0.0320145755
 40
0.0638246839
 40
0.0954479499
 40
0.1269050736
 40
0.1582437768
 40
0.1894910451
 40
0.2206690772
 40
0.2517972736
 40
0.3139364526
 40
0.3449733922
 40
0.3759952235
 40
0.4070071128
 40
0.4380120356
 40
0.4690130168
 40
0.5000120673
 40
0.5310110571
 40
0.5620121408
 40
0.6240267956
 40
0.6860823047
 40
0.7482201668
 40
0.779345995
 40
0.8105236896
 40
0.8417673175
 40
0.8731013078
 40
0.904554561
 40
0.9361752319
 40
0.9679850702
 40
1.0
 40
1.0
 40
1.0
 40
1.0
 10
4.2479100761
 20
2.893211409
 30
0.0
 10
4.2537539021
 20
2.8895676419
 30
0.0
 10
4.26567465
 20
2.882728896
 30
0.0
 10
4.2841389158
 20
2.8737198089
 30
0.0
 10
4.3029965713
 20
2.8658777059
 30
0.0
 10
4.3221497162
 20
2.8590924927
 30
0.0
 10
4.3415295648
 20
2.8532656046
 30
0.0
 10
4.3610802142
 20
2.848284562
 30
0.0
 10
4.3807606963
 20
2.8440588965
 30
0.0
 10
4.407113755
 20
2.8393312194
 30
0.0
 10
4.4336325095
 20
2.8357856951
 30
0.0
 10
4.4602235948
 20
2.8331874194
 30
0.0
 10
4.4801875437
 20
2.831660369
 30
0.0
 10
4.5001697439
 20
2.8305173385
 30
0.0
 10
4.5201642091
 20
2.8297214665
 30
0.0
 10
4.5401662132
 20
2.8292559617
 30
0.0
 10
4.5601716787
 20
2.8291000497
 30
0.0
 10
4.5801772656
 20
2.829255402
 30
0.0
 10
4.6068479622
 20
2.8298787459
 30
0.0
 10
4.6401750495
 20
2.831473212
 30
0.0
 10
4.680094242
 20
2.8349047437
 30
0.0
 10
4.7132289914
 20
2.8393310442
 30
0.0
 10
4.7395806287
 20
2.8440625905
 30
0.0
 10
4.7592602088
 20
2.8482857363
 30
0.0
 10
4.7788085629
 20
2.8532684198
 30
0.0
 10
4.7981856604
 20
2.8590951462
 30
0.0
 10
4.8173369308
 20
2.8658784428
 30
0.0
 10
4.8361933364
 20
2.8737198243
 30
0.0
 10
4.8546570521
 20
2.882728807
 30
0.0
 10
4.8665777905
 20
2.8895676015
 30
0.0
 10
4.8724216811
 20
2.893211409
 30
0.0
  0
SPLINE
  5
30A
100
AcDbEntity
  8
ALL_ASSEMBLY_MEMBERS
100
AcDbSpline
 62
7
  6
CONTINUOUS
 70
0
 71
3
 72
36
 73
32
 74
0
 42
0.0000001
 43
0.0000001
 44
0.0000000001
 40
0.0
 40
0.0
 40
0.0
 40
0.0
 40
0.0320148752
 40
0.0638246932
 40
0.0954454681
 40
0.1268988841
 40
0.158233063
 40
0.1894767797
 40
0.220654479
 40
0.2517804698
 40
0.3139183687
 40
0.344954977
 40
0.3759773382
 40
0.4379919676
 40
0.4689930372
 40
0.4999920115
 40
0.530991029
 40
0.5619920148
 40
0.5929969118
 40
0.6240087624
 40
0.6550305734
 40
0.6860674075
 40
0.7482062175
 40
0.7793342703
 40
0.8105123183
 40
0.841759168
 40
0.8730976241
 40
0.9045540845
 40
0.9361759562
 40
0.9679855075
 40
1.0
 40
1.0
 40
1.0
 40
1.0
 10
4.8724216811
 20
2.893211409
 30
0.0
 10
4.8782655823
 20
2.889567595
 30
0.0
 10
4.8901863496
 20
2.8827287867
 30
0.0
 10
4.9086501402
 20
2.8737197792
 30
0.0
 10
4.9275066608
 20
2.8658783523
 30
0.0
 10
4.9466580741
 20
2.8590949527
 30
0.0
 10
4.9660353543
 20
2.853268247
 30
0.0
 10
4.985583839
 20
2.8482855829
 30
0.0
 10
5.0052635627
 20
2.8440623666
 30
0.0
 10
5.0316152129
 20
2.839330933
 30
0.0
 10
5.0581336953
 20
2.8357889495
 30
0.0
 10
5.0847243422
 20
2.8331869352
 30
0.0
 10
5.1113385606
 20
2.8311544601
 30
0.0
 10
5.1379968169
 20
2.8298783942
 30
0.0
 10
5.164667511
 20
2.8292555725
 30
0.0
 10
5.1846731699
 20
2.8290998947
 30
0.0
 10
5.2046786912
 20
2.8292560335
 30
0.0
 10
5.2246807516
 20
2.8297215597
 30
0.0
 10
5.244675283
 20
2.8305172582
 30
0.0
 10
5.2646575131
 20
2.8316606449
 30
0.0
 10
5.2846215211
 20
2.8331873869
 30
0.0
 10
5.31121254
 20
2.8357862071
 30
0.0
 10
5.3377312973
 20
2.8393314032
 30
0.0
 10
5.3640842835
 20
2.8440593957
 30
0.0
 10
5.3837647984
 20
2.8482846979
 30
0.0
 10
5.4033152367
 20
2.8532663083
 30
0.0
 10
5.4226948799
 20
2.8590930887
 30
0.0
 10
5.4418477178
 20
2.8658779151
 30
0.0
 10
5.4607048293
 20
2.8737200536
 30
0.0
 10
5.4791687659
 20
2.8827289674
 30
0.0
 10
5.491089455
 20
2.8895676386
 30
0.0
 10
5.4969332862
 20
2.893211409
 30
0.0
  0
SPLINE
  5
30B
100
AcDbEntity
  8
ALL_ASSEMBLY_MEMBERS
100
AcDbSpline
 62
7
  6
CONTINUOUS
 70
0
 71
3
 72
39
 73
35
 74
0
 42
0.0000001
 43
0.0000001
 44
0.0000000001
 40
0.0
 40
0.0
 40
0.0
 40
0.0
 40
0.0320151331
 40
0.0638247733
 40
0.0954440669
 40
0.1268957027
 40
0.1582280311
 40
0.1894708663
 40
0.2206478803
 40
0.2517718555
 40
0.282857025
 40
0.3139137794
 40
0.3449502665
 40
0.3759721116
 40
0.4069837249
 40
0.4379886234
 40
0.4689893568
 40
0.4999882329
 40
0.5309870133
 40
0.5619877638
 40
0.5929925298
 40
0.6240041237
 40
0.6550258729
 40
0.6860625125
 40
0.717120072
 40
0.7482064959
 40
0.7793341847
 40
0.8105120409
 40
0.8417581682
 40
0.8730956751
 40
0.9045520105
 40
0.9361750068
 40
0.9679852437
 40
1.0
 40
1.0
 40
1.0
 40
1.0
 10
4.8724216811
 20
5.4916366059
 30
0.0
 10
4.866577655
 20
5.4952804978
 30
0.0
 10
4.8546567081
 20
5.5021193976
 30
0.0
 10
4.8361929487
 20
5.5111284
 30
0.0
 10
4.8173368444
 20
5.5189696366
 30
0.0
 10
4.7981860121
 20
5.5257521781
 30
0.0
 10
4.778809602
 20
5.5315792767
 30
0.0
 10
4.7592615462
 20
5.5365619222
 30
0.0
 10
4.7395823446
 20
5.540784595
 30
0.0
 10
4.7198065227
 20
5.544336592
 30
0.0
 10
4.6999590954
 20
5.5472882335
 30
0.0
 10
4.6800597122
 20
5.5497108338
 30
0.0
 10
4.6601224439
 20
5.551659432
 30
0.0
 10
4.6401585319
 20
5.5531864652
 30
0.0
 10
4.6201760433
 20
5.5543303999
 30
0.0
 10
4.6001813407
 20
5.5551253147
 30
0.0
 10
4.5801791353
 20
5.5555925901
 30
0.0
 10
4.5601734387
 20
5.5557470607
 30
0.0
 10
4.5401677298
 20
5.5555930203
 30
0.0
 10
4.5201655812
 20
5.5551254422
 30
0.0
 10
4.5001708673
 20
5.5543314638
 30
0.0
 10
4.4801884647
 20
5.5531870313
 30
0.0
 10
4.4602244473
 20
5.5516611815
 30
0.0
 10
4.4402870795
 20
5.549711869
 30
0.0
 10
4.4203868827
 20
5.5472918166
 30
0.0
 10
4.4005386641
 20
5.5443371634
 30
0.0
 10
4.3807609422
 20
5.5407887119
 30
0.0
 10
4.361080473
 20
5.5365637559
 30
0.0
 10
4.3415301149
 20
5.5315822304
 30
0.0
 10
4.3221505977
 20
5.5257554621
 30
0.0
 10
4.3029974743
 20
5.5189706096
 30
0.0
 10
4.2841396157
 20
5.5111286108
 30
0.0
 10
4.2656750324
 20
5.5021193608
 30
0.0
 10
4.2537540334
 20
5.4952804549
 30
0.0
 10
4.2479100761
 20
5.4916366059
 30
0.0
  0
SPLINE
  5
30C
100
AcDbEntity
  8
ALL_ASSEMBLY_MEMBERS
100
AcDbSpline
 62
7
  6
CONTINUOUS
 70
0
 71
3
 72
37
 73
33
 74
0
 42
0.0000001
 43
0.0000001
 44
0.0000000001
 40
0.0
 40
0.0
 40
0.0
 40
0.0
 40
0.0320149808
 40
0.0638250806
 40
0.0954473602
 40
0.1269036411
 40
0.1582414931
 40
0.1894878521
 40
0.2206660681
 40
0.251793994
 40
0.282880624
 40
0.3139384787
 40
0.3759939009
 40
0.4380084201
 40
0.4690094558
 40
0.5000085202
 40
0.5310076805
 40
0.5620086954
 40
0.5930138788
 40
0.6240257783
 40
0.6550479061
 40
0.6860846901
 40
0.7171417284
 40
0.7482272068
 40
0.7793514141
 40
0.8105287319
 40
0.8417718939
 40
0.873104524
 40
0.9045562117
 40
0.9361750418
 40
0.9679846334
 40
1.0
 40
1.0
 40
1.0
 40
1.0
 10
5.4969332862
 20
5.4916366059
 30
0.0
 10
5.4910893224
 20
5.495280459
 30
0.0
 10
5.4791683598
 20
5.5021193061
 30
0.0
 10
5.4607040023
 20
5.5111284224
 30
0.0
 10
5.4418465133
 20
5.5189704907
 30
0.0
 10
5.4226935338
 20
5.5257551289
 30
0.0
 10
5.4033140223
 20
5.5315818693
 30
0.0
 10
5.3837636575
 20
5.5365637072
 30
0.0
 10
5.3640830903
 20
5.5407885175
 30
0.0
 10
5.3443053481
 20
5.544337072
 30
0.0
 10
5.3244570486
 20
5.5472917988
 30
0.0
 10
5.2979325519
 20
5.5505171596
 30
0.0
 10
5.264673785
 20
5.5533759851
 30
0.0
 10
5.2313469707
 20
5.5549692199
 30
0.0
 10
5.2046759299
 20
5.5555931072
 30
0.0
 10
5.184670106
 20
5.5557470283
 30
0.0
 10
5.1646643577
 20
5.5555926151
 30
0.0
 10
5.1446620841
 20
5.5551253187
 30
0.0
 10
5.1246673177
 20
5.5543303976
 30
0.0
 10
5.1046847618
 20
5.5531864812
 30
0.0
 10
5.0847207855
 20
5.5516594013
 30
0.0
 10
5.0647834451
 20
5.549710844
 30
0.0
 10
5.0448839981
 20
5.5472881646
 30
0.0
 10
5.0250365043
 20
5.5443365692
 30
0.0
 10
5.0052606312
 20
5.5407844978
 30
0.0
 10
4.9855813597
 20
5.5365618364
 30
0.0
 10
4.9660332317
 20
5.5315791348
 30
0.0
 10
4.9466568303
 20
5.5257519231
 30
0.0
 10
4.9275060911
 20
5.5189695466
 30
0.0
 10
4.9086502392
 20
5.5111282698
 30
0.0
 10
4.8901866393
 20
5.5021193618
 30
0.0
 10
4.8782657154
 20
5.4952805029
 30
0.0
 10
4.8724216811
 20
5.4916366059
 30
0.0
  0
SPLINE
  5
30D
100
AcDbEntity
  8
ALL_ASSEMBLY_MEMBERS
100
AcDbSpline
 62
9
  6
CONTINUOUS
 70
0
 71
3
 72
31
 73
27
 74
0
 42
0.0000001
 43
0.0000001
 44
0.0000000001
 40
0.0
 40
0.0
 40
0.0
 40
0.0
 40
0.057352041
 40
0.1149765313
 40
0.1729413196
 40
0.2313464807
 40
0.2903131048
 40
0.3499457729
 40
0.4103560817
 40
0.4408902054
 40
0.4716579811
 40
0.5339349345
 40
0.5972856239
 40
0.6293981486
 40
0.6618010729
 40
0.72747918
 40
0.7607631562
 40
0.7943292347
 40
0.8281514475
 40
0.8451527466
 40
0.8622096583
 40
0.8964665
 40
0.9308883437
 40
0.9481502749
 40
0.965431178
 40
1.0
 40
1.0
 40
1.0
 40
1.0
 10
4.2039737509
 20
4.1469015161
 30
0.0
 10
4.205977816
 20
4.1272899621
 30
0.0
 10
4.2114597817
 20
4.0881074771
 30
0.0
 10
4.2240734729
 20
4.0299617982
 30
0.0
 10
4.2411213201
 20
3.9725754122
 30
0.0
 10
4.2626493045
 20
3.916220205
 30
0.0
 10
4.2886942704
 20
3.8611665205
 30
0.0
 10
4.3193189716
 20
3.8077255274
 30
0.0
 10
4.3486005556
 20
3.7649713898
 30
0.0
 10
4.3743293663
 20
3.7319685849
 30
0.0
 10
4.4018343096
 20
3.6995837758
 30
0.0
 10
4.4392377322
 20
3.6608722198
 30
0.0
 10
4.4802909265
 20
3.6253311362
 30
0.0
 10
4.5154530037
 20
3.5989360434
 30
0.0
 10
4.5525025501
 20
3.5738120122
 30
0.0
 10
4.5917371254
 20
3.5512729387
 30
0.0
 10
4.6329111384
 20
3.531742418
 30
0.0
 10
4.6649526752
 20
3.5186260514
 30
0.0
 10
4.6923856423
 20
3.5091481215
 30
0.0
 10
4.7147503698
 20
3.5024873217
 30
0.0
 10
4.7374452454
 20
3.4964470016
 30
0.0
 10
4.7662503762
 20
3.4901349949
 30
0.0
 10
4.7954554108
 20
3.4855667243
 30
0.0
 10
4.8190241517
 20
3.4829933896
 30
0.0
 10
4.8427105451
 20
3.4811443653
 30
0.0
 10
4.8605392998
 20
3.4805832105
 30
0.0
 10
4.8724216811
 20
3.4805825354
 30
0.0
  0
SPLINE
  5
30E
100
AcDbEntity
  8
ALL_ASSEMBLY_MEMBERS
100
AcDbSpline
 62
9
  6
CONTINUOUS
 70
0
 71
3
 72
15
 73
11
 74
0
 42
0.0000001
 43
0.0000001
 44
0.0000000001
 40
0.0
 40
0.0
 40
0.0
 40
0.0
 40
0.1133666468
 40
0.2312269708
 40
0.3530759147
 40
0.4783286317
 40
0.6063406456
 40
0.7364261461
 40
0.8678790475
 40
1.0
 40
1.0
 40
1.0
 40
1.0
 10
4.5561915661
 20
3.4760101505
 30
0.0
 10
4.567999613
 20
3.473818813
 30
0.0
 10
4.5921554238
 20
3.4697300502
 30
0.0
 10
4.6291896683
 20
3.4644621816
 30
0.0
 10
4.6675852537
 20
3.4598982101
 30
0.0
 10
4.7071369741
 20
3.4560259056
 30
0.0
 10
4.7476265703
 20
3.4528587639
 30
0.0
 10
4.7888261868
 20
3.4504429385
 30
0.0
 10
4.8305022225
 20
3.4488652453
 30
0.0
 10
4.8584252568
 20
3.4484669648
 30
0.0
 10
4.8724216811
 20
3.4484669675
 30
0.0
  0
SPLINE
  5
30F
100
AcDbEntity
  8
ALL_ASSEMBLY_MEMBERS
100
AcDbSpline
 62
9
  6
CONTINUOUS
 70
0
 71
3
 72
34
 73
30
 74
0
 42
0.0000001
 43
0.0000001
 44
0.0000000001
 40
0.0
 40
0.0
 40
0.0
 40
0.0
 40
0.0347012151
 40
0.0520476754
 40
0.0693730204
 40
0.0866648093
 40
0.1039157696
 40
0.1382739987
 40
0.1553750832
 40
0.1724156796
 40
0.2063020069
 40
0.2399122776
 40
0.273220627
 40
0.3062246724
 40
0.3389168076
 40
0.3712950585
 40
0.4033707576
 40
0.4351480113
 40
0.4666344205
 40
0.5287818122
 40
0.5899297602
 40
0.6502022598
 40
0.6800506124
 40
0.7097242041
 40
0.7685938013
 40
0.8269379359
 40
0.8848855546
 40
0.942546504
 40
1.0
 40
1.0
 40
1.0
 40
1.0
 10
4.8724216811
 20
3.4805825354
 30
0.0
 10
4.8848778355
 20
3.4805832698
 30
0.0
 10
4.9035679799
 20
3.481200292
 30
0.0
 10
4.9283896251
 20
3.4832313759
 30
0.0
 10
4.9469246612
 20
3.4853530236
 30
0.0
 10
4.9653471825
 20
3.488068962
 30
0.0
 10
4.9896897659
 20
3.4924604586
 30
0.0
 10
5.0137460872
 20
3.4979872359
 30
0.0
 10
5.037432068
 20
3.5045984731
 30
0.0
 10
5.0607435368
 20
3.5118803207
 30
0.0
 10
5.0892904775
 20
3.522227169
 30
0.0
 10
5.1225539696
 20
3.5365185486
 30
0.0
 10
5.1546748257
 20
3.552520757
 30
0.0
 10
5.1855886609
 20
3.5700848375
 30
0.0
 10
5.2152529003
 20
3.5890712115
 30
0.0
 10
5.2436370833
 20
3.6093531402
 30
0.0
 10
5.2707216101
 20
3.63081384
 30
0.0
 10
5.2964998211
 20
3.6533434237
 30
0.0
 10
5.3289775045
 20
3.6845352327
 30
0.0
 10
5.3663694136
 20
3.7257407272
 30
0.0
 10
5.4062343366
 20
3.7783043811
 30
0.0
 10
5.4352703787
 20
3.8242702204
 30
0.0
 10
5.4559267966
 20
3.8619964136
 30
0.0
 10
5.4747908904
 20
3.9000888834
 30
0.0
 10
5.4952943627
 20
3.9487324085
 30
0.0
 10
5.5150259077
 20
4.0084990322
 30
0.0
 10
5.5298600182
 20
4.0692203289
 30
0.0
 10
5.5398407326
 20
4.1305954379
 30
0.0
 10
5.543287439
 20
4.1718214114
 30
0.0
 10
5.5442089969
 20
4.192423997
 30
0.0
  0
SPLINE
  5
310
100
AcDbEntity
  8
ALL_ASSEMBLY_MEMBERS
100
AcDbSpline
 62
9
  6
CONTINUOUS
 70
0
 71
3
 72
34
 73
30
 74
0
 42
0.0000001
 43
0.0000001
 44
0.0000000001
 40
0.0
 40
0.0
 40
0.0
 40
0.0
 40
0.0574534484
 40
0.1151143556
 40
0.1730619609
 40
0.2314061107
 40
0.290275722
 40
0.3199493143
 40
0.3497976699
 40
0.4100701777
 40
0.4712181316
 40
0.5333655213
 40
0.564851926
 40
0.5966291756
 40
0.6287048609
 40
0.6610831071
 40
0.6937752567
 40
0.7267793103
 40
0.7600876688
 40
0.793697944
 40
0.8275842637
 40
0.8446248577
 40
0.8617259402
 40
0.8960841662
 40
0.9133351326
 40
0.9306269368
 40
0.9479522983
 40
0.9652987722
 40
1.0
 40
1.0
 40
1.0
 40
1.0
 10
5.5442089969
 20
4.192423997
 30
0.0
 10
5.5432875157
 20
4.2130265694
 30
0.0
 10
5.5398408453
 20
4.2542525202
 30
0.0
 10
5.5298600398
 20
4.3156275781
 30
0.0
 10
5.5150259121
 20
4.3763488547
 30
0.0
 10
5.4952943983
 20
4.4361154957
 30
0.0
 10
5.4747909425
 20
4.4847590416
 30
0.0
 10
5.4559268442
 20
4.5228515175
 30
0.0
 10
5.4352704247
 20
4.5605777157
 30
0.0
 10
5.4062343847
 20
4.6065435651
 30
0.0
 10
5.3663694627
 20
4.6591072271
 30
0.0
 10
5.328977558
 20
4.7003127272
 30
0.0
 10
5.2964998777
 20
4.7315045354
 30
0.0
 10
5.2707216784
 20
4.7540341215
 30
0.0
 10
5.2436371592
 20
4.7754948194
 30
0.0
 10
5.2152529774
 20
4.7957767486
 30
0.0
 10
5.1855887356
 20
4.8147631321
 30
0.0
 10
5.1546748927
 20
4.832327224
 30
0.0
 10
5.1225540294
 20
4.8483294376
 30
0.0
 10
5.0892905359
 20
4.8626208213
 30
0.0
 10
5.0607435983
 20
4.8729676745
 30
0.0
 10
5.0374321333
 20
4.8802495216
 30
0.0
 10
5.0137461556
 20
4.8868607621
 30
0.0
 10
4.9896898356
 20
4.8923875495
 30
0.0
 10
4.965347245
 20
4.8967790478
 30
0.0
 10
4.9469247084
 20
4.8994949782
 30
0.0
 10
4.9283896552
 20
4.9016166231
 30
0.0
 10
4.9035679943
 20
4.9036477088
 30
0.0
 10
4.8848778404
 20
4.9042647386
 30
0.0
 10
4.8724216811
 20
4.9042654795
 30
0.0
  0
SPLINE
  5
311
100
AcDbEntity
  8
ALL_ASSEMBLY_MEMBERS
100
AcDbSpline
 62
9
  6
CONTINUOUS
 70
0
 71
3
 72
15
 73
11
 74
0
 42
0.0000001
 43
0.0000001
 44
0.0000000001
 40
0.0
 40
0.0
 40
0.0
 40
0.0
 40
0.1321245038
 40
0.2635824066
 40
0.3936746368
 40
0.5216943175
 40
0.6469537381
 40
0.7688051194
 40
0.8866583283
 40
1.0
 40
1.0
 40
1.0
 40
1.0
 10
4.8724216811
 20
4.9363810473
 30
0.0
 10
4.886418278
 20
4.9363810503
 30
0.0
 10
4.91434182
 20
4.9359790193
 30
0.0
 10
4.9560184473
 20
4.9343896624
 30
0.0
 10
4.9972187224
 20
4.9319602028
 30
0.0
 10
5.0377089954
 20
4.9287809008
 30
0.0
 10
5.0772611568
 20
4.9249011752
 30
0.0
 10
5.115656411
 20
4.9203380031
 30
0.0
 10
5.1526886916
 20
4.9150832473
 30
0.0
 10
5.1768439658
 20
4.9110148648
 30
0.0
 10
5.1886517962
 20
4.9088378644
 30
0.0
  0
SPLINE
  5
312
100
AcDbEntity
  8
ALL_ASSEMBLY_MEMBERS
100
AcDbSpline
 62
9
  6
CONTINUOUS
 70
0
 71
3
 72
29
 73
25
 74
0
 42
0.0000001
 43
0.0000001
 44
0.0000000001
 40
0.0
 40
0.0
 40
0.0
 40
0.0
 40
0.1023099081
 40
0.2004464447
 40
0.294078247
 40
0.3828904259
 40
0.466588137
 40
0.5448999407
 40
0.6175811264
 40
0.6844172006
 40
0.7452279622
 40
0.7998729559
 40
0.8248537093
 40
0.8482631231
 40
0.8700995509
 40
0.8903667139
 40
0.9090749574
 40
0.9262430432
 40
0.9419007418
 40
0.9560926292
 40
0.9688836696
 40
0.9803673404
 40
0.9906769785
 40
1.0
 40
1.0
 40
1.0
 40
1.0
 10
5.1886517962
 20
4.9088378644
 30
0.0
 10
5.1971074162
 20
4.9072789105
 30
0.0
 10
5.2136566114
 20
4.9041307246
 30
0.0
 10
5.2378805238
 20
4.8992288369
 30
0.0
 10
5.2609344324
 20
4.8942727618
 30
0.0
 10
5.2827399113
 20
4.8892914123
 30
0.0
 10
5.3032226318
 20
4.8843097065
 30
0.0
 10
5.3223128998
 20
4.8793487288
 30
0.0
 10
5.3399461302
 20
4.8744259599
 30
0.0
 10
5.3560635419
 20
4.869555825
 30
0.0
 10
5.3706119064
 20
4.8647497249
 30
0.0
 10
5.3816985673
 20
4.8606939313
 30
0.0
 10
5.389733929
 20
4.8574653308
 30
0.0
 10
5.3951577945
 20
4.8551370629
 30
0.0
 10
5.4001575015
 20
4.8528296258
 30
0.0
 10
5.4047293773
 20
4.8505434903
 30
0.0
 10
5.4088702482
 20
4.8482791331
 30
0.0
 10
5.4125774364
 20
4.8460368709
 30
0.0
 10
5.4158487937
 20
4.8438168398
 30
0.0
 10
5.4186827316
 20
4.8416187857
 30
0.0
 10
5.4210781071
 20
4.8394420304
 30
0.0
 10
5.4230341252
 20
4.8372844308
 30
0.0
 10
5.4245489705
 20
4.8351441349
 30
0.0
 10
5.4252939597
 20
4.8336617326
 30
0.0
 10
5.4255780796
 20
4.8329315549
 30
0.0
  0
SPLINE
  5
313
100
AcDbEntity
  8
ALL_ASSEMBLY_MEMBERS
100
AcDbSpline
 62
9
  6
CONTINUOUS
 70
0
 71
3
 72
29
 73
25
 74
0
 42
0.0000001
 43
0.0000001
 44
0.0000000001
 40
0.0
 40
0.0
 40
0.0
 40
0.0
 40
0.1023150231
 40
0.2004568236
 40
0.2940941028
 40
0.3829118538
 40
0.4666150054
 40
0.5449318677
 40
0.617617401
 40
0.6844567753
 40
0.7452694901
 40
0.7999147865
 40
0.8248949899
 40
0.848303354
 40
0.87013821
 40
0.8904032569
 40
0.9091088218
 40
0.9262736548
 40
0.9419275229
 40
0.9561150074
 40
0.9689010926
 40
0.9803793032
 40
0.9906830739
 40
1.0
 40
1.0
 40
1.0
 40
1.0
 10
5.1886517962
 20
3.4760101505
 30
0.0
 10
5.1971072621
 20
3.4775682826
 30
0.0
 10
5.2136561645
 20
3.4807150253
 30
0.0
 10
5.2378796265
 20
3.4856152806
 30
0.0
 10
5.2609331321
 20
3.4905702292
 30
0.0
 10
5.282738258
 20
3.4955508193
 30
0.0
 10
5.3032206604
 20
3.500531973
 30
0.0
 10
5.3223106181
 20
3.5054924422
 30
0.0
 10
5.3399435125
 20
3.5104145983
 30
0.0
 10
5.3560605246
 20
3.5152838924
 30
0.0
 10
5.3706083901
 20
3.5200888318
 30
0.0
 10
5.3816946012
 20
3.524143339
 30
0.0
 10
5.3897295488
 20
3.5273707019
 30
0.0
 10
5.3951530167
 20
3.5296979468
 30
0.0
 10
5.4001522858
 20
3.5320042635
 30
0.0
 10
5.4047236836
 20
3.534289185
 30
0.0
 10
5.408864037
 20
3.5365522407
 30
0.0
 10
5.4125706702
 20
3.5387931214
 30
0.0
 10
5.4158414387
 20
3.5410117005
 30
0.0
 10
5.4186747589
 20
3.5432082435
 30
0.0
 10
5.4210694944
 20
3.545383442
 30
0.0
 10
5.4230248574
 20
3.5475394564
 30
0.0
 10
5.4245390408
 20
3.5496781584
 30
0.0
 10
5.4252835854
 20
3.5511595104
 30
0.0
 10
5.4255674712
 20
3.5518891582
 30
0.0
  0
SPLINE
  5
314
100
AcDbEntity
  8
ALL_ASSEMBLY_MEMBERS
100
AcDbSpline
 62
9
  6
CONTINUOUS
 70
0
 71
3
 72
15
 73
11
 74
0
 42
0.0000001
 43
0.0000001
 44
0.0000000001
 40
0.0
 40
0.0
 40
0.0
 40
0.0
 40
0.1321247782
 40
0.2635830674
 40
0.3936758176
 40
0.5216960907
 40
0.6469560294
 40
0.7688075991
 40
0.8866602582
 40
1.0
 40
1.0
 40
1.0
 40
1.0
 10
4.8724216811
 20
3.4484669675
 30
0.0
 10
4.8864182914
 20
3.4484669645
 30
0.0
 10
4.9143418728
 20
3.4488692854
 30
0.0
 10
4.9560185459
 20
3.4504595437
 30
0.0
 10
4.9972188719
 20
3.4528900569
 30
0.0
 10
5.0377091973
 20
3.4560702986
 30
0.0
 10
5.077261393
 20
3.4599505978
 30
0.0
 10
5.1156566218
 20
3.4645137082
 30
0.0
 10
5.1526887507
 20
3.469767451
 30
0.0
 10
5.176843983
 20
3.4738342585
 30
0.0
 10
5.1886517962
 20
3.4760101505
 30
0.0
  0
SPLINE
  5
315
100
AcDbEntity
  8
ALL_ASSEMBLY_MEMBERS
100
AcDbSpline
 62
9
  6
CONTINUOUS
 70
0
 71
3
 72
30
 73
26
 74
0
 42
0.0000001
 43
0.0000001
 44
0.0000000001
 40
0.0
 40
0.0
 40
0.0
 40
0.0
 40
0.0367735824
 40
0.0551433869
 40
0.0734775543
 40
0.1461454686
 40
0.1819819346
 40
0.2174002562
 40
0.2523605799
 40
0.2868255084
 40
0.3207869988
 40
0.3542394828
 40
0.3871833364
 40
0.4196371206
 40
0.483118633
 40
0.5448770713
 40
0.605106338
 40
0.6640172876
 40
0.6930445322
 40
0.7218146989
 40
0.7786615036
 40
0.8347417218
 40
0.8902313882
 40
0.9452800567
 40
1.0
 40
1.0
 40
1.0
 40
1.0
 10
4.8724216811
 20
4.8254008779
 30
0.0
 10
4.8603758429
 20
4.8254007338
 30
0.0
 10
4.8423079659
 20
4.8249130393
 30
0.0
 10
4.8182907054
 20
4.8233015951
 30
0.0
 10
4.7826193744
 20
4.8199519348
 30
0.0
 10
4.7415065843
 20
4.8133077179
 30
0.0
 10
4.6956906813
 20
4.8021306415
 30
0.0
 10
4.662348336
 20
4.7921316589
 30
0.0
 10
4.6299866546
 20
4.7805909214
 30
0.0
 10
4.5986934106
 20
4.7676052677
 30
0.0
 10
4.5685345073
 20
4.7532853694
 30
0.0
 10
4.5395557714
 20
4.7377360293
 30
0.0
 10
4.5117888342
 20
4.7210531573
 30
0.0
 10
4.4766708058
 20
4.6975996901
 30
0.0
 10
4.4357636311
 20
4.6659252146
 30
0.0
 10
4.391275488
 20
4.6244323112
 30
0.0
 10
4.3516589099
 20
4.5802640988
 30
0.0
 10
4.3224856858
 20
4.5413940751
 30
0.0
 10
4.3015404512
 20
4.5094007242
 30
0.0
 10
4.2823124793
 20
4.4771316634
 30
0.0
 10
4.2610682144
 20
4.4357980506
 30
0.0
 10
4.2399518607
 20
4.3847663596
 30
0.0
 10
4.2232470745
 20
4.332742733
 30
0.0
 10
4.2108864129
 20
4.2799828176
 30
0.0
 10
4.2055054462
 20
4.244385377
 30
0.0
 10
4.2035352941
 20
4.2265694931
 30
0.0
  0
SPLINE
  5
316
100
AcDbEntity
  8
ALL_ASSEMBLY_MEMBERS
100
AcDbSpline
 62
9
  6
CONTINUOUS
 70
0
 71
3
 72
29
 73
25
 74
0
 42
0.0000001
 43
0.0000001
 44
0.0000000001
 40
0.0
 40
0.0
 40
0.0
 40
0.0
 40
0.0194987144
 40
0.0309469916
 40
0.0437025615
 40
0.0578596477
 40
0.0734870769
 40
0.0906266816
 40
0.1093096331
 40
0.1295554695
 40
0.1513710265
 40
0.1747631346
 40
0.1997301837
 40
0.2262650068
 40
0.2543593318
 40
0.3151647812
 40
0.3820094909
 40
0.4547137828
 40
0.5330617548
 40
0.6168092856
 40
0.7056837131
 40
0.79938765
 40
0.8976044804
 40
1.0
 40
1.0
 40
1.0
 40
1.0
 10
4.3193050086
 20
3.5518142353
 30
0.0
 10
4.3198989863
 20
3.5502878351
 30
0.0
 10
4.3213229597
 20
3.5480515053
 30
0.0
 10
4.3237925355
 20
3.5453366192
 30
0.0
 10
4.3261852546
 20
3.5431693792
 30
0.0
 10
4.329015098
 20
3.5409836406
 30
0.0
 10
4.3322824595
 20
3.5387747451
 30
0.0
 10
4.3359859756
 20
3.5365441363
 30
0.0
 10
4.3401233206
 20
3.5342911537
 30
0.0
 10
4.3446914688
 20
3.5320156814
 30
0.0
 10
4.3496881161
 20
3.5297197734
 30
0.0
 10
4.3551088181
 20
3.5274023403
 30
0.0
 10
4.360949814
 20
3.5250641549
 30
0.0
 10
4.3672068555
 20
3.5227064328
 30
0.0
 10
4.3763405935
 20
3.5194497571
 30
0.0
 10
4.3887688514
 20
3.5153576729
 30
0.0
 10
4.4048836231
 20
3.5104994498
 30
0.0
 10
4.4225157889
 20
3.5055838011
 30
0.0
 10
4.4416064231
 20
3.5006251108
 30
0.0
 10
4.4620906306
 20
3.4956391776
 30
0.0
 10
4.4838985445
 20
3.4906466922
 30
0.0
 10
4.5069557155
 20
3.4856732492
 30
0.0
 10
4.5311831802
 20
3.4807472634
 30
0.0
 10
4.547734702
 20
3.4775795323
 30
0.0
 10
4.5561915661
 20
3.4760101505
 30
0.0
  0
SPLINE
  5
317
100
AcDbEntity
  8
ALL_ASSEMBLY_MEMBERS
100
AcDbSpline
 62
9
  6
CONTINUOUS
 70
0
 71
3
 72
30
 73
26
 74
0
 42
0.0000001
 43
0.0000001
 44
0.0000000001
 40
0.0
 40
0.0
 40
0.0
 40
0.0
 40
0.0548653684
 40
0.1099886998
 40
0.1654880017
 40
0.2215213587
 40
0.2782727744
 40
0.306980128
 40
0.3359359831
 40
0.3946832673
 40
0.4547330372
 40
0.5163124756
 40
0.5796356425
 40
0.6120265518
 40
0.6449222017
 40
0.6783451275
 40
0.7122994617
 40
0.7467819573
 40
0.7817881705
 40
0.8172814577
 40
0.8532215421
 40
0.9261720774
 40
0.9445905786
 40
0.9630479341
 40
1.0
 40
1.0
 40
1.0
 40
1.0
 10
5.5442089366
 20
4.1924240074
 30
0.0
 10
5.5431027368
 20
4.2109895412
 30
0.0
 10
5.5393483271
 20
4.2481347763
 30
0.0
 10
5.52909368
 20
4.303349729
 30
0.0
 10
5.5141643222
 20
4.3579051824
 30
0.0
 10
5.4944954544
 20
4.4115234344
 30
0.0
 10
5.4741805884
 20
4.4550429406
 30
0.0
 10
5.4555336039
 20
4.4890629993
 30
0.0
 10
5.4350691392
 20
4.5228157777
 30
0.0
 10
5.4062830484
 20
4.5638903493
 30
0.0
 10
5.3667754603
 20
4.6106662306
 30
0.0
 10
5.3220315508
 20
4.6547106216
 30
0.0
 10
5.2805980441
 20
4.6884123924
 30
0.0
 10
5.2448657005
 20
4.7134145706
 30
0.0
 10
5.2165237402
 20
4.7312284413
 30
0.0
 10
5.1868618885
 20
4.7478575079
 30
0.0
 10
5.1559100423
 20
4.763195901
 30
0.0
 10
5.1237134382
 20
4.7771275735
 30
0.0
 10
5.0903395805
 20
4.7895286193
 30
0.0
 10
5.0558807894
 20
4.8002894833
 30
0.0
 10
5.0084260949
 20
4.8123394098
 30
0.0
 10
4.9657592249
 20
4.8195123039
 30
0.0
 10
4.9287043995
 20
4.8231309906
 30
0.0
 10
4.9037359716
 20
4.8248731507
 30
0.0
 10
4.8849478255
 20
4.8254007243
 30
0.0
 10
4.8724216811
 20
4.8254008779
 30
0.0
  0
SPLINE
  5
318
100
AcDbEntity
  8
ALL_ASSEMBLY_MEMBERS
100
AcDbSpline
 62
9
  6
CONTINUOUS
 70
0
 71
3
 72
30
 73
26
 74
0
 42
0.0000001
 43
0.0000001
 44
0.0000000001
 40
0.0
 40
0.0
 40
0.0
 40
0.0
 40
0.009270507
 40
0.0195299582
 40
0.0309632842
 40
0.0437089478
 40
0.0578586826
 40
0.073476224
 40
0.0906098204
 40
0.1092864435
 40
0.1295256439
 40
0.1513390821
 40
0.1747285273
 40
0.1996935441
 40
0.2543199112
 40
0.315128585
 40
0.3819783112
 40
0.4546885698
 40
0.4931760951
 40
0.5330449426
 40
0.6167995662
 40
0.7056793083
 40
0.7993871607
 40
0.8976055029
 40
1.0
 40
1.0
 40
1.0
 40
1.0
 10
4.3193134272
 20
4.8330554381
 30
0.0
 10
4.3195958564
 20
4.8337811137
 30
0.0
 10
4.3203377188
 20
4.8352545538
 30
0.0
 10
4.3218475242
 20
4.8373810762
 30
0.0
 10
4.3237988611
 20
4.8395243962
 30
0.0
 10
4.3261891956
 20
4.8416869983
 30
0.0
 10
4.3290182092
 20
4.8438709284
 30
0.0
 10
4.3322851119
 20
4.8460764346
 30
0.0
 10
4.3359875182
 20
4.8483050542
 30
0.0
 10
4.3401241559
 20
4.850555668
 30
0.0
 10
4.3446920493
 20
4.8528283995
 30
0.0
 10
4.3496878156
 20
4.8551234496
 30
0.0
 10
4.3551083223
 20
4.8574394138
 30
0.0
 10
4.3631401508
 20
4.8606527185
 30
0.0
 10
4.3742232302
 20
4.8646917679
 30
0.0
 10
4.3887678827
 20
4.869482273
 30
0.0
 10
4.4048831648
 20
4.874341515
 30
0.0
 10
4.419289928
 20
4.878359151
 30
0.0
 10
4.431556162
 20
4.8816085042
 30
0.0
 10
4.4447478324
 20
4.8849854495
 30
0.0
 10
4.4620913183
 20
4.8892092923
 30
0.0
 10
4.483899441
 20
4.8942035034
 30
0.0
 10
4.5069564501
 20
4.8991782213
 30
0.0
 10
4.531183546
 20
4.9041036877
 30
0.0
 10
4.5477348719
 20
4.9072696417
 30
0.0
 10
4.5561915661
 20
4.9088378644
 30
0.0
  0
SPLINE
  5
319
100
AcDbEntity
  8
ALL_ASSEMBLY_MEMBERS
100
AcDbSpline
 62
9
  6
CONTINUOUS
 70
0
 71
3
 72
30
 73
26
 74
0
 42
0.0000001
 43
0.0000001
 44
0.0000000001
 40
0.0
 40
0.0
 40
0.0
 40
0.0
 40
0.0369520501
 40
0.0554093896
 40
0.0738278714
 40
0.1467783809
 40
0.1827184684
 40
0.2182117626
 40
0.2532179705
 40
0.2877004543
 40
0.3216547794
 40
0.3550776884
 40
0.38797334
 40
0.4203642624
 40
0.4836874364
 40
0.5452668755
 40
0.6053166356
 40
0.6640639114
 40
0.6930197643
 40
0.7217271176
 40
0.7784785131
 40
0.8345118424
 40
0.8900111833
 40
0.9451346196
 40
1.0
 40
1.0
 40
1.0
 40
1.0
 10
4.8724216811
 20
3.559447137
 30
0.0
 10
4.8849478201
 20
3.5594472867
 30
0.0
 10
4.9037359555
 20
3.5599748548
 30
0.0
 10
4.928704366
 20
3.5617170118
 30
0.0
 10
4.9657591698
 20
3.5653357049
 30
0.0
 10
5.0084260258
 20
3.5725085911
 30
0.0
 10
5.0558807159
 20
3.5845585122
 30
0.0
 10
5.0903395101
 20
3.5953193704
 30
0.0
 10
5.123713366
 20
3.6077204109
 30
0.0
 10
5.1559099622
 20
3.6216520784
 30
0.0
 10
5.1868618002
 20
3.6369904587
 30
0.0
 10
5.2165236468
 20
3.6536195172
 30
0.0
 10
5.2448656075
 20
3.6714333855
 30
0.0
 10
5.2805979618
 20
3.6964355607
 30
0.0
 10
5.32203148
 20
3.7301373283
 30
0.0
 10
5.3667753941
 20
3.774181713
 30
0.0
 10
5.4062829855
 20
3.820957583
 30
0.0
 10
5.4350690796
 20
3.8620321437
 30
0.0
 10
5.4555335429
 20
3.8957849184
 30
0.0
 10
5.474180521
 20
3.9298049714
 30
0.0
 10
5.4944954064
 20
3.9733244489
 30
0.0
 10
5.5141643148
 20
4.0269426832
 30
0.0
 10
5.5290936574
 20
4.0814981847
 30
0.0
 10
5.5393481958
 20
4.136713211
 30
0.0
 10
5.5431026471
 20
4.1738584747
 30
0.0
 10
5.5442089296
 20
4.1924240074
 30
0.0
  0
SPLINE
  5
31A
100
AcDbEntity
  8
ALL_ASSEMBLY_MEMBERS
100
AcDbSpline
 62
9
  6
CONTINUOUS
 70
0
 71
3
 72
30
 73
26
 74
0
 42
0.0000001
 43
0.0000001
 44
0.0000000001
 40
0.0
 40
0.0
 40
0.0
 40
0.0
 40
0.0547199462
 40
0.1097685819
 40
0.1652582367
 40
0.2213384715
 40
0.2781852858
 40
0.3069554508
 40
0.3359826944
 40
0.394893646
 40
0.4551229143
 40
0.5168813429
 40
0.5803628396
 40
0.6128166104
 40
0.6457604608
 40
0.6792129555
 40
0.7131744517
 40
0.7476393864
 40
0.7825997085
 40
0.8180180196
 40
0.8538544776
 40
0.9265224065
 40
0.944856589
 40
0.9632264062
 40
1.0
 40
1.0
 40
1.0
 40
1.0
 10
4.2035352898
 20
4.1582785934
 30
0.0
 10
4.2055054347
 20
4.1404627064
 30
0.0
 10
4.2108863925
 20
4.1048652713
 30
0.0
 10
4.2232470506
 20
4.0521053651
 30
0.0
 10
4.2399518304
 20
4.0000817419
 30
0.0
 10
4.2610681822
 20
3.9490500408
 30
0.0
 10
4.2823124418
 20
3.9077164124
 30
0.0
 10
4.3015404158
 20
3.8754473469
 30
0.0
 10
4.3224856495
 20
3.8434539924
 30
0.0
 10
4.3516588719
 20
3.804583962
 30
0.0
 10
4.3912754478
 20
3.7604157445
 30
0.0
 10
4.4357635859
 20
3.718922841
 30
0.0
 10
4.4766707491
 20
3.6872483655
 30
0.0
 10
4.5117887679
 20
3.6637948974
 30
0.0
 10
4.5395557048
 20
3.6471120238
 30
0.0
 10
4.5685344452
 20
3.6315626782
 30
0.0
 10
4.5986933552
 20
3.6172427709
 30
0.0
 10
4.6299866043
 20
3.604257114
 30
0.0
 10
4.662348285
 20
3.5927163731
 30
0.0
 10
4.6956906252
 20
3.5827173879
 30
0.0
 10
4.7415065291
 20
3.5715403067
 30
0.0
 10
4.7826193292
 20
3.564896085
 30
0.0
 10
4.8182906774
 20
3.5615464307
 30
0.0
 10
4.8423079524
 20
3.5599349842
 30
0.0
 10
4.8603758383
 20
3.559447285
 30
0.0
 10
4.8724216811
 20
3.559447137
 30
0.0
  0
SPLINE
  5
31B
100
AcDbEntity
  8
ALL_ASSEMBLY_MEMBERS
100
AcDbSpline
 62
7
  6
CONTINUOUS
 70
0
 71
3
 72
15
 73
11
 74
0
 42
0.0000001
 43
0.0000001
 44
0.0000000001
 40
0.0
 40
0.0
 40
0.0
 40
0.0
 40
0.1249338682
 40
0.2498928817
 40
0.374898266
 40
0.4999490826
 40
0.6250183388
 40
0.750066026
 40
0.8750596063
 40
1.0
 40
1.0
 40
1.0
 40
1.0
 10
5.2637074163
 20
5.1963974964
 30
0.0
 10
5.2499648419
 20
5.1963169807
 30
0.0
 10
5.2224721323
 20
5.1965922722
 30
0.0
 10
5.1812637592
 20
5.1983382239
 30
0.0
 10
5.1401099743
 20
5.2012402766
 30
0.0
 10
5.0990103602
 20
5.2049325536
 30
0.0
 10
5.0579338823
 20
5.2089079819
 30
0.0
 10
5.0168330539
 20
5.2125738483
 30
0.0
 10
4.975669481
 20
5.2152954342
 30
0.0
 10
4.9481744714
 20
5.2160460547
 30
0.0
 10
4.9344309432
 20
5.2160460547
 30
0.0
  0
SPLINE
  5
31C
100
AcDbEntity
  8
ALL_ASSEMBLY_MEMBERS
100
AcDbSpline
 62
7
  6
CONTINUOUS
 70
0
 71
3
 72
14
 73
10
 74
0
 42
0.0000001
 43
0.0000001
 44
0.0000000001
 40
0.0
 40
0.0
 40
0.0
 40
0.0
 40
0.2501292875
 40
0.3752012356
 40
0.5002482063
 40
0.6252533682
 40
0.7502090382
 40
0.8751192968
 40
1.0
 40
1.0
 40
1.0
 40
1.0
 10
5.4969332862
 20
5.2160460545
 30
0.0
 10
5.4775120255
 20
5.2140411067
 30
0.0
 10
5.4484175068
 20
5.210676813
 30
0.0
 10
5.409622296
 20
5.2062411654
 30
0.0
 10
5.3805061435
 20
5.203130616
 30
0.0
 10
5.3513583152
 20
5.2004210123
 30
0.0
 10
5.3221726115
 20
5.1982823822
 30
0.0
 10
5.2929522792
 20
5.1968584474
 30
0.0
 10
5.2734551299
 20
5.1964545183
 30
0.0
 10
5.2637074163
 20
5.1963974964
 30
0.0
  0
SPLINE
  5
31D
100
AcDbEntity
  8
ALL_ASSEMBLY_MEMBERS
100
AcDbSpline
 62
9
  6
CONTINUOUS
 70
0
 71
3
 72
23
 73
19
 74
0
 42
0.0000001
 43
0.0000001
 44
0.0000000001
 40
0.0
 40
0.0
 40
0.0
 40
0.0
 40
0.0647991394
 40
0.131551081
 40
0.1997111884
 40
0.2687996378
 40
0.3383403576
 40
0.407823346
 40
0.4767350403
 40
0.5445796014
 40
0.6108773188
 40
0.6751802659
 40
0.7370704259
 40
0.7961819489
 40
0.8522037019
 40
0.9049272206
 40
0.9542168972
 40
1.0
 40
1.0
 40
1.0
 40
1.0
 10
5.1886517962
 20
4.9088378644
 30
0.0
 10
5.1876712363
 20
4.915400826
 30
0.0
 10
5.1860700563
 20
4.9287851934
 30
0.0
 10
5.1847269608
 20
4.94920136
 30
0.0
 10
5.1844239822
 20
4.9700989208
 30
0.0
 10
5.1851595414
 20
4.9912709092
 30
0.0
 10
5.1869297211
 20
5.0125174093
 30
0.0
 10
5.1897129171
 20
5.0336368462
 30
0.0
 10
5.1934881249
 20
5.0544253849
 30
0.0
 10
5.198213786
 20
5.0746842805
 30
0.0
 10
5.2038493775
 20
5.0942190212
 30
0.0
 10
5.2103360787
 20
5.1128443393
 30
0.0
 10
5.2176172787
 20
5.1303806688
 30
0.0
 10
5.2256173855
 20
5.1466630234
 30
0.0
 10
5.2342663818
 20
5.161535964
 30
0.0
 10
5.243481924
 20
5.1748631009
 30
0.0
 10
5.2531804048
 20
5.1865099459
 30
0.0
 10
5.2601584326
 20
5.1933338423
 30
0.0
 10
5.2637074663
 20
5.1963974974
 30
0.0
  0
SPLINE
  5
31E
100
AcDbEntity
  8
ALL_ASSEMBLY_MEMBERS
100
AcDbSpline
 62
7
  6
CONTINUOUS
 70
0
 71
3
 72
14
 73
10
 74
0
 42
0.0000001
 43
0.0000001
 44
0.0000000001
 40
0.0
 40
0.0
 40
0.0
 40
0.0
 40
0.1248802429
 40
0.2497899111
 40
0.3747450857
 40
0.4997500119
 40
0.6247971004
 40
0.7498694628
 40
1.0
 40
1.0
 40
1.0
 40
1.0
 10
4.4810801007
 20
5.1963978027
 30
0.0
 10
4.471334657
 20
5.196451185
 30
0.0
 10
4.4518419456
 20
5.1968484862
 30
0.0
 10
4.4226281324
 20
5.1982653045
 30
0.0
 10
4.3934490299
 20
5.2004003544
 30
0.0
 10
4.3643079878
 20
5.2031094942
 30
0.0
 10
4.3351989119
 20
5.2062228411
 30
0.0
 10
4.2964133969
 20
5.2106650306
 30
0.0
 10
4.2673263979
 20
5.2140364646
 30
0.0
 10
4.2479100761
 20
5.2160462216
 30
0.0
  0
SPLINE
  5
31F
100
AcDbEntity
  8
ALL_ASSEMBLY_MEMBERS
100
AcDbSpline
 62
9
  6
CONTINUOUS
 70
0
 71
3
 72
15
 73
11
 74
0
 42
0.0000001
 43
0.0000001
 44
0.0000000001
 40
0.0
 40
0.0
 40
0.0
 40
0.0
 40
0.1133637752
 40
0.231223281
 40
0.3530725051
 40
0.4783259929
 40
0.6063388884
 40
0.7364251628
 40
0.8678786393
 40
1.0
 40
1.0
 40
1.0
 40
1.0
 10
4.5561915661
 20
4.9088378644
 30
0.0
 10
4.5679995887
 20
4.911027554
 30
0.0
 10
4.5921553383
 20
4.9151139735
 30
0.0
 10
4.629189357
 20
4.920380334
 30
0.0
 10
4.6675849039
 20
4.9249442133
 30
0.0
 10
4.7071366749
 20
4.928817371
 30
0.0
 10
4.7476263488
 20
4.931985911
 30
0.0
 10
4.788826041
 20
4.9344033041
 30
0.0
 10
4.8305021446
 20
4.9359823384
 30
0.0
 10
4.858425237
 20
4.9363810502
 30
0.0
 10
4.8724216811
 20
4.9363810473
 30
0.0
  0
SPLINE
  5
320
100
AcDbEntity
  8
ALL_ASSEMBLY_MEMBERS
100
AcDbSpline
 62
9
  6
CONTINUOUS
 70
0
 71
3
 72
32
 73
28
 74
0
 42
0.0000001
 43
0.0000001
 44
0.0000000001
 40
0.0
 40
0.0
 40
0.0
 40
0.0
 40
0.0343091668
 40
0.068597983
 40
0.0857126204
 40
0.1027952075
 40
0.1368470508
 40
0.1707272883
 40
0.2044054263
 40
0.2378629851
 40
0.2710766906
 40
0.3367051497
 40
0.4012635095
 40
0.4647630384
 40
0.4961305737
 40
0.5272515271
 40
0.558135904
 40
0.588789898
 40
0.6192235387
 40
0.6494505922
 40
0.7093170326
 40
0.7684834158
 40
0.7978388701
 40
0.8270527543
 40
0.8850915928
 40
0.942710761
 40
1.0
 40
1.0
 40
1.0
 40
1.0
 10
4.8724216811
 20
4.9042654795
 30
0.0
 10
4.8615451111
 20
4.9042648674
 30
0.0
 10
4.8397937977
 20
4.9036379484
 30
0.0
 10
4.8127058459
 20
4.9013162118
 30
0.0
 10
4.7911693928
 20
4.8985467224
 30
0.0
 10
4.769794144
 20
4.8951814151
 30
0.0
 10
4.7433546327
 20
4.8898792939
 30
0.0
 10
4.7121485404
 20
4.881830067
 30
0.0
 10
4.6815984336
 20
4.8721781092
 30
0.0
 10
4.6517891075
 20
4.8610267299
 30
0.0
 10
4.6132863227
 20
4.8443585832
 30
0.0
 10
4.5673133929
 20
4.8202994252
 30
0.0
 10
4.5157154668
 20
4.786869605
 30
0.0
 10
4.4758246756
 20
4.7557262832
 30
0.0
 10
4.445944072
 20
4.7292103472
 30
0.0
 10
4.4246212785
 20
4.7086664745
 30
0.0
 10
4.404297712
 20
4.6874470604
 30
0.0
 10
4.3849685964
 20
4.6656085072
 30
0.0
 10
4.3666302256
 20
4.6432001479
 30
0.0
 10
4.3435722614
 20
4.6127230814
 30
0.0
 10
4.3171608588
 20
4.5734062566
 30
0.0
 10
4.2938354338
 20
4.5325048364
 30
0.0
 10
4.2771212301
 20
4.4991244549
 30
0.0
 10
4.2617530884
 20
4.4654964156
 30
0.0
 10
4.244879823
 20
4.4227368276
 30
0.0
 10
4.2283505711
 20
4.370417838
 30
0.0
 10
4.2197894146
 20
4.3349752388
 30
0.0
 10
4.2161329434
 20
4.3171854931
 30
0.0
  0
SPLINE
  5
321
100
AcDbEntity
  8
ALL_ASSEMBLY_MEMBERS
100
AcDbSpline
 62
7
  6
CONTINUOUS
 70
0
 71
3
 72
15
 73
11
 74
0
 42
0.0000001
 43
0.0000001
 44
0.0000000001
 40
0.0
 40
0.0
 40
0.0
 40
0.0
 40
0.1249405983
 40
0.2499342852
 40
0.3749817976
 40
0.5000508021
 40
0.6251014369
 40
0.7501068429
 40
0.8750659947
 40
1.0
 40
1.0
 40
1.0
 40
1.0
 10
4.8104004885
 20
5.2160460547
 30
0.0
 10
4.7966551549
 20
5.2160460547
 30
0.0
 10
4.769156553
 20
5.2152958218
 30
0.0
 10
4.7279874626
 20
5.2125766312
 30
0.0
 10
4.6868809445
 20
5.2089147685
 30
0.0
 10
4.645798693
 20
5.2049441042
 30
0.0
 10
4.604693397
 20
5.2012558248
 30
0.0
 10
4.5635341987
 20
5.198354951
 30
0.0
 10
4.5223206644
 20
5.1966050959
 30
0.0
 10
4.4948245021
 20
5.1963223949
 30
0.0
 10
4.4810801007
 20
5.1963978027
 30
0.0
  0
SPLINE
  5
322
100
AcDbEntity
  8
ALL_ASSEMBLY_MEMBERS
100
AcDbSpline
 62
9
  6
CONTINUOUS
 70
0
 71
3
 72
23
 73
19
 74
0
 42
0.0000001
 43
0.0000001
 44
0.0000000001
 40
0.0
 40
0.0
 40
0.0
 40
0.0
 40
0.0647922563
 40
0.1315410212
 40
0.1997011575
 40
0.2687923009
 40
0.3383378195
 40
0.4078271145
 40
0.4767460032
 40
0.5445979982
 40
0.6109027152
 40
0.6752115292
 40
0.7371056916
 40
0.7962185999
 40
0.8522383296
 40
0.9049556089
 40
0.9542339985
 40
1.0
 40
1.0
 40
1.0
 40
1.0
 10
4.5561915661
 20
4.9088378644
 30
0.0
 10
4.5571673259
 20
4.9154005382
 30
0.0
 10
4.5587591911
 20
4.9287843734
 30
0.0
 10
4.5600894525
 20
4.9491994415
 30
0.0
 10
4.5603807026
 20
4.9700961947
 30
0.0
 10
4.5596346334
 20
4.9912676457
 30
0.0
 10
4.5578552679
 20
5.0125138471
 30
0.0
 10
4.5550642955
 20
5.0336331938
 30
0.0
 10
4.5512828085
 20
5.0544218153
 30
0.0
 10
4.5465524267
 20
5.0746809321
 30
0.0
 10
4.5409137343
 20
5.0942159968
 30
0.0
 10
4.5344255873
 20
5.1128417048
 30
0.0
 10
4.5271446311
 20
5.1303784583
 30
0.0
 10
4.5191464655
 20
5.1466612359
 30
0.0
 10
4.5105011142
 20
5.1615345747
 30
0.0
 10
4.5012909071
 20
5.1748620616
 30
0.0
 10
4.4915994203
 20
5.186509205
 30
0.0
 10
4.4846267893
 20
5.1933338117
 30
0.0
 10
4.4810806336
 20
5.1963978091
 30
0.0
  0
SPLINE
  5
323
100
AcDbEntity
  8
ALL_ASSEMBLY_MEMBERS
100
AcDbSpline
 62
7
  6
CONTINUOUS
 70
0
 71
3
 72
15
 73
11
 74
0
 42
0.0000001
 43
0.0000001
 44
0.0000000001
 40
0.0
 40
0.0
 40
0.0
 40
0.0
 40
0.1249405129
 40
0.2499342341
 40
0.374981933
 40
0.5000512051
 40
0.6251020154
 40
0.7501073698
 40
0.875066241
 40
1.0
 40
1.0
 40
1.0
 40
1.0
 10
4.9344299333
 20
3.1688019602
 30
0.0
 10
4.9481733199
 20
3.1688019602
 30
0.0
 10
4.9756680496
 20
3.1695526187
 30
0.0
 10
5.0168311754
 20
3.1722744142
 30
0.0
 10
5.0579315238
 20
3.1759406541
 30
0.0
 10
5.0990074956
 20
3.1799165158
 30
0.0
 10
5.140106609
 20
3.1836091598
 30
0.0
 10
5.1812599043
 20
3.1865113261
 30
0.0
 10
5.2224678046
 20
3.1882568818
 30
0.0
 10
5.2499601894
 20
3.1885315086
 30
0.0
 10
5.2637025947
 20
3.188450547
 30
0.0
  0
SPLINE
  5
324
100
AcDbEntity
  8
ALL_ASSEMBLY_MEMBERS
100
AcDbSpline
 62
7
  6
CONTINUOUS
 70
0
 71
3
 72
14
 73
10
 74
0
 42
0.0000001
 43
0.0000001
 44
0.0000000001
 40
0.0
 40
0.0
 40
0.0
 40
0.0
 40
0.1248807404
 40
0.2497910442
 40
0.3747467451
 40
0.4997519171
 40
0.6247988772
 40
0.7498707996
 40
1.0
 40
1.0
 40
1.0
 40
1.0
 10
5.2637025947
 20
3.188450547
 30
0.0
 10
5.2734505049
 20
3.188393212
 30
0.0
 10
5.2929480384
 20
3.1879887465
 30
0.0
 10
5.3221689424
 20
3.1865643624
 30
0.0
 10
5.3513552271
 20
3.1844255602
 30
0.0
 10
5.3805036508
 20
3.1817160004
 30
0.0
 10
5.4096204122
 20
3.1786056421
 30
0.0
 10
5.4484164468
 20
3.1741703908
 30
0.0
 10
5.4775115996
 20
3.1708065323
 30
0.0
 10
5.4969332862
 20
3.1688019603
 30
0.0
  0
ENDSEC
  0
SECTION
  2
OBJECTS
  0
DICTIONARY
  5
C
100
AcDbDictionary
280
0
281
1
  3
ACAD_GROUP
350
D
  3
ACAD_MLINESTYLE
350
17
  3
ACAD_LAYOUT
350
1A
  3
ACAD_PLOTSETTINGS
350
19
  3
ACAD_PLOTSTYLENAME
350
E
  0
DICTIONARY
  5
D
102
{ACAD_REACTORS
330
C
102
}
100
AcDbDictionary
280
0
281
1
  0
ACDBDICTIONARYWDFLT
  5
E
102
{ACAD_REACTORS
330
C
102
}
100
AcDbDictionary
281
1
  3
Normal
350
F
100
AcDbDictionaryWithDefault
340
F
  0
DICTIONARY
  5
17
102
{ACAD_REACTORS
330
C
102
}
100
AcDbDictionary
280
0
281
1
  3
Standard
350
18
  0
DICTIONARY
  5
19
102
{ACAD_REACTORS
330
C
102
}
100
AcDbDictionary
281
1
  0
DICTIONARY
  5
1A
102
{ACAD_REACTORS
330
C
102
}
100
AcDbDictionary
281
1
  3
Model
350
325
  3
Layout1
350
326
  0
ACDBPLACEHOLDER
  5
F
102
{ACAD_REACTORS
330
E
102
}
  0
MLINESTYLE
  5
18
102
{ACAD_REACTORS
330
17
102
}
100
AcDbMlineStyle
  2
STANDARD
 70
0
  3

 62
256
 51
90.0
 52
90.0
 71
2
 49
0.5
 62
256
  6
BYLAYER
 49
-0.5
 62
256
  6
BYLAYER
  0
LAYOUT
  5
325
102
{ACAD_REACTORS
330
1A
102
}
100
AcDbPlotSettings
  1

  2
none_device
  4
ANSI_A_(11.00_x_8.50_Inches)
  6

 40
0.0
 41
0.0
 42
0.0
 43
0.0
 44
279.4
 45
215.9
 46
0.0
 47
0.0
 48
0.0
 49
0.0
140
0.0
141
0.0
142
1.0
143
1.0
 70
1024
 72
0
 73
0
 74
0
  7

 75
0
147
1.0
148
0.0
149
0.0
100
AcDbLayout
  1
Model
 70
0
 71
0
 10
0.0
 20
0.0
 11
11.0
 21
8.5
 12
0.0
 22
0.0
 32
0.0
 14
0.0
 24
0.0
 34
0.0
 15
0.0
 25
0.0
 35
0.0
146
0.0
 13
0.0
 23
0.0
 33
0.0
 16
1.0
 26
0.0
 36
0.0
 17
0.0
 27
1.0
 37
0.0
 76
0
330
215
345
0
346
0
  0
LAYOUT
  5
326
102
{ACAD_REACTORS
330
1A
102
}
100
AcDbPlotSettings
  1

  2
none_device
  4
ANSI_A_(11.00_x_8.50_Inches)
  6

 40
0.0
 41
0.0
 42
0.0
 43
0.0
 44
279.4
 45
215.9
 46
0.0
 47
0.0
 48
0.0
 49
0.0
140
0.0
141
0.0
142
1.0
143
1.0
 70
0
 72
0
 73
0
 74
0
  7

 75
0
147
1.0
148
0.0
149
0.0
100
AcDbLayout
  1
Layout1
 70
0
 71
1
 10
0.0
 20
0.0
 11
11.0
 21
8.5
 12
0.0
 22
0.0
 32
0.0
 14
0.0
 24
0.0
 34
0.0
 15
0.0
 25
0.0
 35
0.0
146
0.0
 13
0.0
 23
0.0
 33
0.0
 16
1.0
 26
0.0
 36
0.0
 17
0.0
 27
1.0
 37
0.0
 76
0
330
216
345
0
346
0
  0
ENDSEC
  0
EOF
