999
DXF file: 1000b_RIGHT.dxf
999
Pro/ENGINEER 2018400 by Parametric Technology Corporation
  0
SECTION
  2
HEADER
  9
$ACADVER
  1
AC1027
  9
$DWGCODEPAGE
  3
ANSI_1252
  9
$EXTMAX
 10
11.0
 20
8.5
 30
0.0
  9
$EXTMIN
 10
0.0
 20
0.0
 30
0.0
  9
$LIMMIN
 10
0.0
 20
0.0
  9
$LIMMAX
 10
11.0
 20
8.5
  9
$VIEWCTR
 10
5.5
 20
4.25
  9
$VIEWSIZE
 40
8.5
  9
$CLAYER
  8
0
  9
$LTSCALE
 40
0.605
  9
$CELTYPE
  6
BYLAYER
  9
$DIMSCALE
 40
1.0
  9
$DIMASZ
 40
0.1
  9
$DIMEXO
 40
0.0625
  9
$DIMDLI
 40
0.418
  9
$DIMEXE
 40
0.125
  9
$DIMCEN
 40
0.099
  9
$DIMLFAC
 40
1.0
  9
$DIMBLK
  1
_FILLED
  9
$DIMALT
 70
1
  9
$DIMALTD
 70
2
  9
$DIMALTTD
 70
2
  9
$DIMALTF
 40
25.4
  9
$DIMTXT
 40
0.08
  9
$DIMTOL
 70
1
  9
$DIMLIM
 70
0
  9
$DIMTFAC
 40
1.0
  9
$DIMTP
 40
0.001
  9
$DIMTM
 40
0.001
  9
$DIMGAP
 40
0.09
  9
$DIMDSEP
 70
46
  9
$AUNITS
 70
0
  9
$PDMODE
 70
3
  9
$PDSIZE
 40
0.3125
  9
$HANDSEED
  5
396
  9
$TILEMODE
 70
1
  9
$MEASUREMENT
 70
0
  9
$INSUNITS
 70
1
  0
ENDSEC
  0
SECTION
  2
CLASSES
  0
CLASS
  1
ACDBDICTIONARYWDFLT
  2
AcDbDictionaryWithDefault
  3
AutoCAD 2000
 90
0
 91
1
280
0
281
0
  0
CLASS
  1
ACDBPLACEHOLDER
  2
AcDbPlaceHolder
  3
AutoCAD 2000
 90
0
 91
1
280
0
281
0
  0
CLASS
  1
LAYOUT
  2
AcDbLayout
  3
AutoCAD 2000
 90
0
 91
0
280
0
281
0
  0
ENDSEC
  0
SECTION
  2
TABLES
  0
TABLE
  2
VPORT
  5
8
100
AcDbSymbolTable
 70
2
  0
VPORT
  5
1F4
100
AcDbSymbolTableRecord
100
AcDbViewportTableRecord
  2
*ACTIVE
 70
0
 10
0.0
 20
0.0
 11
1.0
 21
1.0
 12
5.5
 22
4.25
 13
0.0
 23
0.0
 14
1.0
 24
1.0
 15
0.0
 25
0.0
 16
0.0
 26
0.0
 36
1.0
 17
0.0
 27
0.0
 37
0.0
 40
8.5
 41
1.2941176471
 42
50.0
 43
0.0
 44
0.0
 50
0.0
 51
0.0
 71
0
 72
100
 73
1
 74
1
 75
0
 76
0
 77
0
 78
0
  0
ENDTAB
  0
TABLE
  2
LTYPE
  5
5
100
AcDbSymbolTable
 70
6
  0
LTYPE
  5
14
100
AcDbSymbolTableRecord
100
AcDbLinetypeTableRecord
  2
BYBLOCK
 70
0
  3

 72
65
 73
0
 40
0.0
  0
LTYPE
  5
15
100
AcDbSymbolTableRecord
100
AcDbLinetypeTableRecord
  2
BYLAYER
 70
0
  3

 72
65
 73
0
 40
0.0
  0
LTYPE
  5
16
100
AcDbSymbolTableRecord
100
AcDbLinetypeTableRecord
  2
CONTINUOUS
 70
64
  3
Solid line
 72
65
 73
0
 40
0.0
  0
LTYPE
  5
1F5
100
AcDbSymbolTableRecord
100
AcDbLinetypeTableRecord
  2
CENTER
 70
64
  3
____ _ ____ _ ____ _ ____ _ ____ _ ____ _ ____
 72
65
 73
4
 40
0.6
 49
0.375
 74
0
 49
-0.075
 74
0
 49
0.075
 74
0
 49
-0.075
 74
0
  0
LTYPE
  5
1F6
100
AcDbSymbolTableRecord
100
AcDbLinetypeTableRecord
  2
HIDDEN
 70
64
  3
- - - - - - - - - - - - - - - - - - - -
 72
65
 73
2
 40
0.2
 49
0.1
 74
0
 49
-0.1
 74
0
  0
LTYPE
  5
1F7
100
AcDbSymbolTableRecord
100
AcDbLinetypeTableRecord
  2
PHANTOM
 70
64
  3
_____ _ _ _____ _ _ _____ _ _ _____
 72
65
 73
6
 40
0.8
 49
0.45
 74
0
 49
-0.05
 74
0
 49
0.1
 74
0
 49
-0.05
 74
0
 49
0.1
 74
0
 49
-0.05
 74
0
  0
LTYPE
  5
1F8
100
AcDbSymbolTableRecord
100
AcDbLinetypeTableRecord
  2
DOT
 70
64
  3
. . . . . . . . . . . . . . . . . . . .
 72
65
 73
2
 40
0.2
 49
0.1
 74
0
 49
-0.1
 74
0
  0
LTYPE
  5
1F9
100
AcDbSymbolTableRecord
100
AcDbLinetypeTableRecord
  2
DASHED
 70
64
  3
- - - - - - - - - - - - - - - - - - - -
 72
65
 73
2
 40
0.2
 49
0.1
 74
0
 49
-0.1
 74
0
  0
ENDTAB
  0
TABLE
  2
LAYER
  5
2
100
AcDbSymbolTable
 70
36
  0
LAYER
  5
10
100
AcDbSymbolTableRecord
100
AcDbLayerTableRecord
  2
0
 70
0
 62
7
  6
CONTINUOUS
370
-3
390
F
  0
LAYER
  5
1FA
100
AcDbSymbolTableRecord
100
AcDbLayerTableRecord
  2
DEFAULT_1
 70
0
 62
7
  6
CENTER
370
-3
390
F
  0
LAYER
  5
1FB
100
AcDbSymbolTableRecord
100
AcDbLayerTableRecord
  2
DEFAULT_2
 70
0
 62
8
  6
HIDDEN
370
-3
390
F
  0
LAYER
  5
1FC
100
AcDbSymbolTableRecord
100
AcDbLayerTableRecord
  2
DEFAULT_3
 70
0
 62
7
  6
PHANTOM
370
-3
390
F
  0
LAYER
  5
1FD
100
AcDbSymbolTableRecord
100
AcDbLayerTableRecord
  2
DEFAULT_COORDINATE_SYSTEM
 70
0
 62
7
  6
CONTINUOUS
370
-3
390
F
  0
LAYER
  5
1FE
100
AcDbSymbolTableRecord
100
AcDbLayerTableRecord
  2
DEFAULT_DATUM_AXES
 70
0
 62
7
  6
CONTINUOUS
370
-3
390
F
  0
LAYER
  5
1FF
100
AcDbSymbolTableRecord
100
AcDbLayerTableRecord
  2
DEFAULT_DATUM_PLANES
 70
0
 62
7
  6
CONTINUOUS
370
-3
390
F
  0
ENDTAB
  0
TABLE
  2
STYLE
  5
3
100
AcDbSymbolTable
 70
1
  0
STYLE
  5
11
100
AcDbSymbolTableRecord
100
AcDbTextStyleTableRecord
  2
STANDARD
 70
0
 40
0.0
 41
0.8
 50
0.0
 71
0
 42
0.2
  3
txt
  4

  0
STYLE
  5
200
100
AcDbSymbolTableRecord
100
AcDbTextStyleTableRecord
  2
TEXTSTYLE_1
 70
0
 40
0.0
 41
0.8
 50
0.0
 71
0
 42
0.2
  3
gdt
  4

  0
ENDTAB
  0
TABLE
  2
VIEW
  5
6
100
AcDbSymbolTable
 70
0
  0
ENDTAB
  0
TABLE
  2
UCS
  5
7
100
AcDbSymbolTable
 70
0
  0
ENDTAB
  0
TABLE
  2
APPID
  5
9
100
AcDbSymbolTable
 70
1
  0
APPID
  5
201
100
AcDbSymbolTableRecord
100
AcDbRegAppTableRecord
  2
ACAD
 70
0
  0
ENDTAB
  0
TABLE
  2
BLOCK_RECORD
  5
1
100
AcDbSymbolTable
 70
0
  0
BLOCK_RECORD
  5
202
100
AcDbSymbolTableRecord
100
AcDbBlockTableRecord
  2
*Model_Space
  0
BLOCK_RECORD
  5
203
100
AcDbSymbolTableRecord
100
AcDbBlockTableRecord
  2
*Paper_Space
  0
BLOCK_RECORD
  5
204
100
AcDbSymbolTableRecord
100
AcDbBlockTableRecord
  2
_FILLED
  0
ENDTAB
  0
TABLE
  2
DIMSTYLE
  5
A
100
AcDbSymbolTable
 70
1
100
AcDbDimStyleTable
 71
0
  0
DIMSTYLE
105
205
100
AcDbSymbolTableRecord
100
AcDbDimStyleTableRecord
  2
STANDARD
 70
0
  3

  4

 40
1.0
 41
0.1
 42
0.0625
 43
0.38
 44
0.125
 45
0.0
 46
0.0
 47
0.001
 48
0.001
140
0.08
141
0.09
142
0.0
143
25.4
144
1.0
145
0.0
146
1.0
147
0.09
 71
1.0
 72
0.0
 73
1
 74
1
 75
0
 76
0
 77
0
 78
4
 79
1
170
1
171
2
172
0
173
0
174
0
175
0
176
0
177
0
178
0
270
2
179
3
271
3
272
3
273
2
274
2
275
0
280
0
281
0
282
0
283
1
284
4
285
0
286
0
287
3
288
0
340
11
278
46
341
204
342
204
343
204
344
204
  0
ENDTAB
  0
ENDSEC
  0
SECTION
  2
BLOCKS
  0
BLOCK
  5
20
100
AcDbEntity
  8
0
100
AcDbBlockBegin
  2
*Model_Space
 70
0
 10
0.0
 20
0.0
 30
0.0
  3
*Model_Space
  1

  0
ENDBLK
  5
21
100
AcDbEntity
  8
0
100
AcDbBlockEnd
  0
BLOCK
  5
1C
100
AcDbEntity
  8
0
100
AcDbBlockBegin
  2
*Paper_Space
 70
0
 10
0.0
 20
0.0
 30
0.0
  3
*Paper_Space
  1

  0
ENDBLK
  5
1D
100
AcDbEntity
  8
0
100
AcDbBlockEnd
  0
BLOCK
  5
206
100
AcDbEntity
  8
0
100
AcDbBlockBegin
  2
_FILLED
 70
64
 10
0.0
 20
0.0
  3
_FILLED
  1

  0
SOLID
  5
207
100
AcDbEntity
  8
0
  6
BYBLOCK
 62
0
100
AcDbTrace
 10
0.0
 20
0.0
 11
-1.0
 21
0.2
 12
-1.0
 22
-0.2
 13
-1.0
 23
-0.2
  0
ENDBLK
  5
208
100
AcDbEntity
  8
0
  6
BYBLOCK
 62
0
100
AcDbBlockEnd
  0
ENDSEC
  0
SECTION
  2
ENTITIES
  0
MTEXT
  5
209
100
AcDbEntity
  8
0
100
AcDbMText
 62
2
  6
CONTINUOUS
  7
STANDARD
 71
3
 72
1
 10
5.8206128906
 20
1.0688470497
 30
0.0
 11
1.0
 21
0.0
 31
0.0
 73
2
 44
0.9
  1
SCALE  .500
 40
0.08
 41
0.704
  0
LINE
  5
20A
100
AcDbEntity
  8
0
100
AcDbLine
 62
7
  6
CONTINUOUS
 10
0.0
 20
0.0
 11
0.0
 21
8.5
  0
LINE
  5
20B
100
AcDbEntity
  8
0
100
AcDbLine
 62
7
  6
CONTINUOUS
 10
0.0
 20
0.0
 11
11.0
 21
0.0
  0
LINE
  5
20C
100
AcDbEntity
  8
0
100
AcDbLine
 62
7
  6
CONTINUOUS
 10
0.0
 20
8.5
 11
11.0
 21
8.5
  0
LINE
  5
20D
100
AcDbEntity
  8
0
100
AcDbLine
 62
7
  6
CONTINUOUS
 10
11.0
 20
0.0
 11
11.0
 21
8.5
  0
LINE
  5
20E
100
AcDbEntity
  8
0
100
AcDbLine
 62
7
  6
CONTINUOUS
 10
6.4714859475
 20
2.0631482919
 11
5.5519963651
 21
2.0631482919
  0
LINE
  5
20F
100
AcDbEntity
  8
0
100
AcDbLine
 62
7
  6
CONTINUOUS
 10
5.5324860464
 20
2.0826482919
 11
6.4909860464
 21
2.0826482919
  0
LINE
  5
210
100
AcDbEntity
  8
0
100
AcDbLine
 62
7
  6
CONTINUOUS
 10
5.5324860464
 20
2.1101407058
 11
6.4909860464
 21
2.1101407058
  0
LINE
  5
211
100
AcDbEntity
  8
0
100
AcDbLine
 62
7
  6
CONTINUOUS
 10
5.5470486607
 20
2.1290052817
 11
6.4764234322
 21
2.1290052817
  0
LINE
  5
212
100
AcDbEntity
  8
0
100
AcDbLine
 62
7
  6
CONTINUOUS
 10
3.14482665
 20
5.2245906709
 11
3.1270405253
 21
5.4846482919
  0
LINE
  5
213
100
AcDbEntity
  8
0
100
AcDbLine
 62
7
  6
CONTINUOUS
 10
3.1592905253
 20
5.89387041
 11
3.1592905253
 21
5.5786482919
  0
LINE
  5
214
100
AcDbEntity
  8
0
100
AcDbLine
 62
7
  6
CONTINUOUS
 10
5.7320722564
 20
2.4231482919
 11
5.7217360464
 21
2.4231482919
  0
LINE
  5
215
100
AcDbEntity
  8
0
100
AcDbLine
 62
7
  6
CONTINUOUS
 10
6.2913998364
 20
2.4231482919
 11
6.3017360464
 21
2.4231482919
  0
LINE
  5
216
100
AcDbEntity
  8
0
100
AcDbLine
 62
7
  6
CONTINUOUS
 10
5.7282134469
 20
2.439972983
 11
6.2952586459
 21
2.439972983
  0
LINE
  5
217
100
AcDbEntity
  8
0
100
AcDbLine
 62
7
  6
CONTINUOUS
 10
3.5342905253
 20
5.89387041
 11
3.5342905253
 21
5.5786482919
  0
LINE
  5
218
100
AcDbEntity
  8
0
100
AcDbLine
 62
7
  6
CONTINUOUS
 10
3.5487544005
 20
5.2245906709
 11
3.5665405253
 21
5.4846482919
  0
LINE
  5
219
100
AcDbEntity
  8
0
100
AcDbLine
 62
7
  6
CONTINUOUS
 10
4.121424338
 20
6.3049859316
 11
4.2496818917
 21
6.6573706644
  0
LINE
  5
21A
100
AcDbEntity
  8
0
100
AcDbLine
 62
7
  6
CONTINUOUS
 10
6.3446192773
 20
2.6256885294
 11
6.6283820187
 21
2.6256885294
  0
LINE
  5
21B
100
AcDbEntity
  8
0
100
AcDbLine
 62
7
  6
CONTINUOUS
 10
5.6474060726
 20
2.7440044601
 11
6.3760660203
 21
2.7440044601
  0
LINE
  5
21C
100
AcDbEntity
  8
0
100
AcDbLine
 62
7
  6
CONTINUOUS
 10
6.3241991918
 20
3.0150627128
 11
5.699272901
 21
3.0150627128
  0
LINE
  5
21D
100
AcDbEntity
  8
0
100
AcDbLine
 62
7
  6
CONTINUOUS
 10
6.3168800744
 20
3.0256885294
 11
6.6283820187
 21
3.0256885294
  0
LINE
  5
21E
100
AcDbEntity
  8
0
100
AcDbLine
 62
7
  6
CONTINUOUS
 10
6.2873260464
 20
3.1267220191
 11
5.7361460464
 21
3.1267220191
  0
LINE
  5
21F
100
AcDbEntity
  8
0
100
AcDbLine
 62
7
  6
CONTINUOUS
 10
5.736146361
 20
3.2441482919
 11
6.2873257319
 21
3.2441482919
  0
LINE
  5
220
100
AcDbEntity
  8
0
100
AcDbLine
 62
7
  6
CONTINUOUS
 10
6.1450068294
 20
3.3196586013
 11
6.0057123056
 21
3.3196586013
  0
LINE
  5
221
100
AcDbEntity
  8
0
100
AcDbLine
 62
7
  6
CONTINUOUS
 10
5.835876614
 20
3.3196586013
 11
5.7402146758
 21
3.3196586013
  0
LINE
  5
222
100
AcDbEntity
  8
0
100
AcDbLine
 62
7
  6
CONTINUOUS
 10
6.2772336763
 20
3.3196586013
 11
6.3208662618
 21
3.3196586013
  0
LINE
  5
223
100
AcDbEntity
  8
0
100
AcDbLine
 62
7
  6
CONTINUOUS
 10
6.6676400311
 20
3.3211482919
 11
7.2376399026
 21
3.3211482919
  0
LINE
  5
224
100
AcDbEntity
  8
0
100
AcDbLine
 62
7
  6
CONTINUOUS
 10
6.8369137274
 20
3.3796050067
 11
6.7532935417
 21
3.3796050067
  0
LINE
  5
225
100
AcDbEntity
  8
0
100
AcDbLine
 62
7
  6
CONTINUOUS
 10
6.6375673022
 20
3.3796050067
 11
6.6338899669
 21
3.3796050067
  0
LINE
  5
226
100
AcDbEntity
  8
0
100
AcDbLine
 62
7
  6
CONTINUOUS
 10
7.0683662063
 20
3.3796050067
 11
7.1519863921
 21
3.3796050067
  0
LINE
  5
227
100
AcDbEntity
  8
0
100
AcDbLine
 62
7
  6
CONTINUOUS
 10
7.2677126315
 20
3.3796050067
 11
7.2713899669
 21
3.3796050067
  0
LINE
  5
228
100
AcDbEntity
  8
0
100
AcDbLine
 62
7
  6
CONTINUOUS
 10
5.749544648
 20
3.4356482919
 11
6.2739274448
 21
3.4356482919
  0
LINE
  5
229
100
AcDbEntity
  8
0
100
AcDbLine
 62
7
  6
CONTINUOUS
 10
6.8369137274
 20
3.5526915772
 11
6.7532935417
 21
3.5526915772
  0
LINE
  5
22A
100
AcDbEntity
  8
0
100
AcDbLine
 62
7
  6
CONTINUOUS
 10
6.6375673022
 20
3.5526915772
 11
6.6338899669
 21
3.5526915772
  0
LINE
  5
22B
100
AcDbEntity
  8
0
100
AcDbLine
 62
7
  6
CONTINUOUS
 10
7.0683662063
 20
3.5526915772
 11
7.1519863921
 21
3.5526915772
  0
LINE
  5
22C
100
AcDbEntity
  8
0
100
AcDbLine
 62
7
  6
CONTINUOUS
 10
7.2677126315
 20
3.5526915772
 11
7.2713899669
 21
3.5526915772
  0
LINE
  5
22D
100
AcDbEntity
  8
0
100
AcDbLine
 62
7
  6
CONTINUOUS
 10
6.6676400311
 20
3.6111482919
 11
7.2376399026
 21
3.6111482919
  0
LINE
  5
22E
100
AcDbEntity
  8
0
100
AcDbLine
 62
7
  6
CONTINUOUS
 10
6.7341369018
 20
3.6311482919
 11
7.1711430319
 21
3.6311482919
  0
LINE
  5
22F
100
AcDbEntity
  8
0
100
AcDbLine
 62
7
  6
CONTINUOUS
 10
5.1608991588
 20
5.9266480375
 11
5.2891567126
 21
6.2790327703
  0
LINE
  5
230
100
AcDbEntity
  8
0
100
AcDbLine
 62
7
  6
CONTINUOUS
 10
6.7341364669
 20
3.8246482919
 11
7.1711434669
 21
3.8246482919
  0
LINE
  5
231
100
AcDbEntity
  8
0
100
AcDbLine
 62
7
  6
CONTINUOUS
 10
5.8031684204
 20
3.8771624978
 11
6.2203036725
 21
3.8771624978
  0
LINE
  5
232
100
AcDbEntity
  8
0
100
AcDbLine
 62
7
  6
CONTINUOUS
 10
5.8279861885
 20
3.8991482919
 11
6.1954859043
 21
3.8991482919
  0
LINE
  5
233
100
AcDbEntity
  8
0
100
AcDbLine
 62
7
  6
CONTINUOUS
 10
6.3712395793
 20
4.3037153129
 11
6.1994305701
 21
4.2608723298
  0
LINE
  5
234
100
AcDbEntity
  8
0
100
AcDbLine
 62
7
  6
CONTINUOUS
 10
6.394497179
 20
4.3522296891
 11
6.2170508339
 21
4.3079809574
  0
LINE
  5
235
100
AcDbEntity
  8
0
100
AcDbLine
 62
7
  6
CONTINUOUS
 10
6.1624860464
 20
4.0441482919
 11
5.8609860464
 21
4.0441482919
  0
LINE
  5
236
100
AcDbEntity
  8
0
100
AcDbLine
 62
7
  6
CONTINUOUS
 10
5.6133777221
 20
4.0741482919
 11
6.4100943707
 21
4.0741482919
  0
LINE
  5
237
100
AcDbEntity
  8
0
100
AcDbLine
 62
7
  6
CONTINUOUS
 10
5.8333043617
 20
4.0791482919
 11
6.1901677312
 21
4.0791482919
  0
LINE
  5
238
100
AcDbEntity
  8
0
100
AcDbLine
 62
7
  6
CONTINUOUS
 10
5.6487330612
 20
4.1241482919
 11
5.891902022
 21
4.1241482919
  0
LINE
  5
239
100
AcDbEntity
  8
0
100
AcDbLine
 62
7
  6
CONTINUOUS
 10
6.1315578663
 20
4.1241482919
 11
6.3747390317
 21
4.1241482919
  0
LINE
  5
23A
100
AcDbEntity
  8
0
100
AcDbLine
 62
7
  6
CONTINUOUS
 10
5.8079860464
 20
4.4991482919
 11
5.7992510365
 21
4.4968077531
  0
LINE
  5
23B
100
AcDbEntity
  8
0
100
AcDbLine
 62
7
  6
CONTINUOUS
 10
5.7367360464
 20
4.3516482919
 11
6.2867360464
 21
4.3516482919
  0
LINE
  5
23C
100
AcDbEntity
  8
0
100
AcDbLine
 62
7
  6
CONTINUOUS
 10
5.7417360464
 20
4.3566482919
 11
6.2817360462
 21
4.3566482919
  0
LINE
  5
23D
100
AcDbEntity
  8
0
100
AcDbLine
 62
7
  6
CONTINUOUS
 10
5.7404860464
 20
4.3641482919
 11
6.2829860464
 21
4.3641482919
  0
LINE
  5
23E
100
AcDbEntity
  8
0
100
AcDbLine
 62
7
  6
CONTINUOUS
 10
5.7329860464
 20
4.3716482919
 11
6.2904860464
 21
4.3716482919
  0
LINE
  5
23F
100
AcDbEntity
  8
0
100
AcDbLine
 62
7
  6
CONTINUOUS
 10
5.7329860464
 20
4.4146533945
 11
6.2904860464
 21
4.4146533945
  0
LINE
  5
240
100
AcDbEntity
  8
0
100
AcDbLine
 62
7
  6
CONTINUOUS
 10
5.823812004
 20
4.2609295636
 11
5.6522325136
 21
4.3037153129
  0
LINE
  5
241
100
AcDbEntity
  8
0
100
AcDbLine
 62
7
  6
CONTINUOUS
 10
5.6474060726
 20
2.7440044601
 11
5.7282134469
 21
2.439972983
  0
LINE
  5
242
100
AcDbEntity
  8
0
100
AcDbLine
 62
7
  6
CONTINUOUS
 10
5.4387905253
 20
5.8776482919
 11
5.4387905253
 21
6.2526482919
  0
LINE
  5
243
100
AcDbEntity
  8
0
100
AcDbLine
 62
7
  6
CONTINUOUS
 10
5.9833151319
 20
4.5653175401
 11
5.9833621949
 21
4.5653219886
  0
LINE
  5
244
100
AcDbEntity
  8
0
100
AcDbLine
 62
7
  6
CONTINUOUS
 10
5.7529860464
 20
4.4391482919
 11
6.2704860464
 21
4.4391482919
  0
LINE
  5
245
100
AcDbEntity
  8
0
100
AcDbLine
 62
7
  6
CONTINUOUS
 10
5.7992510365
 20
4.4968077531
 11
6.2242210564
 21
4.4968077531
  0
LINE
  5
246
100
AcDbEntity
  8
0
100
AcDbLine
 62
7
  6
CONTINUOUS
 10
5.8079860464
 20
4.4991482919
 11
6.2154860464
 21
4.4991482919
  0
LINE
  5
247
100
AcDbEntity
  8
0
100
AcDbLine
 62
7
  6
CONTINUOUS
 10
6.6344246351
 20
4.6353126567
 11
7.2708552986
 21
4.6353126567
  0
LINE
  5
248
100
AcDbEntity
  8
0
100
AcDbLine
 62
7
  6
CONTINUOUS
 10
5.8060773356
 20
4.3080667195
 11
5.6289749136
 21
4.3522296892
  0
LINE
  5
249
100
AcDbEntity
  8
0
100
AcDbLine
 62
7
  6
CONTINUOUS
 10
5.5324860464
 20
2.1101407058
 11
5.5324860464
 21
2.0826482919
  0
LINE
  5
24A
100
AcDbEntity
  8
0
100
AcDbLine
 62
7
  6
CONTINUOUS
 10
6.6476399669
 20
4.6737479462
 11
7.2576399669
 21
4.6737479462
  0
LINE
  5
24B
100
AcDbEntity
  8
0
100
AcDbLine
 62
7
  6
CONTINUOUS
 10
6.2154860464
 20
4.4991482919
 11
6.2242210564
 21
4.4968077531
  0
LINE
  5
24C
100
AcDbEntity
  8
0
100
AcDbLine
 62
7
  6
CONTINUOUS
 10
5.7217360464
 20
2.4643436998
 11
5.7217360464
 21
2.4231482919
  0
LINE
  5
24D
100
AcDbEntity
  8
0
100
AcDbLine
 62
7
  6
CONTINUOUS
 10
5.7329860464
 20
4.4146533945
 11
5.7329860464
 21
4.3716482919
  0
LINE
  5
24E
100
AcDbEntity
  8
0
100
AcDbLine
 62
7
  6
CONTINUOUS
 10
5.7361460464
 20
3.2441482919
 11
5.7361460464
 21
3.1267220191
  0
LINE
  5
24F
100
AcDbEntity
  8
0
100
AcDbLine
 62
7
  6
CONTINUOUS
 10
5.7367360464
 20
4.3516482919
 11
5.7367360464
 21
4.3253579413
  0
LINE
  5
250
100
AcDbEntity
  8
0
100
AcDbLine
 62
7
  6
CONTINUOUS
 10
5.7892360464
 20
4.3641482919
 11
5.7892360464
 21
4.3566482919
  0
LINE
  5
251
100
AcDbEntity
  8
0
100
AcDbLine
 62
7
  6
CONTINUOUS
 10
5.8609860464
 20
4.0441482919
 11
5.8609860464
 21
3.8991482919
  0
LINE
  5
252
100
AcDbEntity
  8
0
100
AcDbLine
 62
7
  6
CONTINUOUS
 10
5.8031684204
 20
3.8771624978
 11
5.749544648
 21
3.4356482919
  0
LINE
  5
253
100
AcDbEntity
  8
0
100
AcDbLine
 62
7
  6
CONTINUOUS
 10
6.6476399669
 20
4.9281482919
 11
7.2576399669
 21
4.9281482919
  0
LINE
  5
254
100
AcDbEntity
  8
0
100
AcDbLine
 62
7
  6
CONTINUOUS
 10
6.6576399669
 20
4.9381482919
 11
7.2476399669
 21
4.9381482919
  0
LINE
  5
255
100
AcDbEntity
  8
0
100
AcDbLine
 62
7
  6
CONTINUOUS
 10
6.6738897707
 20
5.0011472983
 11
7.2313901631
 21
5.0011472983
  0
LWPOLYLINE
  5
256
100
AcDbEntity
  8
0
100
AcDbPolyline
 62
7
  6
CONTINUOUS
 90
25
 70
0
 10
6.7400219166
 20
3.259195377
 10
6.7409177132
 20
3.257800793
 10
6.7418818238
 20
3.2562022612
 10
6.7427985111
 20
3.2545740244
 10
6.743666794
 20
3.2529175159
 10
6.7444857722
 20
3.2512341266
 10
6.7452543174
 20
3.2495258899
 10
6.7459716388
 20
3.2477943296
 10
6.7466370047
 20
3.246040962
 10
6.7472495426
 20
3.244267887
 10
6.7478086308
 20
3.2424767795
 10
6.7483137487
 20
3.2406691706
 10
6.7487643238
 20
3.2388469976
 10
6.749159916
 20
3.2370119908
 10
6.7495001724
 20
3.2351657305
 10
6.7497847602
 20
3.2333099551
 10
6.7500134113
 20
3.2314463518
 10
6.7501859104
 20
3.2295766035
 10
6.7503020894
 20
3.2277024542
 10
6.7503618384
 20
3.2258256047
 10
6.7503650988
 20
3.223947755
 10
6.7503118649
 20
3.2220706532
 10
6.7502021859
 20
3.2201960165
 10
6.7500361604
 20
3.2183255298
 10
6.749931875
 20
3.2173907975
  0
LINE
  5
257
100
AcDbEntity
  8
0
100
AcDbLine
 62
7
  6
CONTINUOUS
 10
5.9767360464
 20
4.5509124855
 11
5.9767360464
 21
4.5591061541
  0
LINE
  5
258
100
AcDbEntity
  8
0
100
AcDbLine
 62
7
  6
CONTINUOUS
 10
5.9767360464
 20
4.5352312561
 11
5.9767360464
 21
4.5493044994
  0
LINE
  5
259
100
AcDbEntity
  8
0
100
AcDbLine
 62
7
  6
CONTINUOUS
 10
5.9867360464
 20
4.5649586675
 11
5.9867360464
 21
4.5644558699
  0
LINE
  5
25A
100
AcDbEntity
  8
0
100
AcDbLine
 62
7
  6
CONTINUOUS
 10
5.9867360464
 20
4.5408561232
 11
5.9867360464
 21
4.536328957
  0
LINE
  5
25B
100
AcDbEntity
  8
0
100
AcDbLine
 62
7
  6
CONTINUOUS
 10
5.9867360464
 20
4.549820179
 11
5.9867360464
 21
4.5503485409
  0
LINE
  5
25C
100
AcDbEntity
  8
0
100
AcDbLine
 62
7
  6
CONTINUOUS
 10
5.9867360464
 20
4.5596048227
 11
5.9867360464
 21
4.5601158153
  0
LINE
  5
25D
100
AcDbEntity
  8
0
100
AcDbLine
 62
7
  6
CONTINUOUS
 10
5.993369296
 20
4.5489691589
 11
5.993369296
 21
4.5494990874
  0
LINE
  5
25E
100
AcDbEntity
  8
0
100
AcDbLine
 62
7
  6
CONTINUOUS
 10
5.9986602864
 20
4.5585448051
 11
5.9986602864
 21
4.5590576241
  0
LINE
  5
25F
100
AcDbEntity
  8
0
100
AcDbLine
 62
7
  6
CONTINUOUS
 10
6.0004860464
 20
4.5268419326
 11
6.0004860464
 21
4.5274161243
  0
LINE
  5
260
100
AcDbEntity
  8
0
100
AcDbLine
 62
7
  6
CONTINUOUS
 10
6.0254860464
 20
4.5267236963
 11
6.0254860464
 21
4.5272981443
  0
LINE
  5
261
100
AcDbEntity
  8
0
100
AcDbLine
 62
7
  6
CONTINUOUS
 10
6.0273118064
 20
4.5584238116
 11
6.0273118064
 21
4.5589368399
  0
LINE
  5
262
100
AcDbEntity
  8
0
100
AcDbLine
 62
7
  6
CONTINUOUS
 10
6.0326027968
 20
4.5487979244
 11
6.0326027968
 21
4.5493281693
  0
LINE
  5
263
100
AcDbEntity
  8
0
100
AcDbLine
 62
7
  6
CONTINUOUS
 10
6.0367360464
 20
4.5644558699
 11
6.0367360464
 21
4.5649586675
  0
LINE
  5
264
100
AcDbEntity
  8
0
100
AcDbLine
 62
7
  6
CONTINUOUS
 10
6.0392360464
 20
4.5360892112
 11
6.0392360464
 21
4.5406202797
  0
LINE
  5
265
100
AcDbEntity
  8
0
100
AcDbLine
 62
7
  6
CONTINUOUS
 10
6.0392360464
 20
4.549591699
 11
6.0392360464
 21
4.5501204806
  0
LINE
  5
266
100
AcDbEntity
  8
0
100
AcDbLine
 62
7
  6
CONTINUOUS
 10
6.0392360464
 20
4.5593838725
 11
6.0392360464
 21
4.5598952448
  0
LINE
  5
267
100
AcDbEntity
  8
0
100
AcDbLine
 62
7
  6
CONTINUOUS
 10
6.0467360464
 20
4.5493044994
 11
6.0467360464
 21
4.5352312561
  0
LINE
  5
268
100
AcDbEntity
  8
0
100
AcDbLine
 62
7
  6
CONTINUOUS
 10
6.0467360464
 20
4.5591061541
 11
6.0467360464
 21
4.5509124855
  0
LINE
  5
269
100
AcDbEntity
  8
0
100
AcDbLine
 62
7
  6
CONTINUOUS
 10
3.5332905253
 20
5.2101482919
 11
3.1602905253
 21
5.2101482919
  0
LINE
  5
26A
100
AcDbEntity
  8
0
100
AcDbLine
 62
7
  6
CONTINUOUS
 10
3.5487544005
 20
5.2245906709
 11
3.14482665
 21
5.2245906709
  0
LINE
  5
26B
100
AcDbEntity
  8
0
100
AcDbLine
 62
7
  6
CONTINUOUS
 10
6.6338899669
 20
3.3796050067
 11
6.6676399669
 21
3.3211482919
  0
LINE
  5
26C
100
AcDbEntity
  8
0
100
AcDbLine
 62
7
  6
CONTINUOUS
 10
6.3865536875
 20
2.8364563991
 11
6.386554274
 21
2.8364390753
  0
LINE
  5
26D
100
AcDbEntity
  8
0
100
AcDbLine
 62
7
  6
CONTINUOUS
 10
6.1624860464
 20
4.0441482919
 11
6.1624860464
 21
3.8991482919
  0
LINE
  5
26E
100
AcDbEntity
  8
0
100
AcDbLine
 62
7
  6
CONTINUOUS
 10
6.2342360464
 20
4.3641482919
 11
6.2342360464
 21
4.3566482919
  0
LINE
  5
26F
100
AcDbEntity
  8
0
100
AcDbLine
 62
7
  6
CONTINUOUS
 10
6.2737905253
 20
6.2846482919
 11
6.2737905253
 21
5.8456482919
  0
LINE
  5
270
100
AcDbEntity
  8
0
100
AcDbLine
 62
7
  6
CONTINUOUS
 10
6.2867360464
 20
4.3516482919
 11
6.2867360464
 21
4.3253579413
  0
LINE
  5
271
100
AcDbEntity
  8
0
100
AcDbLine
 62
7
  6
CONTINUOUS
 10
6.2873260464
 20
3.2441482919
 11
6.2873260464
 21
3.1267220191
  0
LINE
  5
272
100
AcDbEntity
  8
0
100
AcDbLine
 62
7
  6
CONTINUOUS
 10
6.2904860464
 20
4.4146533945
 11
6.2904860464
 21
4.3716482919
  0
LINE
  5
273
100
AcDbEntity
  8
0
100
AcDbLine
 62
7
  6
CONTINUOUS
 10
6.3017360464
 20
2.4643436998
 11
6.3017360464
 21
2.4231482919
  0
LINE
  5
274
100
AcDbEntity
  8
0
100
AcDbLine
 62
7
  6
CONTINUOUS
 10
3.5665405253
 20
5.4846482919
 11
3.1270405253
 21
5.4846482919
  0
LINE
  5
275
100
AcDbEntity
  8
0
100
AcDbLine
 62
7
  6
CONTINUOUS
 10
6.2203036725
 20
3.8771624978
 11
6.2739274448
 21
3.4356482919
  0
LINE
  5
276
100
AcDbEntity
  8
0
100
AcDbLine
 62
7
  6
CONTINUOUS
 10
6.3497592617
 20
6.3021482919
 11
6.3497592617
 21
5.8281482919
  0
LINE
  5
277
100
AcDbEntity
  8
0
100
AcDbLine
 62
7
  6
CONTINUOUS
 10
6.4737905253
 20
6.3021482919
 11
6.4737905253
 21
5.8281482919
  0
LINE
  5
278
100
AcDbEntity
  8
0
100
AcDbLine
 62
7
  6
CONTINUOUS
 10
6.4909860464
 20
2.1101407058
 11
6.4909860464
 21
2.0826482919
  0
LINE
  5
279
100
AcDbEntity
  8
0
100
AcDbLine
 62
7
  6
CONTINUOUS
 10
6.4997276488
 20
6.2885232919
 11
6.4997276488
 21
5.8417732919
  0
LINE
  5
27A
100
AcDbEntity
  8
0
100
AcDbLine
 62
7
  6
CONTINUOUS
 10
3.5665405253
 20
5.5786482919
 11
3.1270405253
 21
5.5786482919
  0
LINE
  5
27B
100
AcDbEntity
  8
0
100
AcDbLine
 62
7
  6
CONTINUOUS
 10
6.6738897707
 20
5.6256482919
 11
7.2313901631
 21
5.6256482919
  0
LINE
  5
27C
100
AcDbEntity
  8
0
100
AcDbLine
 62
7
  6
CONTINUOUS
 10
6.6738899669
 20
5.6881482919
 11
7.2313899669
 21
5.6881482919
  0
LINE
  5
27D
100
AcDbEntity
  8
0
100
AcDbLine
 62
7
  6
CONTINUOUS
 10
7.2254312953
 20
5.6946482919
 11
6.6798486385
 21
5.6946482919
  0
LINE
  5
27E
100
AcDbEntity
  8
0
100
AcDbLine
 62
7
  6
CONTINUOUS
 10
6.6338899669
 20
3.5526915772
 11
6.6338899669
 21
3.3796050067
  0
LINE
  5
27F
100
AcDbEntity
  8
0
100
AcDbLine
 62
7
  6
CONTINUOUS
 10
6.6375673022
 20
3.5526915772
 11
6.6375673022
 21
3.3796050067
  0
LINE
  5
280
100
AcDbEntity
  8
0
100
AcDbLine
 62
7
  6
CONTINUOUS
 10
6.6476399669
 20
4.6737479462
 11
6.6476399669
 21
4.9281482919
  0
LINE
  5
281
100
AcDbEntity
  8
0
100
AcDbLine
 62
7
  6
CONTINUOUS
 10
6.7341364669
 20
3.6311482919
 11
6.7341364669
 21
4.3871482919
  0
LINE
  5
282
100
AcDbEntity
  8
0
100
AcDbLine
 62
7
  6
CONTINUOUS
 10
6.7508899669
 20
3.6311482919
 11
6.7508899669
 21
3.6111482919
  0
LINE
  5
283
100
AcDbEntity
  8
0
100
AcDbLine
 62
7
  6
CONTINUOUS
 10
6.7532935417
 20
3.5526915772
 11
6.7532935417
 21
3.3796050067
  0
LINE
  5
284
100
AcDbEntity
  8
0
100
AcDbLine
 62
7
  6
CONTINUOUS
 10
6.3828696519
 20
2.7762509131
 11
6.3828580446
 21
2.7761772158
  0
LINE
  5
285
100
AcDbEntity
  8
0
100
AcDbLine
 62
7
  6
CONTINUOUS
 10
6.4737905253
 20
5.8281482919
 11
6.3497592617
 21
5.8281482919
  0
LINE
  5
286
100
AcDbEntity
  8
0
100
AcDbLine
 62
7
  6
CONTINUOUS
 10
6.2737905253
 20
5.8776482919
 11
5.4387905253
 21
5.8776482919
  0
LINE
  5
287
100
AcDbEntity
  8
0
100
AcDbLine
 62
7
  6
CONTINUOUS
 10
3.5342905253
 20
5.89387041
 11
3.1592905253
 21
5.89387041
  0
LINE
  5
288
100
AcDbEntity
  8
0
100
AcDbLine
 62
7
  6
CONTINUOUS
 10
5.1608991588
 20
5.9266480375
 11
4.121424338
 21
6.3049859316
  0
LINE
  5
289
100
AcDbEntity
  8
0
100
AcDbLine
 62
7
  6
CONTINUOUS
 10
7.2376399669
 20
3.6111482919
 11
7.2713899669
 21
3.5526915772
  0
LINE
  5
28A
100
AcDbEntity
  8
0
100
AcDbLine
 62
7
  6
CONTINUOUS
 10
6.7818899669
 20
5.6946482919
 11
6.7818899669
 21
5.6881482919
  0
LINE
  5
28B
100
AcDbEntity
  8
0
100
AcDbLine
 62
7
  6
CONTINUOUS
 10
6.7901399669
 20
6.4976482919
 11
6.7901399669
 21
6.6099319504
  0
LINE
  5
28C
100
AcDbEntity
  8
0
100
AcDbLine
 62
7
  6
CONTINUOUS
 10
6.7948127999
 20
6.4976482919
 11
6.7948127999
 21
6.5916482919
  0
LINE
  5
28D
100
AcDbEntity
  8
0
100
AcDbLine
 62
7
  6
CONTINUOUS
 10
6.8131399669
 20
6.4976482919
 11
6.8131399669
 21
6.4936482919
  0
LINE
  5
28E
100
AcDbEntity
  8
0
100
AcDbLine
 62
7
  6
CONTINUOUS
 10
6.8369137274
 20
3.5526915772
 11
6.8369137274
 21
3.3796050067
  0
LINE
  5
28F
100
AcDbEntity
  8
0
100
AcDbLine
 62
7
  6
CONTINUOUS
 10
6.9479671338
 20
6.4976482919
 11
6.9479671338
 21
6.5916482919
  0
LINE
  5
290
100
AcDbEntity
  8
0
100
AcDbLine
 62
7
  6
CONTINUOUS
 10
6.9573127999
 20
6.4976482919
 11
6.9573127999
 21
6.5916482919
  0
LINE
  5
291
100
AcDbEntity
  8
0
100
AcDbLine
 62
7
  6
CONTINUOUS
 10
6.3760660203
 20
2.7440044601
 11
6.2952586459
 21
2.439972983
  0
LINE
  5
292
100
AcDbEntity
  8
0
100
AcDbLine
 62
7
  6
CONTINUOUS
 10
6.6676399669
 20
3.6111482919
 11
6.6338899669
 21
3.5526915772
  0
LINE
  5
293
100
AcDbEntity
  8
0
100
AcDbLine
 62
7
  6
CONTINUOUS
 10
7.0683662063
 20
3.5526915772
 11
7.0683662063
 21
3.3796050067
  0
LINE
  5
294
100
AcDbEntity
  8
0
100
AcDbLine
 62
7
  6
CONTINUOUS
 10
7.0921399669
 20
6.4976482919
 11
7.0921399669
 21
6.4936482919
  0
LINE
  5
295
100
AcDbEntity
  8
0
100
AcDbLine
 62
7
  6
CONTINUOUS
 10
7.1104671338
 20
6.4976482919
 11
7.1104671338
 21
6.5916482919
  0
LINE
  5
296
100
AcDbEntity
  8
0
100
AcDbLine
 62
7
  6
CONTINUOUS
 10
7.1151399669
 20
6.4976482919
 11
7.1151399669
 21
6.6099319504
  0
LINE
  5
297
100
AcDbEntity
  8
0
100
AcDbLine
 62
7
  6
CONTINUOUS
 10
7.1233899669
 20
5.6946482919
 11
7.1233899669
 21
5.6881482919
  0
LINE
  5
298
100
AcDbEntity
  8
0
100
AcDbLine
 62
7
  6
CONTINUOUS
 10
7.1519863921
 20
3.5526915772
 11
7.1519863921
 21
3.3796050067
  0
LINE
  5
299
100
AcDbEntity
  8
0
100
AcDbLine
 62
7
  6
CONTINUOUS
 10
7.1543899669
 20
3.6311482919
 11
7.1543899669
 21
3.6111482919
  0
LINE
  5
29A
100
AcDbEntity
  8
0
100
AcDbLine
 62
7
  6
CONTINUOUS
 10
7.1711434669
 20
3.6311482919
 11
7.1711434669
 21
4.3871482919
  0
LINE
  5
29B
100
AcDbEntity
  8
0
100
AcDbLine
 62
7
  6
CONTINUOUS
 10
6.2737905253
 20
6.2526482919
 11
5.4387905253
 21
6.2526482919
  0
LINE
  5
29C
100
AcDbEntity
  8
0
100
AcDbLine
 62
7
  6
CONTINUOUS
 10
6.4737905253
 20
6.3021482919
 11
6.3497592617
 21
6.3021482919
  0
LINE
  5
29D
100
AcDbEntity
  8
0
100
AcDbLine
 62
7
  6
CONTINUOUS
 10
5.2891567126
 20
6.2790327703
 11
4.2496818917
 21
6.6573706644
  0
LINE
  5
29E
100
AcDbEntity
  8
0
100
AcDbLine
 62
7
  6
CONTINUOUS
 10
7.2576399669
 20
4.6737479462
 11
7.2576399669
 21
4.9281482919
  0
LINE
  5
29F
100
AcDbEntity
  8
0
100
AcDbLine
 62
7
  6
CONTINUOUS
 10
7.2677126315
 20
3.5526915772
 11
7.2677126315
 21
3.3796050067
  0
LINE
  5
2A0
100
AcDbEntity
  8
0
100
AcDbLine
 62
7
  6
CONTINUOUS
 10
7.2713899669
 20
3.5526915772
 11
7.2713899669
 21
3.3796050067
  0
LWPOLYLINE
  5
2A1
100
AcDbEntity
  8
0
100
AcDbPolyline
 62
7
  6
CONTINUOUS
 90
19
 70
0
 10
7.1516160995
 20
3.2229820545
 10
7.1516706971
 20
3.2239155639
 10
7.1518218252
 20
3.2257802766
 10
7.1520286984
 20
3.2276396157
 10
7.1522911298
 20
3.2294919147
 10
7.1526088831
 20
3.231335514
 10
7.1529816723
 20
3.2331687625
 10
7.1534091623
 20
3.2349900178
 10
7.1538909687
 20
3.2367976476
 10
7.1544266584
 20
3.2385900319
 10
7.1550157505
 20
3.240365566
 10
7.1556577154
 20
3.2421226579
 10
7.1563519753
 20
3.2438597301
 10
7.1570979137
 20
3.2455752425
 10
7.1578948543
 20
3.2472676418
 10
7.1587420548
 20
3.2489353614
 10
7.1596387588
 20
3.2505769257
 10
7.1605841488
 20
3.2521908506
 10
7.1615773108
 20
3.2537755991
  0
LINE
  5
2A2
100
AcDbEntity
  8
0
100
AcDbLine
 62
7
  6
CONTINUOUS
 10
7.1196399669
 20
6.4936482919
 11
6.7856399669
 21
6.4936482919
  0
LINE
  5
2A3
100
AcDbEntity
  8
0
100
AcDbLine
 62
7
  6
CONTINUOUS
 10
6.7901399669
 20
6.4976482919
 11
7.1151399669
 21
6.4976482919
  0
LINE
  5
2A4
100
AcDbEntity
  8
0
100
AcDbLine
 62
7
  6
CONTINUOUS
 10
7.2713899669
 20
3.3796050067
 11
7.2376399669
 21
3.3211482919
  0
LWPOLYLINE
  5
2A5
100
AcDbEntity
  8
0
100
AcDbPolyline
 62
7
  6
CONTINUOUS
 90
3
 70
0
 10
7.1615773832
 20
3.2537756867
 10
7.1626174104
 20
3.2553298397
 10
7.1628886944
 20
3.2557192231
  0
LINE
  5
2A6
100
AcDbEntity
  8
0
100
AcDbLine
 62
7
  6
CONTINUOUS
 10
6.7901399669
 20
6.5916482919
 11
6.7948127999
 21
6.5916482919
  0
LINE
  5
2A7
100
AcDbEntity
  8
0
100
AcDbLine
 62
7
  6
CONTINUOUS
 10
6.9479671338
 20
6.5916482919
 11
6.9573127999
 21
6.5916482919
  0
LINE
  5
2A8
100
AcDbEntity
  8
0
100
AcDbLine
 62
7
  6
CONTINUOUS
 10
7.1104671338
 20
6.5916482919
 11
7.1151399669
 21
6.5916482919
  0
LINE
  5
2A9
100
AcDbEntity
  8
0
100
AcDbLine
 62
7
  6
CONTINUOUS
 10
6.8199909732
 20
6.6601466743
 11
7.0852889606
 21
6.6601466743
  0
LINE
  5
2AA
100
AcDbEntity
  8
0
100
AcDbLine
 62
7
  6
CONTINUOUS
 10
6.9393900778
 20
6.7481482919
 11
6.9658898559
 21
6.7481482919
  0
ARC
  5
2AB
100
AcDbEntity
  8
0
100
AcDbCircle
 62
7
  6
CONTINUOUS
 10
5.3864481051
 20
2.0952108033
 40
0.469
100
AcDbArc
 50
42.1247806502
 51
44.365023331
  0
ARC
  5
2AC
100
AcDbEntity
  8
0
100
AcDbCircle
 62
7
  6
CONTINUOUS
 10
5.4827360464
 20
2.3747284748
 40
0.254
100
AcDbArc
 50
284.6669095294
 51
14.8843096077
  0
ARC
  5
2AD
100
AcDbEntity
  8
0
100
AcDbCircle
 62
7
  6
CONTINUOUS
 10
5.5167553157
 20
3.4639215434
 40
0.2345
100
AcDbArc
 50
324.602372359
 51
353.0751017558
  0
ARC
  5
2AE
100
AcDbEntity
  8
0
100
AcDbCircle
 62
7
  6
CONTINUOUS
 10
5.5486460464
 20
3.1267220191
 40
0.1875
100
AcDbArc
 50
323.450553286
 51
360.0
  0
ARC
  5
2AF
100
AcDbEntity
  8
0
100
AcDbCircle
 62
7
  6
CONTINUOUS
 10
5.6133675944
 20
4.289708347
 40
0.064439946
100
AcDbArc
 50
75.9836101989
 51
89.9892886648
  0
ARC
  5
2B0
100
AcDbEntity
  8
0
100
AcDbCircle
 62
7
  6
CONTINUOUS
 10
5.5519860464
 20
2.0826482919
 40
0.0195
100
AcDbArc
 50
180.0
 51
270.0
  0
ARC
  5
2B1
100
AcDbEntity
  8
0
100
AcDbCircle
 62
7
  6
CONTINUOUS
 10
5.5519860464
 20
2.1101407058
 40
0.0195
100
AcDbArc
 50
104.6669095294
 51
180.0
  0
ARC
  5
2B2
100
AcDbEntity
  8
0
100
AcDbCircle
 62
7
  6
CONTINUOUS
 10
5.4387905253
 20
6.6901482919
 40
0.8125
100
AcDbArc
 50
250.0
 51
270.0
  0
ARC
  5
2B3
100
AcDbEntity
  8
0
100
AcDbCircle
 62
7
  6
CONTINUOUS
 10
3.9717905253
 20
5.89387041
 40
0.8125
100
AcDbArc
 50
70.0
 51
180.0
  0
ARC
  5
2B4
100
AcDbEntity
  8
0
100
AcDbCircle
 62
7
  6
CONTINUOUS
 10
5.4387905253
 20
6.6901482919
 40
0.4375
100
AcDbArc
 50
250.0
 51
270.0
  0
ARC
  5
2B5
100
AcDbEntity
  8
0
100
AcDbCircle
 62
7
  6
CONTINUOUS
 10
3.9717905253
 20
5.89387041
 40
0.4375
100
AcDbArc
 50
70.0
 51
180.0
  0
ARC
  5
2B6
100
AcDbEntity
  8
0
100
AcDbCircle
 62
7
  6
CONTINUOUS
 10
3.5665405253
 20
5.5316482919
 40
0.047
100
AcDbArc
 50
270.0
 51
90.0
  0
ARC
  5
2B7
100
AcDbEntity
  8
0
100
AcDbCircle
 62
7
  6
CONTINUOUS
 10
3.1270405253
 20
5.5316482919
 40
0.047
100
AcDbArc
 50
90.0
 51
270.0
  0
ARC
  5
2B8
100
AcDbEntity
  8
0
100
AcDbCircle
 62
7
  6
CONTINUOUS
 10
3.5332905253
 20
5.2256482919
 40
0.0155
100
AcDbArc
 50
270.0
 51
356.0874617428
  0
ARC
  5
2B9
100
AcDbEntity
  8
0
100
AcDbCircle
 62
7
  6
CONTINUOUS
 10
3.1602905253
 20
5.2256482919
 40
0.0155
100
AcDbArc
 50
183.9125382572
 51
270.0
  0
ARC
  5
2BA
100
AcDbEntity
  8
0
100
AcDbCircle
 62
7
  6
CONTINUOUS
 10
6.0680642085
 20
2.8257296285
 40
0.3186700629
100
AcDbArc
 50
351.0677640413
 51
1.9258781637
  0
ARC
  5
2BB
100
AcDbEntity
  8
0
100
AcDbCircle
 62
7
  6
CONTINUOUS
 10
6.0687360464
 20
2.8256885294
 40
0.318
100
AcDbArc
 50
345.1156903923
 51
351.0562419733
  0
ARC
  5
2BC
100
AcDbEntity
  8
0
100
AcDbCircle
 62
7
  6
CONTINUOUS
 10
6.0687360464
 20
2.8256885294
 40
0.318
100
AcDbArc
 50
1.9373534049
 51
36.549446714
  0
ARC
  5
2BD
100
AcDbEntity
  8
0
100
AcDbCircle
 62
7
  6
CONTINUOUS
 10
5.9547360464
 20
2.8256885294
 40
0.318
100
AcDbArc
 50
143.450553286
 51
194.8843096077
  0
ARC
  5
2BE
100
AcDbEntity
  8
0
100
AcDbCircle
 62
7
  6
CONTINUOUS
 10
6.2869828561
 20
2.9625958599
 40
0.0649889982
100
AcDbArc
 50
53.8290281357
 51
54.6549962957
  0
ARC
  5
2BF
100
AcDbEntity
  8
0
100
AcDbCircle
 62
7
  6
CONTINUOUS
 10
6.2894463501
 20
2.9660989025
 40
0.0607064992
100
AcDbArc
 50
54.6388819349
 51
56.3840332323
  0
ARC
  5
2C0
100
AcDbEntity
  8
0
100
AcDbCircle
 62
7
  6
CONTINUOUS
 10
5.7384860464
 20
3.2908982919
 40
0.04675
100
AcDbArc
 50
229.1510475503
 51
267.1345941728
  0
ARC
  5
2C1
100
AcDbEntity
  8
0
100
AcDbCircle
 62
7
  6
CONTINUOUS
 10
6.0054718412
 20
4.2972720759
 40
0.2689782051
100
AcDbArc
 50
92.7571770024
 51
93.7813149114
  0
ARC
  5
2C2
100
AcDbEntity
  8
0
100
AcDbCircle
 62
7
  6
CONTINUOUS
 10
5.8831801775
 20
4.0400054998
 40
0.0619887048
100
AcDbArc
 50
132.9187712497
 51
134.2168798479
  0
ARC
  5
2C3
100
AcDbEntity
  8
0
100
AcDbCircle
 62
7
  6
CONTINUOUS
 10
5.8309860464
 20
4.0441482919
 40
0.03
100
AcDbArc
 50
0.0
 51
90.0
  0
ARC
  5
2C4
100
AcDbEntity
  8
0
100
AcDbCircle
 62
7
  6
CONTINUOUS
 10
5.8279860464
 20
3.8741482919
 40
0.025
100
AcDbArc
 50
90.0
 51
173.0751017558
  0
ARC
  5
2C5
100
AcDbEntity
  8
0
100
AcDbCircle
 62
7
  6
CONTINUOUS
 10
5.8031273787
 20
4.3190444331
 40
0.01069838
100
AcDbArc
 50
282.5091225098
 51
285.0974589096
  0
ARC
  5
2C6
100
AcDbEntity
  8
0
100
AcDbCircle
 62
7
  6
CONTINUOUS
 10
5.8031624453
 20
4.3188778171
 40
0.0105281241
100
AcDbArc
 50
277.5998846653
 51
282.5192119884
  0
ARC
  5
2C7
100
AcDbEntity
  8
0
100
AcDbCircle
 62
7
  6
CONTINUOUS
 10
5.7404860464
 20
4.3716482919
 40
0.0075
100
AcDbArc
 50
180.0
 51
270.0
  0
ARC
  5
2C8
100
AcDbEntity
  8
0
100
AcDbCircle
 62
7
  6
CONTINUOUS
 10
5.7417360464
 20
4.3516482919
 40
0.005
100
AcDbArc
 50
90.0
 51
180.0
  0
ARC
  5
2C9
100
AcDbEntity
  8
0
100
AcDbCircle
 62
7
  6
CONTINUOUS
 10
6.2849860464
 20
3.2908982919
 40
0.04675
100
AcDbArc
 50
272.8654058272
 51
310.8489524497
  0
ARC
  5
2CA
100
AcDbEntity
  8
0
100
AcDbCircle
 62
7
  6
CONTINUOUS
 10
6.0117360464
 20
4.2624816253
 40
0.3041666667
100
AcDbArc
 50
92.7315625672
 51
94.6505980213
  0
ARC
  5
2CB
100
AcDbEntity
  8
0
100
AcDbCircle
 62
7
  6
CONTINUOUS
 10
6.0117360464
 20
4.2624816253
 40
0.3041666667
100
AcDbArc
 50
51.0871372317
 51
84.6475095744
  0
ARC
  5
2CC
100
AcDbEntity
  8
0
100
AcDbCircle
 62
7
  6
CONTINUOUS
 10
6.0117360464
 20
4.2624816253
 40
0.3041666667
100
AcDbArc
 50
95.3525584537
 51
128.9128627683
  0
ARC
  5
2CD
100
AcDbEntity
  8
0
100
AcDbCircle
 62
7
  6
CONTINUOUS
 10
6.0117360464
 20
4.2624816253
 40
0.3036666667
100
AcDbArc
 50
84.6386706815
 51
85.3203499368
  0
ARC
  5
2CE
100
AcDbEntity
  8
0
100
AcDbCircle
 62
7
  6
CONTINUOUS
 10
6.0117360464
 20
4.2624816253
 40
0.3036666667
100
AcDbArc
 50
94.6794837189
 51
95.3613974595
  0
ARC
  5
2CF
100
AcDbEntity
  8
0
100
AcDbCircle
 62
7
  6
CONTINUOUS
 10
6.0117360464
 20
4.2624816253
 40
0.2986822913
100
AcDbArc
 50
94.8013302065
 51
96.7294591658
  0
ARC
  5
2D0
100
AcDbEntity
  8
0
100
AcDbCircle
 62
7
  6
CONTINUOUS
 10
6.0117360464
 20
4.2624816253
 40
0.2986822913
100
AcDbArc
 50
83.2705408342
 51
84.7172341721
  0
ARC
  5
2D1
100
AcDbEntity
  8
0
100
AcDbCircle
 62
7
  6
CONTINUOUS
 10
6.0117360464
 20
4.2624816253
 40
0.2981730948
100
AcDbArc
 50
94.8095488357
 51
96.7296151851
  0
ARC
  5
2D2
100
AcDbEntity
  8
0
100
AcDbCircle
 62
7
  6
CONTINUOUS
 10
6.0117360464
 20
4.2624816253
 40
0.2981730948
100
AcDbArc
 50
83.2704308268
 51
84.7081869637
  0
ARC
  5
2D3
100
AcDbEntity
  8
0
100
AcDbCircle
 62
7
  6
CONTINUOUS
 10
6.0117360464
 20
4.2624816253
 40
0.296864108
100
AcDbArc
 50
86.9924445346
 51
92.5244827468
  0
ARC
  5
2D4
100
AcDbEntity
  8
0
100
AcDbCircle
 62
7
  6
CONTINUOUS
 10
6.0117360464
 20
4.2624816253
 40
0.2963517875
100
AcDbArc
 50
86.9872404062
 51
92.5288498
  0
ARC
  5
2D5
100
AcDbEntity
  8
0
100
AcDbCircle
 62
7
  6
CONTINUOUS
 10
6.0117360464
 20
4.2624816253
 40
0.2931139686
100
AcDbArc
 50
86.9539294039
 51
92.5568026376
  0
ARC
  5
2D6
100
AcDbEntity
  8
0
100
AcDbCircle
 62
7
  6
CONTINUOUS
 10
6.0117360464
 20
4.2624816253
 40
0.2905466591
100
AcDbArc
 50
94.936101857
 51
96.918800095
  0
ARC
  5
2D7
100
AcDbEntity
  8
0
100
AcDbCircle
 62
7
  6
CONTINUOUS
 10
6.0117360464
 20
4.2624816253
 40
0.2905466591
100
AcDbArc
 50
83.081199905
 51
84.5688722772
  0
ARC
  5
2D8
100
AcDbEntity
  8
0
100
AcDbCircle
 62
7
  6
CONTINUOUS
 10
6.0117360464
 20
4.2624816253
 40
0.2889504475
100
AcDbArc
 50
94.9634379523
 51
96.9572091603
  0
ARC
  5
2D9
100
AcDbEntity
  8
0
100
AcDbCircle
 62
7
  6
CONTINUOUS
 10
6.0117360464
 20
4.2624816253
 40
0.2889504475
100
AcDbArc
 50
83.0427908397
 51
84.5387788628
  0
ARC
  5
2DA
100
AcDbEntity
  8
0
100
AcDbCircle
 62
7
  6
CONTINUOUS
 10
6.0117360464
 20
4.2624816253
 40
0.2884240705
100
AcDbArc
 50
94.9725190695
 51
96.957389101
  0
ARC
  5
2DB
100
AcDbEntity
  8
0
100
AcDbCircle
 62
7
  6
CONTINUOUS
 10
6.0117360464
 20
4.2624816253
 40
0.2884240705
100
AcDbArc
 50
83.0426616745
 51
84.5287816991
  0
ARC
  5
2DC
100
AcDbEntity
  8
0
100
AcDbCircle
 62
7
  6
CONTINUOUS
 10
6.0117360464
 20
4.2624816253
 40
0.2876045221
100
AcDbArc
 50
85.8393277682
 51
93.6614649594
  0
ARC
  5
2DD
100
AcDbEntity
  8
0
100
AcDbCircle
 62
7
  6
CONTINUOUS
 10
6.0117360464
 20
4.2624816253
 40
0.2870756772
100
AcDbArc
 50
85.8316495255
 51
93.6682192565
  0
ARC
  5
2DE
100
AcDbEntity
  8
0
100
AcDbCircle
 62
7
  6
CONTINUOUS
 10
6.0117360464
 20
4.2624816253
 40
0.2805550055
100
AcDbArc
 50
84.887644479
 51
94.599957045
  0
ARC
  5
2DF
100
AcDbEntity
  8
0
100
AcDbCircle
 62
7
  6
CONTINUOUS
 10
6.0178322087
 20
4.294574333
 40
0.271680892
100
AcDbArc
 50
86.1194669455
 51
87.2339809165
  0
ARC
  5
2E0
100
AcDbEntity
  8
0
100
AcDbCircle
 62
7
  6
CONTINUOUS
 10
6.013502335
 20
4.2978378637
 40
0.2687663392
100
AcDbArc
 50
85.5299736076
 51
86.8960692576
  0
ARC
  5
2E1
100
AcDbEntity
  8
0
100
AcDbCircle
 62
7
  6
CONTINUOUS
 10
6.0241144678
 20
4.3883277118
 40
0.1777173153
100
AcDbArc
 50
85.0991317678
 51
86.0946335981
  0
ARC
  5
2E2
100
AcDbEntity
  8
0
100
AcDbCircle
 62
7
  6
CONTINUOUS
 10
6.1924860464
 20
4.0441482919
 40
0.03
100
AcDbArc
 50
90.0
 51
180.0
  0
ARC
  5
2E3
100
AcDbEntity
  8
0
100
AcDbCircle
 62
7
  6
CONTINUOUS
 10
6.1954860464
 20
3.8741482919
 40
0.025
100
AcDbArc
 50
6.9248982442
 51
90.0
  0
ARC
  5
2E4
100
AcDbEntity
  8
0
100
AcDbCircle
 62
7
  6
CONTINUOUS
 10
6.2205142324
 20
4.3186721179
 40
0.0103328865
100
AcDbArc
 50
250.5385211417
 51
257.1001139312
  0
ARC
  5
2E5
100
AcDbEntity
  8
0
100
AcDbCircle
 62
7
  6
CONTINUOUS
 10
6.2204328873
 20
4.3183157864
 40
0.0099673881
100
AcDbArc
 50
257.0986294527
 51
261.5684684078
  0
ARC
  5
2E6
100
AcDbEntity
  8
0
100
AcDbCircle
 62
7
  6
CONTINUOUS
 10
6.2829860464
 20
4.3716482919
 40
0.0075
100
AcDbArc
 50
270.0
 51
360.0
  0
ARC
  5
2E7
100
AcDbEntity
  8
0
100
AcDbCircle
 62
7
  6
CONTINUOUS
 10
6.2817360464
 20
4.3516482919
 40
0.005
100
AcDbArc
 50
0.0
 51
90.0
  0
ARC
  5
2E8
100
AcDbEntity
  8
0
100
AcDbCircle
 62
7
  6
CONTINUOUS
 10
6.6370239877
 20
2.0952108033
 40
0.469
100
AcDbArc
 50
135.634976669
 51
137.8752193498
  0
ARC
  5
2E9
100
AcDbEntity
  8
0
100
AcDbCircle
 62
7
  6
CONTINUOUS
 10
6.5407360464
 20
2.3747284748
 40
0.254
100
AcDbArc
 50
165.1156903923
 51
255.3330904706
  0
ARC
  5
2EA
100
AcDbEntity
  8
0
100
AcDbCircle
 62
7
  6
CONTINUOUS
 10
6.4748260464
 20
3.1267220191
 40
0.1875
100
AcDbArc
 50
180.0
 51
216.549446714
  0
ARC
  5
2EB
100
AcDbEntity
  8
0
100
AcDbCircle
 62
7
  6
CONTINUOUS
 10
6.4714860464
 20
2.0826482919
 40
0.0195
100
AcDbArc
 50
270.0
 51
360.0
  0
ARC
  5
2EC
100
AcDbEntity
  8
0
100
AcDbCircle
 62
7
  6
CONTINUOUS
 10
6.4714860464
 20
2.1101407058
 40
0.0195
100
AcDbArc
 50
0.0
 51
75.3330904706
  0
ARC
  5
2ED
100
AcDbEntity
  8
0
100
AcDbCircle
 62
7
  6
CONTINUOUS
 10
6.9526399669
 20
4.3871482919
 40
0.4035425
100
AcDbArc
 50
302.7844980195
 51
37.9493503895
  0
ARC
  5
2EE
100
AcDbEntity
  8
0
100
AcDbCircle
 62
7
  6
CONTINUOUS
 10
6.9526399669
 20
4.3871482919
 40
0.4035425
100
AcDbArc
 50
142.0506496105
 51
237.2155019805
  0
ARC
  5
2EF
100
AcDbEntity
  8
0
100
AcDbCircle
 62
7
  6
CONTINUOUS
 10
6.9526399824
 20
4.3871485143
 40
0.2433182192
100
AcDbArc
 50
333.9016344285
 51
206.0984097658
  0
ARC
  5
2F0
100
AcDbEntity
  8
0
100
AcDbCircle
 62
7
  6
CONTINUOUS
 10
6.5067167772
 20
3.4639215434
 40
0.2345
100
AcDbArc
 50
186.9248982442
 51
215.397627641
  0
ARC
  5
2F1
100
AcDbEntity
  8
0
100
AcDbCircle
 62
7
  6
CONTINUOUS
 10
6.9526399669
 20
4.3871482919
 40
0.2185035
100
AcDbArc
 50
0.0
 51
180.0
  0
ARC
  5
2F2
100
AcDbEntity
  8
0
100
AcDbCircle
 62
7
  6
CONTINUOUS
 10
6.8651399669
 20
3.3419326178
 40
0.15
100
AcDbArc
 50
187.9646538916
 51
213.4757298033
  0
ARC
  5
2F3
100
AcDbEntity
  8
0
100
AcDbCircle
 62
7
  6
CONTINUOUS
 10
7.0401399669
 20
3.3419326178
 40
0.15
100
AcDbArc
 50
324.9174561452
 51
352.0353461084
  0
ARC
  5
2F4
100
AcDbEntity
  8
0
100
AcDbCircle
 62
7
  6
CONTINUOUS
 10
6.4101044985
 20
4.289708347
 40
0.064439946
100
AcDbArc
 50
90.0107112529
 51
104.0163900779
  0
ARC
  5
2F5
100
AcDbEntity
  8
0
100
AcDbCircle
 62
7
  6
CONTINUOUS
 10
5.7238899669
 20
5.3133977951
 40
1.0
100
AcDbArc
 50
341.8050916615
 51
18.1949083385
  0
ARC
  5
2F6
100
AcDbEntity
  8
0
100
AcDbCircle
 62
7
  6
CONTINUOUS
 10
8.1813899669
 20
5.3133977951
 40
1.0
100
AcDbArc
 50
161.8050916615
 51
198.1949083385
  0
ARC
  5
2F7
100
AcDbEntity
  8
0
100
AcDbCircle
 62
7
  6
CONTINUOUS
 10
6.9526399669
 20
6.0650330799
 40
0.46
100
AcDbArc
 50
208.4429414037
 51
233.6280600203
  0
ARC
  5
2F8
100
AcDbEntity
  8
0
100
AcDbCircle
 62
7
  6
CONTINUOUS
 10
6.9526399669
 20
6.0650330799
 40
0.46
100
AcDbArc
 50
306.3719399797
 51
68.7127754854
  0
ARC
  5
2F9
100
AcDbEntity
  8
0
100
AcDbCircle
 62
7
  6
CONTINUOUS
 10
6.9526399669
 20
6.0650330799
 40
0.46
100
AcDbArc
 50
111.2872245146
 51
151.4826814972
  0
ARC
  5
2FA
100
AcDbEntity
  8
0
100
AcDbCircle
 62
7
  6
CONTINUOUS
 10
5.9989532749
 20
4.3940376712
 40
0.17199342
100
AcDbArc
 50
93.7403968414
 51
95.0301802135
  0
ARC
  5
2FB
100
AcDbEntity
  8
0
100
AcDbCircle
 62
7
  6
CONTINUOUS
 10
6.7005919794
 20
6.6971450567
 40
0.125
100
AcDbArc
 50
315.7567298377
 51
342.7832648064
  0
ARC
  5
2FC
100
AcDbEntity
  8
0
100
AcDbCircle
 62
7
  6
CONTINUOUS
 10
6.9393899669
 20
6.6231482919
 40
0.125
100
AcDbArc
 50
90.0
 51
162.7832648064
  0
ARC
  5
2FD
100
AcDbEntity
  8
0
100
AcDbCircle
 62
7
  6
CONTINUOUS
 10
7.2046879543
 20
6.6971450567
 40
0.125
100
AcDbArc
 50
197.2167351936
 51
224.2432701623
  0
ARC
  5
2FE
100
AcDbEntity
  8
0
100
AcDbCircle
 62
7
  6
CONTINUOUS
 10
6.9658899669
 20
6.6231482919
 40
0.125
100
AcDbArc
 50
17.2167351936
 51
90.0
  0
ARC
  5
2FF
100
AcDbEntity
  8
0
100
AcDbCircle
 62
7
  6
CONTINUOUS
 10
6.0286555537
 20
4.4428775671
 40
0.122979015
100
AcDbArc
 50
84.6558086576
 51
85.0358530492
  0
ARC
  5
300
100
AcDbEntity
  8
0
100
AcDbCircle
 62
7
  6
CONTINUOUS
 10
5.9942288061
 20
4.4493122783
 40
0.1165175353
100
AcDbArc
 50
95.0991364306
 51
95.3512853068
  0
ARC
  5
301
100
AcDbEntity
  8
0
100
AcDbCircle
 62
7
  6
CONTINUOUS
 10
6.030242438
 20
4.4599741676
 40
0.1058089313
100
AcDbArc
 50
84.3538191734
 51
84.6491123261
  0
ARC
  5
302
100
AcDbEntity
  8
0
100
AcDbCircle
 62
7
  6
CONTINUOUS
 10
5.9927344466
 20
4.4647600318
 40
0.1004977186
100
AcDbArc
 50
95.4512487165
 51
95.821634817
  0
ARC
  5
303
100
AcDbEntity
  8
0
100
AcDbCircle
 62
7
  6
CONTINUOUS
 10
6.0308553018
 20
4.4659925128
 40
0.0992596557
100
AcDbArc
 50
84.1603205311
 51
84.6503805976
  0
ARC
  5
304
100
AcDbEntity
  8
0
100
AcDbCircle
 62
7
  6
CONTINUOUS
 10
6.2080448661
 20
4.4364373889
 40
0.0625
100
AcDbArc
 50
2.4859527198
 51
75.0
  0
ARC
  5
305
100
AcDbEntity
  8
0
100
AcDbCircle
 62
7
  6
CONTINUOUS
 10
5.8154272268
 20
4.4364373889
 40
0.0625
100
AcDbArc
 50
105.0
 51
177.5140472802
  0
ARC
  5
306
100
AcDbEntity
  8
0
100
AcDbCircle
 62
7
  6
CONTINUOUS
 10
7.3201399669
 20
4.6737479462
 40
0.0625
100
AcDbArc
 50
180.0
 51
217.9493503895
  0
ARC
  5
307
100
AcDbEntity
  8
0
100
AcDbCircle
 62
7
  6
CONTINUOUS
 10
6.5851399669
 20
4.6737479462
 40
0.0625
100
AcDbArc
 50
322.0506496105
 51
360.0
  0
ARC
  5
308
100
AcDbEntity
  8
0
100
AcDbCircle
 62
7
  6
CONTINUOUS
 10
6.3137905253
 20
6.2846482919
 40
0.04
100
AcDbArc
 50
25.9444797724
 51
180.0
  0
ARC
  5
309
100
AcDbEntity
  8
0
100
AcDbCircle
 62
7
  6
CONTINUOUS
 10
6.3137905253
 20
5.8456482919
 40
0.04
100
AcDbArc
 50
180.0
 51
334.0555202276
  0
ARC
  5
30A
100
AcDbEntity
  8
0
100
AcDbCircle
 62
7
  6
CONTINUOUS
 10
7.2311399669
 20
4.9696482919
 40
0.0315
100
AcDbArc
 50
270.0
 51
89.5449099509
  0
ARC
  5
30B
100
AcDbEntity
  8
0
100
AcDbCircle
 62
7
  6
CONTINUOUS
 10
6.6741399669
 20
4.9696482919
 40
0.0315
100
AcDbArc
 50
90.4550900491
 51
270.0
  0
ARC
  5
30C
100
AcDbEntity
  8
0
100
AcDbCircle
 62
7
  6
CONTINUOUS
 10
6.5256647722
 20
6.3063982919
 40
0.0315
100
AcDbArc
 50
214.5733151689
 51
316.3321847017
  0
ARC
  5
30D
100
AcDbEntity
  8
0
100
AcDbCircle
 62
7
  6
CONTINUOUS
 10
6.5256647722
 20
5.8238982919
 40
0.0315
100
AcDbArc
 50
44.4128684139
 51
145.4266848311
  0
ARC
  5
30E
100
AcDbEntity
  8
0
100
AcDbCircle
 62
7
  6
CONTINUOUS
 10
6.4737905253
 20
6.2706482919
 40
0.0315
100
AcDbArc
 50
34.5733151689
 51
90.0
  0
ARC
  5
30F
100
AcDbEntity
  8
0
100
AcDbCircle
 62
7
  6
CONTINUOUS
 10
6.4737905253
 20
5.8596482919
 40
0.0315
100
AcDbArc
 50
270.0
 51
325.4266848311
  0
ARC
  5
310
100
AcDbEntity
  8
0
100
AcDbCircle
 62
7
  6
CONTINUOUS
 10
6.6738899669
 20
5.6568982919
 40
0.03125
100
AcDbArc
 50
90.0
 51
269.99964029
  0
ARC
  5
311
100
AcDbEntity
  8
0
100
AcDbCircle
 62
7
  6
CONTINUOUS
 10
7.2313899669
 20
5.6568982919
 40
0.03125
100
AcDbArc
 50
270.00035971
 51
90.0
  0
ARC
  5
312
100
AcDbEntity
  8
0
100
AcDbCircle
 62
7
  6
CONTINUOUS
 10
6.2654860464
 20
4.4146533945
 40
0.025
100
AcDbArc
 50
0.0
 51
78.4630409672
  0
ARC
  5
313
100
AcDbEntity
  8
0
100
AcDbCircle
 62
7
  6
CONTINUOUS
 10
5.7579860464
 20
4.4146533945
 40
0.025
100
AcDbArc
 50
101.5369590328
 51
180.0
  0
ARC
  5
314
100
AcDbEntity
  8
0
100
AcDbCircle
 62
7
  6
CONTINUOUS
 10
7.2476399669
 20
4.9281482919
 40
0.01
100
AcDbArc
 50
0.0
 51
90.0
  0
ARC
  5
315
100
AcDbEntity
  8
0
100
AcDbCircle
 62
7
  6
CONTINUOUS
 10
6.6576399669
 20
4.9281482919
 40
0.01
100
AcDbArc
 50
90.0
 51
180.0
  0
SPLINE
  5
316
100
AcDbEntity
  8
0
100
AcDbSpline
 62
7
  6
CONTINUOUS
 70
0
 71
3
 72
27
 73
23
 74
0
 42
0.0000001
 43
0.0000001
 44
0.0000000001
 40
0.0
 40
0.0
 40
0.0
 40
0.0
 40
0.0447352847
 40
0.0965977733
 40
0.1577349747
 40
0.2308543479
 40
0.2727762706
 40
0.3184882601
 40
0.3676692368
 40
0.4192965485
 40
0.4716239759
 40
0.5226580015
 40
0.5708468577
 40
0.6154034523
 40
0.6933347902
 40
0.7582964082
 40
0.8130998555
 40
0.8600976796
 40
0.9010793338
 40
0.9373999698
 40
0.9701018021
 40
1.0
 40
1.0
 40
1.0
 40
1.0
 10
5.7026058311
 20
3.3196586013
 30
0.0
 10
5.7021024666
 20
3.3187783895
 30
0.0
 10
5.7011056722
 20
3.3168252334
 30
0.0
 10
5.6997594313
 20
3.3135087754
 30
0.0
 10
5.6985028117
 20
3.3094767194
 30
0.0
 10
5.6976288439
 20
3.3055753999
 30
0.0
 10
5.6970414084
 20
3.3019786318
 30
0.0
 10
5.6966683761
 20
3.2988991174
 30
0.0
 10
5.6964073004
 20
3.2955873698
 30
0.0
 10
5.6962815706
 20
3.2921175824
 30
0.0
 10
5.6963046927
 20
3.2886035713
 30
0.0
 10
5.6964739948
 20
3.2851716572
 30
0.0
 10
5.6967721309
 20
3.2819253623
 30
0.0
 10
5.697286459
 20
3.2780902819
 30
0.0
 10
5.6980990182
 20
3.2739147694
 30
0.0
 10
5.6993112603
 20
3.2695957791
 30
0.0
 10
5.7006316153
 20
3.2660492939
 30
0.0
 10
5.7020166149
 20
3.2631198234
 30
0.0
 10
5.7034426094
 20
3.2606855911
 30
0.0
 10
5.7048957698
 20
3.2586550421
 30
0.0
 10
5.7063671518
 20
3.2569590503
 30
0.0
 10
5.7073957841
 20
3.255978126
 30
0.0
 10
5.7079084082
 20
3.255534885
 30
0.0
  0
SPLINE
  5
317
100
AcDbEntity
  8
0
100
AcDbSpline
 62
7
  6
CONTINUOUS
 70
0
 71
3
 72
11
 73
7
 74
0
 42
0.0000001
 43
0.0000001
 44
0.0000000001
 40
0.0
 40
0.0
 40
0.0
 40
0.0
 40
0.2619168228
 40
0.5164905671
 40
0.7628142625
 40
1.0
 40
1.0
 40
1.0
 40
1.0
 10
5.7026058311
 20
3.3196586013
 30
0.0
 10
5.7030376024
 20
3.3204136212
 30
0.0
 10
5.7039011141
 20
3.3218956458
 30
0.0
 10
5.7052197464
 20
3.3240587205
 30
0.0
 10
5.7065453303
 20
3.3261206146
 30
0.0
 10
5.7074521766
 20
3.3274460081
 30
0.0
 10
5.7079084063
 20
3.3280880529
 30
0.0
  0
SPLINE
  5
318
100
AcDbEntity
  8
0
100
AcDbSpline
 62
7
  6
CONTINUOUS
 70
0
 71
3
 72
30
 73
26
 74
0
 42
0.0000001
 43
0.0000001
 44
0.0000000001
 40
0.0
 40
0.0
 40
0.0
 40
0.0
 40
0.0033655509
 40
0.004583847
 40
0.0059759185
 40
0.0092980926
 40
0.0133478159
 40
0.0181188605
 40
0.0235963336
 40
0.0297611174
 40
0.044074013
 40
0.0608983626
 40
0.0800800895
 40
0.1014855244
 40
0.1504971095
 40
0.2071831574
 40
0.2710250402
 40
0.3412997394
 40
0.4167120669
 40
0.4958615868
 40
0.5775457025
 40
0.6608404711
 40
0.7450921645
 40
0.8298663882
 40
1.0
 40
1.0
 40
1.0
 40
1.0
 10
6.0367360452
 20
4.5649586676
 30
0.0
 10
6.0367360233
 20
4.5649868845
 30
0.0
 10
6.0367062793
 20
4.5650212966
 30
0.0
 10
6.0366668491
 20
4.565050649
 30
0.0
 10
6.0366244407
 20
4.5650772157
 30
0.0
 10
6.0365585153
 20
4.5651096632
 30
0.0
 10
6.0364638685
 20
4.5651474691
 30
0.0
 10
6.0363502317
 20
4.5651857304
 30
0.0
 10
6.0362181447
 20
4.5652244347
 30
0.0
 10
6.0360075156
 20
4.5652792
 30
0.0
 10
6.035702034
 20
4.5653466378
 30
0.0
 10
6.0352873923
 20
4.5654246369
 30
0.0
 10
6.0348123643
 20
4.5655025542
 30
0.0
 10
6.0340689554
 20
4.5656106558
 30
0.0
 10
6.0330110928
 20
4.5657401668
 30
0.0
 10
6.0315969
 20
4.5658839896
 30
0.0
 10
6.0300029174
 20
4.5660197593
 30
0.0
 10
6.0282506766
 20
4.56614535
 30
0.0
 10
6.0263690453
 20
4.5662591113
 30
0.0
 10
6.0243908698
 20
4.5663594326
 30
0.0
 10
6.0223458649
 20
4.5664451578
 30
0.0
 10
6.0202574776
 20
4.5665155955
 30
0.0
 10
6.0181427047
 20
4.5665704083
 30
0.0
 10
6.0152996461
 20
4.5666225741
 30
0.0
 10
6.0131624494
 20
4.5666380178
 30
0.0
 10
6.0117360464
 20
4.5666380178
 30
0.0
  0
SPLINE
  5
319
100
AcDbEntity
  8
0
100
AcDbSpline
 62
7
  6
CONTINUOUS
 70
0
 71
3
 72
27
 73
23
 74
0
 42
0.0000001
 43
0.0000001
 44
0.0000000001
 40
0.0
 40
0.0
 40
0.0
 40
0.0
 40
0.0447352847
 40
0.0965977733
 40
0.1577349747
 40
0.2308543479
 40
0.2727762706
 40
0.3184882601
 40
0.3676692368
 40
0.4192965485
 40
0.4716239759
 40
0.5226580015
 40
0.5708468577
 40
0.6154034523
 40
0.6933347902
 40
0.7582964082
 40
0.8130998555
 40
0.8600976796
 40
0.9010793338
 40
0.9373999698
 40
0.9701018021
 40
1.0
 40
1.0
 40
1.0
 40
1.0
 10
6.3208662618
 20
3.3196586013
 30
0.0
 10
6.3213696263
 20
3.3187783895
 30
0.0
 10
6.3223664206
 20
3.3168252334
 30
0.0
 10
6.3237126616
 20
3.3135087754
 30
0.0
 10
6.3249692812
 20
3.3094767194
 30
0.0
 10
6.325843249
 20
3.3055753999
 30
0.0
 10
6.3264306844
 20
3.3019786318
 30
0.0
 10
6.3268037167
 20
3.2988991174
 30
0.0
 10
6.3270647924
 20
3.2955873698
 30
0.0
 10
6.3271905223
 20
3.2921175824
 30
0.0
 10
6.3271674001
 20
3.2886035713
 30
0.0
 10
6.3269980981
 20
3.2851716572
 30
0.0
 10
6.326699962
 20
3.2819253623
 30
0.0
 10
6.3261856338
 20
3.2780902819
 30
0.0
 10
6.3253730747
 20
3.2739147694
 30
0.0
 10
6.3241608325
 20
3.2695957791
 30
0.0
 10
6.3228404776
 20
3.2660492939
 30
0.0
 10
6.321455478
 20
3.2631198234
 30
0.0
 10
6.3200294834
 20
3.2606855911
 30
0.0
 10
6.318576323
 20
3.2586550421
 30
0.0
 10
6.317104941
 20
3.2569590503
 30
0.0
 10
6.3160763088
 20
3.255978126
 30
0.0
 10
6.3155636847
 20
3.255534885
 30
0.0
  0
SPLINE
  5
31A
100
AcDbEntity
  8
0
100
AcDbSpline
 62
7
  6
CONTINUOUS
 70
0
 71
3
 72
31
 73
27
 74
0
 42
0.0000001
 43
0.0000001
 44
0.0000000001
 40
0.0
 40
0.0
 40
0.0
 40
0.0
 40
0.00160022
 40
0.0034113099
 40
0.0055867918
 40
0.008211936
 40
0.0113309721
 40
0.0149664934
 40
0.0191299715
 40
0.0238283774
 40
0.0348415845
 40
0.0480154945
 40
0.0633447901
 40
0.0808185824
 40
0.1004279101
 40
0.1221669694
 40
0.1460294553
 40
0.1720093414
 40
0.230313252
 40
0.2969306258
 40
0.3710772453
 40
0.4514234145
 40
0.536653716
 40
0.625568042
 40
0.8105163448
 40
1.0
 40
1.0
 40
1.0
 40
1.0
 10
6.0467356659
 20
4.563965097
 30
0.0
 10
6.0467357014
 20
4.5639462962
 30
0.0
 10
6.0467274224
 20
4.5639059299
 30
0.0
 10
6.0466924887
 20
4.5638493096
 30
0.0
 10
6.0466369195
 20
4.5637943574
 30
0.0
 10
6.0465610082
 20
4.5637401038
 30
0.0
 10
6.0464647363
 20
4.5636861604
 30
0.0
 10
6.0463481538
 20
4.563632424
 30
0.0
 10
6.0462113717
 20
4.5635788617
 30
0.0
 10
6.0459902155
 20
4.5635037195
 30
0.0
 10
6.0456630608
 20
4.563412601
 30
0.0
 10
6.0452103634
 20
4.5633091275
 30
0.0
 10
6.0446798195
 20
4.5632070756
 30
0.0
 10
6.0440722006
 20
4.5631067636
 30
0.0
 10
6.0433880541
 20
4.5630086806
 30
0.0
 10
6.0426278185
 20
4.5629133312
 30
0.0
 10
6.0417918412
 20
4.5628212415
 30
0.0
 10
6.0405271158
 20
4.5626988416
 30
0.0
 10
6.0387594172
 20
4.5625606247
 30
0.0
 10
6.0364243329
 20
4.562425962
 30
0.0
 10
6.0338286293
 20
4.5623191892
 30
0.0
 10
6.0310132824
 20
4.5622371944
 30
0.0
 10
6.0280238538
 20
4.5621773245
 30
0.0
 10
6.0238052432
 20
4.5621211981
 30
0.0
 10
6.0183614575
 20
4.5620885999
 30
0.0
 10
6.0139622786
 20
4.5620832257
 30
0.0
 10
6.0117360464
 20
4.5620832126
 30
0.0
  0
SPLINE
  5
31B
100
AcDbEntity
  8
0
100
AcDbSpline
 62
7
  6
CONTINUOUS
 70
0
 71
3
 72
11
 73
7
 74
0
 42
0.0000001
 43
0.0000001
 44
0.0000000001
 40
0.0
 40
0.0
 40
0.0
 40
0.0
 40
0.2619168228
 40
0.5164905671
 40
0.7628142625
 40
1.0
 40
1.0
 40
1.0
 40
1.0
 10
6.3208662618
 20
3.3196586013
 30
0.0
 10
6.3204344904
 20
3.3204136212
 30
0.0
 10
6.3195709788
 20
3.3218956458
 30
0.0
 10
6.3182523464
 20
3.3240587205
 30
0.0
 10
6.3169267626
 20
3.3261206146
 30
0.0
 10
6.3160199162
 20
3.3274460081
 30
0.0
 10
6.3155636865
 20
3.3280880529
 30
0.0
  0
SPLINE
  5
31C
100
AcDbEntity
  8
0
100
AcDbSpline
 62
7
  6
CONTINUOUS
 70
0
 71
3
 72
25
 73
21
 74
0
 42
0.0000001
 43
0.0000001
 44
0.0000000001
 40
0.0
 40
0.0
 40
0.0
 40
0.0
 40
0.0634303325
 40
0.1266805357
 40
0.1897313354
 40
0.2525838029
 40
0.3152526939
 40
0.3777629708
 40
0.4401467833
 40
0.5024370726
 40
0.5646654379
 40
0.6268572518
 40
0.6890335759
 40
0.7201285425
 40
0.7512238444
 40
0.81340237
 40
0.8755891401
 40
0.9066945934
 40
0.9378013748
 40
1.0
 40
1.0
 40
1.0
 40
1.0
 10
6.4786709655
 20
4.292412863
 30
0.0
 10
6.4782748793
 20
4.2944928317
 30
0.0
 10
6.4773340027
 20
4.2986200072
 30
0.0
 10
6.475476619
 20
4.304680645
 30
0.0
 10
6.4731784343
 20
4.3105681567
 30
0.0
 10
6.4704447586
 20
4.3162452289
 30
0.0
 10
6.4672823337
 20
4.3216746529
 30
0.0
 10
6.4637004574
 20
4.3268183735
 30
0.0
 10
6.4597115855
 20
4.3316374193
 30
0.0
 10
6.4553324807
 20
4.3360921623
 30
0.0
 10
6.4505848286
 20
4.3401426818
 30
0.0
 10
6.4454965435
 20
4.3437496226
 30
0.0
 10
6.4409991975
 20
4.346355007
 30
0.0
 10
6.4372692998
 20
4.3481807213
 30
0.0
 10
6.4334577877
 20
4.3498295148
 30
0.0
 10
6.4285531279
 20
4.3515500321
 30
0.0
 10
6.4235060736
 20
4.3527943821
 30
0.0
 10
6.4194115582
 20
4.3534948561
 30
0.0
 10
6.4152879543
 20
4.353996972
 30
0.0
 10
6.4121706015
 20
4.3541482919
 30
0.0
 10
6.4100943707
 20
4.3541482919
 30
0.0
  0
SPLINE
  5
31D
100
AcDbEntity
  8
0
100
AcDbSpline
 62
7
  6
CONTINUOUS
 70
0
 71
3
 72
13
 73
9
 74
0
 42
0.0000001
 43
0.0000001
 44
0.0000000001
 40
0.0
 40
0.0
 40
0.0
 40
0.0
 40
0.2491319726
 40
0.3744605417
 40
0.5000000346
 40
0.6255395208
 40
0.750868075
 40
1.0
 40
1.0
 40
1.0
 40
1.0
 10
6.4786709653
 20
4.1358837199
 30
0.0
 10
6.4811162842
 20
4.1487248291
 30
0.0
 10
6.4838626113
 20
4.1682190007
 30
0.0
 10
6.4856939006
 20
4.1943960376
 30
0.0
 10
6.4861533512
 20
4.2141482966
 30
0.0
 10
6.4856939003
 20
4.2339005547
 30
0.0
 10
6.4838626106
 20
4.260077588
 30
0.0
 10
6.4811162839
 20
4.2795717563
 30
0.0
 10
6.4786709655
 20
4.292412863
 30
0.0
  0
SPLINE
  5
31E
100
AcDbEntity
  8
0
100
AcDbSpline
 62
7
  6
CONTINUOUS
 70
0
 71
3
 72
23
 73
19
 74
0
 42
0.0000001
 43
0.0000001
 44
0.0000000001
 40
0.0
 40
0.0
 40
0.0
 40
0.0
 40
0.06220826
 40
0.0933199358
 40
0.1244306581
 40
0.1866282189
 40
0.2488179756
 40
0.2799190801
 40
0.3110198067
 40
0.373207889
 40
0.4354114265
 40
0.4976518938
 40
0.5599539784
 40
0.6223493899
 40
0.6848715006
 40
0.747551217
 40
0.8733840183
 40
1.0
 40
1.0
 40
1.0
 40
1.0
 10
6.4100943707
 20
4.0741482919
 30
0.0
 10
6.4121705546
 20
4.0741482919
 30
0.0
 10
6.4152878402
 20
4.0742995992
 30
0.0
 10
6.4194113678
 20
4.0748017089
 30
0.0
 10
6.4235058512
 20
4.0755021472
 30
0.0
 10
6.4285528975
 20
4.0767464846
 30
0.0
 10
6.4334575808
 20
4.0784669638
 30
0.0
 10
6.4372691003
 20
4.0801157991
 30
0.0
 10
6.4409990682
 20
4.0819414641
 30
0.0
 10
6.4454964473
 20
4.084546905
 30
0.0
 10
6.4505848204
 20
4.0881538638
 30
0.0
 10
6.455332516
 20
4.0922044557
 30
0.0
 10
6.4597116869
 20
4.0966592634
 30
0.0
 10
6.4637005524
 20
4.1014783266
 30
0.0
 10
6.4672825228
 20
4.1066222922
 30
0.0
 10
6.4715033748
 20
4.1138685935
 30
0.0
 10
6.4757071518
 20
4.1235566891
 30
0.0
 10
6.477880461
 20
4.1317325429
 30
0.0
 10
6.4786709653
 20
4.1358837199
 30
0.0
  0
SPLINE
  5
31F
100
AcDbEntity
  8
0
100
AcDbSpline
 62
7
  6
CONTINUOUS
 70
0
 71
3
 72
25
 73
21
 74
0
 42
0.0000001
 43
0.0000001
 44
0.0000000001
 40
0.0
 40
0.0
 40
0.0
 40
0.0
 40
0.0634303325
 40
0.1266805356
 40
0.1897313353
 40
0.2525838028
 40
0.3152526938
 40
0.3777629708
 40
0.4401467833
 40
0.5024370726
 40
0.5646654379
 40
0.6268572518
 40
0.6890335759
 40
0.7201285425
 40
0.7512238444
 40
0.81340237
 40
0.87558914
 40
0.9066945933
 40
0.9378013748
 40
1.0
 40
1.0
 40
1.0
 40
1.0
 10
5.5448011275
 20
4.2924128638
 30
0.0
 10
5.5451972137
 20
4.2944928325
 30
0.0
 10
5.5461380903
 20
4.2986200079
 30
0.0
 10
5.5479954741
 20
4.3046806457
 30
0.0
 10
5.5502936589
 20
4.3105681573
 30
0.0
 10
5.5530273345
 20
4.3162452295
 30
0.0
 10
5.5561897594
 20
4.3216746534
 30
0.0
 10
5.5597716357
 20
4.3268183739
 30
0.0
 10
5.5637605077
 20
4.3316374196
 30
0.0
 10
5.5681396124
 20
4.3360921626
 30
0.0
 10
5.5728872646
 20
4.340142682
 30
0.0
 10
5.5779755496
 20
4.3437496227
 30
0.0
 10
5.5824728956
 20
4.3463550072
 30
0.0
 10
5.5862027932
 20
4.3481807214
 30
0.0
 10
5.5900143054
 20
4.3498295149
 30
0.0
 10
5.5949189651
 20
4.3515500321
 30
0.0
 10
5.5999660194
 20
4.3527943821
 30
0.0
 10
5.6040605347
 20
4.3534948561
 30
0.0
 10
5.6081841386
 20
4.353996972
 30
0.0
 10
5.6113014914
 20
4.3541482919
 30
0.0
 10
5.6133777221
 20
4.3541482919
 30
0.0
  0
SPLINE
  5
320
100
AcDbEntity
  8
0
100
AcDbSpline
 62
7
  6
CONTINUOUS
 70
0
 71
3
 72
13
 73
9
 74
0
 42
0.0000001
 43
0.0000001
 44
0.0000000001
 40
0.0
 40
0.0
 40
0.0
 40
0.0
 40
0.2491319726
 40
0.3744605418
 40
0.5000000347
 40
0.6255395209
 40
0.750868075
 40
1.0
 40
1.0
 40
1.0
 40
1.0
 10
5.5448011273
 20
4.1358837208
 30
0.0
 10
5.5423558085
 20
4.14872483
 30
0.0
 10
5.5396094814
 20
4.1682190016
 30
0.0
 10
5.5377781922
 20
4.1943960385
 30
0.0
 10
5.5373187416
 20
4.2141482974
 30
0.0
 10
5.5377781926
 20
4.2339005556
 30
0.0
 10
5.5396094823
 20
4.2600775888
 30
0.0
 10
5.5423558091
 20
4.2795717571
 30
0.0
 10
5.5448011275
 20
4.2924128638
 30
0.0
  0
SPLINE
  5
321
100
AcDbEntity
  8
0
100
AcDbSpline
 62
7
  6
CONTINUOUS
 70
0
 71
3
 72
23
 73
19
 74
0
 42
0.0000001
 43
0.0000001
 44
0.0000000001
 40
0.0
 40
0.0
 40
0.0
 40
0.0
 40
0.06220826
 40
0.0933199358
 40
0.1244306581
 40
0.1866282188
 40
0.2488179756
 40
0.27991908
 40
0.3110198066
 40
0.373207889
 40
0.4354114264
 40
0.4976518938
 40
0.5599539783
 40
0.6223493899
 40
0.6848715005
 40
0.747551217
 40
0.8733840183
 40
1.0
 40
1.0
 40
1.0
 40
1.0
 10
5.6133777221
 20
4.0741482919
 30
0.0
 10
5.6113015382
 20
4.0741482919
 30
0.0
 10
5.6081842526
 20
4.0742995992
 30
0.0
 10
5.604060725
 20
4.0748017089
 30
0.0
 10
5.5999662416
 20
4.0755021472
 30
0.0
 10
5.5949191952
 20
4.0767464846
 30
0.0
 10
5.5900145119
 20
4.0784669638
 30
0.0
 10
5.5862029923
 20
4.0801157992
 30
0.0
 10
5.5824730243
 20
4.0819414643
 30
0.0
 10
5.5779756453
 20
4.0845469052
 30
0.0
 10
5.5728872721
 20
4.088153864
 30
0.0
 10
5.5681395765
 20
4.092204456
 30
0.0
 10
5.5637604056
 20
4.0966592637
 30
0.0
 10
5.5597715401
 20
4.1014783271
 30
0.0
 10
5.5561895697
 20
4.1066222928
 30
0.0
 10
5.5519687177
 20
4.1138685941
 30
0.0
 10
5.5477649408
 20
4.1235566898
 30
0.0
 10
5.5455916316
 20
4.1317325438
 30
0.0
 10
5.5448011273
 20
4.1358837208
 30
0.0
  0
SPLINE
  5
322
100
AcDbEntity
  8
0
100
AcDbSpline
 62
7
  6
CONTINUOUS
 70
0
 71
3
 72
40
 73
36
 74
0
 42
0.0000001
 43
0.0000001
 44
0.0000000001
 40
0.0
 40
0.0
 40
0.0
 40
0.0
 40
0.0095824074
 40
0.0194978207
 40
0.0246206869
 40
0.0298781854
 40
0.0352998009
 40
0.040917268
 40
0.046762735
 40
0.0528676036
 40
0.0592564817
 40
0.0659516193
 40
0.0803508592
 40
0.0962375774
 40
0.1137693292
 40
0.1330752304
 40
0.1542615298
 40
0.1774070557
 40
0.2025640164
 40
0.2297592412
 40
0.2589949726
 40
0.2902505506
 40
0.3234854082
 40
0.3586420036
 40
0.3956485096
 40
0.4344215586
 40
0.4748688078
 40
0.5168911181
 40
0.5603846274
 40
0.6052422575
 40
0.6513549378
 40
0.6986125237
 40
0.7961058273
 40
0.8968581606
 40
1.0
 40
1.0
 40
1.0
 40
1.0
 10
6.6283820187
 20
3.0256885294
 30
0.0
 10
6.629153411
 20
3.0256885294
 30
0.0
 10
6.6307233535
 20
3.0257334958
 30
0.0
 10
6.63269903
 20
3.0259052953
 30
0.0
 10
6.6343194177
 20
3.0261158208
 30
0.0
 10
6.6355759468
 20
3.0263152293
 30
0.0
 10
6.6368653138
 20
3.0265582593
 30
0.0
 10
6.638193355
 20
3.0268486085
 30
0.0
 10
6.639565927
 20
3.027190077
 30
0.0
 10
6.640988345
 20
3.027586063
 30
0.0
 10
6.642464565
 20
3.0280416814
 30
0.0
 10
6.6445597099
 20
3.0287532224
 30
0.0
 10
6.6473368355
 20
3.0298302854
 30
0.0
 10
6.6508457903
 20
3.0314174289
 30
0.0
 10
6.6546150082
 20
3.0333731503
 30
0.0
 10
6.6586432895
 20
3.035741898
 30
0.0
 10
6.6629204604
 20
3.038565547
 30
0.0
 10
6.6674279758
 20
3.0418822544
 30
0.0
 10
6.6721399773
 20
3.0457247078
 30
0.0
 10
6.6770243323
 20
3.0501194259
 30
0.0
 10
6.682043953
 20
3.0550860275
 30
0.0
 10
6.6871581832
 20
3.0606368677
 30
0.0
 10
6.6923241675
 20
3.0667770877
 30
0.0
 10
6.697498067
 20
3.073504996
 30
0.0
 10
6.7026361568
 20
3.0808125605
 30
0.0
 10
6.707695715
 20
3.0886860449
 30
0.0
 10
6.7126357338
 20
3.0971067118
 30
0.0
 10
6.71741747
 20
3.1060515393
 30
0.0
 10
6.7220047947
 20
3.1154939489
 30
0.0
 10
6.7263643825
 20
3.1254043971
 30
0.0
 10
6.7304659273
 20
3.1357511633
 30
0.0
 10
6.735607022
 20
3.150233161
 30
0.0
 10
6.7412108142
 20
3.1692040328
 30
0.0
 10
6.7464722751
 20
3.1929062561
 30
0.0
 10
6.7489491608
 20
3.2091465632
 30
0.0
 10
6.7499319099
 20
3.2173912079
 30
0.0
  0
SPLINE
  5
323
100
AcDbEntity
  8
0
100
AcDbSpline
 62
7
  6
CONTINUOUS
 70
0
 71
3
 72
36
 73
32
 74
0
 42
0.0000001
 43
0.0000001
 44
0.0000000001
 40
0.0
 40
0.0
 40
0.0
 40
0.0
 40
0.0297900893
 40
0.0595880427
 40
0.0894022586
 40
0.1192410414
 40
0.1491135132
 40
0.1790291188
 40
0.208997985
 40
0.23903085
 40
0.2691391369
 40
0.2993346073
 40
0.3296291165
 40
0.3600347422
 40
0.3905633582
 40
0.4212263422
 40
0.4520341528
 40
0.4829962184
 40
0.5141207716
 40
0.545414356
 40
0.5768815489
 40
0.608525063
 40
0.6723272079
 40
0.736813401
 40
0.7693025524
 40
0.8019380949
 40
0.8347075281
 40
0.8675965407
 40
0.9005893584
 40
0.9336683777
 40
1.0
 40
1.0
 40
1.0
 40
1.0
 10
6.6283820187
 20
2.6256885294
 30
0.0
 10
6.6370748789
 20
2.6256885294
 30
0.0
 10
6.6544672894
 20
2.6262038435
 30
0.0
 10
6.6804667928
 20
2.6285188057
 30
0.0
 10
6.7062995305
 20
2.6323642184
 30
0.0
 10
6.731883364
 20
2.6377212807
 30
0.0
 10
6.7571408614
 20
2.6445643359
 30
0.0
 10
6.7819983408
 20
2.6528616661
 30
0.0
 10
6.8063869488
 20
2.662576249
 30
0.0
 10
6.830243087
 20
2.6736666558
 30
0.0
 10
6.8535086202
 20
2.6860879838
 30
0.0
 10
6.8761309066
 20
2.6997926135
 30
0.0
 10
6.8980626293
 20
2.7147310902
 30
0.0
 10
6.9192615876
 20
2.7308527389
 30
0.0
 10
6.9396903088
 20
2.7481063068
 30
0.0
 10
6.9593155186
 20
2.7664403124
 30
0.0
 10
6.9781076573
 20
2.78580334
 30
0.0
 10
6.9960403947
 20
2.8061442344
 30
0.0
 10
7.0130901718
 20
2.8274122379
 30
0.0
 10
7.0292356475
 20
2.8495567011
 30
0.0
 10
7.0444576831
 20
2.8725277746
 30
0.0
 10
7.0635484008
 20
2.9042731665
 30
0.0
 10
7.0849993762
 20
2.9457865353
 30
0.0
 10
7.1030514888
 20
2.9891484098
 30
0.0
 10
7.1154860032
 20
3.0248753611
 30
0.0
 10
7.1238129213
 20
3.0522085727
 30
0.0
 10
7.1311061158
 20
3.0799556479
 30
0.0
 10
7.1373567839
 20
3.1080626053
 30
0.0
 10
7.1425570334
 20
3.13647517
 30
0.0
 10
7.148085647
 20
3.1747195134
 30
0.0
 10
7.1506305805
 20
3.2036512855
 30
0.0
 10
7.1516161276
 20
3.2229819955
 30
0.0
  0
SPLINE
  5
324
100
AcDbEntity
  8
0
100
AcDbSpline
 62
7
  6
CONTINUOUS
 70
0
 71
3
 72
31
 73
27
 74
0
 42
0.0000001
 43
0.0000001
 44
0.0000000001
 40
0.0
 40
0.0
 40
0.0
 40
0.0
 40
0.1894950038
 40
0.3744544236
 40
0.4633733681
 40
0.5486064734
 40
0.6289527265
 40
0.7030977815
 40
0.7697075829
 40
0.8280068692
 40
0.853982969
 40
0.8778418846
 40
0.8995780106
 40
0.9191850701
 40
0.9366565817
 40
0.9519846191
 40
0.9651577233
 40
0.9761704741
 40
0.98086857
 40
0.985031406
 40
0.9886662218
 40
0.991785316
 40
0.9944112158
 40
0.9965879004
 40
0.9983999606
 40
1.0
 40
1.0
 40
1.0
 40
1.0
 10
6.0117360464
 20
4.5620832126
 30
0.0
 10
6.0095096767
 20
4.5620831994
 30
0.0
 10
6.0051102256
 20
4.5620885222
 30
0.0
 10
5.999666111
 20
4.5621210824
 30
0.0
 10
5.9954472748
 20
4.5621772133
 30
0.0
 10
5.9924577525
 20
4.5622371006
 30
0.0
 10
5.9896423864
 20
4.5623191478
 30
0.0
 10
5.987046785
 20
4.5624259487
 30
0.0
 10
5.9847118655
 20
4.5625607322
 30
0.0
 10
5.9829443527
 20
4.5626989608
 30
0.0
 10
5.9816797718
 20
4.5628214185
 30
0.0
 10
5.980843917
 20
4.5629135292
 30
0.0
 10
5.9800837871
 20
4.5630089045
 30
0.0
 10
5.9793997285
 20
4.5631069908
 30
0.0
 10
5.9787921811
 20
4.5632073238
 30
0.0
 10
5.9782616881
 20
4.5633093751
 30
0.0
 10
5.9778090206
 20
4.5634128502
 30
0.0
 10
5.9774818832
 20
4.5635039638
 30
0.0
 10
5.9772607418
 20
4.5635790998
 30
0.0
 10
5.9771239799
 20
4.5636326613
 30
0.0
 10
5.9770074177
 20
4.5636864067
 30
0.0
 10
5.9769111444
 20
4.5637403472
 30
0.0
 10
5.9768351957
 20
4.5637945916
 30
0.0
 10
5.976779574
 20
4.5638495285
 30
0.0
 10
5.9767445133
 20
4.5639061005
 30
0.0
 10
5.976736226
 20
4.5639464881
 30
0.0
 10
5.976736279
 20
4.5639652868
 30
0.0
  0
SPLINE
  5
325
100
AcDbEntity
  8
0
100
AcDbSpline
 62
7
  6
CONTINUOUS
 70
0
 71
3
 72
18
 73
14
 74
0
 42
0.0000001
 43
0.0000001
 44
0.0000000001
 40
0.0
 40
0.0
 40
0.0
 40
0.0
 40
0.1602906233
 40
0.3164645763
 40
0.4647623373
 40
0.6019376019
 40
0.7254097167
 40
0.7814188486
 40
0.833379419
 40
0.8811963324
 40
0.9248488083
 40
0.9644007964
 40
1.0
 40
1.0
 40
1.0
 40
1.0
 10
5.9986602864
 20
4.555303795
 30
0.0
 10
5.9979877239
 20
4.5552737622
 30
0.0
 10
5.9966611274
 20
4.555180394
 30
0.0
 10
5.994722828
 20
4.5549419199
 30
0.0
 10
5.9928960612
 20
4.5546135832
 30
0.0
 10
5.9912264306
 20
4.5542056179
 30
0.0
 10
5.9899589777
 20
4.5537971355
 30
0.0
 10
5.9890564952
 20
4.5534349966
 30
0.0
 10
5.9884624388
 20
4.5531599016
 30
0.0
 10
5.9879316331
 20
4.5528741532
 30
0.0
 10
5.9874663328
 20
4.5525792698
 30
0.0
 10
5.9870686212
 20
4.552276846
 30
0.0
 10
5.9868378842
 20
4.5520602039
 30
0.0
 10
5.9867360464
 20
4.5519507274
 30
0.0
  0
SPLINE
  5
326
100
AcDbEntity
  8
0
100
AcDbSpline
 62
7
  6
CONTINUOUS
 70
0
 71
3
 72
25
 73
21
 74
0
 42
0.0000001
 43
0.0000001
 44
0.0000000001
 40
0.0
 40
0.0
 40
0.0
 40
0.0
 40
0.0861277201
 40
0.1713359955
 40
0.2547585262
 40
0.3356143721
 40
0.4132439285
 40
0.4871202281
 40
0.5568541249
 40
0.6221902217
 40
0.6830019543
 40
0.7392880515
 40
0.7911757351
 40
0.8389309697
 40
0.8829782809
 40
0.9239224988
 40
0.9434943261
 40
0.9626113964
 40
0.9814022424
 40
1.0
 40
1.0
 40
1.0
 40
1.0
 10
6.0117360464
 20
4.518005325
 30
0.0
 10
6.0105269954
 20
4.518005325
 30
0.0
 10
6.0081213105
 20
4.518068643
 30
0.0
 10
6.0045546544
 20
4.5183518734
 30
0.0
 10
6.0010815991
 20
4.5188166893
 30
0.0
 10
5.9977440429
 20
4.5194529999
 30
0.0
 10
5.9945785501
 20
4.5202478807
 30
0.0
 10
5.9916159282
 20
4.521186584
 30
0.0
 10
5.988881239
 20
4.5222533888
 30
0.0
 10
5.9863942629
 20
4.5234323724
 30
0.0
 10
5.9841702273
 20
4.524707968
 30
0.0
 10
5.9822206296
 20
4.5260654029
 30
0.0
 10
5.9805541309
 20
4.5274909085
 30
0.0
 10
5.9791773669
 20
4.5289721041
 30
0.0
 10
5.9780961458
 20
4.5304971961
 30
0.0
 10
5.9774361425
 20
4.5318164224
 30
0.0
 10
5.9770711736
 20
4.5328744348
 30
0.0
 10
5.9768780821
 20
4.5336591255
 30
0.0
 10
5.9767620126
 20
4.5344449717
 30
0.0
 10
5.9767360464
 20
4.5349701829
 30
0.0
 10
5.9767360464
 20
4.5352312561
 30
0.0
  0
SPLINE
  5
327
100
AcDbEntity
  8
0
100
AcDbSpline
 62
7
  6
CONTINUOUS
 70
0
 71
3
 72
25
 73
21
 74
0
 42
0.0000001
 43
0.0000001
 44
0.0000000001
 40
0.0
 40
0.0
 40
0.0
 40
0.0
 40
0.0185977577
 40
0.0373886034
 40
0.0565056726
 40
0.0760774987
 40
0.117021717
 40
0.1610690276
 40
0.2088242596
 40
0.2607119427
 40
0.3169980382
 40
0.377809766
 40
0.4431458654
 40
0.5128797552
 40
0.5867560604
 40
0.6643856135
 40
0.7452414656
 40
0.8286639974
 40
0.9138722782
 40
1.0
 40
1.0
 40
1.0
 40
1.0
 10
6.0467360464
 20
4.5352312561
 30
0.0
 10
6.0467360464
 20
4.5349701829
 30
0.0
 10
6.0467100803
 20
4.5344449717
 30
0.0
 10
6.0465940108
 20
4.5336591255
 30
0.0
 10
6.0464009193
 20
4.5328744349
 30
0.0
 10
6.0460359504
 20
4.5318164225
 30
0.0
 10
6.0453759471
 20
4.5304971962
 30
0.0
 10
6.0442947261
 20
4.5289721042
 30
0.0
 10
6.0429179621
 20
4.5274909086
 30
0.0
 10
6.0412514635
 20
4.5260654031
 30
0.0
 10
6.0393018659
 20
4.5247079682
 30
0.0
 10
6.0370778304
 20
4.5234323726
 30
0.0
 10
6.0345908544
 20
4.522253389
 30
0.0
 10
6.0318561652
 20
4.5211865842
 30
0.0
 10
6.0288935434
 20
4.5202478809
 30
0.0
 10
6.0257280504
 20
4.519453
 30
0.0
 10
6.0223904942
 20
4.5188166894
 30
0.0
 10
6.0189174387
 20
4.5183518734
 30
0.0
 10
6.0153507824
 20
4.518068643
 30
0.0
 10
6.0129450974
 20
4.518005325
 30
0.0
 10
6.0117360464
 20
4.518005325
 30
0.0
  0
SPLINE
  5
328
100
AcDbEntity
  8
0
100
AcDbSpline
 62
7
  6
CONTINUOUS
 70
0
 71
3
 72
18
 73
14
 74
0
 42
0.0000001
 43
0.0000001
 44
0.0000000001
 40
0.0
 40
0.0
 40
0.0
 40
0.0
 40
0.035700172
 40
0.075349991
 40
0.119090616
 40
0.1669812253
 40
0.2189978712
 40
0.2750435519
 40
0.3985290675
 40
0.5356451737
 40
0.683830135
 40
0.8398615855
 40
1.0
 40
1.0
 40
1.0
 40
1.0
 10
6.0392360464
 20
4.5517239304
 30
0.0
 10
6.0391341809
 20
4.5518344031
 30
0.0
 10
6.0389034206
 20
4.5520532239
 30
0.0
 10
6.0385056562
 20
4.5523593381
 30
0.0
 10
6.0380403456
 20
4.5526584468
 30
0.0
 10
6.0375095883
 20
4.5529489408
 30
0.0
 10
6.0369156487
 20
4.5532292865
 30
0.0
 10
6.0360135929
 20
4.5535992709
 30
0.0
 10
6.0347467521
 20
4.5540187644
 30
0.0
 10
6.0330775861
 20
4.5544412663
 30
0.0
 10
6.0312509978
 20
4.5547854932
 30
0.0
 10
6.0293122994
 20
4.5550408039
 30
0.0
 10
6.0279849081
 20
4.5551456433
 30
0.0
 10
6.0273118064
 20
4.5551814618
 30
0.0
  0
SPLINE
  5
329
100
AcDbEntity
  8
0
100
AcDbSpline
 62
7
  6
CONTINUOUS
 70
0
 71
3
 72
17
 73
13
 74
0
 42
0.0000001
 43
0.0000001
 44
0.0000000001
 40
0.0
 40
0.0
 40
0.0
 40
0.0
 40
0.1725193712
 40
0.3381528177
 40
0.4913241876
 40
0.6281139073
 40
0.7463782997
 40
0.8457897538
 40
0.8890276874
 40
0.9285701656
 40
0.9652135532
 40
1.0
 40
1.0
 40
1.0
 40
1.0
 10
5.9892360464
 20
4.5421329459
 30
0.0
 10
5.9890648966
 20
4.5421191756
 30
0.0
 10
5.9887304127
 20
4.5420775915
 30
0.0
 10
5.9882516861
 20
4.5419747928
 30
0.0
 10
5.9878185853
 20
4.5418380148
 30
0.0
 10
5.9874457404
 20
4.5416740514
 30
0.0
 10
5.9871435053
 20
4.541489903
 30
0.0
 10
5.9869469706
 20
4.5413167135
 30
0.0
 10
5.986836466
 20
4.5411722388
 30
0.0
 10
5.9867791495
 20
4.5410674776
 30
0.0
 10
5.9867441549
 20
4.5409620343
 30
0.0
 10
5.9867360464
 20
4.540890745
 30
0.0
 10
5.9867360464
 20
4.5408561232
 30
0.0
  0
SPLINE
  5
32A
100
AcDbEntity
  8
0
100
AcDbSpline
 62
7
  6
CONTINUOUS
 70
0
 71
3
 72
17
 73
13
 74
0
 42
0.0000001
 43
0.0000001
 44
0.0000000001
 40
0.0
 40
0.0
 40
0.0
 40
0.0
 40
0.034789998
 40
0.0714871698
 40
0.1111186761
 40
0.1544637946
 40
0.2540841146
 40
0.3724732238
 40
0.5092606885
 40
0.662305733
 40
0.8277271351
 40
1.0
 40
1.0
 40
1.0
 40
1.0
 10
6.0392360464
 20
4.5406202797
 30
0.0
 10
6.0392360464
 20
4.5406550081
 30
0.0
 10
6.0392278981
 20
4.5407265638
 30
0.0
 10
6.0391928267
 20
4.5408324761
 30
0.0
 10
6.0391354284
 20
4.540937873
 30
0.0
 10
6.0390248316
 20
4.5410834544
 30
0.0
 10
6.0388283125
 20
4.5412584416
 30
0.0
 10
6.0385261674
 20
4.5414453478
 30
0.0
 10
6.0381535148
 20
4.5416126847
 30
0.0
 10
6.0377206216
 20
4.5417533987
 30
0.0
 10
6.0372419672
 20
4.5418605771
 30
0.0
 10
6.0369073299
 20
4.5419052234
 30
0.0
 10
6.0367360464
 20
4.5419205472
 30
0.0
  0
SPLINE
  5
32B
100
AcDbEntity
  8
0
100
AcDbSpline
 62
7
  6
CONTINUOUS
 70
0
 71
3
 72
30
 73
26
 74
0
 42
0.0000001
 43
0.0000001
 44
0.0000000001
 40
0.0
 40
0.0
 40
0.0
 40
0.0
 40
0.170134107
 40
0.254908523
 40
0.3391602794
 40
0.4224549405
 40
0.5041390636
 40
0.5832882435
 40
0.6586997951
 40
0.7289725508
 40
0.7928158832
 40
0.8495017405
 40
0.8985139418
 40
0.9199193594
 40
0.9391008585
 40
0.9559256163
 40
0.9702384795
 40
0.9764032411
 40
0.9818805525
 40
0.9866514689
 40
0.9907013484
 40
0.9940241669
 40
0.9954166504
 40
0.996635279
 40
1.0
 40
1.0
 40
1.0
 40
1.0
 10
6.0117360464
 20
4.5666380178
 30
0.0
 10
6.0103096388
 20
4.5666380178
 30
0.0
 10
6.0081724355
 20
4.566622574
 30
0.0
 10
6.0053293697
 20
4.5665704079
 30
0.0
 10
6.0032145948
 20
4.5665155949
 30
0.0
 10
6.0011262071
 20
4.566445157
 30
0.0
 10
5.9990812052
 20
4.5663594319
 30
0.0
 10
5.9971030383
 20
4.5662591105
 30
0.0
 10
5.9952214318
 20
4.5661453518
 30
0.0
 10
5.9934692013
 20
4.5660197585
 30
0.0
 10
5.9918752234
 20
4.5658839952
 30
0.0
 10
5.9904610147
 20
4.5657401674
 30
0.0
 10
5.9894031482
 20
4.5656106571
 30
0.0
 10
5.9886597359
 20
4.5655025557
 30
0.0
 10
5.9881847066
 20
4.5654246373
 30
0.0
 10
5.9877700632
 20
4.5653466393
 30
0.0
 10
5.9874645786
 20
4.5652792008
 30
0.0
 10
5.9872539514
 20
4.5652244353
 30
0.0
 10
5.9871218671
 20
4.5651857307
 30
0.0
 10
5.9870082317
 20
4.565147469
 30
0.0
 10
5.9869135794
 20
4.5651096606
 30
0.0
 10
5.986847644
 20
4.565077213
 30
0.0
 10
5.9868052205
 20
4.5650506457
 30
0.0
 10
5.9867657891
 20
4.5650213058
 30
0.0
 10
5.9867360191
 20
4.5649868776
 30
0.0
 10
5.9867360485
 20
4.5649586677
 30
0.0
  0
SPLINE
  5
32C
100
AcDbEntity
  8
0
100
AcDbSpline
 62
7
  6
CONTINUOUS
 70
0
 71
3
 72
16
 73
12
 74
0
 42
0.0000001
 43
0.0000001
 44
0.0000000001
 40
0.0
 40
0.0
 40
0.0
 40
0.0
 40
0.0512509921
 40
0.1038222028
 40
0.2135572749
 40
0.3303005374
 40
0.4541392713
 40
0.5844311792
 40
0.7199648345
 40
0.8591122451
 40
1.0
 40
1.0
 40
1.0
 40
1.0
 10
6.2170715933
 20
4.3089295935
 30
0.0
 10
6.2166919114
 20
4.3090634162
 30
0.0
 10
6.2159374776
 20
4.309378279
 30
0.0
 10
6.2144648373
 20
4.3101868936
 30
0.0
 10
6.2127157446
 20
4.3115324981
 30
0.0
 10
6.2108594877
 20
4.3135804581
 30
0.0
 10
6.2092594358
 20
4.3160279022
 30
0.0
 10
6.2079569132
 20
4.3188078133
 30
0.0
 10
6.2069852548
 20
4.3218455101
 30
0.0
 10
6.206369854
 20
4.3250585781
 30
0.0
 10
6.2062081991
 20
4.3272580704
 30
0.0
 10
6.2061904661
 20
4.3283645982
 30
0.0
  0
SPLINE
  5
32D
100
AcDbEntity
  8
0
100
AcDbSpline
 62
7
  6
CONTINUOUS
 70
0
 71
3
 72
49
 73
45
 74
0
 42
0.0000001
 43
0.0000001
 44
0.0000000001
 40
0.0
 40
0.0
 40
0.0
 40
0.0
 40
0.0124377022
 40
0.0249131381
 40
0.0374597144
 40
0.0501128973
 40
0.0629052607
 40
0.0758668006
 40
0.0890250085
 40
0.1024042467
 40
0.1160256318
 40
0.1299068904
 40
0.1584920294
 40
0.1882464224
 40
0.2191938047
 40
0.2513119435
 40
0.2845382864
 40
0.3187757542
 40
0.3538983378
 40
0.3897564508
 40
0.4261820498
 40
0.4629934581
 40
0.5
 40
0.5370065419
 40
0.5738179502
 40
0.6102435492
 40
0.6461016622
 40
0.6812242458
 40
0.7154617136
 40
0.7486880565
 40
0.7808061953
 40
0.8117535776
 40
0.8415079706
 40
0.8700931096
 40
0.8839743682
 40
0.8975957533
 40
0.9109749915
 40
0.9241331994
 40
0.9370947393
 40
0.9498871027
 40
0.9625402856
 40
0.9750868619
 40
0.9875622978
 40
1.0
 40
1.0
 40
1.0
 40
1.0
 10
6.6283820187
 20
3.0256885294
 30
0.0
 10
6.6305794154
 20
3.0256885294
 30
0.0
 10
6.6349825607
 20
3.0255272439
 30
0.0
 10
6.6415664662
 20
3.0248028233
 30
0.0
 10
6.6481184636
 20
3.0235973222
 30
0.0
 10
6.6546218507
 20
3.021913961
 30
0.0
 10
6.6610610996
 20
3.0197570931
 30
0.0
 10
6.6674204923
 20
3.0171320419
 30
0.0
 10
6.6736846572
 20
3.0140454017
 30
0.0
 10
6.6798385217
 20
3.0105049607
 30
0.0
 10
6.6858674323
 20
3.0065192152
 30
0.0
 10
6.6937961588
 20
3.0005673527
 30
0.0
 10
6.7033168666
 20
2.9920294376
 30
0.0
 10
6.7138964128
 20
2.9802931847
 30
0.0
 10
6.7236476394
 20
2.9670782433
 30
0.0
 10
6.7324789018
 20
2.9525127069
 30
0.0
 10
6.7403083583
 20
2.9367356645
 30
0.0
 10
6.7470625913
 20
2.9198978019
 30
0.0
 10
6.7526780988
 20
2.9021597771
 30
0.0
 10
6.7571018986
 20
2.8836909313
 30
0.0
 10
6.7602921069
 20
2.8646676506
 30
0.0
 10
6.7622184181
 20
2.8452717105
 30
0.0
 10
6.7628625562
 20
2.8256885294
 30
0.0
 10
6.7622184181
 20
2.8061053483
 30
0.0
 10
6.7602921069
 20
2.7867094083
 30
0.0
 10
6.7571018986
 20
2.7676861276
 30
0.0
 10
6.7526780988
 20
2.7492172817
 30
0.0
 10
6.7470625913
 20
2.7314792569
 30
0.0
 10
6.7403083583
 20
2.7146413943
 30
0.0
 10
6.7324789018
 20
2.698864352
 30
0.0
 10
6.7236476394
 20
2.6842988155
 30
0.0
 10
6.7138964128
 20
2.6710838741
 30
0.0
 10
6.7033168666
 20
2.6593476212
 30
0.0
 10
6.6937961588
 20
2.6508097061
 30
0.0
 10
6.6858674323
 20
2.6448578436
 30
0.0
 10
6.6798385217
 20
2.6408720981
 30
0.0
 10
6.6736846572
 20
2.6373316571
 30
0.0
 10
6.6674204923
 20
2.6342450169
 30
0.0
 10
6.6610610996
 20
2.6316199657
 30
0.0
 10
6.6546218507
 20
2.6294630978
 30
0.0
 10
6.6481184636
 20
2.6277797366
 30
0.0
 10
6.6415664662
 20
2.6265742355
 30
0.0
 10
6.6349825607
 20
2.625849815
 30
0.0
 10
6.6305794154
 20
2.6256885294
 30
0.0
 10
6.6283820187
 20
2.6256885294
 30
0.0
  0
SPLINE
  5
32E
100
AcDbEntity
  8
0
100
AcDbSpline
 62
7
  6
CONTINUOUS
 70
0
 71
3
 72
25
 73
21
 74
0
 42
0.0000001
 43
0.0000001
 44
0.0000000001
 40
0.0
 40
0.0
 40
0.0
 40
0.0
 40
0.0237156509
 40
0.0468982235
 40
0.0697356138
 40
0.0924145922
 40
0.1151168447
 40
0.1380123512
 40
0.1849683944
 40
0.2343795522
 40
0.2870613444
 40
0.3435096007
 40
0.4038967044
 40
0.4681745522
 40
0.536156272
 40
0.6075411725
 40
0.6819347526
 40
0.8378544819
 40
0.9184240289
 40
1.0
 40
1.0
 40
1.0
 40
1.0
 10
5.8060777649
 20
4.3080666118
 30
0.0
 10
5.8064912408
 20
4.3079634914
 30
0.0
 10
5.8073018316
 20
4.3077296432
 30
0.0
 10
5.8084765792
 20
4.30729009
 30
0.0
 10
5.8095961281
 20
4.306766929
 30
0.0
 10
5.8106629857
 20
4.3061606852
 30
0.0
 10
5.8116797795
 20
4.305471918
 30
0.0
 10
5.8129825859
 20
4.3044360056
 30
0.0
 10
5.8145074587
 20
4.30291944
 30
0.0
 10
5.8161498731
 20
4.3007962269
 30
0.0
 10
5.8176389174
 20
4.2983619688
 30
0.0
 10
5.818985207
 20
4.2956256162
 30
0.0
 10
5.8201887017
 20
4.2925987795
 30
0.0
 10
5.8212427268
 20
4.2892989507
 30
0.0
 10
5.8221393775
 20
4.2857491212
 30
0.0
 10
5.8228702044
 20
4.281976326
 30
0.0
 10
5.8236234441
 20
4.2766057994
 30
0.0
 10
5.8239864623
 20
4.2710218647
 30
0.0
 10
5.8239956932
 20
4.2653057745
 30
0.0
 10
5.8238891127
 20
4.2623933538
 30
0.0
 10
5.823812004
 20
4.2609295636
 30
0.0
  0
SPLINE
  5
32F
100
AcDbEntity
  8
0
100
AcDbSpline
 62
7
  6
CONTINUOUS
 70
0
 71
3
 72
17
 73
13
 74
0
 42
0.0000001
 43
0.0000001
 44
0.0000000001
 40
0.0
 40
0.0
 40
0.0
 40
0.0
 40
0.0521566552
 40
0.1052778988
 40
0.1596221786
 40
0.2153955178
 40
0.3316469031
 40
0.4547047299
 40
0.5842729624
 40
0.7193835221
 40
0.8585594032
 40
1.0
 40
1.0
 40
1.0
 40
1.0
 10
5.8059138968
 20
4.3087153164
 30
0.0
 10
5.8063218846
 20
4.3088253505
 30
0.0
 10
5.8071330319
 20
4.3090962582
 30
0.0
 10
5.8083077231
 20
4.3096431006
 30
0.0
 10
5.8094413224
 20
4.3103293154
 30
0.0
 10
5.8109060603
 20
4.311437572
 30
0.0
 10
5.8125884344
 20
4.3131574899
 30
0.0
 10
5.8142836235
 20
4.315634436
 30
0.0
 10
5.815639993
 20
4.3184807529
 30
0.0
 10
5.8166197153
 20
4.3216132687
 30
0.0
 10
5.8171960273
 20
4.3249407239
 30
0.0
 10
5.8173000986
 20
4.3272188136
 30
0.0
 10
5.8172817365
 20
4.3283645971
 30
0.0
  0
SPLINE
  5
330
100
AcDbEntity
  8
0
100
AcDbSpline
 62
7
  6
CONTINUOUS
 70
0
 71
3
 72
22
 73
18
 74
0
 42
0.0000001
 43
0.0000001
 44
0.0000000001
 40
0.0
 40
0.0
 40
0.0
 40
0.0
 40
0.0531164018
 40
0.1065839722
 40
0.1607376812
 40
0.2158823238
 40
0.2722809434
 40
0.330147321
 40
0.3896418466
 40
0.4508705402
 40
0.5138864052
 40
0.5786923932
 40
0.6452454375
 40
0.7134608279
 40
0.7832174581
 40
0.8543612904
 40
1.0
 40
1.0
 40
1.0
 40
1.0
 10
5.6133777221
 20
4.3541482919
 30
0.0
 10
5.6118646044
 20
4.3541482833
 30
0.0
 10
5.6088254741
 20
4.3539720312
 30
0.0
 10
5.6043056765
 20
4.3531817207
 30
0.0
 10
5.5998479589
 20
4.3518711474
 30
0.0
 10
5.5954834848
 20
4.3500499879
 30
0.0
 10
5.5912413773
 20
4.3477313945
 30
0.0
 10
5.5871498761
 20
4.3449317562
 30
0.0
 10
5.583235897
 20
4.3416704813
 30
0.0
 10
5.5795250607
 20
4.3379698398
 30
0.0
 10
5.5760415872
 20
4.3338548217
 30
0.0
 10
5.5728082045
 20
4.3293530212
 30
0.0
 10
5.5698460231
 20
4.324494446
 30
0.0
 10
5.5671744474
 20
4.3193115455
 30
0.0
 10
5.5648108673
 20
4.3138383096
 30
0.0
 10
5.5620704099
 20
4.3061451983
 30
0.0
 10
5.5605555667
 20
4.3001371577
 30
0.0
 10
5.5597794647
 20
4.2960616112
 30
0.0
  0
SPLINE
  5
331
100
AcDbEntity
  8
0
100
AcDbSpline
 62
7
  6
CONTINUOUS
 70
0
 71
3
 72
37
 73
33
 74
0
 42
0.0000001
 43
0.0000001
 44
0.0000000001
 40
0.0
 40
0.0
 40
0.0
 40
0.0
 40
0.0722285976
 40
0.1073710989
 40
0.1418171953
 40
0.1755379103
 40
0.2085063703
 40
0.2407038648
 40
0.2721207392
 40
0.3027609871
 40
0.3326449875
 40
0.361813177
 40
0.3903293724
 40
0.4182820804
 40
0.4457848149
 40
0.4729732829
 40
0.5000000001
 40
0.5270267173
 40
0.5542151852
 40
0.5817179197
 40
0.6096706277
 40
0.6381868231
 40
0.6673550126
 40
0.6972390129
 40
0.7278792608
 40
0.7592961352
 40
0.7914936298
 40
0.8244620897
 40
0.8581828047
 40
0.8926289011
 40
0.9277714024
 40
1.0
 40
1.0
 40
1.0
 40
1.0
 10
6.7532935417
 20
3.3796050067
 30
0.0
 10
6.7511547866
 20
3.3769151241
 30
0.0
 10
6.7478812019
 20
3.3729891275
 30
0.0
 10
6.7433370049
 20
3.3680001645
 30
0.0
 10
6.739911426
 20
3.3644738068
 30
0.0
 10
6.7364371627
 20
3.3611429982
 30
0.0
 10
6.7329139161
 20
3.3580228307
 30
0.0
 10
6.7293421212
 20
3.3551290777
 30
0.0
 10
6.7257226467
 20
3.3524780889
 30
0.0
 10
6.7220571526
 20
3.3500863713
 30
0.0
 10
6.7183479376
 20
3.3479705879
 30
0.0
 10
6.7145983488
 20
3.3461467118
 30
0.0
 10
6.7108125961
 20
3.3446300283
 30
0.0
 10
6.706995999
 20
3.343434319
 30
0.0
 10
6.7031550272
 20
3.342571069
 30
0.0
 10
6.6992970765
 20
3.3420493826
 30
0.0
 10
6.6954304219
 20
3.3418749007
 30
0.0
 10
6.6915637674
 20
3.3420493826
 30
0.0
 10
6.6877058167
 20
3.342571069
 30
0.0
 10
6.6838648448
 20
3.343434319
 30
0.0
 10
6.6800482477
 20
3.3446300283
 30
0.0
 10
6.6762624951
 20
3.3461467118
 30
0.0
 10
6.6725129063
 20
3.3479705879
 30
0.0
 10
6.6688036913
 20
3.3500863713
 30
0.0
 10
6.6651381972
 20
3.3524780889
 30
0.0
 10
6.6615187227
 20
3.3551290777
 30
0.0
 10
6.6579469278
 20
3.3580228307
 30
0.0
 10
6.6544236812
 20
3.3611429982
 30
0.0
 10
6.6509494179
 20
3.3644738069
 30
0.0
 10
6.6475238389
 20
3.3680001645
 30
0.0
 10
6.642979642
 20
3.3729891275
 30
0.0
 10
6.6397060573
 20
3.3769151241
 30
0.0
 10
6.6375673022
 20
3.3796050067
 30
0.0
  0
SPLINE
  5
332
100
AcDbEntity
  8
0
100
AcDbSpline
 62
7
  6
CONTINUOUS
 70
0
 71
3
 72
37
 73
33
 74
0
 42
0.0000001
 43
0.0000001
 44
0.0000000001
 40
0.0
 40
0.0
 40
0.0
 40
0.0
 40
0.0722285976
 40
0.1073710989
 40
0.1418171953
 40
0.1755379103
 40
0.2085063703
 40
0.2407038648
 40
0.2721207392
 40
0.3027609871
 40
0.3326449875
 40
0.361813177
 40
0.3903293724
 40
0.4182820804
 40
0.4457848149
 40
0.4729732829
 40
0.5000000001
 40
0.5270267173
 40
0.5542151852
 40
0.5817179197
 40
0.6096706277
 40
0.6381868231
 40
0.6673550126
 40
0.6972390129
 40
0.7278792608
 40
0.7592961352
 40
0.7914936298
 40
0.8244620897
 40
0.8581828047
 40
0.8926289011
 40
0.9277714024
 40
1.0
 40
1.0
 40
1.0
 40
1.0
 10
6.7532935417
 20
3.5526915772
 30
0.0
 10
6.7511547866
 20
3.5553814597
 30
0.0
 10
6.7478812019
 20
3.5593074564
 30
0.0
 10
6.7433370049
 20
3.5642964194
 30
0.0
 10
6.739911426
 20
3.567822777
 30
0.0
 10
6.7364371627
 20
3.5711535857
 30
0.0
 10
6.7329139161
 20
3.5742737532
 30
0.0
 10
6.7293421212
 20
3.5771675061
 30
0.0
 10
6.7257226467
 20
3.5798184949
 30
0.0
 10
6.7220571526
 20
3.5822102125
 30
0.0
 10
6.7183479376
 20
3.5843259959
 30
0.0
 10
6.7145983488
 20
3.5861498721
 30
0.0
 10
6.7108125961
 20
3.5876665556
 30
0.0
 10
6.706995999
 20
3.5888622648
 30
0.0
 10
6.7031550272
 20
3.5897255149
 30
0.0
 10
6.6992970765
 20
3.5902472013
 30
0.0
 10
6.6954304219
 20
3.5904216831
 30
0.0
 10
6.6915637674
 20
3.5902472013
 30
0.0
 10
6.6877058167
 20
3.5897255149
 30
0.0
 10
6.6838648448
 20
3.5888622648
 30
0.0
 10
6.6800482477
 20
3.5876665556
 30
0.0
 10
6.6762624951
 20
3.586149872
 30
0.0
 10
6.6725129063
 20
3.5843259959
 30
0.0
 10
6.6688036913
 20
3.5822102125
 30
0.0
 10
6.6651381972
 20
3.5798184949
 30
0.0
 10
6.6615187227
 20
3.5771675061
 30
0.0
 10
6.6579469278
 20
3.5742737532
 30
0.0
 10
6.6544236812
 20
3.5711535857
 30
0.0
 10
6.6509494179
 20
3.567822777
 30
0.0
 10
6.6475238389
 20
3.5642964194
 30
0.0
 10
6.642979642
 20
3.5593074564
 30
0.0
 10
6.6397060573
 20
3.5553814597
 30
0.0
 10
6.6375673022
 20
3.5526915772
 30
0.0
  0
SPLINE
  5
333
100
AcDbEntity
  8
0
100
AcDbSpline
 62
7
  6
CONTINUOUS
 70
0
 71
3
 72
18
 73
14
 74
0
 42
0.0000001
 43
0.0000001
 44
0.0000000001
 40
0.0
 40
0.0
 40
0.0
 40
0.0
 40
0.0625035271
 40
0.1250104643
 40
0.1875146734
 40
0.2500196543
 40
0.3125245632
 40
0.375029475
 40
0.5000170215
 40
0.6250084875
 40
0.750003402
 40
0.8750006743
 40
1.0
 40
1.0
 40
1.0
 40
1.0
 10
6.9526399669
 20
3.3419329016
 30
0.0
 10
6.950070191
 20
3.3419329016
 30
0.0
 10
6.9449297532
 20
3.3420486058
 30
0.0
 10
6.9372352922
 20
3.3425672863
 30
0.0
 10
6.9295711818
 20
3.3434260372
 30
0.0
 10
6.9219518241
 20
3.3446165557
 30
0.0
 10
6.9143895646
 20
3.3461278833
 30
0.0
 10
6.9043987896
 20
3.3485525311
 30
0.0
 10
6.8921009978
 20
3.3523164093
 30
0.0
 10
6.8777085875
 20
3.3578736727
 30
0.0
 10
6.8637023531
 20
3.3643394243
 30
0.0
 10
6.8500874437
 20
3.3715884046
 30
0.0
 10
6.8412642582
 20
3.3768692056
 30
0.0
 10
6.8369137274
 20
3.3796050067
 30
0.0
  0
SPLINE
  5
334
100
AcDbEntity
  8
0
100
AcDbSpline
 62
7
  6
CONTINUOUS
 70
0
 71
3
 72
18
 73
14
 74
0
 42
0.0000001
 43
0.0000001
 44
0.0000000001
 40
0.0
 40
0.0
 40
0.0
 40
0.0
 40
0.0625035271
 40
0.1250104643
 40
0.1875146734
 40
0.2500196543
 40
0.3125245632
 40
0.375029475
 40
0.5000170215
 40
0.6250084875
 40
0.750003402
 40
0.8750006743
 40
1.0
 40
1.0
 40
1.0
 40
1.0
 10
6.9526399669
 20
3.5903636822
 30
0.0
 10
6.950070191
 20
3.5903636822
 30
0.0
 10
6.9449297532
 20
3.5902479781
 30
0.0
 10
6.9372352922
 20
3.5897292976
 30
0.0
 10
6.9295711818
 20
3.5888705466
 30
0.0
 10
6.9219518241
 20
3.5876800282
 30
0.0
 10
6.9143895646
 20
3.5861687006
 30
0.0
 10
6.9043987896
 20
3.5837440527
 30
0.0
 10
6.8921009978
 20
3.5799801745
 30
0.0
 10
6.8777085875
 20
3.5744229112
 30
0.0
 10
6.8637023531
 20
3.5679571595
 30
0.0
 10
6.8500874437
 20
3.5607081792
 30
0.0
 10
6.8412642582
 20
3.5554273783
 30
0.0
 10
6.8369137274
 20
3.5526915772
 30
0.0
  0
SPLINE
  5
335
100
AcDbEntity
  8
0
100
AcDbSpline
 62
7
  6
CONTINUOUS
 70
0
 71
3
 72
18
 73
14
 74
0
 42
0.0000001
 43
0.0000001
 44
0.0000000001
 40
0.0
 40
0.0
 40
0.0
 40
0.0
 40
0.1249994059
 40
0.2499967598
 40
0.3749917206
 40
0.4999832116
 40
0.6249707487
 40
0.687475635
 40
0.7499805117
 40
0.8124854658
 40
0.8749896343
 40
0.9374965013
 40
1.0
 40
1.0
 40
1.0
 40
1.0
 10
7.0683662063
 20
3.5526915772
 30
0.0
 10
7.0640156728
 20
3.55542738
 30
0.0
 10
7.0551924814
 20
3.5607081843
 30
0.0
 10
7.0415775641
 20
3.5679571679
 30
0.0
 10
7.0275713234
 20
3.5744229209
 30
0.0
 10
7.01317891
 20
3.5799801834
 30
0.0
 10
7.0008811179
 20
3.5837440592
 30
0.0
 10
6.9908903454
 20
3.5861687057
 30
0.0
 10
6.9833280894
 20
3.5876800331
 30
0.0
 10
6.9757087353
 20
3.5888705478
 30
0.0
 10
6.9680446307
 20
3.5897292986
 30
0.0
 10
6.9603501753
 20
3.5902479791
 30
0.0
 10
6.9552097415
 20
3.5903636822
 30
0.0
 10
6.9526399669
 20
3.5903636822
 30
0.0
  0
SPLINE
  5
336
100
AcDbEntity
  8
0
100
AcDbSpline
 62
7
  6
CONTINUOUS
 70
0
 71
3
 72
18
 73
14
 74
0
 42
0.0000001
 43
0.0000001
 44
0.0000000001
 40
0.0
 40
0.0
 40
0.0
 40
0.0
 40
0.1249994059
 40
0.2499967598
 40
0.3749917206
 40
0.4999832116
 40
0.6249707487
 40
0.687475635
 40
0.7499805117
 40
0.8124854658
 40
0.8749896343
 40
0.9374965013
 40
1.0
 40
1.0
 40
1.0
 40
1.0
 10
7.0683662063
 20
3.3796050067
 30
0.0
 10
7.0640156728
 20
3.3768692038
 30
0.0
 10
7.0551924814
 20
3.3715883996
 30
0.0
 10
7.0415775641
 20
3.364339416
 30
0.0
 10
7.0275713234
 20
3.3578736629
 30
0.0
 10
7.01317891
 20
3.3523164004
 30
0.0
 10
7.0008811179
 20
3.3485525246
 30
0.0
 10
6.9908903454
 20
3.3461278782
 30
0.0
 10
6.9833280894
 20
3.3446165507
 30
0.0
 10
6.9757087353
 20
3.343426036
 30
0.0
 10
6.9680446307
 20
3.3425672853
 30
0.0
 10
6.9603501753
 20
3.3420486048
 30
0.0
 10
6.9552097415
 20
3.3419329016
 30
0.0
 10
6.9526399669
 20
3.3419329016
 30
0.0
  0
SPLINE
  5
337
100
AcDbEntity
  8
0
100
AcDbSpline
 62
7
  6
CONTINUOUS
 70
0
 71
3
 72
37
 73
33
 74
0
 42
0.0000001
 43
0.0000001
 44
0.0000000001
 40
0.0
 40
0.0
 40
0.0
 40
0.0
 40
0.0722285976
 40
0.1073710989
 40
0.1418171953
 40
0.1755379103
 40
0.2085063703
 40
0.2407038648
 40
0.2721207392
 40
0.3027609871
 40
0.3326449875
 40
0.361813177
 40
0.3903293724
 40
0.4182820804
 40
0.4457848149
 40
0.4729732829
 40
0.5000000001
 40
0.5270267173
 40
0.5542151852
 40
0.5817179197
 40
0.6096706277
 40
0.6381868231
 40
0.6673550126
 40
0.6972390129
 40
0.7278792608
 40
0.7592961352
 40
0.7914936298
 40
0.8244620897
 40
0.8581828047
 40
0.8926289011
 40
0.9277714024
 40
1.0
 40
1.0
 40
1.0
 40
1.0
 10
7.2677126315
 20
3.3796050067
 30
0.0
 10
7.2655738765
 20
3.3769151241
 30
0.0
 10
7.2623002918
 20
3.3729891275
 30
0.0
 10
7.2577560948
 20
3.3680001645
 30
0.0
 10
7.2543305158
 20
3.3644738068
 30
0.0
 10
7.2508562525
 20
3.3611429982
 30
0.0
 10
7.2473330059
 20
3.3580228307
 30
0.0
 10
7.243761211
 20
3.3551290777
 30
0.0
 10
7.2401417366
 20
3.3524780889
 30
0.0
 10
7.2364762425
 20
3.3500863713
 30
0.0
 10
7.2327670275
 20
3.3479705879
 30
0.0
 10
7.2290174386
 20
3.3461467118
 30
0.0
 10
7.225231686
 20
3.3446300283
 30
0.0
 10
7.2214150889
 20
3.343434319
 30
0.0
 10
7.217574117
 20
3.342571069
 30
0.0
 10
7.2137161664
 20
3.3420493826
 30
0.0
 10
7.2098495118
 20
3.3418749007
 30
0.0
 10
7.2059828572
 20
3.3420493826
 30
0.0
 10
7.2021249065
 20
3.342571069
 30
0.0
 10
7.1982839347
 20
3.343434319
 30
0.0
 10
7.1944673376
 20
3.3446300283
 30
0.0
 10
7.1906815849
 20
3.3461467118
 30
0.0
 10
7.1869319961
 20
3.3479705879
 30
0.0
 10
7.1832227811
 20
3.3500863713
 30
0.0
 10
7.179557287
 20
3.3524780889
 30
0.0
 10
7.1759378126
 20
3.3551290777
 30
0.0
 10
7.1723660177
 20
3.3580228307
 30
0.0
 10
7.1688427711
 20
3.3611429982
 30
0.0
 10
7.1653685078
 20
3.3644738069
 30
0.0
 10
7.1619429288
 20
3.3680001645
 30
0.0
 10
7.1573987318
 20
3.3729891275
 30
0.0
 10
7.1541251471
 20
3.3769151241
 30
0.0
 10
7.1519863921
 20
3.3796050067
 30
0.0
  0
SPLINE
  5
338
100
AcDbEntity
  8
0
100
AcDbSpline
 62
7
  6
CONTINUOUS
 70
0
 71
3
 72
37
 73
33
 74
0
 42
0.0000001
 43
0.0000001
 44
0.0000000001
 40
0.0
 40
0.0
 40
0.0
 40
0.0
 40
0.0722285976
 40
0.1073710989
 40
0.1418171953
 40
0.1755379103
 40
0.2085063703
 40
0.2407038648
 40
0.2721207392
 40
0.3027609871
 40
0.3326449875
 40
0.361813177
 40
0.3903293724
 40
0.4182820804
 40
0.4457848149
 40
0.4729732829
 40
0.5000000001
 40
0.5270267173
 40
0.5542151852
 40
0.5817179197
 40
0.6096706277
 40
0.6381868231
 40
0.6673550126
 40
0.6972390129
 40
0.7278792608
 40
0.7592961352
 40
0.7914936298
 40
0.8244620897
 40
0.8581828047
 40
0.8926289011
 40
0.9277714024
 40
1.0
 40
1.0
 40
1.0
 40
1.0
 10
7.2677126315
 20
3.5526915772
 30
0.0
 10
7.2655738765
 20
3.5553814597
 30
0.0
 10
7.2623002918
 20
3.5593074564
 30
0.0
 10
7.2577560948
 20
3.5642964194
 30
0.0
 10
7.2543305158
 20
3.567822777
 30
0.0
 10
7.2508562525
 20
3.5711535857
 30
0.0
 10
7.2473330059
 20
3.5742737532
 30
0.0
 10
7.243761211
 20
3.5771675061
 30
0.0
 10
7.2401417366
 20
3.5798184949
 30
0.0
 10
7.2364762425
 20
3.5822102125
 30
0.0
 10
7.2327670275
 20
3.5843259959
 30
0.0
 10
7.2290174386
 20
3.5861498721
 30
0.0
 10
7.225231686
 20
3.5876665556
 30
0.0
 10
7.2214150889
 20
3.5888622648
 30
0.0
 10
7.217574117
 20
3.5897255149
 30
0.0
 10
7.2137161664
 20
3.5902472013
 30
0.0
 10
7.2098495118
 20
3.5904216831
 30
0.0
 10
7.2059828572
 20
3.5902472013
 30
0.0
 10
7.2021249065
 20
3.5897255149
 30
0.0
 10
7.1982839347
 20
3.5888622648
 30
0.0
 10
7.1944673376
 20
3.5876665556
 30
0.0
 10
7.1906815849
 20
3.586149872
 30
0.0
 10
7.1869319961
 20
3.5843259959
 30
0.0
 10
7.1832227811
 20
3.5822102125
 30
0.0
 10
7.179557287
 20
3.5798184949
 30
0.0
 10
7.1759378126
 20
3.5771675061
 30
0.0
 10
7.1723660177
 20
3.5742737532
 30
0.0
 10
7.1688427711
 20
3.5711535857
 30
0.0
 10
7.1653685078
 20
3.567822777
 30
0.0
 10
7.1619429288
 20
3.5642964194
 30
0.0
 10
7.1573987318
 20
3.5593074564
 30
0.0
 10
7.1541251471
 20
3.5553814597
 30
0.0
 10
7.1519863921
 20
3.5526915772
 30
0.0
  0
SPLINE
  5
339
100
AcDbEntity
  8
0
100
AcDbSpline
 62
7
  6
CONTINUOUS
 70
0
 71
3
 72
22
 73
18
 74
0
 42
0.0000001
 43
0.0000001
 44
0.0000000001
 40
0.0
 40
0.0
 40
0.0
 40
0.0
 40
0.0276775228
 40
0.0570893644
 40
0.0896809711
 40
0.126499478
 40
0.1682448851
 40
0.2153582075
 40
0.2681071557
 40
0.3266347079
 40
0.3910029905
 40
0.4612086508
 40
0.5372046814
 40
0.6188997657
 40
0.7061794028
 40
0.798908763
 40
1.0
 40
1.0
 40
1.0
 40
1.0
 10
5.5448011316
 20
4.292412863
 30
0.0
 10
5.5448288746
 20
4.292558518
 30
0.0
 10
5.5449269948
 20
4.2928524711
 30
0.0
 10
5.5451893454
 20
4.2932597189
 30
0.0
 10
5.5455635665
 20
4.2936384514
 30
0.0
 10
5.5460468541
 20
4.2939897379
 30
0.0
 10
5.5466381325
 20
4.2943146044
 30
0.0
 10
5.5473365182
 20
4.294613266
 30
0.0
 10
5.5481409353
 20
4.2948854052
 30
0.0
 10
5.549049904
 20
4.2951306066
 30
0.0
 10
5.5500616081
 20
4.2953482875
 30
0.0
 10
5.5511739009
 20
4.2955379877
 30
0.0
 10
5.5523843296
 20
4.2956991903
 30
0.0
 10
5.5536901769
 20
4.2958315456
 30
0.0
 10
5.5550885334
 20
4.2959346904
 30
0.0
 10
5.5571278051
 20
4.2960356192
 30
0.0
 10
5.5587021826
 20
4.2960616112
 30
0.0
 10
5.5597794647
 20
4.2960616112
 30
0.0
  0
SPLINE
  5
33A
100
AcDbEntity
  8
0
100
AcDbSpline
 62
7
  6
CONTINUOUS
 70
0
 71
3
 72
22
 73
18
 74
0
 42
0.0000001
 43
0.0000001
 44
0.0000000001
 40
0.0
 40
0.0
 40
0.0
 40
0.0
 40
0.0276775229
 40
0.0570893649
 40
0.0896809721
 40
0.1264994796
 40
0.1682448872
 40
0.2153582101
 40
0.2681071588
 40
0.3266347111
 40
0.3910029939
 40
0.4612086542
 40
0.5372046846
 40
0.6188997685
 40
0.7061794052
 40
0.7989087648
 40
1.0
 40
1.0
 40
1.0
 40
1.0
 10
5.5448011314
 20
4.1358837216
 30
0.0
 10
5.5448288744
 20
4.1357380667
 30
0.0
 10
5.5449269946
 20
4.1354441135
 30
0.0
 10
5.5451893453
 20
4.1350368658
 30
0.0
 10
5.5455635664
 20
4.1346581332
 30
0.0
 10
5.546046854
 20
4.1343068466
 30
0.0
 10
5.5466381323
 20
4.1339819801
 30
0.0
 10
5.547336518
 20
4.1336833185
 30
0.0
 10
5.5481409352
 20
4.1334111792
 30
0.0
 10
5.5490499039
 20
4.1331659778
 30
0.0
 10
5.550061608
 20
4.1329482968
 30
0.0
 10
5.5511739008
 20
4.1327585966
 30
0.0
 10
5.5523843295
 20
4.1325973939
 30
0.0
 10
5.5536901768
 20
4.1324650385
 30
0.0
 10
5.5550885334
 20
4.1323618937
 30
0.0
 10
5.557127805
 20
4.1322609648
 30
0.0
 10
5.5587021826
 20
4.1322349727
 30
0.0
 10
5.5597794647
 20
4.1322349727
 30
0.0
  0
SPLINE
  5
33B
100
AcDbEntity
  8
0
100
AcDbSpline
 62
7
  6
CONTINUOUS
 70
0
 71
3
 72
38
 73
34
 74
0
 42
0.0000001
 43
0.0000001
 44
0.0000000001
 40
0.0
 40
0.0
 40
0.0
 40
0.0
 40
0.0428392354
 40
0.0848249151
 40
0.1258579574
 40
0.1658738717
 40
0.2048145065
 40
0.242653088
 40
0.2793852003
 40
0.3150259897
 40
0.3496015089
 40
0.3831492776
 40
0.415712212
 40
0.4473390232
 40
0.4780825081
 40
0.5079991053
 40
0.5371515424
 40
0.5656070058
 40
0.5934408814
 40
0.6207331487
 40
0.6475726136
 40
0.6740526225
 40
0.700273715
 40
0.7263393466
 40
0.7523561469
 40
0.7784305874
 40
0.8046659271
 40
0.831160905
 40
0.858006337
 40
0.8852852613
 40
0.9130688477
 40
0.9414202756
 40
1.0
 40
1.0
 40
1.0
 40
1.0
 10
6.4340417791
 20
2.7580805276
 30
0.0
 10
6.4334267371
 20
2.7556492253
 30
0.0
 10
6.4322429928
 20
2.7508264088
 30
0.0
 10
6.4305609962
 20
2.7436529329
 30
0.0
 10
6.4289610707
 20
2.736630174
 30
0.0
 10
6.4274191889
 20
2.729777071
 30
0.0
 10
6.4259230909
 20
2.7231053545
 30
0.0
 10
6.4244534003
 20
2.716624733
 30
0.0
 10
6.4229891308
 20
2.710341036
 30
0.0
 10
6.4215092938
 20
2.7042573328
 30
0.0
 10
6.419992911
 20
2.6983748437
 30
0.0
 10
6.4184194708
 20
2.6926939632
 30
0.0
 10
6.4167693929
 20
2.6872147249
 30
0.0
 10
6.4150244206
 20
2.6819373812
 30
0.0
 10
6.4131673169
 20
2.6768628519
 30
0.0
 10
6.4111825346
 20
2.6719926675
 30
0.0
 10
6.4090553025
 20
2.6673294992
 30
0.0
 10
6.4067723313
 20
2.66287679
 30
0.0
 10
6.404321349
 20
2.6586392548
 30
0.0
 10
6.4016918829
 20
2.6546222822
 30
0.0
 10
6.3988747567
 20
2.6508324913
 30
0.0
 10
6.3958628467
 20
2.6472769503
 30
0.0
 10
6.3926507186
 20
2.6439635992
 30
0.0
 10
6.3892351085
 20
2.6409005435
 30
0.0
 10
6.3856147925
 20
2.6380960878
 30
0.0
 10
6.3817905829
 20
2.6355585488
 30
0.0
 10
6.3777656084
 20
2.6332955174
 30
0.0
 10
6.3735447482
 20
2.6313144756
 30
0.0
 10
6.3691348885
 20
2.6296215422
 30
0.0
 10
6.3645444454
 20
2.6282226078
 30
0.0
 10
6.3597828855
 20
2.6271218532
 30
0.0
 10
6.3531505495
 20
2.6260451476
 30
0.0
 10
6.3480551572
 20
2.6257167173
 30
0.0
 10
6.3446258864
 20
2.6256910634
 30
0.0
  0
LINE
  5
33C
100
AcDbEntity
  8
0
100
AcDbLine
 62
7
  6
CONTINUOUS
 10
6.5481657111
 20
5.8459427413
 11
6.5484005304
 21
6.137082447
  0
LINE
  5
33D
100
AcDbEntity
  8
0
100
AcDbLine
 62
7
  6
CONTINUOUS
 10
6.5484005304
 20
6.137082447
 11
6.5484504585
 21
6.2846482919
  0
SPLINE
  5
33E
100
AcDbEntity
  8
0
100
AcDbSpline
 62
7
  6
CONTINUOUS
 70
0
 71
3
 72
22
 73
18
 74
0
 42
0.0000001
 43
0.0000001
 44
0.0000000001
 40
0.0
 40
0.0
 40
0.0
 40
0.0
 40
0.0575185275
 40
0.1164236403
 40
0.1765404035
 40
0.2377014385
 40
0.3624610871
 40
0.4258266976
 40
0.4896330552
 40
0.5537385937
 40
0.61800534
 40
0.6822998437
 40
0.7464935207
 40
0.8104645793
 40
0.8741016809
 40
0.937306185
 40
1.0
 40
1.0
 40
1.0
 40
1.0
 10
6.3525266901
 20
2.9908592258
 30
0.0
 10
6.3564072066
 20
2.9877390976
 30
0.0
 10
6.3640352455
 20
2.9811366412
 30
0.0
 10
6.3748805275
 20
2.9703531602
 30
0.0
 10
6.3851842937
 20
2.9586259401
 30
0.0
 10
6.3981589823
 20
2.941720044
 30
0.0
 10
6.4095788397
 20
2.9233206617
 30
0.0
 10
6.4192100203
 20
2.903739825
 30
0.0
 10
6.425515859
 20
2.8884143823
 30
0.0
 10
6.4307909587
 20
2.8726225628
 30
0.0
 10
6.4349671642
 20
2.8564606164
 30
0.0
 10
6.4379844376
 20
2.8400343949
 30
0.0
 10
6.4397919302
 20
2.8234563851
 30
0.0
 10
6.4403485526
 20
2.8068456165
 30
0.0
 10
6.4396239234
 20
2.7903258285
 30
0.0
 10
6.4376008353
 20
2.7740260736
 30
0.0
 10
6.4353733272
 20
2.7633419883
 30
0.0
 10
6.4340417791
 20
2.7580805276
 30
0.0
  0
SPLINE
  5
33F
100
AcDbEntity
  8
0
100
AcDbSpline
 62
7
  6
CONTINUOUS
 70
0
 71
3
 72
57
 73
53
 74
0
 42
0.0000001
 43
0.0000001
 44
0.0000000001
 40
0.0
 40
0.0
 40
0.0
 40
0.0
 40
0.0301484655
 40
0.0626177816
 40
0.1336655938
 40
0.2113226887
 40
0.2520355301
 40
0.2936865821
 40
0.3360386003
 40
0.3788554344
 40
0.4219018629
 40
0.4649432989
 40
0.5077459065
 40
0.5500769781
 40
0.5917055982
 40
0.6324034829
 40
0.671946177
 40
0.7101141904
 40
0.7466943344
 40
0.7814810507
 40
0.8142777359
 40
0.8448980197
 40
0.8731670384
 40
0.898922598
 40
0.9108109099
 40
0.9220162299
 40
0.9325224953
 40
0.9423142772
 40
0.9513774924
 40
0.9596987218
 40
0.9672659939
 40
0.9740680343
 40
0.9800950421
 40
0.9828150077
 40
0.9853379441
 40
0.987662967
 40
0.9897891943
 40
0.9917157713
 40
0.9934420332
 40
0.9949674064
 40
0.9962913286
 40
0.9974132758
 40
0.998332935
 40
0.9987168604
 40
0.9990501718
 40
0.9993328827
 40
0.9995650403
 40
0.9997467631
 40
0.9998783644
 40
0.9999607958
 40
0.9999847857
 40
1.0
 40
1.0
 40
1.0
 40
1.0
 10
6.8006144361
 20
3.2141487896
 30
0.0
 10
6.8041430914
 20
3.2141488245
 30
0.0
 10
6.8114720629
 20
3.2141856928
 30
0.0
 10
6.827115436
 20
3.2143888393
 30
0.0
 10
6.8483154776
 20
3.214871062
 30
0.0
 10
6.8704756821
 20
3.2155293112
 30
0.0
 10
6.8891956153
 20
3.2161208542
 30
0.0
 10
6.9037851414
 20
3.2165902995
 30
0.0
 10
6.918620825
 20
3.2170668013
 30
0.0
 10
6.9336200504
 20
3.2175388978
 30
0.0
 10
6.9487002886
 20
3.2180019513
 30
0.0
 10
6.9637794006
 20
3.2184471277
 30
0.0
 10
6.978775323
 20
3.2188725015
 30
0.0
 10
6.9936064502
 20
3.2192752776
 30
0.0
 10
7.0081918225
 20
3.2196526089
 30
0.0
 10
7.0224513345
 20
3.2200060995
 30
0.0
 10
7.0363063075
 20
3.2203340656
 30
0.0
 10
7.0496797586
 20
3.2206378954
 30
0.0
 10
7.0624969301
 20
3.2209188141
 30
0.0
 10
7.0746857749
 20
3.2211768044
 30
0.0
 10
7.0861773388
 20
3.2214142485
 30
0.0
 10
7.0969063031
 20
3.2216317198
 30
0.0
 10
7.1068113647
 20
3.2218305063
 30
0.0
 10
7.1145244172
 20
3.2219858799
 30
0.0
 10
7.1202406686
 20
3.2221023213
 30
0.0
 10
7.1241724541
 20
3.2221833316
 30
0.0
 10
7.127858881
 20
3.2222606018
 30
0.0
 10
7.1312946084
 20
3.2223343691
 30
0.0
 10
7.1344746091
 20
3.2224046348
 30
0.0
 10
7.1373942604
 20
3.222471403
 30
0.0
 10
7.1400492634
 20
3.2225348528
 30
0.0
 10
7.1424357403
 20
3.2225951921
 30
0.0
 10
7.1442549721
 20
3.2226444613
 30
0.0
 10
7.1455734791
 20
3.2226826552
 30
0.0
 10
7.1464588399
 20
3.2227095786
 30
0.0
 10
7.147274697
 20
3.2227357757
 30
0.0
 10
7.1480207403
 20
3.2227612524
 30
0.0
 10
7.1486966849
 20
3.2227860124
 30
0.0
 10
7.1493022801
 20
3.2228100645
 30
0.0
 10
7.1498373075
 20
3.2228334199
 30
0.0
 10
7.1503015627
 20
3.2228560734
 30
0.0
 10
7.1506948637
 20
3.2228780377
 30
0.0
 10
7.1509781518
 20
3.2228966527
 30
0.0
 10
7.1511691603
 20
3.2229115723
 30
0.0
 10
7.1512857404
 20
3.2229218981
 30
0.0
 10
7.1513845078
 20
3.222932027
 30
0.0
 10
7.1514654188
 20
3.2229419419
 30
0.0
 10
7.1515286041
 20
3.2229515754
 30
0.0
 10
7.1515738851
 20
3.2229608559
 30
0.0
 10
7.1516008393
 20
3.2229690035
 30
0.0
 10
7.1516131726
 20
3.222976092
 30
0.0
 10
7.1516160252
 20
3.2229802684
 30
0.0
 10
7.1516161156
 20
3.2229820468
 30
0.0
  0
SPLINE
  5
340
100
AcDbEntity
  8
0
100
AcDbSpline
 62
7
  6
CONTINUOUS
 70
0
 71
3
 72
63
 73
59
 74
0
 42
0.0000001
 43
0.0000001
 44
0.0000000001
 40
0.0
 40
0.0
 40
0.0
 40
0.0
 40
0.0301921395
 40
0.0626477688
 40
0.0971795215
 40
0.1335826591
 40
0.1716430022
 40
0.211138323
 40
0.2518386436
 40
0.2935105436
 40
0.3788139452
 40
0.4219634428
 40
0.4651220627
 40
0.5080482754
 40
0.5505023533
 40
0.5922470976
 40
0.6330490233
 40
0.6726803047
 40
0.7109179677
 40
0.7475479221
 40
0.7823636101
 40
0.8151679259
 40
0.8457763843
 40
0.8740137139
 40
0.8997205224
 40
0.9115785741
 40
0.9227497555
 40
0.9332179499
 40
0.9429688328
 40
0.9519885031
 40
0.9602634897
 40
0.9677815275
 40
0.9745321813
 40
0.9805058829
 40
0.9831987147
 40
0.9856941448
 40
0.9879912577
 40
0.9900892077
 40
0.9919871519
 40
0.9936842817
 40
0.995180065
 40
0.9964741162
 40
0.9975660593
 40
0.998455544
 40
0.998824286
 40
0.9991423339
 40
0.9994096806
 40
0.9996263406
 40
0.9997156817
 40
0.9997923828
 40
0.9998564734
 40
0.9999080084
 40
0.9999471003
 40
0.9999740259
 40
0.9999831875
 40
0.9999898529
 40
0.9999948739
 40
1.0
 40
1.0
 40
1.0
 40
1.0
 10
6.7942601926
 20
3.2608418177
 30
0.0
 10
6.7979705481
 20
3.2608415329
 30
0.0
 10
6.8056694223
 20
3.2608233043
 30
0.0
 10
6.8176117902
 20
3.2607577306
 30
0.0
 10
6.8303171466
 20
3.2606483757
 30
0.0
 10
6.8437109427
 20
3.2605026419
 30
0.0
 10
6.8577143857
 20
3.2603251726
 30
0.0
 10
6.8722455954
 20
3.2601205075
 30
0.0
 10
6.8872204108
 20
3.2598973065
 30
0.0
 10
6.9078238053
 20
3.2595760138
 30
0.0
 10
6.9287280136
 20
3.2592417005
 30
0.0
 10
6.9498149297
 20
3.258906087
 30
0.0
 10
6.9656947789
 20
3.2586576196
 30
0.0
 10
6.981489229
 20
3.2584137941
 30
0.0
 10
6.9971100382
 20
3.2581786513
 30
0.0
 10
7.0124699022
 20
3.2579529652
 30
0.0
 10
7.0274829721
 20
3.2577368886
 30
0.0
 10
7.0420651861
 20
3.2575333652
 30
0.0
 10
7.0561347909
 20
3.2573399164
 30
0.0
 10
7.0696127151
 20
3.2571589242
 30
0.0
 10
7.0824230245
 20
3.2569896703
 30
0.0
 10
7.0944934142
 20
3.2568306544
 30
0.0
 10
7.1057554762
 20
3.2566842835
 30
0.0
 10
7.1161453613
 20
3.2565471259
 30
0.0
 10
7.1242311684
 20
3.2564393081
 30
0.0
 10
7.1302198576
 20
3.2563579165
 30
0.0
 10
7.1343360074
 20
3.2563007175
 30
0.0
 10
7.138193207
 20
3.2562455468
 30
0.0
 10
7.1417860127
 20
3.2561928721
 30
0.0
 10
7.1451093016
 20
3.2561428393
 30
0.0
 10
7.1481581927
 20
3.2560948935
 30
0.0
 10
7.1509282343
 20
3.2560487744
 30
0.0
 10
7.1534154618
 20
3.2560047343
 30
0.0
 10
7.155309761
 20
3.2559687381
 30
0.0
 10
7.1566811869
 20
3.2559408249
 30
0.0
 10
7.1576008654
 20
3.2559211634
 30
0.0
 10
7.1584474318
 20
3.2559020147
 30
0.0
 10
7.1592205632
 20
3.2558833362
 30
0.0
 10
7.1599199498
 20
3.2558650944
 30
0.0
 10
7.1605453186
 20
3.2558472417
 30
0.0
 10
7.1610964535
 20
3.255829809
 30
0.0
 10
7.1615731917
 20
3.2558128695
 30
0.0
 10
7.1619753875
 20
3.2557964711
 30
0.0
 10
7.162263877
 20
3.2557826356
 30
0.0
 10
7.1624572722
 20
3.2557715624
 30
0.0
 10
7.1625742808
 20
3.2557639309
 30
0.0
 10
7.1626725633
 20
3.2557564437
 30
0.0
 10
7.1627427343
 20
3.2557500037
 30
0.0
 10
7.162789473
 20
3.2557447602
 30
0.0
 10
7.1628175226
 20
3.2557411223
 30
0.0
 10
7.1628408814
 20
3.2557375221
 30
0.0
 10
7.1628595792
 20
3.2557339885
 30
0.0
 10
7.1628735854
 20
3.2557304968
 30
0.0
 10
7.1628823787
 20
3.2557274594
 30
0.0
 10
7.1628869141
 20
3.2557247797
 30
0.0
 10
7.1628888276
 20
3.2557230103
 30
0.0
 10
7.1628895548
 20
3.2557209276
 30
0.0
 10
7.1628890161
 20
3.2557196883
 30
0.0
 10
7.1628886537
 20
3.2557191731
 30
0.0
  0
SPLINE
  5
341
100
AcDbEntity
  8
0
100
AcDbSpline
 62
7
  6
CONTINUOUS
 70
0
 71
3
 72
61
 73
57
 74
0
 42
0.0000001
 43
0.0000001
 44
0.0000000001
 40
0.0
 40
0.0
 40
0.0
 40
0.0
 40
0.0155967738
 40
0.031220888
 40
0.0468767465
 40
0.0625749375
 40
0.0704446411
 40
0.0783301896
 40
0.0862325712
 40
0.094155335
 40
0.1100612298
 40
0.1180570003
 40
0.1260818633
 40
0.1341361678
 40
0.1422187114
 40
0.1503264781
 40
0.1584531114
 40
0.1665892843
 40
0.17472448
 40
0.182848374
 40
0.1909523212
 40
0.1990302221
 40
0.2070792322
 40
0.2230786383
 40
0.2389764795
 40
0.2547899384
 40
0.2705364748
 40
0.2862307238
 40
0.3018837968
 40
0.3175044026
 40
0.3330999442
 40
0.3486747946
 40
0.3642336911
 40
0.3797791972
 40
0.3953143575
 40
0.4108405384
 40
0.4263599818
 40
0.4418733611
 40
0.472885864
 40
0.5038855021
 40
0.5193824127
 40
0.5348773538
 40
0.5658629468
 40
0.627821594
 40
0.6897761313
 40
0.7207553683
 40
0.7517361192
 40
0.7827201384
 40
0.8137087216
 40
0.8447048159
 40
0.8602069767
 40
0.8757127405
 40
0.9067355309
 40
0.9377821092
 40
0.9688642187
 40
1.0
 40
1.0
 40
1.0
 40
1.0
 10
5.835876614
 20
3.3196586013
 30
0.0
 10
5.8346230841
 20
3.3191732007
 30
0.0
 10
5.8321333143
 20
3.3181500398
 30
0.0
 10
5.828471298
 20
3.3164394854
 30
0.0
 10
5.8248997232
 20
3.3145276369
 30
0.0
 10
5.8220244637
 20
3.3127438761
 30
0.0
 10
5.819805718
 20
3.3111852153
 30
0.0
 10
5.8181869601
 20
3.3099444121
 30
0.0
 10
5.8166235056
 20
3.308627079
 30
0.0
 10
5.8146234292
 20
3.3067609142
 30
0.0
 10
5.8127772416
 20
3.3047207327
 30
0.0
 10
5.8111515952
 20
3.3024980089
 30
0.0
 10
5.8100585562
 20
3.3007315381
 30
0.0
 10
5.8091174997
 20
3.2988707548
 30
0.0
 10
5.8083531626
 20
3.29692237
 30
0.0
 10
5.8077905559
 20
3.2948994062
 30
0.0
 10
5.807451558
 20
3.2928220622
 30
0.0
 10
5.8073508912
 20
3.2907170333
 30
0.0
 10
5.8074932112
 20
3.2886146731
 30
0.0
 10
5.8078719219
 20
3.2865449284
 30
0.0
 10
5.8084708091
 20
3.284533526
 30
0.0
 10
5.8092674284
 20
3.2825994347
 30
0.0
 10
5.8105563338
 20
3.2801451673
 30
0.0
 10
5.8125365216
 20
3.2773105244
 30
0.0
 10
5.8153346075
 20
3.2742842481
 30
0.0
 10
5.8184299022
 20
3.2716000551
 30
0.0
 10
5.8217381624
 20
3.2692170813
 30
0.0
 10
5.8252023798
 20
3.2670959688
 30
0.0
 10
5.8287828691
 20
3.2652026656
 30
0.0
 10
5.8324515458
 20
3.2635080409
 30
0.0
 10
5.8361885005
 20
3.2619887224
 30
0.0
 10
5.8399785199
 20
3.2606235574
 30
0.0
 10
5.8438106576
 20
3.2593962701
 30
0.0
 10
5.8476761864
 20
3.258291546
 30
0.0
 10
5.8515686637
 20
3.2572976956
 30
0.0
 10
5.8554827348
 20
3.2564030569
 30
0.0
 10
5.8594144998
 20
3.2555993164
 30
0.0
 10
5.864674948
 20
3.2546368401
 30
0.0
 10
5.8712805116
 20
3.2536216028
 30
0.0
 10
5.8779129332
 20
3.2528159358
 30
0.0
 10
5.8832289405
 20
3.2522801476
 30
0.0
 10
5.8885500494
 20
3.2518111109
 30
0.0
 10
5.8978738326
 20
3.2511564131
 30
0.0
 10
5.9112173437
 20
3.2506363819
 30
0.0
 10
5.9245696904
 20
3.250591176
 30
0.0
 10
5.935247109
 20
3.2508365342
 30
0.0
 10
5.9432511696
 20
3.2511701474
 30
0.0
 10
5.9512478441
 20
3.2516640058
 30
0.0
 10
5.9592328022
 20
3.2523380342
 30
0.0
 10
5.9658719079
 20
3.2530692194
 30
0.0
 10
5.9711694203
 20
3.2537733757
 30
0.0
 10
5.9764571631
 20
3.2545631
 30
0.0
 10
5.9830429086
 20
3.2557260181
 30
0.0
 10
5.9908858013
 20
3.2574556999
 30
0.0
 10
5.998638969
 20
3.2595917656
 30
0.0
 10
6.0037114346
 20
3.2613490018
 30
0.0
 10
6.0062085108
 20
3.2623316865
 30
0.0
  0
SPLINE
  5
342
100
AcDbEntity
  8
0
100
AcDbSpline
 62
7
  6
CONTINUOUS
 70
0
 71
3
 72
41
 73
37
 74
0
 42
0.0000001
 43
0.0000001
 44
0.0000000001
 40
0.0
 40
0.0
 40
0.0
 40
0.0
 40
0.0302331663
 40
0.0609828941
 40
0.0924293859
 40
0.1248246574
 40
0.1414887012
 40
0.158520983
 40
0.1759695916
 40
0.1938732709
 40
0.212245682
 40
0.2310548089
 40
0.2502015911
 40
0.2695152893
 40
0.2887828643
 40
0.3078031929
 40
0.326434774
 40
0.344608809
 40
0.3623156333
 40
0.3795819737
 40
0.4129542282
 40
0.4451233576
 40
0.4764035561
 40
0.5070298774
 40
0.5371722911
 40
0.5669534816
 40
0.5964624007
 40
0.6548962961
 40
0.7128415349
 40
0.7416992296
 40
0.7705016631
 40
0.8279847054
 40
0.8853669867
 40
0.9140367974
 40
0.9426972634
 40
1.0
 40
1.0
 40
1.0
 40
1.0
 10
6.1450068294
 20
3.3196586013
 30
0.0
 10
6.1437059443
 20
3.319011587
 30
0.0
 10
6.1411231692
 20
3.317621004
 30
0.0
 10
6.1373779018
 20
3.3152238623
 30
0.0
 10
6.1337778967
 20
3.3124370877
 30
0.0
 10
6.1309828758
 20
3.3097474645
 30
0.0
 10
6.1289165623
 20
3.3073324473
 30
0.0
 10
6.1274561798
 20
3.3053525007
 30
0.0
 10
6.1261266977
 20
3.3032113065
 30
0.0
 10
6.124961903
 20
3.3009030167
 30
0.0
 10
6.1240024475
 20
3.298430925
 30
0.0
 10
6.123293099
 20
3.295812951
 30
0.0
 10
6.1228761278
 20
3.2930863038
 30
0.0
 10
6.1227810347
 20
3.290307168
 30
0.0
 10
6.1230151345
 20
3.2875424832
 30
0.0
 10
6.1235608535
 20
3.2848561167
 30
0.0
 10
6.1243819208
 20
3.2822967263
 30
0.0
 10
6.1254338853
 20
3.2798930021
 30
0.0
 10
6.126673265
 20
3.2776558554
 30
0.0
 10
6.1285037654
 20
3.2749249857
 30
0.0
 10
6.1310889585
 20
3.2718808871
 30
0.0
 10
6.1345269865
 20
3.2687318059
 30
0.0
 10
6.1381628311
 20
3.2660335414
 30
0.0
 10
6.1419326217
 20
3.2637104416
 30
0.0
 10
6.1457964387
 20
3.2617017042
 30
0.0
 10
6.1497279991
 20
3.2599595995
 30
0.0
 10
6.155018233
 20
3.2579485339
 30
0.0
 10
6.1617377498
 20
3.2559175199
 30
0.0
 10
6.168551413
 20
3.2543836129
 30
0.0
 10
6.1740192507
 20
3.2533970403
 30
0.0
 10
6.1794888125
 20
3.2525554344
 30
0.0
 10
6.1863473284
 20
3.2517431437
 30
0.0
 10
6.193225004
 20
3.2511971794
 30
0.0
 10
6.1987299222
 20
3.2509004981
 30
0.0
 10
6.2042349935
 20
3.2506912763
 30
0.0
 10
6.208366477
 20
3.2506304387
 30
0.0
 10
6.2111202528
 20
3.2506304387
 30
0.0
  0
SPLINE
  5
343
100
AcDbEntity
  8
0
100
AcDbSpline
 62
7
  6
CONTINUOUS
 70
0
 71
3
 72
16
 73
12
 74
0
 42
0.0000001
 43
0.0000001
 44
0.0000000001
 40
0.0
 40
0.0
 40
0.0
 40
0.0
 40
0.1279655681
 40
0.2551405627
 40
0.3814176307
 40
0.5067389884
 40
0.6311082769
 40
0.6929705521
 40
0.7546394368
 40
0.8774994417
 40
1.0
 40
1.0
 40
1.0
 40
1.0
 10
6.1450068294
 20
3.3196586013
 30
0.0
 10
6.1476537541
 20
3.3209750882
 30
0.0
 10
6.152966093
 20
3.3235309736
 30
0.0
 10
6.1610314724
 20
3.3270842409
 30
0.0
 10
6.169180744
 20
3.3302798231
 30
0.0
 10
6.1774189671
 20
3.3330441757
 30
0.0
 10
6.1843709058
 20
3.3349285696
 30
0.0
 10
6.1899684347
 20
3.3361443218
 30
0.0
 10
6.1955716354
 20
3.337152422
 30
0.0
 10
6.2026194353
 20
3.3380143203
 30
0.0
 10
6.2082902656
 20
3.3382478379
 30
0.0
 10
6.2111202528
 20
3.3382478379
 30
0.0
  0
SPLINE
  5
344
100
AcDbEntity
  8
0
100
AcDbSpline
 62
7
  6
CONTINUOUS
 70
0
 71
3
 72
25
 73
21
 74
0
 42
0.0000001
 43
0.0000001
 44
0.0000000001
 40
0.0
 40
0.0
 40
0.0
 40
0.0
 40
0.0626933668
 40
0.1253356829
 40
0.1879178114
 40
0.2504380059
 40
0.3128958059
 40
0.3441058411
 40
0.3753038613
 40
0.4376633462
 40
0.4999999853
 40
0.5623366114
 40
0.6246960911
 40
0.655894116
 40
0.687104167
 40
0.7495620003
 40
0.8120822092
 40
0.8746643373
 40
0.9373066474
 40
1.0
 40
1.0
 40
1.0
 40
1.0
 10
5.835876614
 20
3.3196586013
 30
0.0
 10
5.8392845895
 20
3.3209782614
 30
0.0
 10
5.8461274647
 20
3.3235409816
 30
0.0
 10
5.856491017
 20
3.327094656
 30
0.0
 10
5.866961064
 20
3.33028974
 30
0.0
 10
5.8775431193
 20
3.3330525684
 30
0.0
 10
5.8864560529
 20
3.3349319967
 30
0.0
 10
5.8936338198
 20
3.3361454638
 30
0.0
 10
5.9008373856
 20
3.3371541725
 30
0.0
 10
5.9098901145
 20
3.3380150323
 30
0.0
 10
5.9207944565
 20
3.3383642191
 30
0.0
 10
5.9316987982
 20
3.3380150334
 30
0.0
 10
5.9407515264
 20
3.3371541742
 30
0.0
 10
5.947955093
 20
3.3361454645
 30
0.0
 10
5.9551328629
 20
3.3349319962
 30
0.0
 10
5.9640458006
 20
3.3330525695
 30
0.0
 10
5.9746278581
 20
3.3302897384
 30
0.0
 10
5.9850979061
 20
3.3270946563
 30
0.0
 10
5.9954614562
 20
3.3235409792
 30
0.0
 10
6.0023043309
 20
3.3209782611
 30
0.0
 10
6.0057123056
 20
3.3196586013
 30
0.0
  0
SPLINE
  5
345
100
AcDbEntity
  8
0
100
AcDbSpline
 62
7
  6
CONTINUOUS
 70
0
 71
3
 72
9
 73
5
 74
0
 42
0.0000001
 43
0.0000001
 44
0.0000000001
 40
0.0
 40
0.0
 40
0.0
 40
0.0
 40
0.2367783724
 40
1.0
 40
1.0
 40
1.0
 40
1.0
 10
6.0367360426
 20
4.5644558702
 30
0.0
 10
6.0367360381
 20
4.5644525824
 30
0.0
 10
6.0367348024
 20
4.5644386808
 30
0.0
 10
6.0367284165
 20
4.5644256141
 30
0.0
 10
6.0367222549
 20
4.5644169916
 30
0.0
  0
SPLINE
  5
346
100
AcDbEntity
  8
0
100
AcDbSpline
 62
7
  6
CONTINUOUS
 70
0
 71
3
 72
29
 73
25
 74
0
 42
0.0000001
 43
0.0000001
 44
0.0000000001
 40
0.0
 40
0.0
 40
0.0
 40
0.0
 40
0.001913922
 40
0.0044558434
 40
0.0076872328
 40
0.0116228349
 40
0.0215770243
 40
0.0342063401
 40
0.0493639447
 40
0.0668967282
 40
0.0866698623
 40
0.1085571179
 40
0.1324519422
 40
0.1582612082
 40
0.2153439305
 40
0.2793050652
 40
0.3493817109
 40
0.424269355
 40
0.5026392283
 40
0.583369949
 40
0.6655933364
 40
0.7486978984
 40
0.8322911537
 40
1.0
 40
1.0
 40
1.0
 40
1.0
 10
6.0367222549
 20
4.5644169916
 30
0.0
 10
6.0367129647
 20
4.5644039909
 30
0.0
 10
6.0366845275
 20
4.5643788634
 30
0.0
 10
6.0366284795
 20
4.5643473917
 30
0.0
 10
6.0365533369
 20
4.5643165262
 30
0.0
 10
6.0364171182
 20
4.5642729632
 30
0.0
 10
6.0362010341
 20
4.5642233409
 30
0.0
 10
6.0358904965
 20
4.5641697198
 30
0.0
 10
6.0355154704
 20
4.5641189823
 30
0.0
 10
6.0350800657
 20
4.564071064
 30
0.0
 10
6.0345878939
 20
4.5640261431
 30
0.0
 10
6.0340421798
 20
4.5639842055
 30
0.0
 10
6.033445729
 20
4.5639453472
 30
0.0
 10
6.0325555365
 20
4.5638960626
 30
0.0
 10
6.0313305234
 20
4.5638442874
 30
0.0
 10
6.02973548
 20
4.5637993694
 30
0.0
 10
6.0279913813
 20
4.5637717508
 30
0.0
 10
6.0261268272
 20
4.5637592384
 30
0.0
 10
6.0241732903
 20
4.5637590237
 30
0.0
 10
6.0221585327
 20
4.5637675648
 30
0.0
 10
6.0201042765
 20
4.5637812535
 30
0.0
 10
6.0180261332
 20
4.563796664
 30
0.0
 10
6.015234296
 20
4.5638156441
 30
0.0
 10
6.0131362186
 20
4.5638239463
 30
0.0
 10
6.0117360464
 20
4.5638239463
 30
0.0
  0
SPLINE
  5
347
100
AcDbEntity
  8
0
100
AcDbSpline
 62
7
  6
CONTINUOUS
 70
0
 71
3
 72
32
 73
28
 74
0
 42
0.0000001
 43
0.0000001
 44
0.0000000001
 40
0.0
 40
0.0
 40
0.0
 40
0.0
 40
0.0014576882
 40
0.0023312353
 40
0.0033460032
 40
0.0058660606
 40
0.0090964689
 40
0.0130549757
 40
0.0177373295
 40
0.0231297453
 40
0.0292138718
 40
0.0433802648
 40
0.0600783705
 40
0.0791549111
 40
0.1004749455
 40
0.1239145687
 40
0.1493728511
 40
0.2060124341
 40
0.2698641935
 40
0.3402020083
 40
0.4157208859
 40
0.4950028172
 40
0.5768387383
 40
0.6602851517
 40
0.7446824527
 40
0.8296020198
 40
1.0
 40
1.0
 40
1.0
 40
1.0
 10
5.9867360485
 20
4.5649586677
 30
0.0
 10
5.9867360612
 20
4.5649464776
 30
0.0
 10
5.9867432539
 20
4.5649269209
 30
0.0
 10
5.9867612243
 20
4.5649054563
 30
0.0
 10
5.9867892248
 20
4.5648812199
 30
0.0
 10
5.98683854
 20
4.5648527681
 30
0.0
 10
5.9869135195
 20
4.5648214132
 30
0.0
 10
5.9870080639
 20
4.5647908277
 30
0.0
 10
5.9871215973
 20
4.564760987
 30
0.0
 10
5.9872535981
 20
4.5647319345
 30
0.0
 10
5.9874643571
 20
4.5646922341
 30
0.0
 10
5.987769972
 20
4.5646461103
 30
0.0
 10
5.9881846331
 20
4.5645960652
 30
0.0
 10
5.9886598059
 20
4.5645490694
 30
0.0
 10
5.9891918512
 20
4.5645051583
 30
0.0
 10
5.9897776516
 20
4.5644643656
 30
0.0
 10
5.9906587044
 20
4.5644124326
 30
0.0
 10
5.9918780498
 20
4.5643575253
 30
0.0
 10
5.9934731924
 20
4.5643090986
 30
0.0
 10
5.9952266756
 20
4.564278497
 30
0.0
 10
5.9971093868
 20
4.5642639379
 30
0.0
 10
5.9990882985
 20
4.5642624689
 30
0.0
 10
6.0011334833
 20
4.5642704684
 30
0.0
 10
6.0032214136
 20
4.5642841002
 30
0.0
 10
6.0053351175
 20
4.564299756
 30
0.0
 10
6.0081759529
 20
4.5643192078
 30
0.0
 10
6.0103110741
 20
4.5643277965
 30
0.0
 10
6.0117360464
 20
4.5643277965
 30
0.0
  0
SPLINE
  5
348
100
AcDbEntity
  8
0
100
AcDbSpline
 62
7
  6
CONTINUOUS
 70
0
 71
3
 72
22
 73
18
 74
0
 42
0.0000001
 43
0.0000001
 44
0.0000000001
 40
0.0
 40
0.0
 40
0.0
 40
0.0
 40
0.006573175
 40
0.0137419985
 40
0.0219503313
 40
0.0314918842
 40
0.0552055831
 40
0.0856600421
 40
0.1231028084
 40
0.1676096787
 40
0.2192079944
 40
0.2778892304
 40
0.3436314642
 40
0.416416208
 40
0.5830149521
 40
0.7775733882
 40
1.0
 40
1.0
 40
1.0
 40
1.0
 10
5.976736279
 20
4.5639652868
 30
0.0
 10
5.9767363211
 20
4.5639802401
 30
0.0
 10
5.9767414973
 20
4.5640116461
 30
0.0
 10
5.9767634218
 20
4.5640570668
 30
0.0
 10
5.9767987545
 20
4.5641018237
 30
0.0
 10
5.9768685983
 20
4.5641656523
 30
0.0
 10
5.9769924358
 20
4.5642427492
 30
0.0
 10
5.9771820697
 20
4.5643296528
 30
0.0
 10
5.9774228177
 20
4.5644165706
 30
0.0
 10
5.9777140957
 20
4.5645032651
 30
0.0
 10
5.9780555909
 20
4.5645894722
 30
0.0
 10
5.9784468361
 20
4.5646749957
 30
0.0
 10
5.9788874416
 20
4.5647596778
 30
0.0
 10
5.9795716938
 20
4.5648766045
 30
0.0
 10
5.9805489604
 20
4.5650172597
 30
0.0
 10
5.98186725
 20
4.5651748572
 30
0.0
 10
5.9828111072
 20
4.5652701285
 30
0.0
 10
5.9833148802
 20
4.5653175452
 30
0.0
  0
SPLINE
  5
349
100
AcDbEntity
  8
0
100
AcDbSpline
 62
7
  6
CONTINUOUS
 70
0
 71
3
 72
41
 73
37
 74
0
 42
0.0000001
 43
0.0000001
 44
0.0000000001
 40
0.0
 40
0.0
 40
0.0
 40
0.0
 40
0.0573027324
 40
0.0859631948
 40
0.1146330013
 40
0.1720152781
 40
0.2294983148
 40
0.2583007464
 40
0.2871584373
 40
0.3451036711
 40
0.4035375636
 40
0.4330464788
 40
0.4628276697
 40
0.4929700843
 40
0.5235964049
 40
0.5548766031
 40
0.5870457349
 40
0.6204179896
 40
0.6376843334
 40
0.6553911543
 40
0.6735651872
 40
0.6921967676
 40
0.7112170964
 40
0.7304846742
 40
0.7497983772
 40
0.7689451601
 40
0.7877542915
 40
0.8061266993
 40
0.8240303848
 40
0.8414789985
 40
0.858511281
 40
0.875175328
 40
0.9075706032
 40
0.9390170989
 40
0.9697668317
 40
1.0
 40
1.0
 40
1.0
 40
1.0
 10
6.2111202528
 20
3.2506304387
 30
0.0
 10
6.2138740284
 20
3.2506304387
 30
0.0
 10
6.2180055115
 20
3.2506912778
 30
0.0
 10
6.2235105823
 20
3.2509004983
 30
0.0
 10
6.2290155
 20
3.2511971789
 30
0.0
 10
6.2358931749
 20
3.2517431426
 30
0.0
 10
6.2427516899
 20
3.2525554357
 30
0.0
 10
6.2482212517
 20
3.2533970386
 30
0.0
 10
6.2536890884
 20
3.2543836138
 30
0.0
 10
6.2605027511
 20
3.2559175197
 30
0.0
 10
6.2672222682
 20
3.2579485313
 30
0.0
 10
6.2725125011
 20
3.2599595986
 30
0.0
 10
6.2764440623
 20
3.2617017012
 30
0.0
 10
6.2803078796
 20
3.2637104381
 30
0.0
 10
6.2840776701
 20
3.2660335381
 30
0.0
 10
6.2877135148
 20
3.2687318025
 30
0.0
 10
6.2911515437
 20
3.2718808828
 30
0.0
 10
6.2937367373
 20
3.2749249815
 30
0.0
 10
6.295567238
 20
3.277655851
 30
0.0
 10
6.2968066178
 20
3.2798929975
 30
0.0
 10
6.2978585829
 20
3.2822967211
 30
0.0
 10
6.2986796509
 20
3.2848561112
 30
0.0
 10
6.2992253705
 20
3.2875424776
 30
0.0
 10
6.2994594707
 20
3.2903071628
 30
0.0
 10
6.2993643781
 20
3.293086299
 30
0.0
 10
6.2989474073
 20
3.2958129467
 30
0.0
 10
6.2982380594
 20
3.298430921
 30
0.0
 10
6.297278604
 20
3.3009030132
 30
0.0
 10
6.2961138098
 20
3.3032113036
 30
0.0
 10
6.2947843273
 20
3.3053524982
 30
0.0
 10
6.2933239448
 20
3.3073324454
 30
0.0
 10
6.2912576315
 20
3.3097474633
 30
0.0
 10
6.2884626102
 20
3.3124370868
 30
0.0
 10
6.2848626048
 20
3.3152238619
 30
0.0
 10
6.2811173369
 20
3.3176210039
 30
0.0
 10
6.2785345614
 20
3.3190115869
 30
0.0
 10
6.2772336763
 20
3.3196586013
 30
0.0
  0
LINE
  5
34A
100
AcDbEntity
  8
0
100
AcDbLine
 62
7
  6
CONTINUOUS
 10
6.0465161554
 20
4.563713744
 11
6.0458262744
 21
4.5639780931
  0
LINE
  5
34B
100
AcDbEntity
  8
0
100
AcDbLine
 62
7
  6
CONTINUOUS
 10
6.0458262744
 20
4.5639780931
 11
6.0409545018
 21
4.564737059
  0
SPLINE
  5
34C
100
AcDbEntity
  8
0
100
AcDbSpline
 62
7
  6
CONTINUOUS
 70
0
 71
3
 72
16
 73
12
 74
0
 42
0.0000001
 43
0.0000001
 44
0.0000000001
 40
0.0
 40
0.0
 40
0.0
 40
0.0
 40
0.1225005582
 40
0.245360563
 40
0.3070294477
 40
0.3688917229
 40
0.4932610115
 40
0.6185823692
 40
0.7448594373
 40
0.8720344319
 40
1.0
 40
1.0
 40
1.0
 40
1.0
 10
6.2111202528
 20
3.3382478379
 30
0.0
 10
6.21395024
 20
3.3382478379
 30
0.0
 10
6.2196210703
 20
3.3380143203
 30
0.0
 10
6.2266688702
 20
3.337152422
 30
0.0
 10
6.2322720709
 20
3.3361443218
 30
0.0
 10
6.2378695998
 20
3.3349285696
 30
0.0
 10
6.2448215385
 20
3.3330441757
 30
0.0
 10
6.2530597616
 20
3.3302798231
 30
0.0
 10
6.2612090332
 20
3.3270842409
 30
0.0
 10
6.2692744126
 20
3.3235309736
 30
0.0
 10
6.2745867515
 20
3.3209750882
 30
0.0
 10
6.2772336763
 20
3.3196586013
 30
0.0
  0
LINE
  5
34D
100
AcDbEntity
  8
0
100
AcDbLine
 62
7
  6
CONTINUOUS
 10
5.9833620476
 20
4.5648197803
 11
5.9831872875
 21
4.5648032385
  0
LINE
  5
34E
100
AcDbEntity
  8
0
100
AcDbLine
 62
7
  6
CONTINUOUS
 10
5.9825407664
 20
4.5647394314
 11
5.9777079774
 21
4.563995633
  0
LINE
  5
34F
100
AcDbEntity
  8
0
100
AcDbLine
 62
7
  6
CONTINUOUS
 10
5.9777079774
 20
4.563995633
 11
5.976957408
 21
4.563714785
  0
SPLINE
  5
350
100
AcDbEntity
  8
0
100
AcDbSpline
 62
7
  6
CONTINUOUS
 70
0
 71
3
 72
34
 73
30
 74
0
 42
0.0000001
 43
0.0000001
 44
0.0000000001
 40
0.0
 40
0.0
 40
0.0
 40
0.0
 40
0.073436054
 40
0.1081701015
 40
0.1415034004
 40
0.1733979226
 40
0.2038383223
 40
0.2328391207
 40
0.26044757
 40
0.2867548147
 40
0.3119052127
 40
0.3360924285
 40
0.3595658661
 40
0.3826204317
 40
0.4055784343
 40
0.4287705644
 40
0.4525091466
 40
0.5026267162
 40
0.529464395
 40
0.5576479757
 40
0.5872481052
 40
0.6182976698
 40
0.6507982914
 40
0.6847240717
 40
0.7200294598
 40
0.7566556253
 40
0.8335896725
 40
0.914917329
 40
1.0
 40
1.0
 40
1.0
 40
1.0
 10
5.7079084063
 20
3.3280880529
 30
0.0
 10
5.7085461573
 20
3.3289855496
 30
0.0
 10
5.709518449
 20
3.3302851767
 30
0.0
 10
5.7108758526
 20
3.3319161446
 30
0.0
 10
5.7118795474
 20
3.3330297419
 30
0.0
 10
5.712887794
 20
3.3340507177
 30
0.0
 10
5.7139007171
 20
3.3349733195
 30
0.0
 10
5.7149180938
 20
3.3357922842
 30
0.0
 10
5.7159399612
 20
3.3365023284
 30
0.0
 10
5.7169663803
 20
3.3370982962
 30
0.0
 10
5.7179968536
 20
3.3375762425
 30
0.0
 10
5.7190312264
 20
3.3379318232
 30
0.0
 10
5.72006872
 20
3.3381615677
 30
0.0
 10
5.7211081003
 20
3.3382638496
 30
0.0
 10
5.7221479765
 20
3.3382366552
 30
0.0
 10
5.7231867487
 20
3.3380807141
 30
0.0
 10
5.7245932465
 20
3.3376971416
 30
0.0
 10
5.7259740364
 20
3.3370582328
 30
0.0
 10
5.7273090465
 20
3.336218559
 30
0.0
 10
5.7283291925
 20
3.3354621262
 30
0.0
 10
5.7293446687
 20
3.3345991448
 30
0.0
 10
5.7303556638
 20
3.3336346575
 30
0.0
 10
5.7313619748
 20
3.3325741697
 30
0.0
 10
5.7323637495
 20
3.3314234998
 30
0.0
 10
5.7333610062
 20
3.3301884435
 30
0.0
 10
5.7347067539
 20
3.3284074927
 30
0.0
 10
5.7363689538
 20
3.3260028384
 30
0.0
 10
5.7383171787
 20
3.32291732
 30
0.0
 10
5.7395814212
 20
3.3207659462
 30
0.0
 10
5.7402146758
 20
3.3196586013
 30
0.0
  0
SPLINE
  5
351
100
AcDbEntity
  8
0
100
AcDbSpline
 62
7
  6
CONTINUOUS
 70
0
 71
3
 72
45
 73
41
 74
0
 42
0.0000001
 43
0.0000001
 44
0.0000000001
 40
0.0
 40
0.0
 40
0.0
 40
0.0
 40
0.0205739418
 40
0.0303592109
 40
0.0398696642
 40
0.0582080809
 40
0.0758527921
 40
0.0930006794
 40
0.1098067339
 40
0.1263900377
 40
0.1428496093
 40
0.1757113098
 40
0.192300884
 40
0.2091171188
 40
0.2262801434
 40
0.2439463022
 40
0.2623144848
 40
0.2816450293
 40
0.3022730857
 40
0.3246273334
 40
0.3492595085
 40
0.3768792097
 40
0.4084108487
 40
0.4450818499
 40
0.4885445568
 40
0.5134882124
 40
0.5409766021
 40
0.5712977355
 40
0.6046130946
 40
0.6407580241
 40
0.678981359
 40
0.7178740186
 40
0.7557656051
 40
0.7913663409
 40
0.8240638699
 40
0.8537821321
 40
0.8807212724
 40
0.9274547034
 40
0.9665955886
 40
1.0
 40
1.0
 40
1.0
 40
1.0
 10
5.7079084082
 20
3.255534885
 30
0.0
 10
5.7084134273
 20
3.2550982197
 30
0.0
 10
5.7091903067
 20
3.2544889713
 30
0.0
 10
5.7102655321
 20
3.2537687865
 30
0.0
 10
5.7113116466
 20
3.2531378742
 30
0.0
 10
5.7126280484
 20
3.2524647594
 30
0.0
 10
5.7142288309
 20
3.251818756
 30
0.0
 10
5.715830912
 20
3.2513256075
 30
0.0
 10
5.7174330961
 20
3.2509682802
 30
0.0
 10
5.7190357511
 20
3.2507375476
 30
0.0
 10
5.7211703966
 20
3.2505867468
 30
0.0
 10
5.7233165429
 20
3.2506664891
 30
0.0
 10
5.7254456161
 20
3.2509790207
 30
0.0
 10
5.7270479248
 20
3.2513410755
 30
0.0
 10
5.728649925
 20
3.2518394879
 30
0.0
 10
5.730250742
 20
3.2524913493
 30
0.0
 10
5.731849769
 20
3.2533159055
 30
0.0
 10
5.7334451953
 20
3.2543396431
 30
0.0
 10
5.7350345217
 20
3.2555950817
 30
0.0
 10
5.7366144286
 20
3.2571228572
 30
0.0
 10
5.7381796124
 20
3.2589751014
 30
0.0
 10
5.7397225922
 20
3.2612188619
 30
0.0
 10
5.7412318181
 20
3.2639427787
 30
0.0
 10
5.7426879175
 20
3.2672662378
 30
0.0
 10
5.7437727507
 20
3.2705037972
 30
0.0
 10
5.7445756439
 20
3.273510948
 30
0.0
 10
5.7451553254
 20
3.2761338983
 30
0.0
 10
5.7456675944
 20
3.2790471153
 30
0.0
 10
5.7460882863
 20
3.2822586383
 30
0.0
 10
5.7463879463
 20
3.2857412696
 30
0.0
 10
5.7465378481
 20
3.2894147952
 30
0.0
 10
5.7465203271
 20
3.2931480489
 30
0.0
 10
5.7463376353
 20
3.2967916112
 30
0.0
 10
5.7460105327
 20
3.3002230675
 30
0.0
 10
5.7455687017
 20
3.3033738745
 30
0.0
 10
5.7450407972
 20
3.3062259818
 30
0.0
 10
5.7442872989
 20
3.309496071
 30
0.0
 10
5.743244465
 20
3.3130104758
 30
0.0
 10
5.7418178736
 20
3.3166137295
 30
0.0
 10
5.7407527876
 20
3.3187176285
 30
0.0
 10
5.7402146758
 20
3.3196586013
 30
0.0
  0
SPLINE
  5
352
100
AcDbEntity
  8
0
100
AcDbSpline
 62
7
  6
CONTINUOUS
 70
0
 71
3
 72
21
 73
17
 74
0
 42
0.0000001
 43
0.0000001
 44
0.0000000001
 40
0.0
 40
0.0
 40
0.0
 40
0.0
 40
0.1310227309
 40
0.2580826116
 40
0.3201908253
 40
0.381452924
 40
0.4419986581
 40
0.5020216871
 40
0.5617652425
 40
0.6215314636
 40
0.6816626087
 40
0.7425274194
 40
0.8044916591
 40
0.8678813626
 40
0.9329753863
 40
1.0
 40
1.0
 40
1.0
 40
1.0
 10
6.2061904113
 20
4.3283645953
 30
0.0
 10
6.2080408715
 20
4.3284282243
 30
0.0
 10
6.2116865443
 20
4.328535828
 30
0.0
 10
6.2162143134
 20
4.328471048
 30
0.0
 10
6.2197445602
 20
4.3282064484
 30
0.0
 10
6.2223247287
 20
4.3278837709
 30
0.0
 10
6.2248533228
 20
4.3274176197
 30
0.0
 10
6.2273251027
 20
4.3267902206
 30
0.0
 10
6.2297343875
 20
4.3259873718
 30
0.0
 10
6.2320744517
 20
4.324995965
 30
0.0
 10
6.2343381193
 20
4.3238057422
 30
0.0
 10
6.2365181172
 20
4.3224096883
 30
0.0
 10
6.2386072172
 20
4.3208043098
 30
0.0
 10
6.2406004447
 20
4.3189915129
 30
0.0
 10
6.2424934418
 20
4.3169755429
 30
0.0
 10
6.2436685232
 20
4.3155222871
 30
0.0
 10
6.2442388366
 20
4.3147660745
 30
0.0
  0
SPLINE
  5
353
100
AcDbEntity
  8
0
100
AcDbSpline
 62
7
  6
CONTINUOUS
 70
0
 71
3
 72
27
 73
23
 74
0
 42
0.0000001
 43
0.0000001
 44
0.0000000001
 40
0.0
 40
0.0
 40
0.0
 40
0.0
 40
0.1250053104
 40
0.2500106207
 40
0.3750159311
 40
0.4375185863
 40
0.5000212415
 40
0.5625238967
 40
0.6250265519
 40
0.687529207
 40
0.7187805346
 40
0.7500318622
 40
0.7812831898
 40
0.8125345171
 40
0.8281601817
 40
0.8437858455
 40
0.859411514
 40
0.8750371774
 40
0.9062883342
 40
0.9375377642
 40
0.968779371
 40
1.0
 40
1.0
 40
1.0
 40
1.0
 10
6.1315578663
 20
4.124147602
 30
0.0
 10
6.1315578663
 20
4.1298457262
 30
0.0
 10
6.1315578664
 20
4.1412419744
 30
0.0
 10
6.131557866
 20
4.1583363468
 30
0.0
 10
6.1315578672
 20
4.1725816572
 30
0.0
 10
6.1315578646
 20
4.1839779054
 30
0.0
 10
6.1315578723
 20
4.1925250916
 30
0.0
 10
6.1315578498
 20
4.2010722778
 30
0.0
 10
6.1315579087
 20
4.209619464
 30
0.0
 10
6.1315577782
 20
4.2167421192
 30
0.0
 10
6.1315579403
 20
4.2224402433
 30
0.0
 10
6.1315580475
 20
4.2267138364
 30
0.0
 10
6.1315573033
 20
4.2309874295
 30
0.0
 10
6.1315578779
 20
4.2345487572
 30
0.0
 10
6.1315589306
 20
4.237397819
 30
0.0
 10
6.1315591663
 20
4.2395346161
 30
0.0
 10
6.1315567066
 20
4.2416714119
 30
0.0
 10
6.1315551559
 20
4.244520465
 30
0.0
 10
6.1315719294
 20
4.2480817118
 30
0.0
 10
6.1316601228
 20
4.2523542184
 30
0.0
 10
6.1318703552
 20
4.2566214302
 30
0.0
 10
6.1321235394
 20
4.2594585934
 30
0.0
 10
6.132286797
 20
4.2608723298
 30
0.0
  0
SPLINE
  5
354
100
AcDbEntity
  8
0
100
AcDbSpline
 62
7
  6
CONTINUOUS
 70
0
 71
3
 72
34
 73
30
 74
0
 42
0.0000001
 43
0.0000001
 44
0.0000000001
 40
0.0
 40
0.0
 40
0.0
 40
0.0
 40
0.0156180457
 40
0.0312354354
 40
0.0390411616
 40
0.0468456811
 40
0.0546518065
 40
0.0624615974
 40
0.078092546
 40
0.0937300827
 40
0.1093612172
 40
0.1249862353
 40
0.1406086446
 40
0.1562314644
 40
0.1718560545
 40
0.1874818288
 40
0.2187339974
 40
0.2499846755
 40
0.2812348944
 40
0.3124855046
 40
0.3437362862
 40
0.3749869782
 40
0.4062376004
 40
0.4374882297
 40
0.4999895487
 40
0.6249921597
 40
0.749994774
 40
0.8749973868
 40
1.0
 40
1.0
 40
1.0
 40
1.0
 10
5.8914256692
 20
4.2609295636
 30
0.0
 10
5.8914787636
 20
4.2602193605
 30
0.0
 10
5.8916016873
 20
4.2588003012
 30
0.0
 10
5.891755305
 20
4.2570266194
 30
0.0
 10
5.8918533459
 20
4.2556059566
 30
0.0
 10
5.8919075832
 20
4.2545394676
 30
0.0
 10
5.8919387616
 20
4.2534718784
 30
0.0
 10
5.8919569168
 20
4.2520470841
 30
0.0
 10
5.8919462081
 20
4.2502650407
 30
0.0
 10
5.8919151688
 20
4.2481266491
 30
0.0
 10
5.8919027553
 20
4.2459882941
 30
0.0
 10
5.8919037658
 20
4.2438506217
 30
0.0
 10
5.8919109627
 20
4.2417133438
 30
0.0
 10
5.8919167172
 20
4.2395760807
 30
0.0
 10
5.8919176785
 20
4.2374386561
 30
0.0
 10
5.8919157668
 20
4.234588533
 30
0.0
 10
5.8919116621
 20
4.2310258594
 30
0.0
 10
5.8919120344
 20
4.2267507066
 30
0.0
 10
5.8919128381
 20
4.2224756257
 30
0.0
 10
5.8919123012
 20
4.2182005397
 30
0.0
 10
5.8919114226
 20
4.2139254324
 30
0.0
 10
5.8919108389
 20
4.2096503244
 30
0.0
 10
5.8919103836
 20
4.2053752234
 30
0.0
 10
5.8919096892
 20
4.1996750897
 30
0.0
 10
5.8919081981
 20
4.1896998529
 30
0.0
 10
5.891906222
 20
4.1754495132
 30
0.0
 10
5.8919040184
 20
4.1583491062
 30
0.0
 10
5.8919024489
 20
4.1412486991
 30
0.0
 10
5.891902022
 20
4.1298484277
 30
0.0
 10
5.891902022
 20
4.1241482919
 30
0.0
  0
SPLINE
  5
355
100
AcDbEntity
  8
0
100
AcDbSpline
 62
7
  6
CONTINUOUS
 70
0
 71
3
 72
28
 73
24
 74
0
 42
0.0000001
 43
0.0000001
 44
0.0000000001
 40
0.0
 40
0.0
 40
0.0
 40
0.0
 40
0.0508822895
 40
0.076853823
 40
0.1031795688
 40
0.1298651676
 40
0.1569278078
 40
0.1843819001
 40
0.2122508481
 40
0.240554692
 40
0.2693171075
 40
0.2985564808
 40
0.3282882322
 40
0.3892234359
 40
0.4521079152
 40
0.5167903526
 40
0.5830479969
 40
0.6506229953
 40
0.7192548954
 40
0.7887031669
 40
0.858758492
 40
0.9292408935
 40
1.0
 40
1.0
 40
1.0
 40
1.0
 10
5.8172816408
 20
4.3283645981
 30
0.0
 10
5.8191854689
 20
4.3284300622
 30
0.0
 10
5.8220621799
 20
4.3285101772
 30
0.0
 10
5.8259254236
 20
4.3284956026
 30
0.0
 10
5.8288814035
 20
4.3284016953
 30
0.0
 10
5.8318733961
 20
4.3282035106
 30
0.0
 10
5.8348971437
 20
4.3278798383
 30
0.0
 10
5.8379471928
 20
4.3274131017
 30
0.0
 10
5.8410160073
 20
4.3267859402
 30
0.0
 10
5.8440948258
 20
4.3259844651
 30
0.0
 10
5.8471728865
 20
4.3249959425
 30
0.0
 10
5.8502381151
 20
4.3238101129
 30
0.0
 10
5.8543224794
 20
4.3219417643
 30
0.0
 10
5.8593216347
 20
4.3190724502
 30
0.0
 10
5.8649939323
 20
4.3148473524
 30
0.0
 10
5.870290552
 20
4.3098647956
 30
0.0
 10
5.8751228814
 20
4.3041994508
 30
0.0
 10
5.8794206333
 20
4.2979396736
 30
0.0
 10
5.8831320431
 20
4.2911799733
 30
0.0
 10
5.8862209259
 20
4.2840138063
 30
0.0
 10
5.8886627311
 20
4.2765297474
 30
0.0
 10
5.8904405332
 20
4.2688114706
 30
0.0
 10
5.8911733922
 20
4.2635666341
 30
0.0
 10
5.8914256692
 20
4.2609295636
 30
0.0
  0
SPLINE
  5
356
100
AcDbEntity
  8
0
100
AcDbSpline
 62
7
  6
CONTINUOUS
 70
0
 71
3
 72
22
 73
18
 74
0
 42
0.0000001
 43
0.0000001
 44
0.0000000001
 40
0.0
 40
0.0
 40
0.0
 40
0.0
 40
0.0661973564
 40
0.1306602909
 40
0.1936210136
 40
0.2553640089
 40
0.3162119986
 40
0.3764970355
 40
0.4365390388
 40
0.4966252334
 40
0.5570086732
 40
0.6178935602
 40
0.6794427052
 40
0.7417682636
 40
0.8049552514
 40
0.8690451227
 40
1.0
 40
1.0
 40
1.0
 40
1.0
 10
5.7802258818
 20
4.314518439
 30
0.0
 10
5.7807943605
 20
4.3152248071
 30
0.0
 10
5.7819634691
 20
4.3165820895
 30
0.0
 10
5.783836307
 20
4.3184631076
 30
0.0
 10
5.7858007733
 20
4.3201566026
 30
0.0
 10
5.7878521079
 20
4.3216615179
 30
0.0
 10
5.7899846533
 20
4.3229804387
 30
0.0
 10
5.7921921693
 20
4.3241192917
 30
0.0
 10
5.7944685083
 20
4.3250865105
 30
0.0
 10
5.7968080988
 20
4.3258919524
 30
0.0
 10
5.7992053903
 20
4.3265484946
 30
0.0
 10
5.8016557992
 20
4.327069911
 30
0.0
 10
5.8041550637
 20
4.3274729413
 30
0.0
 10
5.806700068
 20
4.327774422
 30
0.0
 10
5.8092880739
 20
4.3279945355
 30
0.0
 10
5.8128189278
 20
4.3282074889
 30
0.0
 10
5.8154890162
 20
4.3283025099
 30
0.0
 10
5.8172816408
 20
4.3283645981
 30
0.0
  0
SPLINE
  5
357
100
AcDbEntity
  8
0
100
AcDbSpline
 62
7
  6
CONTINUOUS
 70
0
 71
3
 72
28
 73
24
 74
0
 42
0.0000001
 43
0.0000001
 44
0.0000000001
 40
0.0
 40
0.0
 40
0.0
 40
0.0
 40
0.0707740903
 40
0.1412489014
 40
0.2112754785
 40
0.2806749745
 40
0.3492398227
 40
0.4167341106
 40
0.4829060705
 40
0.547510592
 40
0.6103389842
 40
0.6410527067
 40
0.6712792053
 40
0.7010193213
 40
0.7302814697
 40
0.7590795975
 40
0.787428538
 40
0.8153484783
 40
0.8428556323
 40
0.8699696628
 40
0.8967020634
 40
0.9490688694
 40
1.0
 40
1.0
 40
1.0
 40
1.0
 10
6.132286797
 20
4.2608723298
 30
0.0
 10
6.1325868227
 20
4.2634741404
 30
0.0
 10
6.1334060347
 20
4.2686441476
 30
0.0
 10
6.1352888969
 20
4.2762420323
 30
0.0
 10
6.1378118999
 20
4.2835993107
 30
0.0
 10
6.1409588544
 20
4.2906352982
 30
0.0
 10
6.1447056071
 20
4.2972646042
 30
0.0
 10
6.1490156157
 20
4.3033979778
 30
0.0
 10
6.1538368896
 20
4.308946829
 30
0.0
 10
6.1590985489
 20
4.3138299864
 30
0.0
 10
6.1638164468
 20
4.3173162345
 30
0.0
 10
6.1677247531
 20
4.3197084531
 30
0.0
 10
6.1706848716
 20
4.3212931953
 30
0.0
 10
6.1736819241
 20
4.322683257
 30
0.0
 10
6.1767023905
 20
4.3238849759
 30
0.0
 10
6.179733974
 20
4.3249066516
 30
0.0
 10
6.1827659074
 20
4.3257582738
 30
0.0
 10
6.1857884137
 20
4.3264529255
 30
0.0
 10
6.1887935866
 20
4.3270046533
 30
0.0
 10
6.1917745268
 20
4.3274308056
 30
0.0
 10
6.1956830367
 20
4.3278521581
 30
0.0
 10
6.2004865106
 20
4.3281653031
 30
0.0
 10
6.2043067933
 20
4.3282993565
 30
0.0
 10
6.2061904113
 20
4.3283645963
 30
0.0
  0
SPLINE
  5
358
100
AcDbEntity
  8
0
100
AcDbSpline
 62
7
  6
CONTINUOUS
 70
0
 71
3
 72
32
 73
28
 74
0
 42
0.0000001
 43
0.0000001
 44
0.0000000001
 40
0.0
 40
0.0
 40
0.0
 40
0.0
 40
0.0014021095
 40
0.0029229083
 40
0.0047014015
 40
0.0068267328
 40
0.0093516455
 40
0.0123074012
 40
0.0157132703
 40
0.0195817537
 40
0.0287365623
 40
0.0398160876
 40
0.0528418891
 40
0.0678250007
 40
0.0847714328
 40
0.1036837251
 40
0.1245607357
 40
0.1473997323
 40
0.1989458836
 40
0.2582718358
 40
0.3253081587
 40
0.3999625151
 40
0.4821233521
 40
0.5716593707
 40
0.6684083726
 40
0.772190641
 40
1.0
 40
1.0
 40
1.0
 40
1.0
 10
6.7499318543
 20
3.2173906207
 30
0.0
 10
6.7499290543
 20
3.2173669114
 30
0.0
 10
6.7499324319
 20
3.2173159655
 30
0.0
 10
6.7499654408
 20
3.2172417001
 30
0.0
 10
6.750023919
 20
3.2171692783
 30
0.0
 10
6.7501072109
 20
3.2170976374
 30
0.0
 10
6.7502154966
 20
3.2170261536
 30
0.0
 10
6.7503490087
 20
3.2169546241
 30
0.0
 10
6.7505079036
 20
3.2168829957
 30
0.0
 10
6.7507687454
 20
3.2167816384
 30
0.0
 10
6.7511604123
 20
3.2166578125
 30
0.0
 10
6.7517088688
 20
3.2165160719
 30
0.0
 10
6.7523593842
 20
3.2163746709
 30
0.0
 10
6.7531118999
 20
3.2162340291
 30
0.0
 10
6.753966364
 20
3.2160946318
 30
0.0
 10
6.754922595
 20
3.2159568989
 30
0.0
 10
6.7559803467
 20
3.2158211684
 30
0.0
 10
6.75759181
 20
3.2156357896
 30
0.0
 10
6.7598579575
 20
3.2154147208
 30
0.0
 10
6.7628777141
 20
3.2151730972
 30
0.0
 10
6.7662932795
 20
3.2149496425
 30
0.0
 10
6.7700995565
 20
3.2147471646
 30
0.0
 10
6.7742905338
 20
3.2145690725
 30
0.0
 10
6.7788590329
 20
3.2144190635
 30
0.0
 10
6.7837966949
 20
3.2142994932
 30
0.0
 10
6.7910892371
 20
3.214179805
 30
0.0
 10
6.7967354659
 20
3.2141488203
 30
0.0
 10
6.8006144361
 20
3.2141487896
 30
0.0
  0
SPLINE
  5
359
100
AcDbEntity
  8
0
100
AcDbSpline
 62
7
  6
CONTINUOUS
 70
0
 71
3
 72
38
 73
34
 74
0
 42
0.0000001
 43
0.0000001
 44
0.0000000001
 40
0.0
 40
0.0
 40
0.0
 40
0.0
 40
0.000396642
 40
0.0007567682
 40
0.001535962
 40
0.0020360952
 40
0.0026344667
 40
0.0041621262
 40
0.0061646281
 40
0.0086602425
 40
0.0116581869
 40
0.0151634207
 40
0.0191787504
 40
0.0237058663
 40
0.0287457936
 40
0.0342991378
 40
0.0469469427
 40
0.0616486171
 40
0.0784006883
 40
0.0971987236
 40
0.1180355696
 40
0.1409009554
 40
0.1657841645
 40
0.1926738061
 40
0.2524216176
 40
0.320035878
 40
0.3953818914
 40
0.4783061233
 40
0.5686368431
 40
0.6661873824
 40
0.7707555608
 40
0.8821152655
 40
1.0
 40
1.0
 40
1.0
 40
1.0
 10
6.7400219322
 20
3.2591952182
 30
0.0
 10
6.740017976
 20
3.2592012249
 30
0.0
 10
6.7400116914
 20
3.2592136787
 30
0.0
 10
6.7400082151
 20
3.2592420183
 30
0.0
 10
6.7400228919
 20
3.2592704601
 30
0.0
 10
6.7400471954
 20
3.2592941613
 30
0.0
 10
6.7400858858
 20
3.2593222936
 30
0.0
 10
6.7401532488
 20
3.2593557091
 30
0.0
 10
6.7402558461
 20
3.2593935309
 30
0.0
 10
6.7403864871
 20
3.2594314085
 30
0.0
 10
6.7405452228
 20
3.2594693762
 30
0.0
 10
6.7407321765
 20
3.2595073237
 30
0.0
 10
6.740947348
 20
3.2595452163
 30
0.0
 10
6.7411907386
 20
3.2595830097
 30
0.0
 10
6.7414623318
 20
3.259620679
 30
0.0
 10
6.7418805206
 20
3.259672995
 30
0.0
 10
6.7424737677
 20
3.2597369053
 30
0.0
 10
6.743270159
 20
3.2598099153
 30
0.0
 10
6.7441785674
 20
3.259881855
 30
0.0
 10
6.7451986245
 20
3.2599524575
 30
0.0
 10
6.7463298677
 20
3.2600215215
 30
0.0
 10
6.7475717289
 20
3.2600889682
 30
0.0
 10
6.7489235789
 20
3.2601547058
 30
0.0
 10
6.7509438982
 20
3.2602430442
 30
0.0
 10
6.7537391184
 20
3.2603464726
 30
0.0
 10
6.7574132726
 20
3.2604564455
 30
0.0
 10
6.7615081517
 20
3.2605549177
 30
0.0
 10
6.766015318
 20
3.2606407574
 30
0.0
 10
6.7709254074
 20
3.2607132209
 30
0.0
 10
6.7762281997
 20
3.2607704245
 30
0.0
 10
6.7819124802
 20
3.2608108344
 30
0.0
 10
6.7879655762
 20
3.2608358905
 30
0.0
 10
6.7921225476
 20
3.2608416892
 30
0.0
 10
6.7942601926
 20
3.2608418177
 30
0.0
  0
SPLINE
  5
35A
100
AcDbEntity
  8
0
100
AcDbSpline
 62
7
  6
CONTINUOUS
 70
0
 71
3
 72
28
 73
24
 74
0
 42
0.0000001
 43
0.0000001
 44
0.0000000001
 40
0.0
 40
0.0
 40
0.0
 40
0.0
 40
0.0141169533
 40
0.0286661459
 40
0.0596724926
 40
0.0764398172
 40
0.0941856878
 40
0.1129964848
 40
0.1329428166
 40
0.1540815898
 40
0.1764574623
 40
0.2001058549
 40
0.225054119
 40
0.2789169755
 40
0.3381517397
 40
0.4027851786
 40
0.472792303
 40
0.5481082135
 40
0.6286349692
 40
0.7142457118
 40
0.8047915432
 40
0.9001110918
 40
1.0
 40
1.0
 40
1.0
 40
1.0
 10
6.3763281363
 20
2.7450763957
 30
0.0
 10
6.3764273343
 20
2.7453469785
 30
0.0
 10
6.3766622926
 20
2.7458847295
 30
0.0
 10
6.3772751545
 20
2.7469399553
 30
0.0
 10
6.3780902501
 20
2.7479294303
 30
0.0
 10
6.3790660993
 20
2.7488452623
 30
0.0
 10
6.3799164864
 20
2.749526734
 30
0.0
 10
6.3808652917
 20
2.7501840782
 30
0.0
 10
6.3819121596
 20
2.7508172688
 30
0.0
 10
6.3830564596
 20
2.7514259474
 30
0.0
 10
6.3842975498
 20
2.7520098882
 30
0.0
 10
6.3856347473
 20
2.7525688026
 30
0.0
 10
6.3875953448
 20
2.7532989136
 30
0.0
 10
6.3902878284
 20
2.754138513
 30
0.0
 10
6.3938096168
 20
2.7550176868
 30
0.0
 10
6.3976926599
 20
2.7557906118
 30
0.0
 10
6.4019279977
 20
2.7564554216
 30
0.0
 10
6.4065059508
 20
2.7570104124
 30
0.0
 10
6.411415801
 20
2.757454177
 30
0.0
 10
6.4166459791
 20
2.7577855768
 30
0.0
 10
6.4221842606
 20
2.7580037259
 30
0.0
 10
6.4280173031
 20
2.7581080069
 30
0.0
 10
6.4320026872
 20
2.7581015961
 30
0.0
 10
6.4340417791
 20
2.7580805276
 30
0.0
  0
SPLINE
  5
35B
100
AcDbEntity
  8
0
100
AcDbSpline
 62
7
  6
CONTINUOUS
 70
0
 71
3
 72
9
 73
5
 74
0
 42
0.0000001
 43
0.0000001
 44
0.0000000001
 40
0.0
 40
0.0
 40
0.0
 40
0.0
 40
0.4881430379
 40
1.0
 40
1.0
 40
1.0
 40
1.0
 10
6.3403300198
 20
2.9910633753
 30
0.0
 10
6.3422953581
 20
2.9907562801
 30
0.0
 10
6.3463718625
 20
2.990423817
 30
0.0
 10
6.3504532618
 20
2.9906321941
 30
0.0
 10
6.3525266901
 20
2.9908592258
 30
0.0
  0
SPLINE
  5
35C
100
AcDbEntity
  8
0
100
AcDbSpline
 62
7
  6
CONTINUOUS
 70
0
 71
3
 72
27
 73
23
 74
0
 42
0.0000001
 43
0.0000001
 44
0.0000000001
 40
0.0
 40
0.0
 40
0.0
 40
0.0
 40
0.062871922
 40
0.1257172358
 40
0.188483373
 40
0.251118785
 40
0.3135823613
 40
0.3758573961
 40
0.4069346103
 40
0.4379771488
 40
0.4689950682
 40
0.4999999998
 40
0.5310049315
 40
0.562022851
 40
0.5930653896
 40
0.6241426038
 40
0.6864176388
 40
0.7488812151
 40
0.811516627
 40
0.8742827642
 40
0.937128078
 40
1.0
 40
1.0
 40
1.0
 40
1.0
 10
6.9573127999
 20
6.5916482919
 30
0.0
 10
6.9604429631
 20
6.5927462352
 30
0.0
 10
6.9666970567
 20
6.5949555725
 30
0.0
 10
6.9760905249
 20
6.5982201186
 30
0.0
 10
6.9855237793
 20
6.6013301116
 30
0.0
 10
6.995023579
 20
6.6041653049
 30
0.0
 10
7.0046109989
 20
6.6065914614
 30
0.0
 10
7.0126880845
 20
6.6081553815
 30
0.0
 10
7.0191893073
 20
6.6090639282
 30
0.0
 10
7.0240793086
 20
6.6095611699
 30
0.0
 10
7.0289814504
 20
6.6098639928
 30
0.0
 10
7.0338899668
 20
6.6099655349
 30
0.0
 10
7.0387984833
 20
6.6098639929
 30
0.0
 10
7.0437006251
 20
6.6095611699
 30
0.0
 10
7.0485906264
 20
6.6090639282
 30
0.0
 10
7.0550918492
 20
6.6081553815
 30
0.0
 10
7.0631689349
 20
6.6065914614
 30
0.0
 10
7.0727563548
 20
6.6041653049
 30
0.0
 10
7.0822561545
 20
6.6013301116
 30
0.0
 10
7.0916894089
 20
6.5982201186
 30
0.0
 10
7.1010828771
 20
6.5949555725
 30
0.0
 10
7.1073369706
 20
6.5927462352
 30
0.0
 10
7.1104671338
 20
6.5916482919
 30
0.0
  0
SPLINE
  5
35D
100
AcDbEntity
  8
0
100
AcDbSpline
 62
7
  6
CONTINUOUS
 70
0
 71
3
 72
15
 73
11
 74
0
 42
0.0000001
 43
0.0000001
 44
0.0000000001
 40
0.0
 40
0.0
 40
0.0
 40
0.0
 40
0.1013165663
 40
0.2063286528
 40
0.316407133
 40
0.433042732
 40
0.5578842733
 40
0.6927700593
 40
0.8396132869
 40
1.0
 40
1.0
 40
1.0
 40
1.0
 10
6.3253391521
 20
3.0150588416
 30
0.0
 10
6.326332058
 20
3.0143330454
 30
0.0
 10
6.3283133425
 20
3.0127987454
 30
0.0
 10
6.3312428279
 20
3.0103133077
 30
0.0
 10
6.3342251719
 20
3.0076067592
 30
0.0
 10
6.3373244574
 20
3.004672865
 30
0.0
 10
6.3406172754
 20
3.0015058003
 30
0.0
 10
6.3441949569
 20
2.9981058175
 30
0.0
 10
6.3481617669
 20
2.9944899849
 30
0.0
 10
6.3510094135
 20
2.9920792699
 30
0.0
 10
6.3525266901
 20
2.9908592258
 30
0.0
  0
SPLINE
  5
35E
100
AcDbEntity
  8
0
100
AcDbSpline
 62
7
  6
CONTINUOUS
 70
0
 71
3
 72
27
 73
23
 74
0
 42
0.0000001
 43
0.0000001
 44
0.0000000001
 40
0.0
 40
0.0
 40
0.0
 40
0.0
 40
0.0628719219
 40
0.1257172354
 40
0.1884833723
 40
0.251118784
 40
0.3135823602
 40
0.3758573953
 40
0.4069346098
 40
0.4379771488
 40
0.4689950686
 40
0.5000000006
 40
0.5310049325
 40
0.5620228519
 40
0.5930653905
 40
0.6241426047
 40
0.6864176396
 40
0.7488812158
 40
0.8115166275
 40
0.8742827645
 40
0.9371280781
 40
1.0
 40
1.0
 40
1.0
 40
1.0
 10
6.7948127999
 20
6.5916482919
 30
0.0
 10
6.7979429631
 20
6.5927462352
 30
0.0
 10
6.8041970567
 20
6.5949555725
 30
0.0
 10
6.8135905248
 20
6.5982201186
 30
0.0
 10
6.8230237792
 20
6.6013301115
 30
0.0
 10
6.8325235788
 20
6.6041653048
 30
0.0
 10
6.8421109987
 20
6.6065914614
 30
0.0
 10
6.8501880844
 20
6.6081553814
 30
0.0
 10
6.8566893072
 20
6.6090639282
 30
0.0
 10
6.8615793086
 20
6.6095611698
 30
0.0
 10
6.8664814505
 20
6.6098639929
 30
0.0
 10
6.871389967
 20
6.6099655349
 30
0.0
 10
6.8762984834
 20
6.6098639929
 30
0.0
 10
6.8812006253
 20
6.6095611699
 30
0.0
 10
6.8860906266
 20
6.6090639282
 30
0.0
 10
6.8925918493
 20
6.6081553814
 30
0.0
 10
6.900668935
 20
6.6065914614
 30
0.0
 10
6.9102563549
 20
6.6041653048
 30
0.0
 10
6.9197561545
 20
6.6013301115
 30
0.0
 10
6.9291894089
 20
6.5982201186
 30
0.0
 10
6.9385828771
 20
6.5949555725
 30
0.0
 10
6.9448369706
 20
6.5927462352
 30
0.0
 10
6.9479671338
 20
6.5916482919
 30
0.0
  0
SPLINE
  5
35F
100
AcDbEntity
  8
0
100
AcDbSpline
 62
7
  6
CONTINUOUS
 70
0
 71
3
 72
37
 73
33
 74
0
 42
0.0000001
 43
0.0000001
 44
0.0000000001
 40
0.0
 40
0.0
 40
0.0
 40
0.0
 40
0.0077759954
 40
0.0155587764
 40
0.023349044
 40
0.0311468951
 40
0.0389498219
 40
0.0467562727
 40
0.054567431
 40
0.0623828027
 40
0.0662908597
 40
0.0701984236
 40
0.0780121511
 40
0.0858249606
 40
0.0936378922
 40
0.1092649412
 40
0.1248920797
 40
0.1405189141
 40
0.1561458183
 40
0.1873997081
 40
0.2186535566
 40
0.2499074173
 40
0.2811612741
 40
0.312415132
 40
0.3749228471
 40
0.4374305623
 40
0.4999382774
 40
0.5624459925
 40
0.6249537076
 40
0.749969138
 40
0.8749845688
 40
1.0
 40
1.0
 40
1.0
 40
1.0
 10
5.823812004
 20
4.2609295636
 30
0.0
 10
5.8237757231
 20
4.2605768415
 30
0.0
 10
5.8237064599
 20
4.259870743
 30
0.0
 10
5.823612133
 20
4.2588102059
 30
0.0
 10
5.8235271198
 20
4.257747885
 30
0.0
 10
5.8234506672
 20
4.2566839849
 30
0.0
 10
5.8233890252
 20
4.2556183533
 30
0.0
 10
5.8233498569
 20
4.2545509849
 30
0.0
 10
5.8233386865
 20
4.2534824232
 30
0.0
 10
5.8233414326
 20
4.2525916548
 30
0.0
 10
5.8233448452
 20
4.2518788942
 30
0.0
 10
5.8233468336
 20
4.2511662028
 30
0.0
 10
5.8233469666
 20
4.2502754524
 30
0.0
 10
5.8233453887
 20
4.2492066208
 30
0.0
 10
5.8233439727
 20
4.2477815033
 30
0.0
 10
5.8233448849
 20
4.246000054
 30
0.0
 10
5.8233453705
 20
4.2438622934
 30
0.0
 10
5.8233450913
 20
4.2417245392
 30
0.0
 10
5.8233452497
 20
4.2388742098
 30
0.0
 10
5.823345547
 20
4.2353112932
 30
0.0
 10
5.8233457986
 20
4.231035792
 30
0.0
 10
5.8233461823
 20
4.2267602923
 30
0.0
 10
5.8233465758
 20
4.2224847921
 30
0.0
 10
5.8233471703
 20
4.2167841255
 30
0.0
 10
5.8233479923
 20
4.2096582921
 30
0.0
 10
5.8233490797
 20
4.2011072922
 30
0.0
 10
5.8233502236
 20
4.1925562922
 30
0.0
 10
5.8233513849
 20
4.1840052922
 30
0.0
 10
5.8233529023
 20
4.1726039589
 30
0.0
 10
5.8233546404
 20
4.1583522923
 30
0.0
 10
5.8233561497
 20
4.1412502921
 30
0.0
 10
5.8233565567
 20
4.1298489587
 30
0.0
 10
5.8233565567
 20
4.1241482919
 30
0.0
  0
SPLINE
  5
360
100
AcDbEntity
  8
0
100
AcDbSpline
 62
7
  6
CONTINUOUS
 70
0
 71
3
 72
22
 73
18
 74
0
 42
0.0000001
 43
0.0000001
 44
0.0000000001
 40
0.0
 40
0.0
 40
0.0
 40
0.0
 40
0.0663388372
 40
0.1321133442
 40
0.1972962083
 40
0.2618797352
 40
0.3258647216
 40
0.3892656831
 40
0.452098974
 40
0.5143933132
 40
0.6375082737
 40
0.6984269267
 40
0.7590018942
 40
0.8193165814
 40
0.8794810446
 40
0.9396427967
 40
1.0
 40
1.0
 40
1.0
 40
1.0
 10
5.891902022
 20
4.1241482919
 30
0.0
 10
5.8909565014
 20
4.1230900678
 30
0.0
 10
5.8890213759
 20
4.1210285412
 30
0.0
 10
5.8859867761
 20
4.1180932021
 30
0.0
 10
5.8828514305
 20
4.1153223457
 30
0.0
 10
5.8796362443
 20
4.1127052817
 30
0.0
 10
5.8763622966
 20
4.1102252058
 30
0.0
 10
5.8730486071
 20
4.1078628333
 30
0.0
 10
5.8697123426
 20
4.105596556
 30
0.0
 10
5.8652715888
 20
4.1026843498
 30
0.0
 10
5.8608245604
 20
4.0998574913
 30
0.0
 10
5.856428934
 20
4.0970186645
 30
0.0
 10
5.8531871248
 20
4.0948697838
 30
0.0
 10
5.8500010861
 20
4.0926669707
 30
0.0
 10
5.8468847662
 20
4.0903808948
 30
0.0
 10
5.8438552144
 20
4.0879790045
 30
0.0
 10
5.8419137969
 20
4.0862803095
 30
0.0
 10
5.8409682977
 20
4.0854010583
 30
0.0
  0
SPLINE
  5
361
100
AcDbEntity
  8
0
100
AcDbSpline
 62
7
  6
CONTINUOUS
 70
0
 71
3
 72
18
 73
14
 74
0
 42
0.0000001
 43
0.0000001
 44
0.0000000001
 40
0.0
 40
0.0
 40
0.0
 40
0.0
 40
0.0498798449
 40
0.1030599163
 40
0.1592425667
 40
0.2181171502
 40
0.2793454148
 40
0.3425735683
 40
0.473535452
 40
0.6079301432
 40
0.742581048
 40
0.874303535
 40
1.0
 40
1.0
 40
1.0
 40
1.0
 10
5.823812004
 20
4.2609295636
 30
0.0
 10
5.8249218545
 20
4.2607269266
 30
0.0
 10
5.8272222453
 20
4.2603474116
 30
0.0
 10
5.8307917737
 20
4.2598633569
 30
0.0
 10
5.8345747195
 20
4.2594484947
 30
0.0
 10
5.8385475354
 20
4.2591054576
 30
0.0
 10
5.8426857362
 20
4.2588364412
 30
0.0
 10
5.8484572917
 20
4.2585758113
 30
0.0
 10
5.8558900137
 20
4.2584500013
 30
0.0
 10
5.864937774
 20
4.2586073918
 30
0.0
 10
5.8739925194
 20
4.2590681094
 30
0.0
 10
5.8828301784
 20
4.2598205029
 30
0.0
 10
5.8886114846
 20
4.2605255232
 30
0.0
 10
5.8914256692
 20
4.2609295636
 30
0.0
  0
SPLINE
  5
362
100
AcDbEntity
  8
0
100
AcDbSpline
 62
7
  6
CONTINUOUS
 70
0
 71
3
 72
15
 73
11
 74
0
 42
0.0000001
 43
0.0000001
 44
0.0000000001
 40
0.0
 40
0.0
 40
0.0
 40
0.0
 40
0.163860315
 40
0.3132177815
 40
0.4496884951
 40
0.5749690714
 40
0.6907905806
 40
0.7989645519
 40
0.9013850995
 40
1.0
 40
1.0
 40
1.0
 40
1.0
 10
5.8333043617
 20
4.0791482919
 30
0.0
 10
5.8326756451
 20
4.0787493769
 30
0.0
 10
5.8314697093
 20
4.0779932411
 30
0.0
 10
5.8297070327
 20
4.0769586501
 30
0.0
 10
5.8280544723
 20
4.0760857328
 30
0.0
 10
5.826491404
 20
4.0753752382
 30
0.0
 10
5.825000663
 20
4.074825656
 30
0.0
 10
5.8235675132
 20
4.0744349816
 30
0.0
 10
5.8221795839
 20
4.0742011931
 30
0.0
 10
5.8212653283
 20
4.0741482919
 30
0.0
 10
5.8208172155
 20
4.0741482919
 30
0.0
  0
SPLINE
  5
363
100
AcDbEntity
  8
0
100
AcDbSpline
 62
7
  6
CONTINUOUS
 70
0
 71
3
 72
22
 73
18
 74
0
 42
0.0000001
 43
0.0000001
 44
0.0000000001
 40
0.0
 40
0.0
 40
0.0
 40
0.0
 40
0.1448632709
 40
0.2164760814
 40
0.2870771641
 40
0.3563691994
 40
0.4240895943
 40
0.490019749
 40
0.5539945973
 40
0.6159122921
 40
0.6757436956
 40
0.733541016
 40
0.7894444684
 40
0.8436853133
 40
0.8965832104
 40
0.9485358815
 40
1.0
 40
1.0
 40
1.0
 40
1.0
 10
5.6487330612
 20
4.1241482919
 30
0.0
 10
5.6487330612
 20
4.1208889107
 30
0.0
 10
5.648396641
 20
4.1160088466
 30
0.0
 10
5.647272094
 20
4.1096444958
 30
0.0
 10
5.6461065697
 20
4.1050258538
 30
0.0
 10
5.644627106
 20
4.1005904039
 30
0.0
 10
5.6428475935
 20
4.096379993
 30
0.0
 10
5.6407847883
 20
4.0924349909
 30
0.0
 10
5.6384580236
 20
4.0887931016
 30
0.0
 10
5.6358890391
 20
4.0854892738
 30
0.0
 10
5.633101773
 20
4.0825553876
 30
0.0
 10
5.6301221964
 20
4.0800200601
 30
0.0
 10
5.6269781539
 20
4.0779084579
 30
0.0
 10
5.623699411
 20
4.07624209
 30
0.0
 10
5.6203172208
 20
4.0750385085
 30
0.0
 10
5.6168656754
 20
4.0743108686
 30
0.0
 10
5.6145356497
 20
4.0741482919
 30
0.0
 10
5.6133777221
 20
4.0741482919
 30
0.0
  0
SPLINE
  5
364
100
AcDbEntity
  8
0
100
AcDbSpline
 62
7
  6
CONTINUOUS
 70
0
 71
3
 72
19
 73
15
 74
0
 42
0.0000001
 43
0.0000001
 44
0.0000000001
 40
0.0
 40
0.0
 40
0.0
 40
0.0
 40
0.1803316347
 40
0.2648609079
 40
0.344082213
 40
0.417872015
 40
0.4865455289
 40
0.5506079538
 40
0.6106401475
 40
0.6672224728
 40
0.7208611555
 40
0.820918039
 40
0.9134161292
 40
1.0
 40
1.0
 40
1.0
 40
1.0
 10
5.8233565567
 20
4.1241482919
 30
0.0
 10
5.8233565276
 20
4.1215052975
 30
0.0
 10
5.8235753086
 20
4.1176176145
 30
0.0
 10
5.8243115011
 20
4.112626537
 30
0.0
 10
5.8250235701
 20
4.1092164316
 30
0.0
 10
5.8258744006
 20
4.1060788389
 30
0.0
 10
5.8268376861
 20
4.1032074295
 30
0.0
 10
5.8278953641
 20
4.1005857702
 30
0.0
 10
5.8290317653
 20
4.098192285
 30
0.0
 10
5.8302301389
 20
4.0960020446
 30
0.0
 10
5.8318570366
 20
4.0933830699
 30
0.0
 10
5.8339956087
 20
4.0904686846
 30
0.0
 10
5.8367174546
 20
4.0874076749
 30
0.0
 10
5.8386226832
 20
4.0855977101
 30
0.0
 10
5.8395755603
 20
4.0847596266
 30
0.0
  0
LINE
  5
365
100
AcDbEntity
  8
0
100
AcDbLine
 62
7
  6
CONTINUOUS
 10
5.8395755603
 20
4.0847596266
 11
5.8399506971
 21
4.0844331014
  0
SPLINE
  5
366
100
AcDbEntity
  8
0
100
AcDbSpline
 62
7
  6
CONTINUOUS
 70
0
 71
3
 72
9
 73
5
 74
0
 42
0.0000001
 43
0.0000001
 44
0.0000000001
 40
0.0
 40
0.0
 40
0.0
 40
0.0
 40
0.5083766678
 40
1.0
 40
1.0
 40
1.0
 40
1.0
 10
5.8399506971
 20
4.0844331014
 30
0.0
 10
5.8389182578
 20
4.0834280558
 30
0.0
 10
5.8367909334
 20
4.0815473706
 30
0.0
 10
5.8344808887
 20
4.0798947878
 30
0.0
 10
5.8333043617
 20
4.0791482919
 30
0.0
  0
SPLINE
  5
367
100
AcDbEntity
  8
0
100
AcDbSpline
 62
7
  6
CONTINUOUS
 70
0
 71
3
 72
18
 73
14
 74
0
 42
0.0000001
 43
0.0000001
 44
0.0000000001
 40
0.0
 40
0.0
 40
0.0
 40
0.0
 40
0.1456955712
 40
0.2865731093
 40
0.4213069506
 40
0.5490767875
 40
0.6697259656
 40
0.7276146179
 40
0.7840351452
 40
0.8392014567
 40
0.8933742708
 40
0.9468663887
 40
1.0
 40
1.0
 40
1.0
 40
1.0
 10
5.6292738212
 20
4.1452370869
 30
0.0
 10
5.6295555924
 20
4.1437574212
 30
0.0
 10
5.6302820464
 20
4.1408762114
 30
0.0
 10
5.6318722865
 20
4.1368086
 30
0.0
 10
5.633910202
 20
4.1331536254
 30
0.0
 10
5.6363444097
 20
4.130008494
 30
0.0
 10
5.6386887008
 20
4.1278516317
 30
0.0
 10
5.6406962628
 20
4.1264780373
 30
0.0
 10
5.6422364493
 20
4.1256361843
 30
0.0
 10
5.6438209892
 20
4.1249750449
 30
0.0
 10
5.6454394191
 20
4.1244991906
 30
0.0
 10
5.6470803622
 20
4.1242123118
 30
0.0
 10
5.648183746
 20
4.1241482919
 30
0.0
 10
5.6487330612
 20
4.1241482919
 30
0.0
  0
SPLINE
  5
368
100
AcDbEntity
  8
0
100
AcDbSpline
 62
7
  6
CONTINUOUS
 70
0
 71
3
 72
22
 73
18
 74
0
 42
0.0000001
 43
0.0000001
 44
0.0000000001
 40
0.0
 40
0.0
 40
0.0
 40
0.0
 40
0.1456387095
 40
0.216782543
 40
0.2865391731
 40
0.3547545639
 40
0.4213076084
 40
0.4861135967
 40
0.5491294617
 40
0.6103581563
 40
0.6698526789
 40
0.7277190668
 40
0.7841176544
 40
0.839262391
 40
0.8934158595
 40
0.9468839066
 40
1.0
 40
1.0
 40
1.0
 40
1.0
 10
5.5597794647
 20
4.1322349727
 30
0.0
 10
5.5605555667
 20
4.1281594261
 30
0.0
 10
5.5620704099
 20
4.1221513855
 30
0.0
 10
5.5648108673
 20
4.1144582742
 30
0.0
 10
5.5671744474
 20
4.1089850383
 30
0.0
 10
5.5698460232
 20
4.1038021378
 30
0.0
 10
5.5728082045
 20
4.0989435626
 30
0.0
 10
5.5760415873
 20
4.0944417621
 30
0.0
 10
5.5795250607
 20
4.0903267438
 30
0.0
 10
5.5832358972
 20
4.0866261028
 30
0.0
 10
5.587149876
 20
4.0833648268
 30
0.0
 10
5.5912413777
 20
4.0805651911
 30
0.0
 10
5.5954834849
 20
4.0782465921
 30
0.0
 10
5.5998479576
 20
4.0764254436
 30
0.0
 10
5.6043056804
 20
4.0751148528
 30
0.0
 10
5.6088254789
 20
4.0743245624
 30
0.0
 10
5.6118646132
 20
4.0741482919
 30
0.0
 10
5.6133777221
 20
4.0741482919
 30
0.0
  0
SPLINE
  5
369
100
AcDbEntity
  8
0
100
AcDbSpline
 62
7
  6
CONTINUOUS
 70
0
 71
3
 72
23
 73
19
 74
0
 42
0.0000001
 43
0.0000001
 44
0.0000000001
 40
0.0
 40
0.0
 40
0.0
 40
0.0
 40
0.0526856823
 40
0.1093967028
 40
0.1696279204
 40
0.2328334615
 40
0.2984341733
 40
0.3658246956
 40
0.4343803694
 40
0.5034640865
 40
0.5724331244
 40
0.6406459783
 40
0.7074691942
 40
0.7722842062
 40
0.8344941996
 40
0.8935310616
 40
0.9488625555
 40
1.0
 40
1.0
 40
1.0
 40
1.0
 10
5.6292738212
 20
4.1452370869
 30
0.0
 10
5.6281087056
 20
4.1447933433
 30
0.0
 10
5.6256732769
 20
4.1439141362
 30
0.0
 10
5.6218600323
 20
4.1426589539
 30
0.0
 10
5.6177783347
 20
4.141427445
 30
0.0
 10
5.6134673888
 20
4.1402316075
 30
0.0
 10
5.6089685697
 20
4.1390830487
 30
0.0
 10
5.6043251217
 20
4.1379928936
 30
0.0
 10
5.5995816958
 20
4.1369716802
 30
0.0
 10
5.5947839213
 20
4.1360292611
 30
0.0
 10
5.589977958
 20
4.1351747105
 30
0.0
 10
5.5852100474
 20
4.1344162359
 30
0.0
 10
5.5805260639
 20
4.1337610975
 30
0.0
 10
5.5759710647
 20
4.1332155334
 30
0.0
 10
5.5715888594
 20
4.1327846955
 30
0.0
 10
5.5674215391
 20
4.1324725786
 30
0.0
 10
5.563509181
 20
4.1322820004
 30
0.0
 10
5.560989584
 20
4.1322349726
 30
0.0
 10
5.5597794647
 20
4.1322349727
 30
0.0
  0
SPLINE
  5
36A
100
AcDbEntity
  8
0
100
AcDbSpline
 62
7
  6
CONTINUOUS
 70
0
 71
3
 72
13
 73
9
 74
0
 42
0.0000001
 43
0.0000001
 44
0.0000000001
 40
0.0
 40
0.0
 40
0.0
 40
0.0
 40
0.2488885655
 40
0.3743086263
 40
0.4999999998
 40
0.6256913732
 40
0.7511114342
 40
1.0
 40
1.0
 40
1.0
 40
1.0
 10
5.6292738212
 20
4.283059497
 30
0.0
 10
5.6271228659
 20
4.27176418
 30
0.0
 10
5.6247080881
 20
4.2546065252
 30
0.0
 10
5.6230969455
 20
4.2315580618
 30
0.0
 10
5.6226923567
 20
4.214148292
 30
0.0
 10
5.6230969455
 20
4.1967385221
 30
0.0
 10
5.6247080881
 20
4.1736900587
 30
0.0
 10
5.6271228659
 20
4.1565324039
 30
0.0
 10
5.6292738212
 20
4.1452370869
 30
0.0
  0
SPLINE
  5
36B
100
AcDbEntity
  8
0
100
AcDbSpline
 62
7
  6
CONTINUOUS
 70
0
 71
3
 72
13
 73
9
 74
0
 42
0.0000001
 43
0.0000001
 44
0.0000000001
 40
0.0
 40
0.0
 40
0.0
 40
0.0
 40
0.2488885472
 40
0.374308766
 40
0.5
 40
0.625691234
 40
0.7511114528
 40
1.0
 40
1.0
 40
1.0
 40
1.0
 10
5.5597794647
 20
4.2960616112
 30
0.0
 10
5.557222669
 20
4.2826351034
 30
0.0
 10
5.5543522817
 20
4.2622401466
 30
0.0
 10
5.5524371429
 20
4.2348429174
 30
0.0
 10
5.551956225
 20
4.2141482919
 30
0.0
 10
5.5524371429
 20
4.1934536665
 30
0.0
 10
5.5543522817
 20
4.1660564372
 30
0.0
 10
5.557222669
 20
4.1456614805
 30
0.0
 10
5.5597794647
 20
4.1322349727
 30
0.0
  0
SPLINE
  5
36C
100
AcDbEntity
  8
0
100
AcDbSpline
 62
7
  6
CONTINUOUS
 70
0
 71
3
 72
23
 73
19
 74
0
 42
0.0000001
 43
0.0000001
 44
0.0000000001
 40
0.0
 40
0.0
 40
0.0
 40
0.0
 40
0.0526856819
 40
0.1093967023
 40
0.1696279198
 40
0.2328334609
 40
0.2984341728
 40
0.3658246953
 40
0.4343803692
 40
0.5034640866
 40
0.5724331247
 40
0.6406459787
 40
0.7074691948
 40
0.7722842068
 40
0.8344942002
 40
0.8935310621
 40
0.9488625559
 40
1.0
 40
1.0
 40
1.0
 40
1.0
 10
5.6292738212
 20
4.283059497
 30
0.0
 10
5.6281087056
 20
4.2835032405
 30
0.0
 10
5.6256732768
 20
4.2843824474
 30
0.0
 10
5.6218600322
 20
4.2856376296
 30
0.0
 10
5.6177783346
 20
4.2868691383
 30
0.0
 10
5.6134673887
 20
4.2880649756
 30
0.0
 10
5.6089685695
 20
4.2892135344
 30
0.0
 10
5.6043251215
 20
4.2903036893
 30
0.0
 10
5.5995816956
 20
4.2913249028
 30
0.0
 10
5.5947839211
 20
4.2922673218
 30
0.0
 10
5.5899779578
 20
4.2931218725
 30
0.0
 10
5.5852100472
 20
4.2938803471
 30
0.0
 10
5.5805260638
 20
4.2945354856
 30
0.0
 10
5.5759710646
 20
4.2950810498
 30
0.0
 10
5.5715888593
 20
4.2955118879
 30
0.0
 10
5.567421539
 20
4.2958240049
 30
0.0
 10
5.563509181
 20
4.2960145833
 30
0.0
 10
5.560989584
 20
4.2960616112
 30
0.0
 10
5.5597794647
 20
4.2960616112
 30
0.0
  0
SPLINE
  5
36D
100
AcDbEntity
  8
0
100
AcDbSpline
 62
7
  6
CONTINUOUS
 70
0
 71
3
 72
21
 73
17
 74
0
 42
0.0000001
 43
0.0000001
 44
0.0000000001
 40
0.0
 40
0.0
 40
0.0
 40
0.0
 40
0.0544517099
 40
0.1085035258
 40
0.1626044207
 40
0.2172170918
 40
0.2727653045
 40
0.3296241736
 40
0.3880997557
 40
0.4484206138
 40
0.5107348918
 40
0.575112095
 40
0.7098520465
 40
0.7801330762
 40
0.8520864377
 40
1.0
 40
1.0
 40
1.0
 40
1.0
 10
5.6522325136
 20
4.3037153129
 30
0.0
 10
5.6516240148
 20
4.3038670506
 30
0.0
 10
5.6503907662
 20
4.3040928653
 30
0.0
 10
5.6485152619
 20
4.3041876631
 30
0.0
 10
5.6466413864
 20
4.3040355782
 30
0.0
 10
5.6447864335
 20
4.3036382216
 30
0.0
 10
5.6429667454
 20
4.3029994295
 30
0.0
 10
5.6411982587
 20
4.3021253829
 30
0.0
 10
5.6394961119
 20
4.3010242077
 30
0.0
 10
5.6378747074
 20
4.2997059232
 30
0.0
 10
5.6363474864
 20
4.2981820453
 30
0.0
 10
5.6344254783
 20
4.2958596392
 30
0.0
 10
5.6327789158
 20
4.2932092109
 30
0.0
 10
5.6314223971
 20
4.2903196796
 30
0.0
 10
5.6302330175
 20
4.2871940927
 30
0.0
 10
5.6295925004
 20
4.2847329778
 30
0.0
 10
5.6292738212
 20
4.283059497
 30
0.0
  0
SPLINE
  5
36E
100
AcDbEntity
  8
0
100
AcDbSpline
 62
7
  6
CONTINUOUS
 70
0
 71
3
 72
22
 73
18
 74
0
 42
0.0000001
 43
0.0000001
 44
0.0000000001
 40
0.0
 40
0.0
 40
0.0
 40
0.0
 40
0.1465824868
 40
0.2183785286
 40
0.2888314259
 40
0.357730367
 40
0.424901535
 40
0.4902113606
 40
0.5535741207
 40
0.6149581178
 40
0.6743918659
 40
0.7319692333
 40
0.7878527548
 40
0.8422740698
 40
0.8955299601
 40
0.9479740592
 40
1.0
 40
1.0
 40
1.0
 40
1.0
 10
5.6522325136
 20
4.3037153129
 30
0.0
 10
5.6525864721
 20
4.3065542037
 30
0.0
 10
5.6528563924
 20
4.3108228396
 30
0.0
 10
5.652663326
 20
4.3164595943
 30
0.0
 10
5.6522470959
 20
4.3205629617
 30
0.0
 10
5.6515614582
 20
4.3245383684
 30
0.0
 10
5.6506114921
 20
4.3283560148
 30
0.0
 10
5.6494041737
 20
4.3319868709
 30
0.0
 10
5.6479483778
 20
4.3354034007
 30
0.0
 10
5.6462547727
 20
4.338579599
 30
0.0
 10
5.6443357576
 20
4.3414911755
 30
0.0
 10
5.6422054078
 20
4.3441156719
 30
0.0
 10
5.6398794199
 20
4.3464325911
 30
0.0
 10
5.6373751771
 20
4.3484234978
 30
0.0
 10
5.634711496
 20
4.3500723164
 30
0.0
 10
5.6319095889
 20
4.351365236
 30
0.0
 10
5.6299601423
 20
4.3519840119
 30
0.0
 10
5.6289749138
 20
4.35222969
 30
0.0
  0
SPLINE
  5
36F
100
AcDbEntity
  8
0
100
AcDbSpline
 62
7
  6
CONTINUOUS
 70
0
 71
3
 72
26
 73
22
 74
0
 42
0.0000001
 43
0.0000001
 44
0.0000000001
 40
0.0
 40
0.0
 40
0.0
 40
0.0
 40
0.1250206538
 40
0.2500413077
 40
0.3750619615
 40
0.4375722884
 40
0.5000826153
 40
0.5625929422
 40
0.6251032692
 40
0.6876135961
 40
0.7188687595
 40
0.7501239232
 40
0.7813790858
 40
0.8126342508
 40
0.8438894128
 40
0.8751445705
 40
0.9063991102
 40
0.9376465981
 40
0.9688631166
 40
0.9844462139
 40
1.0
 40
1.0
 40
1.0
 40
1.0
 10
6.2001272157
 20
4.1241482919
 30
0.0
 10
6.2001272157
 20
4.1298470088
 30
0.0
 10
6.2001272156
 20
4.1412444427
 30
0.0
 10
6.2001272161
 20
4.1583405935
 30
0.0
 10
6.200127215
 20
4.1725873858
 30
0.0
 10
6.2001272177
 20
4.1839848196
 30
0.0
 10
6.200127207
 20
4.192532895
 30
0.0
 10
6.2001272445
 20
4.2010809704
 30
0.0
 10
6.2001271365
 20
4.2096290458
 30
0.0
 10
6.2001273591
 20
4.2167524419
 30
0.0
 10
6.200127056
 20
4.2224511589
 30
0.0
 10
6.2001271189
 20
4.2267251965
 30
0.0
 10
6.2001277987
 20
4.2309992343
 30
0.0
 10
6.2001272916
 20
4.2352732714
 30
0.0
 10
6.200123817
 20
4.2395473105
 30
0.0
 10
6.2001344652
 20
4.243821313
 30
0.0
 10
6.2001131123
 20
4.2480949901
 30
0.0
 10
6.2000294023
 20
4.2523663329
 30
0.0
 10
6.1998611011
 20
4.2559206624
 30
0.0
 10
6.1996460523
 20
4.2587548829
 30
0.0
 10
6.1995083201
 20
4.2601676301
 30
0.0
 10
6.1994305701
 20
4.2608723298
 30
0.0
  0
SPLINE
  5
370
100
AcDbEntity
  8
0
100
AcDbSpline
 62
7
  6
CONTINUOUS
 70
0
 71
3
 72
15
 73
11
 74
0
 42
0.0000001
 43
0.0000001
 44
0.0000000001
 40
0.0
 40
0.0
 40
0.0
 40
0.0
 40
0.0986149005
 40
0.2010354481
 40
0.3092094194
 40
0.4250309287
 40
0.5503115049
 40
0.6867822185
 40
0.836139685
 40
1.0
 40
1.0
 40
1.0
 40
1.0
 10
6.2026548773
 20
4.0741482919
 30
0.0
 10
6.2022067646
 20
4.0741482919
 30
0.0
 10
6.201292509
 20
4.0742011931
 30
0.0
 10
6.1999045797
 20
4.0744349816
 30
0.0
 10
6.1984714298
 20
4.074825656
 30
0.0
 10
6.1969806888
 20
4.0753752382
 30
0.0
 10
6.1954176206
 20
4.0760857328
 30
0.0
 10
6.1937650601
 20
4.0769586501
 30
0.0
 10
6.1920023835
 20
4.0779932411
 30
0.0
 10
6.1907964477
 20
4.0787493769
 30
0.0
 10
6.1901677312
 20
4.0791482919
 30
0.0
  0
SPLINE
  5
371
100
AcDbEntity
  8
0
100
AcDbSpline
 62
7
  6
CONTINUOUS
 70
0
 71
3
 72
9
 73
5
 74
0
 42
0.0000001
 43
0.0000001
 44
0.0000000001
 40
0.0
 40
0.0
 40
0.0
 40
0.0
 40
0.4919777736
 40
1.0
 40
1.0
 40
1.0
 40
1.0
 10
6.1901677312
 20
4.0791482919
 30
0.0
 10
6.1890451626
 20
4.0798605516
 30
0.0
 10
6.1868390645
 20
4.081430318
 30
0.0
 10
6.1847986953
 20
4.0832090955
 30
0.0
 10
6.1838065644
 20
4.0841579434
 30
0.0
  0
SPLINE
  5
372
100
AcDbEntity
  8
0
100
AcDbSpline
 62
7
  6
CONTINUOUS
 70
0
 71
3
 72
39
 73
35
 74
0
 42
0.0000001
 43
0.0000001
 44
0.0000000001
 40
0.0
 40
0.0
 40
0.0
 40
0.0
 40
0.04283487
 40
0.0868244974
 40
0.13201071
 40
0.1551000319
 40
0.1785560575
 40
0.2024196057
 40
0.2267369051
 40
0.251552205
 40
0.2769118208
 40
0.3028805647
 40
0.3295422272
 40
0.3852898289
 40
0.4145157457
 40
0.4447327822
 40
0.4760543387
 40
0.5085959893
 40
0.5424279829
 40
0.5776052308
 40
0.6141826208
 40
0.652208486
 40
0.6717730578
 40
0.6917077746
 40
0.7326298935
 40
0.7535730538
 40
0.7748163311
 40
0.7963592056
 40
0.8182030232
 40
0.8626978011
 40
0.9080007297
 40
0.9308750142
 40
0.9538606442
 40
1.0
 40
1.0
 40
1.0
 40
1.0
 10
6.1838065644
 20
4.0841579434
 30
0.0
 10
6.1843155833
 20
4.0845505083
 30
0.0
 10
6.1853363722
 20
4.0853606537
 30
0.0
 10
6.1868434843
 20
4.0866471397
 30
0.0
 10
6.1880756977
 20
4.0877972067
 30
0.0
 10
6.1890421202
 20
4.088777787
 30
0.0
 10
6.1897603554
 20
4.0895529886
 30
0.0
 10
6.1904661795
 20
4.0903640788
 30
0.0
 10
6.1911609076
 20
4.0912112239
 30
0.0
 10
6.1918457744
 20
4.0920949157
 30
0.0
 10
6.1925216087
 20
4.0930164951
 30
0.0
 10
6.1931820141
 20
4.0939830691
 30
0.0
 10
6.1940465571
 20
4.0953611803
 30
0.0
 10
6.1948423745
 20
4.0968376326
 30
0.0
 10
6.1955882731
 20
4.0983971781
 30
0.0
 10
6.196137024
 20
4.0996441437
 30
0.0
 10
6.1966589832
 20
4.1009563074
 30
0.0
 10
6.1971485321
 20
4.1023386084
 30
0.0
 10
6.1976064407
 20
4.1037924325
 30
0.0
 10
6.1980331107
 20
4.1053186999
 30
0.0
 10
6.1984262508
 20
4.1069188208
 30
0.0
 10
6.1987207598
 20
4.1083012012
 30
0.0
 10
6.1989361337
 20
4.1094445368
 30
0.0
 10
6.1991400588
 20
4.1106340983
 30
0.0
 10
6.1993204835
 20
4.1118484692
 30
0.0
 10
6.1994857329
 20
4.113084667
 30
0.0
 10
6.1996029905
 20
4.1140338438
 30
0.0
 10
6.199709518
 20
4.1149978951
 30
0.0
 10
6.1998338215
 20
4.1163108972
 30
0.0
 10
6.1999527242
 20
4.1179822492
 30
0.0
 10
6.2000387112
 20
4.1196710044
 30
0.0
 10
6.2000866643
 20
4.1210382506
 30
0.0
 10
6.2001191685
 20
4.1224185018
 30
0.0
 10
6.2001273773
 20
4.1234558902
 30
0.0
 10
6.2001272157
 20
4.1241482919
 30
0.0
  0
SPLINE
  5
373
100
AcDbEntity
  8
0
100
AcDbSpline
 62
7
  6
CONTINUOUS
 70
0
 71
3
 72
22
 73
18
 74
0
 42
0.0000001
 43
0.0000001
 44
0.0000000001
 40
0.0
 40
0.0
 40
0.0
 40
0.0
 40
0.1448632722
 40
0.2164760835
 40
0.287077167
 40
0.356369203
 40
0.4240895987
 40
0.490019754
 40
0.5539946028
 40
0.6159122978
 40
0.6757437013
 40
0.7335410214
 40
0.7894444733
 40
0.8436853174
 40
0.8965832133
 40
0.9485358831
 40
1.0
 40
1.0
 40
1.0
 40
1.0
 10
6.3747390317
 20
4.1241482919
 30
0.0
 10
6.3747390318
 20
4.1208889107
 30
0.0
 10
6.3750754521
 20
4.1160088466
 30
0.0
 10
6.3761999992
 20
4.1096444958
 30
0.0
 10
6.3773655237
 20
4.1050258538
 30
0.0
 10
6.3788449874
 20
4.1005904039
 30
0.0
 10
6.3806245
 20
4.096379993
 30
0.0
 10
6.3826873051
 20
4.0924349909
 30
0.0
 10
6.3850140699
 20
4.0887931017
 30
0.0
 10
6.3875830544
 20
4.0854892738
 30
0.0
 10
6.3903703204
 20
4.0825553876
 30
0.0
 10
6.393349897
 20
4.0800200601
 30
0.0
 10
6.3964939394
 20
4.0779084579
 30
0.0
 10
6.3997726822
 20
4.07624209
 30
0.0
 10
6.4031548723
 20
4.0750385085
 30
0.0
 10
6.4066064175
 20
4.0743108686
 30
0.0
 10
6.4089364432
 20
4.0741482919
 30
0.0
 10
6.4100943707
 20
4.0741482919
 30
0.0
  0
SPLINE
  5
374
100
AcDbEntity
  8
0
100
AcDbSpline
 62
7
  6
CONTINUOUS
 70
0
 71
3
 72
18
 73
14
 74
0
 42
0.0000001
 43
0.0000001
 44
0.0000000001
 40
0.0
 40
0.0
 40
0.0
 40
0.0
 40
0.0531336113
 40
0.1066257292
 40
0.1607985433
 40
0.2159648548
 40
0.2723853821
 40
0.3302740344
 40
0.4509232125
 40
0.5786930494
 40
0.7134268907
 40
0.8543044288
 40
1.0
 40
1.0
 40
1.0
 40
1.0
 10
6.3747390317
 20
4.1241482919
 30
0.0
 10
6.3752883469
 20
4.1241482919
 30
0.0
 10
6.3763917307
 20
4.1242123118
 30
0.0
 10
6.3780326737
 20
4.1244991906
 30
0.0
 10
6.3796511036
 20
4.1249750449
 30
0.0
 10
6.3812356436
 20
4.1256361843
 30
0.0
 10
6.38277583
 20
4.1264780373
 30
0.0
 10
6.3847833921
 20
4.1278516317
 30
0.0
 10
6.3871276832
 20
4.130008494
 30
0.0
 10
6.3895618908
 20
4.1331536254
 30
0.0
 10
6.3915998064
 20
4.1368086
 30
0.0
 10
6.3931900464
 20
4.1408762114
 30
0.0
 10
6.3939165005
 20
4.1437574212
 30
0.0
 10
6.3941982716
 20
4.1452370869
 30
0.0
  0
SPLINE
  5
375
100
AcDbEntity
  8
0
100
AcDbSpline
 62
7
  6
CONTINUOUS
 70
0
 71
3
 72
23
 73
19
 74
0
 42
0.0000001
 43
0.0000001
 44
0.0000000001
 40
0.0
 40
0.0
 40
0.0
 40
0.0
 40
0.0526856819
 40
0.1093967023
 40
0.1696279198
 40
0.2328334609
 40
0.2984341728
 40
0.3658246953
 40
0.4343803692
 40
0.5034640866
 40
0.5724331246
 40
0.6406459787
 40
0.7074691947
 40
0.7722842068
 40
0.8344942002
 40
0.8935310621
 40
0.9488625559
 40
1.0
 40
1.0
 40
1.0
 40
1.0
 10
6.3941982716
 20
4.1452370869
 30
0.0
 10
6.3953633873
 20
4.1447933434
 30
0.0
 10
6.397798816
 20
4.1439141364
 30
0.0
 10
6.4016120607
 20
4.1426589543
 30
0.0
 10
6.4056937583
 20
4.1414274455
 30
0.0
 10
6.4100047042
 20
4.1402316083
 30
0.0
 10
6.4145035233
 20
4.1390830495
 30
0.0
 10
6.4191469714
 20
4.1379928945
 30
0.0
 10
6.4238903972
 20
4.1369716811
 30
0.0
 10
6.4286881717
 20
4.136029262
 30
0.0
 10
6.433494135
 20
4.1351747114
 30
0.0
 10
6.4382620456
 20
4.1344162367
 30
0.0
 10
6.4429460291
 20
4.1337610982
 30
0.0
 10
6.4475010282
 20
4.1332155341
 30
0.0
 10
6.4518832335
 20
4.132784696
 30
0.0
 10
6.4560505538
 20
4.1324725789
 30
0.0
 10
6.4599629119
 20
4.1322820006
 30
0.0
 10
6.4624825089
 20
4.1322349727
 30
0.0
 10
6.4636926282
 20
4.1322349727
 30
0.0
  0
SPLINE
  5
376
100
AcDbEntity
  8
0
100
AcDbSpline
 62
7
  6
CONTINUOUS
 70
0
 71
3
 72
13
 73
9
 74
0
 42
0.0000001
 43
0.0000001
 44
0.0000000001
 40
0.0
 40
0.0
 40
0.0
 40
0.0
 40
0.2488885658
 40
0.3743086268
 40
0.5000000002
 40
0.6256913737
 40
0.7511114345
 40
1.0
 40
1.0
 40
1.0
 40
1.0
 10
6.3941982716
 20
4.1452370869
 30
0.0
 10
6.3963492269
 20
4.1565324039
 30
0.0
 10
6.3987640047
 20
4.1736900587
 30
0.0
 10
6.4003751473
 20
4.1967385221
 30
0.0
 10
6.4007797361
 20
4.214148292
 30
0.0
 10
6.4003751473
 20
4.2315580618
 30
0.0
 10
6.3987640047
 20
4.2546065252
 30
0.0
 10
6.3963492269
 20
4.27176418
 30
0.0
 10
6.3941982716
 20
4.283059497
 30
0.0
  0
SPLINE
  5
377
100
AcDbEntity
  8
0
100
AcDbSpline
 62
7
  6
CONTINUOUS
 70
0
 71
3
 72
23
 73
19
 74
0
 42
0.0000001
 43
0.0000001
 44
0.0000000001
 40
0.0
 40
0.0
 40
0.0
 40
0.0
 40
0.0526856822
 40
0.1093967028
 40
0.1696279204
 40
0.2328334614
 40
0.2984341733
 40
0.3658246956
 40
0.4343803693
 40
0.5034640865
 40
0.5724331245
 40
0.6406459784
 40
0.7074691943
 40
0.7722842063
 40
0.8344941996
 40
0.8935310616
 40
0.9488625556
 40
1.0
 40
1.0
 40
1.0
 40
1.0
 10
6.3941982716
 20
4.283059497
 30
0.0
 10
6.3953633872
 20
4.2835032405
 30
0.0
 10
6.397798816
 20
4.2843824476
 30
0.0
 10
6.4016120606
 20
4.2856376299
 30
0.0
 10
6.4056937582
 20
4.2868691388
 30
0.0
 10
6.4100047041
 20
4.2880649762
 30
0.0
 10
6.4145035232
 20
4.2892135351
 30
0.0
 10
6.4191469712
 20
4.2903036901
 30
0.0
 10
6.4238903971
 20
4.2913249036
 30
0.0
 10
6.4286881716
 20
4.2922673226
 30
0.0
 10
6.4334941349
 20
4.2931218732
 30
0.0
 10
6.4382620455
 20
4.2938803479
 30
0.0
 10
6.442946029
 20
4.2945354863
 30
0.0
 10
6.4475010281
 20
4.2950810503
 30
0.0
 10
6.4518832335
 20
4.2955118883
 30
0.0
 10
6.4560505537
 20
4.2958240053
 30
0.0
 10
6.4599629119
 20
4.2960145835
 30
0.0
 10
6.4624825089
 20
4.2960616112
 30
0.0
 10
6.4636926282
 20
4.2960616112
 30
0.0
  0
SPLINE
  5
378
100
AcDbEntity
  8
0
100
AcDbSpline
 62
7
  6
CONTINUOUS
 70
0
 71
3
 72
21
 73
17
 74
0
 42
0.0000001
 43
0.0000001
 44
0.0000000001
 40
0.0
 40
0.0
 40
0.0
 40
0.0
 40
0.1479135623
 40
0.2198669238
 40
0.2901479535
 40
0.424887905
 40
0.4892651082
 40
0.5515793862
 40
0.6119002443
 40
0.6703758264
 40
0.7272346955
 40
0.7827829082
 40
0.8373955793
 40
0.8914964742
 40
0.9455482901
 40
1.0
 40
1.0
 40
1.0
 40
1.0
 10
6.3941982716
 20
4.283059497
 30
0.0
 10
6.3938795925
 20
4.2847329778
 30
0.0
 10
6.3932390753
 20
4.2871940927
 30
0.0
 10
6.3920496957
 20
4.2903196796
 30
0.0
 10
6.3906931771
 20
4.2932092109
 30
0.0
 10
6.3890466146
 20
4.2958596392
 30
0.0
 10
6.3871246064
 20
4.2981820453
 30
0.0
 10
6.3855973855
 20
4.2997059232
 30
0.0
 10
6.383975981
 20
4.3010242077
 30
0.0
 10
6.3822738342
 20
4.3021253829
 30
0.0
 10
6.3805053475
 20
4.3029994295
 30
0.0
 10
6.3786856594
 20
4.3036382216
 30
0.0
 10
6.3768307064
 20
4.3040355782
 30
0.0
 10
6.374956831
 20
4.3041876631
 30
0.0
 10
6.3730813266
 20
4.3040928653
 30
0.0
 10
6.3718480781
 20
4.3038670506
 30
0.0
 10
6.3712395793
 20
4.3037153129
 30
0.0
  0
SPLINE
  5
379
100
AcDbEntity
  8
0
100
AcDbSpline
 62
7
  6
CONTINUOUS
 70
0
 71
3
 72
27
 73
23
 74
0
 42
0.0000001
 43
0.0000001
 44
0.0000000001
 40
0.0
 40
0.0
 40
0.0
 40
0.0
 40
0.080573201
 40
0.1599846962
 40
0.3134273031
 40
0.3866352646
 40
0.4569424745
 40
0.5240106243
 40
0.5875851553
 40
0.6475172506
 40
0.6761193972
 40
0.703831725
 40
0.7567782327
 40
0.8069573914
 40
0.8312705298
 40
0.8552211117
 40
0.8789494212
 40
0.9026106743
 40
0.9263703324
 40
0.9504033881
 40
0.9748881052
 40
1.0
 40
1.0
 40
1.0
 40
1.0
 10
6.1994305701
 20
4.2608723298
 30
0.0
 10
6.1992957614
 20
4.2623228303
 30
0.0
 10
6.1990828043
 20
4.2652085661
 30
0.0
 10
6.1989140443
 20
4.2708739382
 30
0.0
 10
6.1991414282
 20
4.2764142261
 30
0.0
 10
6.1997930946
 20
4.2817457001
 30
0.0
 10
6.200465707
 20
4.2854953529
 30
0.0
 10
6.2013211134
 20
4.2890288192
 30
0.0
 10
6.2023506713
 20
4.2923197089
 30
0.0
 10
6.2033621354
 20
4.2948803809
 30
0.0
 10
6.2042566979
 20
4.2967829216
 30
0.0
 10
6.2051766874
 20
4.2985316412
 30
0.0
 10
6.2064277537
 20
4.3005445086
 30
0.0
 10
6.2078644472
 20
4.3023540993
 30
0.0
 10
6.2091056537
 20
4.3036314404
 30
0.0
 10
6.2100764215
 20
4.304500196
 30
0.0
 10
6.2110986615
 20
4.3052886784
 30
0.0
 10
6.2121745753
 20
4.3059960423
 30
0.0
 10
6.2133063981
 20
4.3066215105
 30
0.0
 10
6.2144964829
 20
4.3071643753
 30
0.0
 10
6.2157471041
 20
4.3076239793
 30
0.0
 10
6.216610039
 20
4.3078710254
 30
0.0
 10
6.2170505655
 20
4.3079808886
 30
0.0
  0
SPLINE
  5
37A
100
AcDbEntity
  8
0
100
AcDbSpline
 62
7
  6
CONTINUOUS
 70
0
 71
3
 72
22
 73
18
 74
0
 42
0.0000001
 43
0.0000001
 44
0.0000000001
 40
0.0
 40
0.0
 40
0.0
 40
0.0
 40
0.1465824856
 40
0.2183785268
 40
0.2888314235
 40
0.3577303639
 40
0.4249015312
 40
0.4902113564
 40
0.5535741161
 40
0.614958113
 40
0.6743918611
 40
0.7319692287
 40
0.7878527507
 40
0.8422740664
 40
0.8955299576
 40
0.9479740578
 40
1.0
 40
1.0
 40
1.0
 40
1.0
 10
6.3712395793
 20
4.3037153129
 30
0.0
 10
6.3708856207
 20
4.3065542037
 30
0.0
 10
6.3706157003
 20
4.3108228396
 30
0.0
 10
6.3708087666
 20
4.3164595942
 30
0.0
 10
6.3712249965
 20
4.3205629616
 30
0.0
 10
6.3719106342
 20
4.3245383683
 30
0.0
 10
6.3728606003
 20
4.3283560147
 30
0.0
 10
6.3740679186
 20
4.3319868708
 30
0.0
 10
6.3755237145
 20
4.3354034005
 30
0.0
 10
6.3772173196
 20
4.3385795988
 30
0.0
 10
6.3791363347
 20
4.3414911754
 30
0.0
 10
6.3812666846
 20
4.3441156718
 30
0.0
 10
6.3835926725
 20
4.346432591
 30
0.0
 10
6.3860969153
 20
4.3484234977
 30
0.0
 10
6.3887605965
 20
4.3500723164
 30
0.0
 10
6.3915625036
 20
4.3513652359
 30
0.0
 10
6.3935119503
 20
4.3519840119
 30
0.0
 10
6.3944971788
 20
4.3522296899
 30
0.0
  0
SPLINE
  5
37B
100
AcDbEntity
  8
0
100
AcDbSpline
 62
7
  6
CONTINUOUS
 70
0
 71
3
 72
20
 73
16
 74
0
 42
0.0000001
 43
0.0000001
 44
0.0000000001
 40
0.0
 40
0.0
 40
0.0
 40
0.0
 40
0.0500011676
 40
0.1032577004
 40
0.1594862001
 40
0.2183822083
 40
0.2796144065
 40
0.3428336128
 40
0.4076741552
 40
0.4737577754
 40
0.6080890525
 40
0.7426710848
 40
0.8743321381
 40
0.9381039198
 40
1.0
 40
1.0
 40
1.0
 40
1.0
 10
6.1994305701
 20
4.2608723298
 30
0.0
 10
6.1983319692
 20
4.2606306116
 30
0.0
 10
6.1960529163
 20
4.2601776634
 30
0.0
 10
6.1925112493
 20
4.259599528
 30
0.0
 10
6.1887551803
 20
4.2591039389
 30
0.0
 10
6.1848084384
 20
4.2586940953
 30
0.0
 10
6.1806957886
 20
4.2583726697
 30
0.0
 10
6.1764431719
 20
4.2581417451
 30
0.0
 10
6.1720773658
 20
4.2580028047
 30
0.0
 10
6.1661098511
 20
4.2579411975
 30
0.0
 10
6.1585727437
 20
4.2580989564
 30
0.0
 10
6.1495755547
 20
4.2586494889
 30
0.0
 10
6.1421873502
 20
4.2594062617
 30
0.0
 10
6.1364508182
 20
4.2601878894
 30
0.0
 10
6.1336588718
 20
4.2606348258
 30
0.0
 10
6.132286797
 20
4.2608723298
 30
0.0
  0
SPLINE
  5
37C
100
AcDbEntity
  8
0
100
AcDbSpline
 62
7
  6
CONTINUOUS
 70
0
 71
3
 72
23
 73
19
 74
0
 42
0.0000001
 43
0.0000001
 44
0.0000000001
 40
0.0
 40
0.0
 40
0.0
 40
0.0
 40
0.0603637333
 40
0.1204245315
 40
0.1804232326
 40
0.2405522847
 40
0.3009472249
 40
0.3617179806
 40
0.4229458455
 40
0.4846901552
 40
0.5469976389
 40
0.609901077
 40
0.6734200841
 40
0.7375577209
 40
0.8023077716
 40
0.8676517332
 40
0.9335629406
 40
1.0
 40
1.0
 40
1.0
 40
1.0
 10
6.1838079457
 20
4.0841567503
 30
0.0
 10
6.1828480706
 20
4.0850747497
 30
0.0
 10
6.1808688259
 20
4.0868396742
 30
0.0
 10
6.177759716
 20
4.0893105576
 30
0.0
 10
6.1745488104
 20
4.0916379127
 30
0.0
 10
6.171260816
 20
4.0938672038
 30
0.0
 10
6.1679110382
 20
4.0960335021
 30
0.0
 10
6.1645173104
 20
4.0981756129
 30
0.0
 10
6.161094641
 20
4.1003274555
 30
0.0
 10
6.1576569748
 20
4.102518952
 30
0.0
 10
6.1542201382
 20
4.1047798307
 30
0.0
 10
6.1508001993
 20
4.1071360718
 30
0.0
 10
6.1474132968
 20
4.1096088414
 30
0.0
 10
6.1440754108
 20
4.1122142919
 30
0.0
 10
6.1408027606
 20
4.1149643552
 30
0.0
 10
6.1376111006
 20
4.1178666035
 30
0.0
 10
6.1345152773
 20
4.1209239828
 30
0.0
 10
6.1325310778
 20
4.1230568333
 30
0.0
 10
6.1315578663
 20
4.124147602
 30
0.0
  0
SPLINE
  5
37D
100
AcDbEntity
  8
0
100
AcDbSpline
 62
7
  6
CONTINUOUS
 70
0
 71
3
 72
22
 73
18
 74
0
 42
0.0000001
 43
0.0000001
 44
0.0000000001
 40
0.0
 40
0.0
 40
0.0
 40
0.0
 40
0.1456387095
 40
0.216782543
 40
0.2865391731
 40
0.3547545639
 40
0.4213076084
 40
0.4861135967
 40
0.5491294617
 40
0.6103581563
 40
0.6698526789
 40
0.7277190668
 40
0.7841176544
 40
0.839262391
 40
0.8934158595
 40
0.9468839066
 40
1.0
 40
1.0
 40
1.0
 40
1.0
 10
6.4636926282
 20
4.1322349727
 30
0.0
 10
6.4629165261
 20
4.1281594261
 30
0.0
 10
6.461401683
 20
4.1221513855
 30
0.0
 10
6.4586612256
 20
4.1144582742
 30
0.0
 10
6.4562976454
 20
4.1089850383
 30
0.0
 10
6.4536260697
 20
4.1038021378
 30
0.0
 10
6.4506638884
 20
4.0989435626
 30
0.0
 10
6.4474305056
 20
4.0944417621
 30
0.0
 10
6.4439470322
 20
4.0903267439
 30
0.0
 10
6.4402361956
 20
4.0866261028
 30
0.0
 10
6.4363222169
 20
4.0833648268
 30
0.0
 10
6.4322307151
 20
4.0805651911
 30
0.0
 10
6.4279886079
 20
4.0782465921
 30
0.0
 10
6.4236241353
 20
4.0764254436
 30
0.0
 10
6.4191664124
 20
4.0751148528
 30
0.0
 10
6.4146466139
 20
4.0743245624
 30
0.0
 10
6.4116074797
 20
4.0741482919
 30
0.0
 10
6.4100943707
 20
4.0741482919
 30
0.0
  0
SPLINE
  5
37E
100
AcDbEntity
  8
0
100
AcDbSpline
 62
7
  6
CONTINUOUS
 70
0
 71
3
 72
13
 73
9
 74
0
 42
0.0000001
 43
0.0000001
 44
0.0000000001
 40
0.0
 40
0.0
 40
0.0
 40
0.0
 40
0.2488885472
 40
0.374308766
 40
0.5
 40
0.625691234
 40
0.7511114528
 40
1.0
 40
1.0
 40
1.0
 40
1.0
 10
6.4636926282
 20
4.2960616112
 30
0.0
 10
6.4662494239
 20
4.2826351034
 30
0.0
 10
6.4691198111
 20
4.2622401466
 30
0.0
 10
6.47103495
 20
4.2348429174
 30
0.0
 10
6.4715158679
 20
4.2141482919
 30
0.0
 10
6.47103495
 20
4.1934536665
 30
0.0
 10
6.4691198111
 20
4.1660564372
 30
0.0
 10
6.4662494239
 20
4.1456614805
 30
0.0
 10
6.4636926282
 20
4.1322349727
 30
0.0
  0
SPLINE
  5
37F
100
AcDbEntity
  8
0
100
AcDbSpline
 62
7
  6
CONTINUOUS
 70
0
 71
3
 72
22
 73
18
 74
0
 42
0.0000001
 43
0.0000001
 44
0.0000000001
 40
0.0
 40
0.0
 40
0.0
 40
0.0
 40
0.2219803802
 40
0.416199703
 40
0.5825598599
 40
0.6552637361
 40
0.7209491043
 40
0.7795973323
 40
0.8311912576
 40
0.8757278968
 40
0.9132455413
 40
0.9438354408
 40
0.9677597572
 40
0.9774424395
 40
0.9858216289
 40
0.9931954149
 40
1.0
 40
1.0
 40
1.0
 40
1.0
 10
6.0406524527
 20
4.5652697589
 30
0.0
 10
6.041118353
 20
4.5652236595
 30
0.0
 10
6.0419913131
 20
4.5651311162
 30
0.0
 10
6.0432105287
 20
4.5649783771
 30
0.0
 10
6.0441143384
 20
4.5648423456
 30
0.0
 10
6.044747127
 20
4.5647294506
 30
0.0
 10
6.0451546257
 20
4.5646477533
 30
0.0
 10
6.045516449
 20
4.5645653128
 30
0.0
 10
6.0458322372
 20
4.564482273
 30
0.0
 10
6.046101575
 20
4.5643988126
 30
0.0
 10
6.0463241951
 20
4.5643151609
 30
0.0
 10
6.0464995792
 20
4.56423154
 30
0.0
 10
6.0466139527
 20
4.5641573963
 30
0.0
 10
6.0466782928
 20
4.5640961498
 30
0.0
 10
6.0467108415
 20
4.5640531105
 30
0.0
 10
6.0467309431
 20
4.5640094884
 30
0.0
 10
6.0467356388
 20
4.5639794484
 30
0.0
 10
6.0467356659
 20
4.563965097
 30
0.0
  0
SPLINE
  5
380
100
AcDbEntity
  8
0
100
AcDbSpline
 62
7
  6
CONTINUOUS
 70
0
 71
3
 72
18
 73
14
 74
0
 42
0.0000001
 43
0.0000001
 44
0.0000000001
 40
0.0
 40
0.0
 40
0.0
 40
0.0
 40
0.0302207891
 40
0.0657335901
 40
0.1065269153
 40
0.1525060969
 40
0.2035044981
 40
0.259288962
 40
0.3840330192
 40
0.5239935394
 40
0.6758517423
 40
0.8358545171
 40
1.0
 40
1.0
 40
1.0
 40
1.0
 10
5.9867360464
 20
4.5601158153
 30
0.0
 10
5.9868432861
 20
4.5600589451
 30
0.0
 10
5.9870845931
 20
4.5599504058
 30
0.0
 10
5.9874884736
 20
4.5598082148
 30
0.0
 10
5.9879614498
 20
4.5596747357
 30
0.0
 10
5.9885009617
 20
4.55955088
 30
0.0
 10
5.9891041257
 20
4.5594375024
 30
0.0
 10
5.9900234187
 20
4.559296157
 30
0.0
 10
5.9913036316
 20
4.5591557569
 30
0.0
 10
5.99297348
 20
4.5590444258
 30
0.0
 10
5.9947877743
 20
4.5589884844
 30
0.0
 10
5.9966999929
 20
4.5589897081
 30
0.0
 10
5.9980016129
 20
4.5590285838
 30
0.0
 10
5.9986602864
 20
4.5590576241
 30
0.0
  0
SPLINE
  5
381
100
AcDbEntity
  8
0
100
AcDbSpline
 62
7
  6
CONTINUOUS
 70
0
 71
3
 72
14
 73
10
 74
0
 42
0.0000001
 43
0.0000001
 44
0.0000000001
 40
0.0
 40
0.0
 40
0.0
 40
0.0
 40
0.0851294459
 40
0.1842731143
 40
0.2967933514
 40
0.4214579273
 40
0.5564900699
 40
0.6996677562
 40
1.0
 40
1.0
 40
1.0
 40
1.0
 10
5.9867360464
 20
4.5503485409
 30
0.0
 10
5.9869047809
 20
4.5502576604
 30
0.0
 10
5.9872856985
 20
4.5500899044
 30
0.0
 10
5.9879231946
 20
4.5498870973
 30
0.0
 10
5.9886620473
 20
4.5497181321
 30
0.0
 10
5.9894902156
 20
4.5495869788
 30
0.0
 10
5.9903931986
 20
4.5494969303
 30
0.0
 10
5.9916945273
 20
4.5494339497
 30
0.0
 10
5.992694537
 20
4.5494559084
 30
0.0
 10
5.993369296
 20
4.5494990874
 30
0.0
  0
SPLINE
  5
382
100
AcDbEntity
  8
0
100
AcDbSpline
 62
7
  6
CONTINUOUS
 70
0
 71
3
 72
11
 73
7
 74
0
 42
0.0000001
 43
0.0000001
 44
0.0000000001
 40
0.0
 40
0.0
 40
0.0
 40
0.0
 40
0.2468524401
 40
0.500004048
 40
0.7531579682
 40
1.0
 40
1.0
 40
1.0
 40
1.0
 10
6.0004860464
 20
4.5268419326
 30
0.0
 10
6.0025283093
 20
4.5265501722
 30
0.0
 10
6.0066876271
 20
4.5261093616
 30
0.0
 10
6.0129818623
 20
4.5258697385
 30
0.0
 10
6.0192780235
 20
4.5260491108
 30
0.0
 10
6.0234412663
 20
4.5264507913
 30
0.0
 10
6.0254860464
 20
4.5267236963
 30
0.0
  0
SPLINE
  5
383
100
AcDbEntity
  8
0
100
AcDbSpline
 62
7
  6
CONTINUOUS
 70
0
 71
3
 72
14
 73
10
 74
0
 42
0.0000001
 43
0.0000001
 44
0.0000000001
 40
0.0
 40
0.0
 40
0.0
 40
0.0
 40
0.3004663476
 40
0.4437096612
 40
0.5787911299
 40
0.7034716143
 40
0.8159592983
 40
0.9150136305
 40
1.0
 40
1.0
 40
1.0
 40
1.0
 10
6.0326027968
 20
4.5493281693
 30
0.0
 10
6.033276791
 20
4.5492791394
 30
0.0
 10
6.0342760325
 20
4.549248406
 30
0.0
 10
6.0355771426
 20
4.5492999591
 30
0.0
 10
6.0364802781
 20
4.5493821189
 30
0.0
 10
6.0373087921
 20
4.5495061098
 30
0.0
 10
6.0380480566
 20
4.5496687748
 30
0.0
 10
6.0386859236
 20
4.5498662368
 30
0.0
 10
6.0390671822
 20
4.5500309258
 30
0.0
 10
6.0392360464
 20
4.5501204806
 30
0.0
  0
SPLINE
  5
384
100
AcDbEntity
  8
0
100
AcDbSpline
 62
7
  6
CONTINUOUS
 70
0
 71
3
 72
18
 73
14
 74
0
 42
0.0000001
 43
0.0000001
 44
0.0000000001
 40
0.0
 40
0.0
 40
0.0
 40
0.0
 40
0.1642083285
 40
0.3242762141
 40
0.4761956367
 40
0.6162005615
 40
0.7409565898
 40
0.7967305847
 40
0.847705975
 40
0.8936492106
 40
0.9343940396
 40
0.9698471826
 40
1.0
 40
1.0
 40
1.0
 40
1.0
 10
6.0273118064
 20
4.5589368399
 30
0.0
 10
6.0279700246
 20
4.5589022571
 30
0.0
 10
6.0292709151
 20
4.5588523985
 30
0.0
 10
6.0311825395
 20
4.5588349988
 30
0.0
 10
6.0329967179
 20
4.5588755976
 30
0.0
 10
6.0346668014
 20
4.5589728533
 30
0.0
 10
6.0359474702
 20
4.5591025332
 30
0.0
 10
6.0368671908
 20
4.55923625
 30
0.0
 10
6.0374705734
 20
4.5593446394
 30
0.0
 10
6.0380102664
 20
4.559464058
 30
0.0
 10
6.0384833799
 20
4.5595936714
 30
0.0
 10
6.0388873528
 20
4.559732585
 30
0.0
 10
6.0391287656
 20
4.5598392124
 30
0.0
 10
6.0392360464
 20
4.5598952448
 30
0.0
  0
SPLINE
  5
385
100
AcDbEntity
  8
0
100
AcDbSpline
 62
7
  6
CONTINUOUS
 70
0
 71
3
 72
22
 73
18
 74
0
 42
0.0000001
 43
0.0000001
 44
0.0000000001
 40
0.0
 40
0.0
 40
0.0
 40
0.0
 40
0.0407867786
 40
0.0824027715
 40
0.1256022064
 40
0.171073453
 40
0.2193892696
 40
0.2710042733
 40
0.3262627564
 40
0.3854127951
 40
0.4486087286
 40
0.5159203153
 40
0.5873394455
 40
0.6627754255
 40
0.74205641
 40
0.8249282375
 40
1.0
 40
1.0
 40
1.0
 40
1.0
 10
5.9867360464
 20
4.536328957
 30
0.0
 10
5.9867360464
 20
4.5360898227
 30
0.0
 10
5.9867748891
 20
4.535605848
 30
0.0
 10
5.9869485798
 20
4.5348873892
 30
0.0
 10
5.9872371061
 20
4.5341772485
 30
0.0
 10
5.9876391262
 20
4.5334793591
 30
0.0
 10
5.9881533011
 20
4.532796969
 30
0.0
 10
5.988778326
 20
4.5321335118
 30
0.0
 10
5.9895126559
 20
4.5314924695
 30
0.0
 10
5.990354468
 20
4.5308775814
 30
0.0
 10
5.9913014278
 20
4.5302927983
 30
0.0
 10
5.9923505262
 20
4.529742264
 30
0.0
 10
5.9934979481
 20
4.5292303341
 30
0.0
 10
5.9947388376
 20
4.5287614275
 30
0.0
 10
5.9960672405
 20
4.528339957
 30
0.0
 10
5.9979802478
 20
4.5278380264
 30
0.0
 10
5.9994698676
 20
4.5275609823
 30
0.0
 10
6.0004860464
 20
4.5274161243
 30
0.0
  0
SPLINE
  5
386
100
AcDbEntity
  8
0
100
AcDbSpline
 62
7
  6
CONTINUOUS
 70
0
 71
3
 72
11
 73
7
 74
0
 42
0.0000001
 43
0.0000001
 44
0.0000000001
 40
0.0
 40
0.0
 40
0.0
 40
0.0
 40
0.2468418949
 40
0.4999959701
 40
0.7531477424
 40
1.0
 40
1.0
 40
1.0
 40
1.0
 10
6.0254860464
 20
4.5272981443
 30
0.0
 10
6.0234412152
 20
4.5270258245
 30
0.0
 10
6.0192779566
 20
4.5266250227
 30
0.0
 10
6.0129818804
 20
4.526446047
 30
0.0
 10
6.0066877217
 20
4.5266851391
 30
0.0
 10
6.002528371
 20
4.5271249875
 30
0.0
 10
6.0004860464
 20
4.5274161243
 30
0.0
  0
SPLINE
  5
387
100
AcDbEntity
  8
0
100
AcDbSpline
 62
7
  6
CONTINUOUS
 70
0
 71
3
 72
22
 73
18
 74
0
 42
0.0000001
 43
0.0000001
 44
0.0000000001
 40
0.0
 40
0.0
 40
0.0
 40
0.0
 40
0.1752986936
 40
0.2582532125
 40
0.3375905486
 40
0.4130539002
 40
0.4844709026
 40
0.5517522913
 40
0.6148935604
 40
0.6739703101
 40
0.7291445135
 40
0.7806739317
 40
0.8289138104
 40
0.8743305205
 40
0.917508392
 40
0.9591450925
 40
1.0
 40
1.0
 40
1.0
 40
1.0
 10
6.0254860464
 20
4.5272981443
 30
0.0
 10
6.0265019517
 20
4.5274334372
 30
0.0
 10
6.0279916141
 20
4.5276965238
 30
0.0
 10
6.0299055623
 20
4.5281809936
 30
0.0
 10
6.0312346072
 20
4.5285904911
 30
0.0
 10
6.0324761187
 20
4.5290483973
 30
0.0
 10
6.0336240555
 20
4.5295503248
 30
0.0
 10
6.0346735011
 20
4.5300918638
 30
0.0
 10
6.0356206082
 20
4.5306686511
 30
0.0
 10
6.0364623623
 20
4.5312765269
 30
0.0
 10
6.0371964442
 20
4.5319115228
 30
0.0
 10
6.0378210654
 20
4.5325698761
 30
0.0
 10
6.0383347261
 20
4.5332480822
 30
0.0
 10
6.0387361783
 20
4.5339426797
 30
0.0
 10
6.0390241489
 20
4.534650385
 30
0.0
 10
6.0391973842
 20
4.5353672248
 30
0.0
 10
6.0392360464
 20
4.5358503552
 30
0.0
 10
6.0392360464
 20
4.5360892112
 30
0.0
  0
SPLINE
  5
388
100
AcDbEntity
  8
0
100
AcDbSpline
 62
7
  6
CONTINUOUS
 70
0
 71
3
 72
32
 73
28
 74
0
 42
0.0000001
 43
0.0000001
 44
0.0000000001
 40
0.0
 40
0.0
 40
0.0
 40
0.0
 40
0.1703982456
 40
0.2553177405
 40
0.3397149909
 40
0.4231609187
 40
0.5049965885
 40
0.5842783629
 40
0.6597972233
 40
0.7301339404
 40
0.7939868683
 40
0.8506256523
 40
0.8760840507
 40
0.8995237028
 40
0.9208438914
 40
0.9399202972
 40
0.9566187802
 40
0.9707850839
 40
0.9768691866
 40
0.982261468
 40
0.9869437166
 40
0.9909023791
 40
0.9941333997
 40
0.9966541925
 40
0.9976691309
 40
0.9985426475
 40
1.0
 40
1.0
 40
1.0
 40
1.0
 10
6.0117360464
 20
4.5643277965
 30
0.0
 10
6.0131610222
 20
4.5643277965
 30
0.0
 10
6.0152961469
 20
4.5643192074
 30
0.0
 10
6.0181369859
 20
4.5642997563
 30
0.0
 10
6.0202506865
 20
4.5642840997
 30
0.0
 10
6.0223386121
 20
4.564270469
 30
0.0
 10
6.0243837911
 20
4.564262468
 30
0.0
 10
6.026362701
 20
4.5642639394
 30
0.0
 10
6.0282454033
 20
4.5642784932
 30
0.0
 10
6.0299988881
 20
4.5643091072
 30
0.0
 10
6.0315940265
 20
4.5643575169
 30
0.0
 10
6.0328133766
 20
4.5644124349
 30
0.0
 10
6.0336944249
 20
4.5644643641
 30
0.0
 10
6.0342802283
 20
4.5645051579
 30
0.0
 10
6.0348122746
 20
4.564549067
 30
0.0
 10
6.0352874508
 20
4.5645960662
 30
0.0
 10
6.0357021139
 20
4.5646461078
 30
0.0
 10
6.0360077312
 20
4.5646922329
 30
0.0
 10
6.0362184882
 20
4.5647319334
 30
0.0
 10
6.0363504867
 20
4.5647609867
 30
0.0
 10
6.0364640191
 20
4.5647908288
 30
0.0
 10
6.036558569
 20
4.5648214158
 30
0.0
 10
6.0366335617
 20
4.5648527706
 30
0.0
 10
6.036682895
 20
4.5648812162
 30
0.0
 10
6.0367109061
 20
4.564905452
 30
0.0
 10
6.0367288773
 20
4.5649269137
 30
0.0
 10
6.0367360547
 20
4.5649464804
 30
0.0
 10
6.0367360452
 20
4.5649586676
 30
0.0
  0
SPLINE
  5
389
100
AcDbEntity
  8
0
100
AcDbSpline
 62
7
  6
CONTINUOUS
 70
0
 71
3
 72
14
 73
10
 74
0
 42
0.0000001
 43
0.0000001
 44
0.0000000001
 40
0.0
 40
0.0
 40
0.0
 40
0.0
 40
0.3003229101
 40
0.443495563
 40
0.578523419
 40
0.7031850581
 40
0.8157051856
 40
0.9148551863
 40
1.0
 40
1.0
 40
1.0
 40
1.0
 10
5.993369296
 20
4.5489691589
 30
0.0
 10
5.9926945198
 20
4.5489258989
 30
0.0
 10
5.9916944727
 20
4.5489039001
 30
0.0
 10
5.990393107
 20
4.5489670038
 30
0.0
 10
5.989490109
 20
4.5490572265
 30
0.0
 10
5.9886619406
 20
4.5491886285
 30
0.0
 10
5.9879231008
 20
4.5493579116
 30
0.0
 10
5.9872856254
 20
4.5495610942
 30
0.0
 10
5.9869047524
 20
4.5497291467
 30
0.0
 10
5.9867360464
 20
4.549820179
 30
0.0
  0
SPLINE
  5
38A
100
AcDbEntity
  8
0
100
AcDbSpline
 62
7
  6
CONTINUOUS
 70
0
 71
3
 72
14
 73
10
 74
0
 42
0.0000001
 43
0.0000001
 44
0.0000000001
 40
0.0
 40
0.0
 40
0.0
 40
0.0
 40
0.0850013281
 40
0.1840616907
 40
0.2965491413
 40
0.4212267287
 40
0.5563040348
 40
0.699542498
 40
1.0
 40
1.0
 40
1.0
 40
1.0
 10
6.0392360464
 20
4.549591699
 30
0.0
 10
6.0390672106
 20
4.5495019943
 30
0.0
 10
6.0386859956
 20
4.5493370132
 30
0.0
 10
6.0380481479
 20
4.5491391845
 30
0.0
 10
6.0373088948
 20
4.5489762127
 30
0.0
 10
6.0364803793
 20
4.5488519861
 30
0.0
 10
6.0355772283
 20
4.5487696668
 30
0.0
 10
6.0342760817
 20
4.5487180124
 30
0.0
 10
6.0332768055
 20
4.5487488026
 30
0.0
 10
6.0326027968
 20
4.5487979244
 30
0.0
  0
SPLINE
  5
38B
100
AcDbEntity
  8
0
100
AcDbSpline
 62
7
  6
CONTINUOUS
 70
0
 71
3
 72
22
 73
18
 74
0
 42
0.0000001
 43
0.0000001
 44
0.0000000001
 40
0.0
 40
0.0
 40
0.0
 40
0.0
 40
0.0409048248
 40
0.0825886533
 40
0.1258081121
 40
0.1712588512
 40
0.2195239977
 40
0.2710694169
 40
0.3262504197
 40
0.3853252463
 40
0.448456606
 40
0.5157210498
 40
0.5871151072
 40
0.6625505871
 40
0.7418562095
 40
0.8247761268
 40
1.0
 40
1.0
 40
1.0
 40
1.0
 10
6.0392360464
 20
4.5355332586
 30
0.0
 10
6.0392360464
 20
4.5352939493
 30
0.0
 10
6.0391973985
 20
4.5348099277
 30
0.0
 10
6.0390242229
 20
4.5340917354
 30
0.0
 10
6.0387363426
 20
4.5333826683
 30
0.0
 10
6.0383350008
 20
4.5326867045
 30
0.0
 10
6.0378214616
 20
4.532007136
 30
0.0
 10
6.0371969655
 20
4.531347433
 30
0.0
 10
6.0364630042
 20
4.5307111093
 30
0.0
 10
6.0356213574
 20
4.5301019369
 30
0.0
 10
6.0346743344
 20
4.529523894
 30
0.0
 10
6.0336249392
 20
4.5289811518
 30
0.0
 10
6.0324770081
 20
4.5284780861
 30
0.0
 10
6.0312354482
 20
4.5280191213
 30
0.0
 10
6.0299062927
 20
4.5276086606
 30
0.0
 10
6.0279921122
 20
4.5271230369
 30
0.0
 10
6.0265021647
 20
4.5268593117
 30
0.0
 10
6.0254860464
 20
4.5267236963
 30
0.0
  0
SPLINE
  5
38C
100
AcDbEntity
  8
0
100
AcDbSpline
 62
7
  6
CONTINUOUS
 70
0
 71
3
 72
22
 73
18
 74
0
 42
0.0000001
 43
0.0000001
 44
0.0000000001
 40
0.0
 40
0.0
 40
0.0
 40
0.0
 40
0.1749967697
 40
0.2578340021
 40
0.3370833488
 40
0.4124915951
 40
0.4838879663
 40
0.5511828225
 40
0.6143690588
 40
0.6735173539
 40
0.7287827596
 40
0.7804138073
 40
0.8287548394
 40
0.8742599692
 40
0.9175007678
 40
0.9591636116
 40
1.0
 40
1.0
 40
1.0
 40
1.0
 10
6.0004860464
 20
4.5268419326
 30
0.0
 10
5.9994696543
 20
4.5269871357
 30
0.0
 10
5.9979797512
 20
4.5272648505
 30
0.0
 10
5.9960665169
 20
4.5277679718
 30
0.0
 10
5.9947380066
 20
4.5281904297
 30
0.0
 10
5.9934970715
 20
4.5286604159
 30
0.0
 10
5.9923496573
 20
4.5291735018
 30
0.0
 10
5.9913006101
 20
4.5297252544
 30
0.0
 10
5.9903537343
 20
4.5303113056
 30
0.0
 10
5.9895120285
 20
4.5309275008
 30
0.0
 10
5.9887778172
 20
4.5315698796
 30
0.0
 10
5.988152915
 20
4.5322346938
 30
0.0
 10
5.9876388588
 20
4.5329184524
 30
0.0
 10
5.9872369462
 20
4.5336177134
 30
0.0
 10
5.9869485077
 20
4.5343292203
 30
0.0
 10
5.9867748751
 20
4.5350490355
 30
0.0
 10
5.9867360464
 20
4.5355339036
 30
0.0
 10
5.9867360464
 20
4.535773492
 30
0.0
  0
SPLINE
  5
38D
100
AcDbEntity
  8
0
100
AcDbSpline
 62
7
  6
CONTINUOUS
 70
0
 71
3
 72
18
 73
14
 74
0
 42
0.0000001
 43
0.0000001
 44
0.0000000001
 40
0.0
 40
0.0
 40
0.0
 40
0.0
 40
0.1641419427
 40
0.3241412161
 40
0.4759958933
 40
0.6159531661
 40
0.7406949648
 40
0.7964789427
 40
0.8474777849
 40
0.8934584366
 40
0.9342545641
 40
0.9697720502
 40
1.0
 40
1.0
 40
1.0
 40
1.0
 10
5.9986602864
 20
4.5585448051
 30
0.0
 10
5.9980016062
 20
4.5585157142
 30
0.0
 10
5.99669997
 20
4.5584767708
 30
0.0
 10
5.9947877257
 20
4.5584755461
 30
0.0
 10
5.9929734107
 20
4.5585315868
 30
0.0
 10
5.9913035515
 20
4.5586431148
 30
0.0
 10
5.9900233422
 20
4.5587837605
 30
0.0
 10
5.9891040629
 20
4.5589253513
 30
0.0
 10
5.9885009076
 20
4.5590389253
 30
0.0
 10
5.9879614049
 20
4.5591629948
 30
0.0
 10
5.9874884375
 20
4.5592967041
 30
0.0
 10
5.987084564
 20
4.5594391401
 30
0.0
 10
5.9868432748
 20
4.5595478606
 30
0.0
 10
5.9867360464
 20
4.5596048227
 30
0.0
  0
SPLINE
  5
38E
100
AcDbEntity
  8
0
100
AcDbSpline
 62
7
  6
CONTINUOUS
 70
0
 71
3
 72
18
 73
14
 74
0
 42
0.0000001
 43
0.0000001
 44
0.0000000001
 40
0.0
 40
0.0
 40
0.0
 40
0.0
 40
0.0301597887
 40
0.065617438
 40
0.1063649169
 40
0.152309506
 40
0.2032852589
 40
0.2590587281
 40
0.3838125277
 40
0.5238143368
 40
0.6757304248
 40
0.8357950112
 40
1.0
 40
1.0
 40
1.0
 40
1.0
 10
6.0392360464
 20
4.5593838725
 30
0.0
 10
6.0391287769
 20
4.5593277495
 30
0.0
 10
6.0388873816
 20
4.5592209437
 30
0.0
 10
6.0384834153
 20
4.5590817902
 30
0.0
 10
6.0380103102
 20
4.5589519528
 30
0.0
 10
6.0374706258
 20
4.5588323276
 30
0.0
 10
6.0368672512
 20
4.55872375
 30
0.0
 10
6.0359475427
 20
4.5585898005
 30
0.0
 10
6.034666876
 20
4.5584598933
 30
0.0
 10
6.0329967807
 20
4.5583624651
 30
0.0
 10
6.0311825821
 20
4.5583217939
 30
0.0
 10
6.029270934
 20
4.558339223
 30
0.0
 10
6.0279700298
 20
4.5583891686
 30
0.0
 10
6.0273118064
 20
4.5584238116
 30
0.0
  0
SPLINE
  5
38F
100
AcDbEntity
  8
0
100
AcDbSpline
 62
7
  6
CONTINUOUS
 70
0
 71
3
 72
33
 73
29
 74
0
 42
0.0000001
 43
0.0000001
 44
0.0000000001
 40
0.0
 40
0.0
 40
0.0
 40
0.0
 40
0.1703947132
 40
0.2553122596
 40
0.3397076772
 40
0.4231515141
 40
0.504985223
 40
0.5842650139
 40
0.6597817431
 40
0.7301152318
 40
0.7939674103
 40
0.8506039133
 40
0.8760618834
 40
0.8995011086
 40
0.9208209277
 40
0.9398968658
 40
0.9565955999
 40
0.9707617526
 40
0.9768459046
 40
0.9822381934
 40
0.9869206945
 40
0.9908802161
 40
0.99411295
 40
0.9966356866
 40
0.9976514257
 40
0.9985255976
 40
0.9992912791
 40
1.0
 40
1.0
 40
1.0
 40
1.0
 10
6.0117360464
 20
4.5638239463
 30
0.0
 10
6.0103110624
 20
4.5638239463
 30
0.0
 10
6.008175927
 20
4.5638153425
 30
0.0
 10
6.0053350741
 20
4.5637958593
 30
0.0
 10
6.0032213669
 20
4.5637801758
 30
0.0
 10
6.0011334353
 20
4.5637665231
 30
0.0
 10
5.9990882526
 20
4.5637585078
 30
0.0
 10
5.9971093411
 20
4.5637599838
 30
0.0
 10
5.9952266504
 20
4.5637745574
 30
0.0
 10
5.9934731712
 20
4.5638052355
 30
0.0
 10
5.9918780447
 20
4.5638537086
 30
0.0
 10
5.9906586956
 20
4.5639087303
 30
0.0
 10
5.989777655
 20
4.5639607424
 30
0.0
 10
5.9891918511
 20
4.5640016055
 30
0.0
 10
5.988659807
 20
4.5640455864
 30
0.0
 10
5.9881846312
 20
4.5640926676
 30
0.0
 10
5.9877699694
 20
4.5641427882
 30
0.0
 10
5.9874643541
 20
4.5641889924
 30
0.0
 10
5.9872536045
 20
4.5642287586
 30
0.0
 10
5.9871216107
 20
4.5642578628
 30
0.0
 10
5.9870080786
 20
4.5642877534
 30
0.0
 10
5.9869135188
 20
4.5643184019
 30
0.0
 10
5.9868385028
 20
4.5643497853
 30
0.0
 10
5.9867891506
 20
4.5643783216
 30
0.0
 10
5.9867611275
 20
4.564402517
 30
0.0
 10
5.9867468937
 20
4.5644197489
 30
0.0
 10
5.9867380544
 20
4.564437534
 30
0.0
 10
5.986736051
 20
4.564449945
 30
0.0
 10
5.9867360703
 20
4.5644558719
 30
0.0
  0
SPLINE
  5
390
100
AcDbEntity
  8
0
100
AcDbSpline
 62
7
  6
CONTINUOUS
 70
0
 71
3
 72
22
 73
18
 74
0
 42
0.0000001
 43
0.0000001
 44
0.0000000001
 40
0.0
 40
0.0
 40
0.0
 40
0.0
 40
0.0531164018
 40
0.1065839722
 40
0.1607376812
 40
0.2158823238
 40
0.2722809434
 40
0.330147321
 40
0.3896418466
 40
0.4508705402
 40
0.5138864052
 40
0.5786923932
 40
0.6452454375
 40
0.7134608279
 40
0.7832174581
 40
0.8543612904
 40
1.0
 40
1.0
 40
1.0
 40
1.0
 10
6.4100943707
 20
4.3541482919
 30
0.0
 10
6.4116074885
 20
4.3541482833
 30
0.0
 10
6.4146466188
 20
4.3539720312
 30
0.0
 10
6.4191664163
 20
4.3531817207
 30
0.0
 10
6.423624134
 20
4.3518711474
 30
0.0
 10
6.4279886081
 20
4.3500499879
 30
0.0
 10
6.4322307155
 20
4.3477313945
 30
0.0
 10
6.4363222167
 20
4.3449317562
 30
0.0
 10
6.4402361959
 20
4.3416704813
 30
0.0
 10
6.4439470322
 20
4.3379698398
 30
0.0
 10
6.4474305057
 20
4.3338548217
 30
0.0
 10
6.4506638884
 20
4.3293530212
 30
0.0
 10
6.4536260697
 20
4.324494446
 30
0.0
 10
6.4562976455
 20
4.3193115455
 30
0.0
 10
6.4586612255
 20
4.3138383096
 30
0.0
 10
6.461401683
 20
4.3061451983
 30
0.0
 10
6.4629165261
 20
4.3001371577
 30
0.0
 10
6.4636926282
 20
4.2960616112
 30
0.0
  0
SPLINE
  5
391
100
AcDbEntity
  8
0
100
AcDbSpline
 62
7
  6
CONTINUOUS
 70
0
 71
3
 72
22
 73
18
 74
0
 42
0.0000001
 43
0.0000001
 44
0.0000000001
 40
0.0
 40
0.0
 40
0.0
 40
0.0
 40
0.0276775229
 40
0.0570893649
 40
0.0896809721
 40
0.1264994797
 40
0.1682448872
 40
0.2153582102
 40
0.2681071588
 40
0.3266347112
 40
0.3910029939
 40
0.4612086542
 40
0.5372046847
 40
0.6188997686
 40
0.7061794052
 40
0.7989087648
 40
1.0
 40
1.0
 40
1.0
 40
1.0
 10
6.4786709614
 20
4.2924128622
 30
0.0
 10
6.4786432184
 20
4.2925585172
 30
0.0
 10
6.4785450982
 20
4.2928524703
 30
0.0
 10
6.4782827476
 20
4.2932597181
 30
0.0
 10
6.4779085265
 20
4.2936384507
 30
0.0
 10
6.4774252389
 20
4.2939897372
 30
0.0
 10
6.4768339605
 20
4.2943146037
 30
0.0
 10
6.4761355748
 20
4.2946132654
 30
0.0
 10
6.4753311576
 20
4.2948854046
 30
0.0
 10
6.474422189
 20
4.2951306061
 30
0.0
 10
6.4734104849
 20
4.295348287
 30
0.0
 10
6.4722981921
 20
4.2955379872
 30
0.0
 10
6.4710877633
 20
4.29569919
 30
0.0
 10
6.469781916
 20
4.2958315453
 30
0.0
 10
6.4683835595
 20
4.2959346901
 30
0.0
 10
6.4663442878
 20
4.296035619
 30
0.0
 10
6.4647699103
 20
4.2960616112
 30
0.0
 10
6.4636926282
 20
4.2960616112
 30
0.0
  0
SPLINE
  5
392
100
AcDbEntity
  8
0
100
AcDbSpline
 62
7
  6
CONTINUOUS
 70
0
 71
3
 72
22
 73
18
 74
0
 42
0.0000001
 43
0.0000001
 44
0.0000000001
 40
0.0
 40
0.0
 40
0.0
 40
0.0
 40
0.0276775228
 40
0.0570893643
 40
0.089680971
 40
0.1264994779
 40
0.1682448849
 40
0.2153582073
 40
0.2681071555
 40
0.3266347076
 40
0.3910029902
 40
0.4612086506
 40
0.5372046812
 40
0.6188997654
 40
0.7061794026
 40
0.7989087629
 40
1.0
 40
1.0
 40
1.0
 40
1.0
 10
6.4786709612
 20
4.1358837207
 30
0.0
 10
6.4786432182
 20
4.1357380658
 30
0.0
 10
6.4785450981
 20
4.1354441126
 30
0.0
 10
6.4782827474
 20
4.1350368649
 30
0.0
 10
6.4779085263
 20
4.1346581323
 30
0.0
 10
6.4774252387
 20
4.1343068458
 30
0.0
 10
6.4768339604
 20
4.1339819793
 30
0.0
 10
6.4761355747
 20
4.1336833177
 30
0.0
 10
6.4753311575
 20
4.1334111785
 30
0.0
 10
6.4744221889
 20
4.1331659771
 30
0.0
 10
6.4734104848
 20
4.1329482963
 30
0.0
 10
6.472298192
 20
4.1327585961
 30
0.0
 10
6.4710877632
 20
4.1325973935
 30
0.0
 10
6.469781916
 20
4.1324650382
 30
0.0
 10
6.4683835594
 20
4.1323618935
 30
0.0
 10
6.4663442878
 20
4.1322609647
 30
0.0
 10
6.4647699103
 20
4.1322349726
 30
0.0
 10
6.4636926282
 20
4.1322349727
 30
0.0
  0
SPLINE
  5
393
100
AcDbEntity
  8
0
100
AcDbSpline
 62
7
  6
CONTINUOUS
 70
0
 71
3
 72
41
 73
37
 74
0
 42
0.0000001
 43
0.0000001
 44
0.0000000001
 40
0.0
 40
0.0
 40
0.0
 40
0.0
 40
0.0614637702
 40
0.1230735639
 40
0.1539550806
 40
0.1848969356
 40
0.2159077419
 40
0.2470013294
 40
0.2781913027
 40
0.3094918756
 40
0.340921717
 40
0.3724929046
 40
0.4042121639
 40
0.4201335732
 40
0.4360898135
 40
0.4520746933
 40
0.4680837596
 40
0.4841082759
 40
0.5001403036
 40
0.5161703085
 40
0.5321895128
 40
0.548189596
 40
0.5641634126
 40
0.5959966752
 40
0.6276855593
 40
0.6434803898
 40
0.6592367837
 40
0.6906395667
 40
0.7219161493
 40
0.7530850091
 40
0.7841609718
 40
0.8151565647
 40
0.8460855677
 40
0.8769555274
 40
0.9385499259
 40
1.0
 40
1.0
 40
1.0
 40
1.0
 10
6.0062085108
 20
3.2623316865
 30
0.0
 10
6.0078338851
 20
3.2629713268
 30
0.0
 10
6.0110546461
 20
3.2643406182
 30
0.0
 10
6.0149653776
 20
3.2663115254
 30
0.0
 10
6.017999143
 20
3.2680742965
 30
0.0
 10
6.0202202486
 20
3.2694997773
 30
0.0
 10
6.0223726962
 20
3.2710377534
 30
0.0
 10
6.0244415127
 20
3.2726983554
 30
0.0
 10
6.0264068324
 20
3.2744931934
 30
0.0
 10
6.0282435301
 20
3.2764334887
 30
0.0
 10
6.0299196166
 20
3.2785291872
 30
0.0
 10
6.0313944381
 20
3.2807864344
 30
0.0
 10
6.032414201
 20
3.2827996967
 30
0.0
 10
6.03307801
 20
3.2844818615
 30
0.0
 10
6.0334934479
 20
3.2857781506
 30
0.0
 10
6.0338197674
 20
3.2871023171
 30
0.0
 10
6.0340508374
 20
3.2884484366
 30
0.0
 10
6.0341830995
 20
3.2898092255
 30
0.0
 10
6.0342132876
 20
3.2911767152
 30
0.0
 10
6.0341414957
 20
3.2925424956
 30
0.0
 10
6.033968509
 20
3.2938982151
 30
0.0
 10
6.03369813
 20
3.2952362608
 30
0.0
 10
6.0332143795
 20
3.2969851529
 30
0.0
 10
6.0323929325
 20
3.2990969715
 30
0.0
 10
6.0313247952
 20
3.3010875974
 30
0.0
 10
6.0303504927
 20
3.3025985281
 30
0.0
 10
6.0293067846
 20
3.3040523983
 30
0.0
 10
6.0278815642
 20
3.3057703111
 30
0.0
 10
6.0260163879
 20
3.3076800436
 30
0.0
 10
6.0240281967
 20
3.3094467047
 30
0.0
 10
6.0219408771
 20
3.311081364
 30
0.0
 10
6.0197733864
 20
3.3125957002
 30
0.0
 10
6.0175399197
 20
3.3139995354
 30
0.0
 10
6.0144924296
 20
3.3157361046
 30
0.0
 10
6.0105688043
 20
3.3176782412
 30
0.0
 10
6.0073407934
 20
3.3190280069
 30
0.0
 10
6.0057123056
 20
3.3196586013
 30
0.0
  0
ENDSEC
  0
SECTION
  2
OBJECTS
  0
DICTIONARY
  5
C
100
AcDbDictionary
280
0
281
1
  3
ACAD_GROUP
350
D
  3
ACAD_MLINESTYLE
350
17
  3
ACAD_LAYOUT
350
1A
  3
ACAD_PLOTSETTINGS
350
19
  3
ACAD_PLOTSTYLENAME
350
E
  0
DICTIONARY
  5
D
102
{ACAD_REACTORS
330
C
102
}
100
AcDbDictionary
280
0
281
1
  0
ACDBDICTIONARYWDFLT
  5
E
102
{ACAD_REACTORS
330
C
102
}
100
AcDbDictionary
281
1
  3
Normal
350
F
100
AcDbDictionaryWithDefault
340
F
  0
DICTIONARY
  5
17
102
{ACAD_REACTORS
330
C
102
}
100
AcDbDictionary
280
0
281
1
  3
Standard
350
18
  0
DICTIONARY
  5
19
102
{ACAD_REACTORS
330
C
102
}
100
AcDbDictionary
281
1
  0
DICTIONARY
  5
1A
102
{ACAD_REACTORS
330
C
102
}
100
AcDbDictionary
281
1
  3
Model
350
394
  3
Layout1
350
395
  0
ACDBPLACEHOLDER
  5
F
102
{ACAD_REACTORS
330
E
102
}
  0
MLINESTYLE
  5
18
102
{ACAD_REACTORS
330
17
102
}
100
AcDbMlineStyle
  2
STANDARD
 70
0
  3

 62
256
 51
90.0
 52
90.0
 71
2
 49
0.5
 62
256
  6
BYLAYER
 49
-0.5
 62
256
  6
BYLAYER
  0
LAYOUT
  5
394
102
{ACAD_REACTORS
330
1A
102
}
100
AcDbPlotSettings
  1

  2
none_device
  4
ANSI_A_(11.00_x_8.50_Inches)
  6

 40
0.0
 41
0.0
 42
0.0
 43
0.0
 44
279.4
 45
215.9
 46
0.0
 47
0.0
 48
0.0
 49
0.0
140
0.0
141
0.0
142
1.0
143
1.0
 70
1024
 72
0
 73
0
 74
0
  7

 75
0
147
1.0
148
0.0
149
0.0
100
AcDbLayout
  1
Model
 70
0
 71
0
 10
0.0
 20
0.0
 11
11.0
 21
8.5
 12
0.0
 22
0.0
 32
0.0
 14
0.0
 24
0.0
 34
0.0
 15
0.0
 25
0.0
 35
0.0
146
0.0
 13
0.0
 23
0.0
 33
0.0
 16
1.0
 26
0.0
 36
0.0
 17
0.0
 27
1.0
 37
0.0
 76
0
330
202
345
0
346
0
  0
LAYOUT
  5
395
102
{ACAD_REACTORS
330
1A
102
}
100
AcDbPlotSettings
  1

  2
none_device
  4
ANSI_A_(11.00_x_8.50_Inches)
  6

 40
0.0
 41
0.0
 42
0.0
 43
0.0
 44
279.4
 45
215.9
 46
0.0
 47
0.0
 48
0.0
 49
0.0
140
0.0
141
0.0
142
1.0
143
1.0
 70
0
 72
0
 73
0
 74
0
  7

 75
0
147
1.0
148
0.0
149
0.0
100
AcDbLayout
  1
Layout1
 70
0
 71
1
 10
0.0
 20
0.0
 11
11.0
 21
8.5
 12
0.0
 22
0.0
 32
0.0
 14
0.0
 24
0.0
 34
0.0
 15
0.0
 25
0.0
 35
0.0
146
0.0
 13
0.0
 23
0.0
 33
0.0
 16
1.0
 26
0.0
 36
0.0
 17
0.0
 27
1.0
 37
0.0
 76
0
330
203
345
0
346
0
  0
ENDSEC
  0
EOF
