999
DXF file: E:\BT Custom\CADOUTPUT\_RIGHT.dxf
999
Pro/ENGINEER 2018400 by Parametric Technology Corporation
  0
SECTION
  2
HEADER
  9
$ACADVER
  1
AC1018
  9
$DWGCODEPAGE
  3
ANSI_1252
  9
$EXTMAX
 10
22.0
 20
17.0
 30
0.0
  9
$EXTMIN
 10
0.0
 20
0.0
 30
0.0
  9
$LIMMIN
 10
0.0
 20
0.0
  9
$LIMMAX
 10
22.0
 20
17.0
  9
$VIEWCTR
 10
11.0
 20
8.5
  9
$VIEWSIZE
 40
17.0
  9
$CLAYER
  8
0
  9
$LTSCALE
 40
1.21
  9
$CELTYPE
  6
BYLAYER
  9
$DIMSCALE
 40
1.0
  9
$DIMASZ
 40
0.1
  9
$DIMEXO
 40
0.0625
  9
$DIMDLI
 40
0.836
  9
$DIMEXE
 40
0.125
  9
$DIMCEN
 40
0.198
  9
$DIMLFAC
 40
1.0
  9
$DIMBLK
  1
_FILLED
  9
$DIMALT
 70
1
  9
$DIMALTD
 70
2
  9
$DIMALTTD
 70
2
  9
$DIMALTF
 40
25.4
  9
$DIMTXT
 40
0.08
  9
$DIMTOL
 70
1
  9
$DIMLIM
 70
0
  9
$DIMTFAC
 40
1.0
  9
$DIMTP
 40
0.001
  9
$DIMTM
 40
0.001
  9
$DIMGAP
 40
0.09
  9
$DIMDSEP
 70
46
  9
$AUNITS
 70
0
  9
$PDMODE
 70
3
  9
$PDSIZE
 40
0.06
  9
$HANDSEED
  5
2F2
  9
$TILEMODE
 70
1
  9
$MEASUREMENT
 70
0
  9
$INSUNITS
 70
1
  0
ENDSEC
  0
SECTION
  2
CLASSES
  0
CLASS
  1
ACDBDICTIONARYWDFLT
  2
AcDbDictionaryWithDefault
  3
AutoCAD 2000
 90
0
 91
1
280
0
281
0
  0
CLASS
  1
ACDBPLACEHOLDER
  2
AcDbPlaceHolder
  3
AutoCAD 2000
 90
0
 91
1
280
0
281
0
  0
CLASS
  1
LAYOUT
  2
AcDbLayout
  3
AutoCAD 2000
 90
0
 91
0
280
0
281
0
  0
ENDSEC
  0
SECTION
  2
TABLES
  0
TABLE
  2
VPORT
  5
8
100
AcDbSymbolTable
 70
2
  0
VPORT
  5
1F4
100
AcDbSymbolTableRecord
100
AcDbViewportTableRecord
  2
*ACTIVE
 70
0
 10
0.0
 20
0.0
 11
1.0
 21
1.0
 12
11.0
 22
8.5
 13
0.0
 23
0.0
 14
1.0
 24
1.0
 15
0.0
 25
0.0
 16
0.0
 26
0.0
 36
1.0
 17
0.0
 27
0.0
 37
0.0
 40
17.0
 41
1.2941176471
 42
50.0
 43
0.0
 44
0.0
 50
0.0
 51
0.0
 71
0
 72
100
 73
1
 74
1
 75
0
 76
0
 77
0
 78
0
  0
ENDTAB
  0
TABLE
  2
LTYPE
  5
5
100
AcDbSymbolTable
 70
6
  0
LTYPE
  5
14
100
AcDbSymbolTableRecord
100
AcDbLinetypeTableRecord
  2
BYBLOCK
 70
0
  3

 72
65
 73
0
 40
0.0
  0
LTYPE
  5
15
100
AcDbSymbolTableRecord
100
AcDbLinetypeTableRecord
  2
BYLAYER
 70
0
  3

 72
65
 73
0
 40
0.0
  0
LTYPE
  5
16
100
AcDbSymbolTableRecord
100
AcDbLinetypeTableRecord
  2
CONTINUOUS
 70
64
  3
Solid line
 72
65
 73
0
 40
0.0
  0
LTYPE
  5
1F5
100
AcDbSymbolTableRecord
100
AcDbLinetypeTableRecord
  2
CENTER
 70
64
  3
____ _ ____ _ ____ _ ____ _ ____ _ ____ _ ____
 72
65
 73
4
 40
0.6
 49
0.375
 74
0
 49
-0.075
 74
0
 49
0.075
 74
0
 49
-0.075
 74
0
  0
LTYPE
  5
1F6
100
AcDbSymbolTableRecord
100
AcDbLinetypeTableRecord
  2
HIDDEN
 70
64
  3
- - - - - - - - - - - - - - - - - - - -
 72
65
 73
2
 40
0.2
 49
0.1
 74
0
 49
-0.1
 74
0
  0
LTYPE
  5
1F7
100
AcDbSymbolTableRecord
100
AcDbLinetypeTableRecord
  2
PHANTOM
 70
64
  3
_____ _ _ _____ _ _ _____ _ _ _____
 72
65
 73
6
 40
0.8
 49
0.45
 74
0
 49
-0.05
 74
0
 49
0.1
 74
0
 49
-0.05
 74
0
 49
0.1
 74
0
 49
-0.05
 74
0
  0
LTYPE
  5
1F8
100
AcDbSymbolTableRecord
100
AcDbLinetypeTableRecord
  2
DOT
 70
64
  3
. . . . . . . . . . . . . . . . . . . .
 72
65
 73
2
 40
0.2
 49
0.1
 74
0
 49
-0.1
 74
0
  0
LTYPE
  5
1F9
100
AcDbSymbolTableRecord
100
AcDbLinetypeTableRecord
  2
DASHED
 70
64
  3
- - - - - - - - - - - - - - - - - - - -
 72
65
 73
2
 40
0.2
 49
0.1
 74
0
 49
-0.1
 74
0
  0
ENDTAB
  0
TABLE
  2
LAYER
  5
2
100
AcDbSymbolTable
 70
36
  0
LAYER
  5
10
100
AcDbSymbolTableRecord
100
AcDbLayerTableRecord
  2
0
 70
0
 62
7
  6
CONTINUOUS
370
-3
390
F
  0
LAYER
  5
1FA
100
AcDbSymbolTableRecord
100
AcDbLayerTableRecord
  2
DEFAULT_1
 70
0
 62
7
  6
CENTER
370
-3
390
F
  0
LAYER
  5
1FB
100
AcDbSymbolTableRecord
100
AcDbLayerTableRecord
  2
DEFAULT_2
 70
0
 62
8
  6
HIDDEN
370
-3
390
F
  0
LAYER
  5
1FC
100
AcDbSymbolTableRecord
100
AcDbLayerTableRecord
  2
DEFAULT_3
 70
0
 62
7
  6
PHANTOM
370
-3
390
F
  0
LAYER
  5
1FD
100
AcDbSymbolTableRecord
100
AcDbLayerTableRecord
  2
ALL_FEATURES
 70
0
 62
7
  6
CONTINUOUS
370
-3
390
F
  0
LAYER
  5
1FE
100
AcDbSymbolTableRecord
100
AcDbLayerTableRecord
  2
AXES_FEATURES
 70
0
 62
7
  6
CONTINUOUS
370
-3
390
F
  0
LAYER
  5
1FF
100
AcDbSymbolTableRecord
100
AcDbLayerTableRecord
  2
DEFAULT_COORDINATE_SYSTEM
 70
0
 62
7
  6
CONTINUOUS
370
-3
390
F
  0
LAYER
  5
200
100
AcDbSymbolTableRecord
100
AcDbLayerTableRecord
  2
DEFAULT_DATUM_AXES
 70
0
 62
7
  6
CONTINUOUS
370
-3
390
F
  0
LAYER
  5
201
100
AcDbSymbolTableRecord
100
AcDbLayerTableRecord
  2
DEFAULT_DATUM_PLANES
 70
0
 62
7
  6
CONTINUOUS
370
-3
390
F
  0
LAYER
  5
202
100
AcDbSymbolTableRecord
100
AcDbLayerTableRecord
  2
DIMENSIONS
 70
0
 62
7
  6
CONTINUOUS
370
-3
390
F
  0
ENDTAB
  0
TABLE
  2
STYLE
  5
3
100
AcDbSymbolTable
 70
1
  0
STYLE
  5
11
100
AcDbSymbolTableRecord
100
AcDbTextStyleTableRecord
  2
STANDARD
 70
0
 40
0.0
 41
0.8
 50
0.0
 71
0
 42
0.2
  3
txt
  4

  0
STYLE
  5
203
100
AcDbSymbolTableRecord
100
AcDbTextStyleTableRecord
  2
TEXTSTYLE_1
 70
0
 40
0.0
 41
0.8
 50
0.0
 71
0
 42
0.2
  3
gdt
  4

  0
ENDTAB
  0
TABLE
  2
VIEW
  5
6
100
AcDbSymbolTable
 70
0
  0
ENDTAB
  0
TABLE
  2
UCS
  5
7
100
AcDbSymbolTable
 70
0
  0
ENDTAB
  0
TABLE
  2
APPID
  5
9
100
AcDbSymbolTable
 70
1
  0
APPID
  5
204
100
AcDbSymbolTableRecord
100
AcDbRegAppTableRecord
  2
ACAD
 70
0
  0
ENDTAB
  0
TABLE
  2
BLOCK_RECORD
  5
1
100
AcDbSymbolTable
 70
0
  0
BLOCK_RECORD
  5
205
100
AcDbSymbolTableRecord
100
AcDbBlockTableRecord
  2
*Model_Space
  0
BLOCK_RECORD
  5
206
100
AcDbSymbolTableRecord
100
AcDbBlockTableRecord
  2
*Paper_Space
  0
BLOCK_RECORD
  5
207
100
AcDbSymbolTableRecord
100
AcDbBlockTableRecord
  2
_FILLED
  0
ENDTAB
  0
TABLE
  2
DIMSTYLE
  5
A
100
AcDbSymbolTable
 70
1
100
AcDbDimStyleTable
 71
0
  0
DIMSTYLE
105
208
100
AcDbSymbolTableRecord
100
AcDbDimStyleTableRecord
  2
STANDARD
 70
0
  3

  4

 40
1.0
 41
0.1
 42
0.0625
 43
0.38
 44
0.125
 45
0.0
 46
0.0
 47
0.001
 48
0.001
140
0.08
141
0.09
142
0.0
143
25.4
144
1.0
145
0.0
146
1.0
147
0.09
 71
1.0
 72
0.0
 73
1
 74
1
 75
0
 76
0
 77
0
 78
4
 79
1
170
1
171
2
172
0
173
0
174
0
175
0
176
0
177
0
178
0
270
2
179
3
271
3
272
3
273
2
274
2
275
0
280
0
281
0
282
0
283
1
284
4
285
0
286
0
287
3
288
0
340
11
278
46
341
207
342
207
343
207
344
207
  0
ENDTAB
  0
ENDSEC
  0
SECTION
  2
BLOCKS
  0
BLOCK
  5
20
100
AcDbEntity
  8
0
100
AcDbBlockBegin
  2
*Model_Space
 70
0
 10
0.0
 20
0.0
 30
0.0
  3
*Model_Space
  1

  0
ENDBLK
  5
21
100
AcDbEntity
  8
0
100
AcDbBlockEnd
  0
BLOCK
  5
1C
100
AcDbEntity
  8
0
100
AcDbBlockBegin
  2
*Paper_Space
 70
0
 10
0.0
 20
0.0
 30
0.0
  3
*Paper_Space
  1

  0
ENDBLK
  5
1D
100
AcDbEntity
  8
0
100
AcDbBlockEnd
  0
BLOCK
  5
209
100
AcDbEntity
  8
0
100
AcDbBlockBegin
  2
_FILLED
 70
64
 10
0.0
 20
0.0
  3
_FILLED
  1

  0
SOLID
  5
20A
100
AcDbEntity
  8
0
  6
BYBLOCK
 62
0
100
AcDbTrace
 10
0.0
 20
0.0
 11
-1.0
 21
0.2
 12
-1.0
 22
-0.2
 13
-1.0
 23
-0.2
  0
ENDBLK
  5
20B
100
AcDbEntity
  8
0
  6
BYBLOCK
 62
0
100
AcDbBlockEnd
  0
ENDSEC
  0
SECTION
  2
ENTITIES
  0
LINE
  5
20C
100
AcDbEntity
  8
0
100
AcDbLine
 62
7
  6
CONTINUOUS
 10
13.468237681
 20
0.4876998745
 11
16.0232337537
 21
0.4876998745
  0
LINE
  5
20D
100
AcDbEntity
  8
0
100
AcDbLine
 62
9
  6
CONTINUOUS
 10
13.6583365826
 20
0.7599500588
 11
15.8331348522
 21
0.7599500588
  0
LINE
  5
20E
100
AcDbEntity
  8
0
100
AcDbLine
 62
9
  6
CONTINUOUS
 10
13.6776025823
 20
0.7929941101
 11
15.8138688524
 21
0.7929941101
  0
LINE
  5
20F
100
AcDbEntity
  8
0
100
AcDbLine
 62
7
  6
CONTINUOUS
 10
13.7757357174
 20
1.0976998745
 11
15.7157357174
 21
1.0976998745
  0
LINE
  5
210
100
AcDbEntity
  8
0
100
AcDbLine
 62
7
  6
CONTINUOUS
 10
5.7373981564
 20
10.8073553761
 11
5.7393203745
 21
10.8370341899
  0
LINE
  5
211
100
AcDbEntity
  8
0
100
AcDbLine
 62
7
  6
CONTINUOUS
 10
5.7646674493
 20
10.8331529527
 11
5.7627452311
 21
10.8034741388
  0
LINE
  5
212
100
AcDbEntity
  8
0
100
AcDbLine
 62
7
  6
CONTINUOUS
 10
5.8376514422
 20
10.8219773755
 11
5.8357292241
 21
10.7922985616
  0
LINE
  5
213
100
AcDbEntity
  8
0
100
AcDbLine
 62
7
  6
CONTINUOUS
 10
5.9494694067
 20
10.8048553978
 11
5.9475471886
 21
10.7751765839
  0
LINE
  5
214
100
AcDbEntity
  8
0
100
AcDbLine
 62
7
  6
CONTINUOUS
 10
6.0866344459
 20
10.7838521829
 11
6.0847122278
 21
10.754173369
  0
LINE
  5
215
100
AcDbEntity
  8
0
100
AcDbLine
 62
7
  6
CONTINUOUS
 10
5.9458235834
 20
10.8054136597
 11
5.9387768961
 21
10.7765195233
  0
LINE
  5
216
100
AcDbEntity
  8
0
100
AcDbLine
 62
7
  6
CONTINUOUS
 10
6.0576415479
 20
10.788291682
 11
6.0505948606
 21
10.7593975457
  0
LINE
  5
217
100
AcDbEntity
  8
0
100
AcDbLine
 62
7
  6
CONTINUOUS
 10
6.1948065871
 20
10.7672884671
 11
6.1877598999
 21
10.7383943308
  0
LINE
  5
218
100
AcDbEntity
  8
0
100
AcDbLine
 62
7
  6
CONTINUOUS
 10
6.340774573
 20
10.7449373126
 11
6.3337278858
 21
10.7160431763
  0
LINE
  5
219
100
AcDbEntity
  8
0
100
AcDbLine
 62
9
  6
CONTINUOUS
 10
14.9507724381
 20
4.3307381321
 11
14.5406989966
 21
4.3307381321
  0
LINE
  5
21A
100
AcDbEntity
  8
0
100
AcDbLine
 62
9
  6
CONTINUOUS
 10
14.9164730747
 20
4.3799042021
 11
14.57499836
 21
4.3799042021
  0
LINE
  5
21B
100
AcDbEntity
  8
0
100
AcDbLine
 62
7
  6
CONTINUOUS
 10
14.9257357174
 20
4.4045861313
 11
14.5657357174
 21
4.4045861313
  0
LINE
  5
21C
100
AcDbEntity
  8
0
100
AcDbLine
 62
7
  6
CONTINUOUS
 10
6.2326024319
 20
10.7615010284
 11
6.2306802137
 21
10.7318222146
  0
LINE
  5
21D
100
AcDbEntity
  8
0
100
AcDbLine
 62
7
  6
CONTINUOUS
 10
6.3697674711
 20
10.7404978135
 11
6.367845253
 21
10.7108189997
  0
LINE
  5
21E
100
AcDbEntity
  8
0
100
AcDbLine
 62
7
  6
CONTINUOUS
 10
6.4815854356
 20
10.7233758358
 11
6.4796632175
 21
10.693697022
  0
LINE
  5
21F
100
AcDbEntity
  8
0
100
AcDbLine
 62
7
  6
CONTINUOUS
 10
6.4779396123
 20
10.7239340977
 11
6.470892925
 21
10.6950399614
  0
LINE
  5
220
100
AcDbEntity
  8
0
100
AcDbLine
 62
7
  6
CONTINUOUS
 10
6.5897575768
 20
10.70681212
 11
6.5827108895
 21
10.6779179837
  0
LINE
  5
221
100
AcDbEntity
  8
0
100
AcDbLine
 62
7
  6
CONTINUOUS
 10
6.6627415697
 20
10.6956365428
 11
6.6556948825
 21
10.6667424065
  0
LINE
  5
222
100
AcDbEntity
  8
0
100
AcDbLine
 62
7
  6
CONTINUOUS
 10
6.6810419572
 20
10.6628611693
 11
6.6880886445
 21
10.6917553056
  0
LINE
  5
223
100
AcDbEntity
  8
0
100
AcDbLine
 62
7
  6
CONTINUOUS
 10
7.4555017179
 20
11.8217673132
 11
7.4511077074
 21
11.8173320902
  0
LINE
  5
224
100
AcDbEntity
  8
0
100
AcDbLine
 62
9
  6
CONTINUOUS
 10
14.9373792817
 20
4.4315600736
 11
14.554092153
 21
4.4315600736
  0
LINE
  5
225
100
AcDbEntity
  8
0
100
AcDbLine
 62
9
  6
CONTINUOUS
 10
14.9338785745
 20
4.6828847036
 11
14.5575928602
 21
4.6828847036
  0
LINE
  5
226
100
AcDbEntity
  8
0
100
AcDbLine
 62
9
  6
CONTINUOUS
 10
14.9417357174
 20
4.7035101287
 11
14.8955289385
 21
4.7035101287
  0
LINE
  5
227
100
AcDbEntity
  8
0
100
AcDbLine
 62
9
  6
CONTINUOUS
 10
14.5959424962
 20
4.7035101287
 11
14.5497357174
 21
4.7035101287
  0
LINE
  5
228
100
AcDbEntity
  8
0
100
AcDbLine
 62
9
  6
CONTINUOUS
 10
14.3221425684
 20
4.7110054174
 11
14.4387638005
 21
4.7110054174
  0
LINE
  5
229
100
AcDbEntity
  8
0
100
AcDbLine
 62
9
  6
CONTINUOUS
 10
15.0527076342
 20
4.7110054174
 11
15.1693288664
 21
4.7110054174
  0
LINE
  5
22A
100
AcDbEntity
  8
0
100
AcDbLine
 62
7
  6
CONTINUOUS
 10
14.9417357174
 20
4.7176998745
 11
14.9397073648
 21
4.7176998745
  0
LINE
  5
22B
100
AcDbEntity
  8
0
100
AcDbLine
 62
7
  6
CONTINUOUS
 10
14.5517640699
 20
4.7176998745
 11
14.5497357174
 21
4.7176998745
  0
LINE
  5
22C
100
AcDbEntity
  8
0
100
AcDbLine
 62
9
  6
CONTINUOUS
 10
7.3929043492
 20
11.7451234051
 11
7.3883809851
 21
12.7141938094
  0
LINE
  5
22D
100
AcDbEntity
  8
0
100
AcDbLine
 62
9
  6
CONTINUOUS
 10
15.3601099684
 20
5.2597113045
 11
15.3418317775
 21
5.2590564445
  0
LINE
  5
22E
100
AcDbEntity
  8
0
100
AcDbLine
 62
9
  6
CONTINUOUS
 10
14.1496396572
 20
5.2590564445
 11
14.1914205637
 21
5.2590564445
  0
LINE
  5
22F
100
AcDbEntity
  8
0
100
AcDbLine
 62
9
  6
CONTINUOUS
 10
15.300050871
 20
5.2590564445
 11
15.3418317775
 21
5.2590564445
  0
LINE
  5
230
100
AcDbEntity
  8
0
100
AcDbLine
 62
9
  6
CONTINUOUS
 10
14.1313614663
 20
5.2597113045
 11
14.1496396572
 21
5.2590564445
  0
LINE
  5
231
100
AcDbEntity
  8
0
100
AcDbLine
 62
7
  6
CONTINUOUS
 10
7.4514167417
 20
11.7511256125
 11
7.446946823
 21
12.7087460479
  0
LINE
  5
232
100
AcDbEntity
  8
0
100
AcDbLine
 62
9
  6
CONTINUOUS
 10
7.4549916292
 20
11.9310470292
 11
7.4555017179
 21
11.8217673132
  0
LINE
  5
233
100
AcDbEntity
  8
0
100
AcDbLine
 62
7
  6
CONTINUOUS
 10
7.458922651
 20
11.8300058761
 11
7.4584893224
 21
11.9228407606
  0
LINE
  5
234
100
AcDbEntity
  8
0
100
AcDbLine
 62
7
  6
CONTINUOUS
 10
14.5487357174
 20
5.7576998745
 11
14.5517640699
 21
5.7576998745
  0
LINE
  5
235
100
AcDbEntity
  8
0
100
AcDbLine
 62
7
  6
CONTINUOUS
 10
14.9397073648
 20
5.7576998745
 11
14.9427357174
 21
5.7576998745
  0
LINE
  5
236
100
AcDbEntity
  8
0
100
AcDbLine
 62
7
  6
CONTINUOUS
 10
14.5487357174
 20
5.8176998745
 11
14.9427357174
 21
5.8176998745
  0
LINE
  5
237
100
AcDbEntity
  8
0
100
AcDbLine
 62
7
  6
CONTINUOUS
 10
14.4642357174
 20
6.0176998745
 11
15.0272357174
 21
6.0176998745
  0
LINE
  5
238
100
AcDbEntity
  8
0
100
AcDbLine
 62
7
  6
CONTINUOUS
 10
14.4642357174
 20
6.1226998745
 11
15.0272357174
 21
6.1226998745
  0
LINE
  5
239
100
AcDbEntity
  8
0
100
AcDbLine
 62
9
  6
CONTINUOUS
 10
15.6957357174
 20
7.3176998745
 11
15.0352214913
 21
7.3176998745
  0
LINE
  5
23A
100
AcDbEntity
  8
0
100
AcDbLine
 62
9
  6
CONTINUOUS
 10
14.4562499434
 20
7.3176998745
 11
13.7957357174
 21
7.3176998745
  0
LINE
  5
23B
100
AcDbEntity
  8
0
100
AcDbLine
 62
7
  6
CONTINUOUS
 10
15.7457346398
 20
7.3476998745
 11
15.0371304467
 21
7.3476998745
  0
LINE
  5
23C
100
AcDbEntity
  8
0
100
AcDbLine
 62
7
  6
CONTINUOUS
 10
13.7457367949
 20
7.3476998745
 11
14.454340988
 21
7.3476998745
  0
LINE
  5
23D
100
AcDbEntity
  8
0
100
AcDbLine
 62
7
  6
CONTINUOUS
 10
15.8057357174
 20
7.4076998745
 11
15.0413102666
 21
7.4076998745
  0
LINE
  5
23E
100
AcDbEntity
  8
0
100
AcDbLine
 62
7
  6
CONTINUOUS
 10
13.6857357174
 20
7.4076998745
 11
14.4501611682
 21
7.4076998745
  0
LINE
  5
23F
100
AcDbEntity
  8
0
100
AcDbLine
 62
7
  6
CONTINUOUS
 10
15.7823915259
 20
7.4476998745
 11
15.0440968131
 21
7.4476998745
  0
LINE
  5
240
100
AcDbEntity
  8
0
100
AcDbLine
 62
7
  6
CONTINUOUS
 10
13.7090799088
 20
7.4476998745
 11
14.4473746216
 21
7.4476998745
  0
LINE
  5
241
100
AcDbEntity
  8
0
100
AcDbLine
 62
7
  6
CONTINUOUS
 10
15.6857357174
 20
7.8176998745
 11
15.0747376598
 21
7.8176998745
  0
LINE
  5
242
100
AcDbEntity
  8
0
100
AcDbLine
 62
7
  6
CONTINUOUS
 10
13.8057357174
 20
7.8176998745
 11
14.416733775
 21
7.8176998745
  0
LINE
  5
243
100
AcDbEntity
  8
0
100
AcDbLine
 62
9
  6
CONTINUOUS
 10
15.6857357174
 20
7.8676998745
 11
15.0794822326
 21
7.8676998745
  0
LINE
  5
244
100
AcDbEntity
  8
0
100
AcDbLine
 62
9
  6
CONTINUOUS
 10
14.4119892021
 20
7.8676998745
 11
13.8057357174
 21
7.8676998745
  0
LINE
  5
245
100
AcDbEntity
  8
0
100
AcDbLine
 62
7
  6
CONTINUOUS
 10
15.6557357174
 20
7.8976998745
 11
15.0823289763
 21
7.8976998745
  0
LINE
  5
246
100
AcDbEntity
  8
0
100
AcDbLine
 62
7
  6
CONTINUOUS
 10
14.4091424584
 20
7.8976998745
 11
13.8357357174
 21
7.8976998745
  0
LINE
  5
247
100
AcDbEntity
  8
0
100
AcDbLine
 62
7
  6
CONTINUOUS
 10
14.1757357174
 20
7.9126998745
 11
14.4077190866
 21
7.9126998745
  0
LINE
  5
248
100
AcDbEntity
  8
0
100
AcDbLine
 62
7
  6
CONTINUOUS
 10
15.0837523481
 20
7.9126998745
 11
15.3157357174
 21
7.9126998745
  0
LINE
  5
249
100
AcDbEntity
  8
0
100
AcDbLine
 62
9
  6
CONTINUOUS
 10
14.3707357174
 20
8.2226998745
 11
15.1207357174
 21
8.2226998745
  0
LINE
  5
24A
100
AcDbEntity
  8
0
100
AcDbLine
 62
7
  6
CONTINUOUS
 10
14.5457357174
 20
8.6976998745
 11
14.9457357174
 21
8.6976998745
  0
LINE
  5
24B
100
AcDbEntity
  8
0
100
AcDbLine
 62
7
  6
CONTINUOUS
 10
14.5457357174
 20
8.7576998745
 11
14.9457357174
 21
8.7576998745
  0
LINE
  5
24C
100
AcDbEntity
  8
0
100
AcDbLine
 62
7
  6
CONTINUOUS
 10
14.5657357174
 20
8.7776998745
 11
14.9257357174
 21
8.7776998745
  0
LINE
  5
24D
100
AcDbEntity
  8
0
100
AcDbLine
 62
7
  6
CONTINUOUS
 10
7.4505564061
 20
11.9354410397
 11
7.4549916292
 21
11.9310470292
  0
LINE
  5
24E
100
AcDbEntity
  8
0
100
AcDbLine
 62
7
  6
CONTINUOUS
 10
6.4575981505
 20
10.6861684158
 11
6.3778762246
 21
10.69837573
  0
LINE
  5
24F
100
AcDbEntity
  8
0
100
AcDbLine
 62
7
  6
CONTINUOUS
 10
5.7473967745
 20
10.7949170606
 11
5.9255000948
 21
10.7676452256
  0
LINE
  5
250
100
AcDbEntity
  8
0
100
AcDbLine
 62
7
  6
CONTINUOUS
 10
5.9575459792
 20
10.762738242
 11
6.0373322672
 21
10.7505210724
  0
LINE
  5
251
100
AcDbEntity
  8
0
100
AcDbLine
 62
7
  6
CONTINUOUS
 10
6.0947108831
 20
10.7417350478
 11
6.1744974417
 21
10.7295178367
  0
LINE
  5
252
100
AcDbEntity
  8
0
100
AcDbLine
 62
7
  6
CONTINUOUS
 10
6.240678869
 20
10.7193838934
 11
6.3204654277
 21
10.7071666823
  0
LINE
  5
253
100
AcDbEntity
  8
0
100
AcDbLine
 62
7
  6
CONTINUOUS
 10
6.4896620372
 20
10.6812586756
 11
6.6677795363
 21
10.6539846695
  0
LINE
  5
254
100
AcDbEntity
  8
0
100
AcDbLine
 62
9
  6
CONTINUOUS
 10
5.7373981564
 20
10.8073553761
 11
5.9387768961
 21
10.7765195233
  0
LINE
  5
255
100
AcDbEntity
  8
0
100
AcDbLine
 62
9
  6
CONTINUOUS
 10
5.9475471886
 20
10.7751765839
 11
6.0505948606
 21
10.7593975457
  0
LINE
  5
256
100
AcDbEntity
  8
0
100
AcDbLine
 62
9
  6
CONTINUOUS
 10
6.0847122278
 20
10.754173369
 11
6.1877598999
 21
10.7383943308
  0
LINE
  5
257
100
AcDbEntity
  8
0
100
AcDbLine
 62
9
  6
CONTINUOUS
 10
6.2306802137
 20
10.7318222146
 11
6.3337278858
 21
10.7160431763
  0
LINE
  5
258
100
AcDbEntity
  8
0
100
AcDbLine
 62
9
  6
CONTINUOUS
 10
6.367845253
 20
10.7108189997
 11
6.470892925
 21
10.6950399614
  0
LINE
  5
259
100
AcDbEntity
  8
0
100
AcDbLine
 62
9
  6
CONTINUOUS
 10
6.4796632175
 20
10.693697022
 11
6.6810419572
 21
10.6628611693
  0
LINE
  5
25A
100
AcDbEntity
  8
0
100
AcDbLine
 62
7
  6
CONTINUOUS
 10
5.5148500113
 20
10.8714059169
 11
6.9125590077
 21
10.6573835786
  0
LINE
  5
25B
100
AcDbEntity
  8
0
100
AcDbLine
 62
9
  6
CONTINUOUS
 10
5.4426867237
 20
11.1097254102
 11
7.0527284723
 21
10.8631899005
  0
LINE
  5
25C
100
AcDbEntity
  8
0
100
AcDbLine
 62
9
  6
CONTINUOUS
 10
5.4815721446
 20
11.2052806432
 11
7.0442178762
 21
10.9660025858
  0
LINE
  5
25D
100
AcDbEntity
  8
0
100
AcDbLine
 62
7
  6
CONTINUOUS
 10
13.7457357174
 20
7.3476998745
 11
13.6857357174
 21
7.4076998745
  0
LINE
  5
25E
100
AcDbEntity
  8
0
100
AcDbLine
 62
7
  6
CONTINUOUS
 10
14.9164730747
 20
4.3799042021
 11
14.9507724381
 21
4.3307381321
  0
LINE
  5
25F
100
AcDbEntity
  8
0
100
AcDbLine
 62
7
  6
CONTINUOUS
 10
7.2249085765
 20
11.6505141356
 11
7.3543109298
 21
11.6522474993
  0
LINE
  5
260
100
AcDbEntity
  8
0
100
AcDbLine
 62
7
  6
CONTINUOUS
 10
14.5487357174
 20
5.8176998745
 11
14.4642357174
 21
6.0176998745
  0
LINE
  5
261
100
AcDbEntity
  8
0
100
AcDbLine
 62
7
  6
CONTINUOUS
 10
13.7957357174
 20
1.0976998745
 11
13.7957357174
 21
4.7469022398
  0
LINE
  5
262
100
AcDbEntity
  8
0
100
AcDbLine
 62
7
  6
CONTINUOUS
 10
13.7957357174
 20
5.7284975091
 11
13.7957357174
 21
7.3176998745
  0
LINE
  5
263
100
AcDbEntity
  8
0
100
AcDbLine
 62
7
  6
CONTINUOUS
 10
13.8057357174
 20
7.8176998745
 11
13.8057357174
 21
7.8676998745
  0
LINE
  5
264
100
AcDbEntity
  8
0
100
AcDbLine
 62
7
  6
CONTINUOUS
 10
13.6857357174
 20
7.4076998745
 11
13.7090799088
 21
7.4476998745
  0
LINE
  5
265
100
AcDbEntity
  8
0
100
AcDbLine
 62
7
  6
CONTINUOUS
 10
14.5657357176
 20
8.7776998747
 11
14.5457357176
 21
8.7576998747
  0
LINE
  5
266
100
AcDbEntity
  8
0
100
AcDbLine
 62
7
  6
CONTINUOUS
 10
7.3651603012
 20
12.805298972
 11
7.2668828802
 21
12.8221553264
  0
LINE
  5
267
100
AcDbEntity
  8
0
100
AcDbLine
 62
7
  6
CONTINUOUS
 10
14.9257357171
 20
8.7776998747
 11
14.9457357171
 21
8.7576998747
  0
LINE
  5
268
100
AcDbEntity
  8
0
100
AcDbLine
 62
7
  6
CONTINUOUS
 10
14.1757357174
 20
7.9126998745
 11
14.1757357174
 21
12.8836998745
  0
LINE
  5
269
100
AcDbEntity
  8
0
100
AcDbLine
 62
7
  6
CONTINUOUS
 10
14.4642357174
 20
6.0176998745
 11
14.4642357174
 21
6.1226998745
  0
LINE
  5
26A
100
AcDbEntity
  8
0
100
AcDbLine
 62
7
  6
CONTINUOUS
 10
14.5457357174
 20
8.6976998745
 11
14.5457357174
 21
8.7576998745
  0
LINE
  5
26B
100
AcDbEntity
  8
0
100
AcDbLine
 62
7
  6
CONTINUOUS
 10
14.5487357174
 20
5.7576998745
 11
14.5487357174
 21
5.8176998745
  0
LINE
  5
26C
100
AcDbEntity
  8
0
100
AcDbLine
 62
7
  6
CONTINUOUS
 10
14.5497357174
 20
4.7176998745
 11
14.5497357174
 21
4.7035101287
  0
LINE
  5
26D
100
AcDbEntity
  8
0
100
AcDbLine
 62
9
  6
CONTINUOUS
 10
7.4475260866
 20
12.5846465658
 11
7.4554000165
 21
12.5846833193
  0
LINE
  5
26E
100
AcDbEntity
  8
0
100
AcDbLine
 62
9
  6
CONTINUOUS
 10
14.1757357174
 20
12.8836998745
 11
15.3157357174
 21
12.8836998745
  0
LINE
  5
26F
100
AcDbEntity
  8
0
100
AcDbLine
 62
9
  6
CONTINUOUS
 10
5.9345045672
 20
13.2982084285
 11
7.2383080794
 21
13.0985652431
  0
LINE
  5
270
100
AcDbEntity
  8
0
100
AcDbLine
 62
9
  6
CONTINUOUS
 10
5.9489223346
 20
13.3823141364
 11
7.2497179871
 21
13.1831315254
  0
LINE
  5
271
100
AcDbEntity
  8
0
100
AcDbLine
 62
7
  6
CONTINUOUS
 10
6.1063706779
 20
13.5386030039
 11
7.1462503556
 21
13.379372806
  0
LINE
  5
272
100
AcDbEntity
  8
0
100
AcDbLine
 62
7
  6
CONTINUOUS
 10
7.1935274096
 20
13.3974249573
 11
6.0666615992
 21
13.5699747916
  0
LINE
  5
273
100
AcDbEntity
  8
0
100
AcDbLine
 62
7
  6
CONTINUOUS
 10
15.8057357174
 20
7.4076998745
 11
15.7823915259
 21
7.4476998745
  0
LINE
  5
274
100
AcDbEntity
  8
0
100
AcDbLine
 62
7
  6
CONTINUOUS
 10
14.9417357174
 20
4.7176998745
 11
14.9417357174
 21
4.7035101287
  0
LINE
  5
275
100
AcDbEntity
  8
0
100
AcDbLine
 62
7
  6
CONTINUOUS
 10
14.9427357174
 20
5.7576998745
 11
14.9427357174
 21
5.8176998745
  0
LINE
  5
276
100
AcDbEntity
  8
0
100
AcDbLine
 62
7
  6
CONTINUOUS
 10
14.9457357174
 20
8.6976998745
 11
14.9457357174
 21
8.7576998745
  0
LINE
  5
277
100
AcDbEntity
  8
0
100
AcDbLine
 62
7
  6
CONTINUOUS
 10
15.0272357174
 20
6.0176998745
 11
15.0272357174
 21
6.1226998745
  0
LINE
  5
278
100
AcDbEntity
  8
0
100
AcDbLine
 62
7
  6
CONTINUOUS
 10
15.3157357174
 20
7.9126998745
 11
15.3157357174
 21
12.8836998745
  0
LINE
  5
279
100
AcDbEntity
  8
0
100
AcDbLine
 62
7
  6
CONTINUOUS
 10
15.7457357174
 20
7.3476998745
 11
15.8057357174
 21
7.4076998745
  0
LINE
  5
27A
100
AcDbEntity
  8
0
100
AcDbLine
 62
7
  6
CONTINUOUS
 10
15.6857357174
 20
7.8176998745
 11
15.6857357174
 21
7.8676998745
  0
LINE
  5
27B
100
AcDbEntity
  8
0
100
AcDbLine
 62
7
  6
CONTINUOUS
 10
15.6957357174
 20
1.0976998745
 11
15.6957357174
 21
4.7469022398
  0
LINE
  5
27C
100
AcDbEntity
  8
0
100
AcDbLine
 62
7
  6
CONTINUOUS
 10
15.6957357174
 20
5.7284975091
 11
15.6957357174
 21
7.3176998745
  0
LINE
  5
27D
100
AcDbEntity
  8
0
100
AcDbLine
 62
7
  6
CONTINUOUS
 10
14.9427357174
 20
5.8176998745
 11
15.0272357174
 21
6.0176998745
  0
LINE
  5
27E
100
AcDbEntity
  8
0
100
AcDbLine
 62
7
  6
CONTINUOUS
 10
14.57499836
 20
4.3799042021
 11
14.5406989966
 21
4.3307381321
  0
ARC
  5
27F
100
AcDbEntity
  8
0
100
AcDbCircle
 62
7
  6
CONTINUOUS
 10
1.8805693064
 20
-18.5465638854
 40
31.7750951415
100
AcDbArc
 50
80.077975917
 51
80.2533447798
  0
ARC
  5
280
100
AcDbEntity
  8
0
100
AcDbCircle
 62
7
  6
CONTINUOUS
 10
2.4754338189
 20
6.6409942304
 40
12.0
100
AcDbArc
 50
357.5245566829
 51
7.5741286837
  0
ARC
  5
281
100
AcDbEntity
  8
0
100
AcDbCircle
 62
7
  6
CONTINUOUS
 10
5.3617728984
 20
11.1983422984
 40
0.12
100
AcDbArc
 50
312.3984086581
 51
3.3146642477
  0
ARC
  5
282
100
AcDbEntity
  8
0
100
AcDbCircle
 62
7
  6
CONTINUOUS
 10
3.3030863213
 20
12.3816065873
 40
4.0
100
AcDbArc
 50
6.2933190777
 51
10.3254755223
  0
ARC
  5
283
100
AcDbEntity
  8
0
100
AcDbCircle
 62
7
  6
CONTINUOUS
 10
3.3030863213
 20
12.3816065873
 40
4.0
100
AcDbArc
 50
339.2738957372
 51
349.4707849838
  0
ARC
  5
284
100
AcDbEntity
  8
0
100
AcDbCircle
 62
7
  6
CONTINUOUS
 10
5.5357376228
 20
11.0078159887
 40
0.138
100
AcDbArc
 50
132.3984086581
 51
261.2942799924
  0
ARC
  5
285
100
AcDbEntity
  8
0
100
AcDbCircle
 62
7
  6
CONTINUOUS
 10
6.9334466192
 20
10.7937936504
 40
0.138
100
AcDbArc
 50
261.2942799924
 51
30.1901513268
  0
ARC
  5
286
100
AcDbEntity
  8
0
100
AcDbCircle
 62
7
  6
CONTINUOUS
 10
7.1564518228
 20
10.9235344658
 40
0.12
100
AcDbArc
 50
159.2738957372
 51
210.1901513268
  0
ARC
  5
287
100
AcDbEntity
  8
0
100
AcDbCircle
 62
7
  6
CONTINUOUS
 10
7.3529926279
 20
11.7506638672
 40
0.0984251969
100
AcDbArc
 50
270.7674395812
 51
0.2674395874
  0
ARC
  5
288
100
AcDbEntity
  8
0
100
AcDbCircle
 62
7
  6
CONTINUOUS
 10
6.3222531755
 20
10.7188416228
 40
0.0118110236
100
AcDbArc
 50
261.2942799924
 51
346.2942799924
  0
ARC
  5
289
100
AcDbEntity
  8
0
100
AcDbCircle
 62
7
  6
CONTINUOUS
 10
6.2424665425
 20
10.7310588453
 40
0.0118110236
100
AcDbArc
 50
176.2942799925
 51
261.2942799924
  0
ARC
  5
28A
100
AcDbEntity
  8
0
100
AcDbCircle
 62
7
  6
CONTINUOUS
 10
6.4594182147
 20
10.6978384079
 40
0.0118110236
100
AcDbArc
 50
261.2942799924
 51
346.2942799924
  0
ARC
  5
28B
100
AcDbEntity
  8
0
100
AcDbCircle
 62
7
  6
CONTINUOUS
 10
6.3796315818
 20
10.7100556304
 40
0.0118110236
100
AcDbArc
 50
176.2942799925
 51
261.2942799924
  0
ARC
  5
28C
100
AcDbEntity
  8
0
100
AcDbCircle
 62
7
  6
CONTINUOUS
 10
6.5712361792
 20
10.6807164302
 40
0.0118110236
100
AcDbArc
 50
261.2942799924
 51
346.2942799925
  0
ARC
  5
28D
100
AcDbEntity
  8
0
100
AcDbCircle
 62
7
  6
CONTINUOUS
 10
6.4914495462
 20
10.6929336527
 40
0.0118110236
100
AcDbArc
 50
176.2942799925
 51
261.2942799924
  0
ARC
  5
28E
100
AcDbEntity
  8
0
100
AcDbCircle
 62
7
  6
CONTINUOUS
 10
6.6442201722
 20
10.669540853
 40
0.0118110236
100
AcDbArc
 50
261.2942799924
 51
346.2942799925
  0
ARC
  5
28F
100
AcDbEntity
  8
0
100
AcDbCircle
 62
7
  6
CONTINUOUS
 10
5.7745315599
 20
10.8027107696
 40
0.0118110236
100
AcDbArc
 50
176.2942799925
 51
261.2942799924
  0
ARC
  5
290
100
AcDbEntity
  8
0
100
AcDbCircle
 62
7
  6
CONTINUOUS
 10
5.8475155529
 20
10.7915351923
 40
0.0118110236
100
AcDbArc
 50
176.2942799925
 51
261.2942799925
  0
ARC
  5
291
100
AcDbEntity
  8
0
100
AcDbCircle
 62
7
  6
CONTINUOUS
 10
5.9273021859
 20
10.7793179699
 40
0.0118110236
100
AcDbArc
 50
261.2942799924
 51
346.2942799925
  0
ARC
  5
292
100
AcDbEntity
  8
0
100
AcDbCircle
 62
7
  6
CONTINUOUS
 10
5.9593335174
 20
10.7744132147
 40
0.0118110236
100
AcDbArc
 50
176.2942799925
 51
261.2942799925
  0
ARC
  5
293
100
AcDbEntity
  8
0
100
AcDbCircle
 62
7
  6
CONTINUOUS
 10
6.0391201503
 20
10.7621959922
 40
0.0118110236
100
AcDbArc
 50
261.2942799924
 51
346.2942799924
  0
ARC
  5
294
100
AcDbEntity
  8
0
100
AcDbCircle
 62
7
  6
CONTINUOUS
 10
6.0964985566
 20
10.7534099997
 40
0.0118110236
100
AcDbArc
 50
176.2942799925
 51
261.2942799924
  0
ARC
  5
295
100
AcDbEntity
  8
0
100
AcDbCircle
 62
7
  6
CONTINUOUS
 10
6.1762851896
 20
10.7411927773
 40
0.0118110236
100
AcDbArc
 50
261.2942799924
 51
346.2942799924
  0
ARC
  5
296
100
AcDbEntity
  8
0
100
AcDbCircle
 62
7
  6
CONTINUOUS
 10
5.7491844852
 20
10.8065920068
 40
0.0118110236
100
AcDbArc
 50
176.2942799969
 51
261.2942799924
  0
ARC
  5
297
100
AcDbEntity
  8
0
100
AcDbCircle
 62
7
  6
CONTINUOUS
 10
6.6695672469
 20
10.6656596158
 40
0.0118110236
100
AcDbArc
 50
261.2942799924
 51
346.294279988
  0
ARC
  5
298
100
AcDbEntity
  8
0
100
AcDbCircle
 62
7
  6
CONTINUOUS
 10
7.4466790302
 20
11.9226565002
 40
0.0118110236
100
AcDbArc
 50
0.2673196891
 51
45.2673168822
  0
ARC
  5
299
100
AcDbEntity
  8
0
100
AcDbCircle
 62
7
  6
CONTINUOUS
 10
7.4471111533
 20
11.8300798763
 40
0.0118110236
100
AcDbArc
 50
315.2675622925
 51
0.2675594856
  0
ARC
  5
29A
100
AcDbEntity
  8
0
100
AcDbCircle
 62
7
  6
CONTINUOUS
 10
7.1253627441
 20
13.2429627342
 40
0.138
100
AcDbArc
 50
334.3063330473
 51
81.2942799924
  0
ARC
  5
29B
100
AcDbEntity
  8
0
100
AcDbCircle
 62
7
  6
CONTINUOUS
 10
6.0854830664
 20
13.4021929321
 40
0.138
100
AcDbArc
 50
81.2942799924
 51
188.2822269376
  0
ARC
  5
29C
100
AcDbEntity
  8
0
100
AcDbCircle
 62
7
  6
CONTINUOUS
 10
5.8123616027
 20
13.3624353406
 40
0.138
100
AcDbArc
 50
332.2630844626
 51
8.2822269376
  0
ARC
  5
29D
100
AcDbEntity
  8
0
100
AcDbCircle
 62
7
  6
CONTINUOUS
 10
7.3740732301
 20
13.1233003167
 40
0.138
100
AcDbArc
 50
154.3063330473
 51
190.3254755223
  0
ARC
  5
29E
100
AcDbEntity
  8
0
100
AcDbCircle
 62
7
  6
CONTINUOUS
 10
7.3485226819
 20
12.7082901631
 40
0.0984251969
100
AcDbArc
 50
0.2674395874
 51
80.2680966397
  0
ARC
  5
29F
100
AcDbEntity
  8
0
100
AcDbCircle
 62
7
  6
CONTINUOUS
 10
7.4078315793
 20
12.6540591647
 40
0.0472440945
100
AcDbArc
 50
326.7101298255
 51
33.8247493493
  0
ARC
  5
2A0
100
AcDbEntity
  8
0
100
AcDbCircle
 62
7
  6
CONTINUOUS
 10
7.4084812941
 20
12.5148664328
 40
0.0472440945
100
AcDbArc
 50
326.7101298255
 51
33.8247493493
  0
ARC
  5
2A1
100
AcDbEntity
  8
0
100
AcDbCircle
 62
7
  6
CONTINUOUS
 10
7.4081564367
 20
12.5844627987
 40
0.0472440945
100
AcDbArc
 50
326.7101298255
 51
33.8247493493
  0
ARC
  5
2A2
100
AcDbEntity
  8
0
100
AcDbCircle
 62
7
  6
CONTINUOUS
 10
7.407697019
 20
12.6828869234
 40
0.0472440945
100
AcDbArc
 50
342.4758366954
 51
33.8268821135
  0
ARC
  5
2A3
100
AcDbEntity
  8
0
100
AcDbCircle
 62
7
  6
CONTINUOUS
 10
7.4086158545
 20
12.4860386741
 40
0.0472440945
100
AcDbArc
 50
326.7101298255
 51
18.0590424795
  0
ARC
  5
2A4
100
AcDbEntity
  8
0
100
AcDbCircle
 62
7
  6
CONTINUOUS
 10
14.0229405007
 20
0.8499302333
 40
0.35
100
AcDbArc
 50
134.9346148905
 51
189.3621759922
  0
ARC
  5
2A5
100
AcDbEntity
  8
0
100
AcDbCircle
 62
7
  6
CONTINUOUS
 10
13.7582357174
 20
0.4876998745
 40
0.29
100
AcDbArc
 50
110.150042552
 51
180.0
  0
ARC
  5
2A6
100
AcDbEntity
  8
0
100
AcDbCircle
 62
7
  6
CONTINUOUS
 10
14.4187357174
 20
4.5591321526
 40
0.186
100
AcDbArc
 50
316.6958241996
 51
41.7081302521
  0
ARC
  5
2A7
100
AcDbEntity
  8
0
100
AcDbCircle
 62
7
  6
CONTINUOUS
 10
13.6480021893
 20
0.788113871
 40
0.03
100
AcDbArc
 50
290.150042552
 51
9.3621759922
  0
ARC
  5
2A8
100
AcDbEntity
  8
0
100
AcDbCircle
 62
7
  6
CONTINUOUS
 10
9.4748803486
 20
11.4365588035
 40
4.0
100
AcDbArc
 50
152.2630844626
 51
183.3146642477
  0
ARC
  5
2A9
100
AcDbEntity
  8
0
100
AcDbCircle
 62
7
  6
CONTINUOUS
 10
13.9132357174
 20
7.5919926526
 40
0.25
100
AcDbArc
 50
115.4675601425
 51
215.2518187511
  0
ARC
  5
2AA
100
AcDbEntity
  8
0
100
AcDbCircle
 62
7
  6
CONTINUOUS
 10
13.8357357174
 20
7.8676998745
 40
0.03
100
AcDbArc
 50
90.0
 51
180.0
  0
ARC
  5
2AB
100
AcDbEntity
  8
0
100
AcDbCircle
 62
7
  6
CONTINUOUS
 10
13.8257357174
 20
7.3176998745
 40
0.03
100
AcDbArc
 50
90.0
 51
180.0
  0
ARC
  5
2AC
100
AcDbEntity
  8
0
100
AcDbCircle
 62
7
  6
CONTINUOUS
 10
15.468530934
 20
0.8499302333
 40
0.35
100
AcDbArc
 50
350.6378240078
 51
45.0653851095
  0
ARC
  5
2AD
100
AcDbEntity
  8
0
100
AcDbCircle
 62
7
  6
CONTINUOUS
 10
15.7332357174
 20
0.4876998745
 40
0.29
100
AcDbArc
 50
0.0
 51
69.849957448
  0
ARC
  5
2AE
100
AcDbEntity
  8
0
100
AcDbCircle
 62
7
  6
CONTINUOUS
 10
14.7457357174
 20
4.1876998745
 40
0.25
100
AcDbArc
 50
145.0995
 51
34.9005
  0
ARC
  5
2AF
100
AcDbEntity
  8
0
100
AcDbCircle
 62
7
  6
CONTINUOUS
 10
15.8434692454
 20
0.788113871
 40
0.03
100
AcDbArc
 50
170.6378240078
 51
249.849957448
  0
ARC
  5
2B0
100
AcDbEntity
  8
0
100
AcDbCircle
 62
7
  6
CONTINUOUS
 10
14.5618760099
 20
4.3890586506
 40
0.016
100
AcDbArc
 50
325.0995
 51
76.0407512246
  0
ARC
  5
2B1
100
AcDbEntity
  8
0
100
AcDbCircle
 62
7
  6
CONTINUOUS
 10
14.9295954249
 20
4.3890586506
 40
0.016
100
AcDbArc
 50
103.9592487754
 51
214.9005
  0
ARC
  5
2B2
100
AcDbEntity
  8
0
100
AcDbCircle
 62
7
  6
CONTINUOUS
 10
14.5657357174
 20
4.4205861313
 40
0.016
100
AcDbArc
 50
136.6958241996
 51
270.0
  0
ARC
  5
2B3
100
AcDbEntity
  8
0
100
AcDbCircle
 62
7
  6
CONTINUOUS
 10
14.9257357174
 20
4.4205861313
 40
0.016
100
AcDbArc
 50
270.0
 51
43.3041758004
  0
ARC
  5
2B4
100
AcDbEntity
  8
0
100
AcDbCircle
 62
7
  6
CONTINUOUS
 10
14.7457357174
 20
5.2376998745
 40
1.0695
100
AcDbArc
 50
105.0130863271
 51
256.4979675287
  0
ARC
  5
2B5
100
AcDbEntity
  8
0
100
AcDbCircle
 62
7
  6
CONTINUOUS
 10
14.7457357174
 20
5.2376998745
 40
1.0695
100
AcDbArc
 50
283.5020324713
 51
74.9869136729
  0
ARC
  5
2B6
100
AcDbEntity
  8
0
100
AcDbCircle
 62
9
  6
CONTINUOUS
 10
14.7457357174
 20
5.2376998745
 40
1.0084285714
100
AcDbArc
 50
283.7537139149
 51
73.9431794371
  0
ARC
  5
2B7
100
AcDbEntity
  8
0
100
AcDbCircle
 62
9
  6
CONTINUOUS
 10
14.7457357174
 20
5.2376998745
 40
1.0084285714
100
AcDbArc
 50
106.0568205628
 51
256.2462860851
  0
ARC
  5
2B8
100
AcDbEntity
  8
0
100
AcDbCircle
 62
9
  6
CONTINUOUS
 10
14.7457357174
 20
5.2376998745
 40
0.9745340116
100
AcDbArc
 50
283.517739048
 51
73.2968664692
  0
ARC
  5
2B9
100
AcDbEntity
  8
0
100
AcDbCircle
 62
9
  6
CONTINUOUS
 10
14.7457357174
 20
5.2376998745
 40
0.9745340116
100
AcDbArc
 50
106.7031335306
 51
256.4822609516
  0
ARC
  5
2BA
100
AcDbEntity
  8
0
100
AcDbCircle
 62
9
  6
CONTINUOUS
 10
14.7457357174
 20
5.2376998745
 40
0.9363632731
100
AcDbArc
 50
282.8810735664
 51
72.5129990213
  0
ARC
  5
2BB
100
AcDbEntity
  8
0
100
AcDbCircle
 62
9
  6
CONTINUOUS
 10
14.7457357174
 20
5.2376998745
 40
0.9363632731
100
AcDbArc
 50
107.4870009783
 51
257.1189264337
  0
ARC
  5
2BC
100
AcDbEntity
  8
0
100
AcDbCircle
 62
9
  6
CONTINUOUS
 10
14.7457357174
 20
5.2376998745
 40
0.6147684307
100
AcDbArc
 50
2.0518809893
 51
71.2376308883
  0
ARC
  5
2BD
100
AcDbEntity
  8
0
100
AcDbCircle
 62
9
  6
CONTINUOUS
 10
14.7457357174
 20
5.2376998745
 40
0.6147684307
100
AcDbArc
 50
108.7623691119
 51
177.9481190107
  0
ARC
  5
2BE
100
AcDbEntity
  8
0
100
AcDbCircle
 62
9
  6
CONTINUOUS
 10
14.7457357174
 20
5.2376998745
 40
0.5964785126
100
AcDbArc
 50
2.0518809893
 51
70.7067857416
  0
ARC
  5
2BF
100
AcDbEntity
  8
0
100
AcDbCircle
 62
9
  6
CONTINUOUS
 10
14.7457357174
 20
5.2376998745
 40
0.5964785126
100
AcDbArc
 50
109.2932142584
 51
177.9481190107
  0
CIRCLE
  5
2C0
100
AcDbEntity
  8
0
100
AcDbCircle
 62
7
  6
CONTINUOUS
 10
14.7457357174
 20
5.2376998745
 40
0.555
  0
CIRCLE
  5
2C1
100
AcDbEntity
  8
0
100
AcDbCircle
 62
7
  6
CONTINUOUS
 10
14.7457357174
 20
5.2376998745
 40
0.524
  0
CIRCLE
  5
2C2
100
AcDbEntity
  8
0
100
AcDbCircle
 62
7
  6
CONTINUOUS
 10
14.7457357174
 20
5.2376998745
 40
0.5097341523
  0
CIRCLE
  5
2C3
100
AcDbEntity
  8
0
100
AcDbCircle
 62
7
  6
CONTINUOUS
 10
14.7457357174
 20
5.2376998745
 40
0.45
  0
CIRCLE
  5
2C4
100
AcDbEntity
  8
0
100
AcDbCircle
 62
7
  6
CONTINUOUS
 10
14.7457357174
 20
5.2376998745
 40
0.43
  0
CIRCLE
  5
2C5
100
AcDbEntity
  8
0
100
AcDbCircle
 62
9
  6
CONTINUOUS
 10
14.7457357174
 20
5.2376998745
 40
0.3823875625
  0
ARC
  5
2C6
100
AcDbEntity
  8
0
100
AcDbCircle
 62
9
  6
CONTINUOUS
 10
14.7343029832
 20
4.8971348526
 40
0.3688175924
100
AcDbArc
 50
329.6907746382
 51
345.2397590749
  0
ARC
  5
2C7
100
AcDbEntity
  8
0
100
AcDbCircle
 62
9
  6
CONTINUOUS
 10
14.7571678569
 20
4.8971346592
 40
0.3688169756
100
AcDbArc
 50
194.7603343417
 51
210.3092460305
  0
ARC
  5
2C8
100
AcDbEntity
  8
0
100
AcDbCircle
 62
7
  6
CONTINUOUS
 10
14.7457357174
 20
4.9051998745
 40
0.3375
100
AcDbArc
 50
295.6014962846
 51
338.1525436239
  0
ARC
  5
2C9
100
AcDbEntity
  8
0
100
AcDbCircle
 62
7
  6
CONTINUOUS
 10
14.7457357174
 20
4.9051998745
 40
0.3375
100
AcDbArc
 50
201.8472699036
 51
244.3983194724
  0
ARC
  5
2CA
100
AcDbEntity
  8
0
100
AcDbCircle
 62
7
  6
CONTINUOUS
 10
15.0727357174
 20
4.5591321526
 40
0.186
100
AcDbArc
 50
138.2918697479
 51
223.3041758004
  0
ARC
  5
2CB
100
AcDbEntity
  8
0
100
AcDbCircle
 62
7
  6
CONTINUOUS
 10
14.5807357174
 20
4.7035101287
 40
0.031
100
AcDbArc
 50
180.0
 51
221.7081302521
  0
ARC
  5
2CC
100
AcDbEntity
  8
0
100
AcDbCircle
 62
7
  6
CONTINUOUS
 10
14.9107357174
 20
4.7035101287
 40
0.031
100
AcDbArc
 50
318.2918697479
 51
360.0
  0
ARC
  5
2CD
100
AcDbEntity
  8
0
100
AcDbCircle
 62
7
  6
CONTINUOUS
 10
14.5827576007
 20
8.2942342526
 40
0.5427132035
100
AcDbArc
 50
352.4258713163
 51
48.0238475461
  0
ARC
  5
2CE
100
AcDbEntity
  8
0
100
AcDbCircle
 62
7
  6
CONTINUOUS
 10
14.908713834
 20
8.2942342526
 40
0.5427132035
100
AcDbArc
 50
131.9761524539
 51
187.5741286837
  0
ARC
  5
2CF
100
AcDbEntity
  8
0
100
AcDbCircle
 62
7
  6
CONTINUOUS
 10
14.7457357174
 20
8.6201998745
 40
0.2175
100
AcDbArc
 50
46.3971810273
 51
133.6028189727
  0
ARC
  5
2D0
100
AcDbEntity
  8
0
100
AcDbCircle
 62
7
  6
CONTINUOUS
 10
15.5782357174
 20
7.5919926526
 40
0.25
100
AcDbArc
 50
324.7481812489
 51
64.5324398575
  0
ARC
  5
2D1
100
AcDbEntity
  8
0
100
AcDbCircle
 62
7
  6
CONTINUOUS
 10
15.6557357174
 20
7.8676998745
 40
0.03
100
AcDbArc
 50
0.0
 51
90.0
  0
ARC
  5
2D2
100
AcDbEntity
  8
0
100
AcDbCircle
 62
7
  6
CONTINUOUS
 10
15.6657357174
 20
7.3176998745
 40
0.03
100
AcDbArc
 50
0.0
 51
90.0
  0
ARC
  5
2D3
100
AcDbEntity
  8
0
100
AcDbCircle
 62
7
  6
CONTINUOUS
 10
27.0160376158
 20
6.6409942304
 40
12.0
100
AcDbArc
 50
172.4258713163
 51
182.4754433171
  0
SPLINE
  5
2D4
100
AcDbEntity
  8
0
100
AcDbSpline
 62
7
  6
CONTINUOUS
 70
0
 71
3
 72
135
 73
131
 74
0
 42
0.0000001
 43
0.0000001
 44
0.0000000001
 40
0.0
 40
0.0
 40
0.0
 40
0.0
 40
0.0165792515
 40
0.0247911204
 40
0.0329471046
 40
0.0410446961
 40
0.0490817531
 40
0.064967347
 40
0.0728155097
 40
0.080600357
 40
0.0883224899
 40
0.0959829936
 40
0.1035836143
 40
0.1111351322
 40
0.1186617727
 40
0.1261891036
 40
0.1337410706
 40
0.1413245853
 40
0.1489368185
 40
0.1565746572
 40
0.1642348391
 40
0.1719139804
 40
0.1796086019
 40
0.187315179
 40
0.1950308849
 40
0.2027536878
 40
0.2182110374
 40
0.233671306
 40
0.2413976416
 40
0.2491180985
 40
0.2568306709
 40
0.2645352038
 40
0.279922733
 40
0.2952861095
 40
0.3029550197
 40
0.3106115428
 40
0.3182579006
 40
0.3259025164
 40
0.3335542907
 40
0.3412218587
 40
0.3489107773
 40
0.3566246866
 40
0.3643669953
 40
0.3721409021
 40
0.3877933772
 40
0.4035900714
 40
0.4195231612
 40
0.4275380686
 40
0.435582887
 40
0.451754395
 40
0.4680232173
 40
0.4843721415
 40
0.5007819907
 40
0.517230457
 40
0.5254619471
 40
0.5336938173
 40
0.5419227928
 40
0.5501453904
 40
0.5583560757
 40
0.5665478178
 40
0.5747136198
 40
0.5828465747
 40
0.5909398839
 40
0.5989868772
 40
0.6069810348
 40
0.6149179553
 40
0.622799726
 40
0.6306299813
 40
0.6461509829
 40
0.6538515808
 40
0.6615183105
 40
0.6691563829
 40
0.6767684555
 40
0.6843427279
 40
0.6918631052
 40
0.6993158322
 40
0.7067011038
 40
0.7140257966
 40
0.7176678805
 40
0.7212986067
 40
0.7249260187
 40
0.7285606801
 40
0.7322126936
 40
0.7358851017
 40
0.7432800116
 40
0.7507249789
 40
0.7582070951
 40
0.7657151211
 40
0.7732377365
 40
0.7807660056
 40
0.7882943813
 40
0.7958175258
 40
0.8033332945
 40
0.8108544162
 40
0.8183978233
 40
0.8221832118
 40
0.8259804065
 40
0.8336153422
 40
0.8413100901
 40
0.8490706943
 40
0.8569014679
 40
0.8608385911
 40
0.864783698
 40
0.8687316877
 40
0.8726735094
 40
0.8765920327
 40
0.8804691981
 40
0.8842870427
 40
0.888034186
 40
0.8917214185
 40
0.8953643713
 40
0.8989793766
 40
0.9025864724
 40
0.9062071161
 40
0.9098625182
 40
0.9135649594
 40
0.9173138521
 40
0.9249440274
 40
0.9288218545
 40
0.9327389216
 40
0.9366932452
 40
0.9406832096
 40
0.9447083759
 40
0.9487684555
 40
0.9569918048
 40
0.9653497631
 40
0.9738375369
 40
0.9824476608
 40
0.9911714919
 40
1.0
 40
1.0
 40
1.0
 40
1.0
 10
14.1757357174
 20
12.8836998745
 30
0.0
 10
14.1757357174
 20
12.9428840526
 30
0.0
 10
14.1745153148
 20
13.0313914084
 30
0.0
 10
14.1701326261
 20
13.1489272993
 30
0.0
 10
14.1654350374
 20
13.2361413096
 30
0.0
 10
14.1592562875
 20
13.3226380693
 30
0.0
 10
14.149003667
 20
13.4364868981
 30
0.0
 10
14.1355300193
 20
13.5491370155
 30
0.0
 10
14.1185508663
 20
13.6603703091
 30
0.0
 10
14.1041127276
 20
13.7424910553
 30
0.0
 10
14.0878705565
 20
13.8235912401
 30
0.0
 10
14.0697750889
 20
13.9036248373
 30
0.0
 10
14.0497669578
 20
13.9825744072
 30
0.0
 10
14.0277727037
 20
14.0604980199
 30
0.0
 10
14.0037248329
 20
14.1375387995
 30
0.0
 10
13.9775438
 20
14.2138829306
 30
0.0
 10
13.949172226
 20
14.2896570915
 30
0.0
 10
13.9186150609
 20
14.364903445
 30
0.0
 10
13.8859112313
 20
14.439576454
 30
0.0
 10
13.851109828
 20
14.5135975573
 30
0.0
 10
13.8142605882
 20
14.5868880517
 30
0.0
 10
13.7754130352
 20
14.6593691094
 30
0.0
 10
13.7346169364
 20
14.7309622069
 30
0.0
 10
13.691919641
 20
14.8015903118
 30
0.0
 10
13.6473696222
 20
14.8711845723
 30
0.0
 10
13.5855556155
 20
14.9625375976
 30
0.0
 10
13.5039335617
 20
15.0738112887
 30
0.0
 10
13.4168143119
 20
15.1808511416
 30
0.0
 10
13.343987129
 20
15.2637446211
 30
0.0
 10
13.2878688221
 20
15.3244666975
 30
0.0
 10
13.2302887311
 20
15.3836960302
 30
0.0
 10
13.1516584987
 20
15.4605847558
 30
0.0
 10
13.0498854384
 20
15.5528046725
 30
0.0
 10
12.9436524605
 20
15.6396498728
 30
0.0
 10
12.8562315829
 20
15.7056911555
 30
0.0
 10
12.7895439422
 20
15.7534298644
 30
0.0
 10
12.7217155177
 20
15.799378236
 30
0.0
 10
12.6527275696
 20
15.8435355402
 30
0.0
 10
12.5825451297
 20
15.88591532
 30
0.0
 10
12.511140644
 20
15.9265227811
 30
0.0
 10
12.4385157432
 20
15.9653768214
 30
0.0
 10
12.3646903988
 20
16.0024953698
 30
0.0
 10
12.289688149
 20
16.0378915512
 30
0.0
 10
12.1879255629
 20
16.0829064884
 30
0.0
 10
12.0578641718
 20
16.134915383
 30
0.0
 10
11.8980312228
 20
16.1904281564
 30
0.0
 10
11.76202118
 20
16.2309876187
 30
0.0
 10
11.6515753173
 20
16.2600844515
 30
0.0
 10
11.5397096192
 20
16.2870324225
 30
0.0
 10
11.3981721688
 20
16.3164738642
 30
0.0
 10
11.2263185693
 20
16.345038187
 30
0.0
 10
11.0526308536
 20
16.3669318755
 30
0.0
 10
10.877595184
 20
16.3821922183
 30
0.0
 10
10.7310594896
 20
16.389486806
 30
0.0
 10
10.61359642
 20
16.3921342302
 30
0.0
 10
10.5254463515
 20
16.3925385799
 30
0.0
 10
10.4373351887
 20
16.3913759042
 30
0.0
 10
10.3493337162
 20
16.3886642162
 30
0.0
 10
10.2615264962
 20
16.3844068006
 30
0.0
 10
10.1740114103
 20
16.3785967592
 30
0.0
 10
10.0868919767
 20
16.3712296525
 30
0.0
 10
10.0002718568
 20
16.3623004266
 30
0.0
 10
9.9142546906
 20
16.3518042176
 30
0.0
 10
9.8289441418
 20
16.3397360087
 30
0.0
 10
9.7444368707
 20
16.326090075
 30
0.0
 10
9.6608011892
 20
16.310853335
 30
0.0
 10
9.5780738955
 20
16.2939911201
 30
0.0
 10
9.4693259933
 20
16.2693665121
 30
0.0
 10
9.3620479019
 20
16.2412739858
 30
0.0
 10
9.2564396951
 20
16.2095406177
 30
0.0
 10
9.1783830485
 20
16.1839871245
 30
0.0
 10
9.1012916818
 20
16.1565844668
 30
0.0
 10
9.0252393229
 20
16.1273232478
 30
0.0
 10
8.9503775345
 20
16.0962156058
 30
0.0
 10
8.8769188373
 20
16.0632912937
 30
0.0
 10
8.8050445668
 20
16.0285598602
 30
0.0
 10
8.7348654998
 20
15.9920069915
 30
0.0
 10
8.6777251201
 20
15.9599370934
 30
0.0
 10
8.6329159503
 20
15.9333331184
 30
0.0
 10
8.5997883429
 20
15.9129175023
 30
0.0
 10
8.5670254734
 20
15.8919708993
 30
0.0
 10
8.5345468373
 20
15.8704484356
 30
0.0
 10
8.5022861108
 20
15.8483154943
 30
0.0
 10
8.4594282057
 20
15.8179127041
 30
0.0
 10
8.4064149802
 20
15.7784382951
 30
0.0
 10
8.3439289374
 20
15.728972468
 30
0.0
 10
8.2825966762
 20
15.6774527899
 30
0.0
 10
8.2225589501
 20
15.6240128659
 30
0.0
 10
8.1639453143
 20
15.5687743021
 30
0.0
 10
8.1068680684
 20
15.5118468354
 30
0.0
 10
8.0514168403
 20
15.453331861
 30
0.0
 10
7.9976642354
 20
15.3933126395
 30
0.0
 10
7.9456431838
 20
15.3318203653
 30
0.0
 10
7.8953260851
 20
15.2688341367
 30
0.0
 10
7.8547988837
 20
15.2151058847
 30
0.0
 10
7.8231704955
 20
15.171340556
 30
0.0
 10
7.7919486513
 20
15.1268843557
 30
0.0
 10
7.7538258691
 20
15.0702294895
 30
0.0
 10
7.7095560233
 20
15.0006898117
 30
0.0
 10
7.6666213347
 20
14.9295009778
 30
0.0
 10
7.6319991471
 20
14.8689866339
 30
0.0
 10
7.6049366596
 20
14.8198540309
 30
0.0
 10
7.5849512339
 20
14.7826501936
 30
0.0
 10
7.5653387178
 20
14.7452296082
 30
0.0
 10
7.5461480073
 20
14.707697453
 30
0.0
 10
7.5274735113
 20
14.6701879004
 30
0.0
 10
7.5094221543
 20
14.6328654016
 30
0.0
 10
7.492093035
 20
14.5958764592
 30
0.0
 10
7.4755455708
 20
14.5592738864
 30
0.0
 10
7.4597905823
 20
14.5230027424
 30
0.0
 10
7.4447948677
 20
14.4869212166
 30
0.0
 10
7.4305162014
 20
14.4508573468
 30
0.0
 10
7.4168794685
 20
14.4146310256
 30
0.0
 10
7.4037975832
 20
14.378047576
 30
0.0
 10
7.3911926866
 20
14.3409375867
 30
0.0
 10
7.379009116
 20
14.3032058393
 30
0.0
 10
7.3632000622
 20
14.2517401945
 30
0.0
 10
7.3482719364
 20
14.1993548143
 30
0.0
 10
7.3341449095
 20
14.1461329839
 30
0.0
 10
7.3238539625
 20
14.1054720152
 30
0.0
 10
7.3139163522
 20
14.0643115308
 30
0.0
 10
7.3043215255
 20
14.0226737593
 30
0.0
 10
7.2950484438
 20
13.9805765868
 30
0.0
 10
7.28303392
 20
13.9236111462
 30
0.0
 10
7.2687237425
 20
13.8513257577
 30
0.0
 10
7.2525583918
 20
13.7633046897
 30
0.0
 10
7.2371554698
 20
13.6737464275
 30
0.0
 10
7.2223088426
 20
13.5827714108
 30
0.0
 10
7.2078122076
 20
13.4905089539
 30
0.0
 10
7.1982976175
 20
13.4285776351
 30
0.0
 10
7.1935274096
 20
13.3974249573
 30
0.0
  0
SPLINE
  5
2D5
100
AcDbEntity
  8
0
100
AcDbSpline
 62
7
  6
CONTINUOUS
 70
0
 71
3
 72
155
 73
151
 74
0
 42
0.0000001
 43
0.0000001
 44
0.0000000001
 40
0.0
 40
0.0
 40
0.0
 40
0.0
 40
0.0149548508
 40
0.0300513027
 40
0.0376503304
 40
0.045282434
 40
0.0529476546
 40
0.0606463256
 40
0.0683792355
 40
0.0761477962
 40
0.0839540773
 40
0.0918008354
 40
0.0957405346
 40
0.0996915853
 40
0.1036529232
 40
0.1076225636
 40
0.1155786284
 40
0.1195612992
 40
0.1235444069
 40
0.1275260605
 40
0.1315053096
 40
0.1394569902
 40
0.1474009626
 40
0.1553383628
 40
0.1632700893
 40
0.1711968141
 40
0.1791189944
 40
0.1870368882
 40
0.1949507056
 40
0.2028607184
 40
0.2186689519
 40
0.2344642731
 40
0.2502477392
 40
0.2660208447
 40
0.2817884579
 40
0.2896729799
 40
0.2975598842
 40
0.3054517133
 40
0.313351024
 40
0.3212571554
 40
0.3291651875
 40
0.3331183824
 40
0.3370701194
 40
0.341019773
 40
0.3449670274
 40
0.3528543527
 40
0.3607325265
 40
0.3686015252
 40
0.3764610308
 40
0.3921484294
 40
0.4077990828
 40
0.4156137796
 40
0.4234220738
 40
0.4312244562
 40
0.4390212329
 40
0.4468126101
 40
0.4545986611
 40
0.4701536025
 40
0.485684748
 40
0.5011875741
 40
0.5089263222
 40
0.5166548043
 40
0.5243716689
 40
0.5320754459
 40
0.5397645539
 40
0.5436031209
 40
0.54743759
 40
0.5550960155
 40
0.5627440127
 40
0.5703859007
 40
0.5780261455
 40
0.5856693557
 40
0.5933202785
 40
0.6009837936
 40
0.608664075
 40
0.6163628573
 40
0.6240817288
 40
0.6318226947
 40
0.6395881907
 40
0.6473810948
 40
0.6552047385
 40
0.6630629145
 40
0.6709596559
 40
0.6788983842
 40
0.6868828634
 40
0.6949164966
 40
0.6989507606
 40
0.7029953574
 40
0.7070494431
 40
0.7111122423
 40
0.7151830513
 40
0.7192606033
 40
0.7233393458
 40
0.7274118948
 40
0.7314711588
 40
0.7355154619
 40
0.7395474652
 40
0.7435698775
 40
0.7515938676
 40
0.7595975348
 40
0.7675885487
 40
0.7715817299
 40
0.7755744407
 40
0.7835594601
 40
0.7915450009
 40
0.7995320755
 40
0.8075198696
 40
0.8154985868
 40
0.8194806744
 40
0.8234556994
 40
0.827422028
 40
0.8313780431
 40
0.8353228486
 40
0.83925626
 40
0.8470878748
 40
0.8548707812
 40
0.8587430998
 40
0.8626029077
 40
0.8664533603
 40
0.8702981106
 40
0.872219482
 40
0.8741407944
 40
0.8760630334
 40
0.8779877783
 40
0.8818512497
 40
0.8857442599
 40
0.8896799694
 40
0.893666725
 40
0.8976962244
 40
0.8997233723
 40
0.9017568655
 40
0.9037952701
 40
0.9058368909
 40
0.9099222473
 40
0.9139978725
 40
0.9180486786
 40
0.9260511991
 40
0.9339313355
 40
0.9378293736
 40
0.9417011084
 40
0.9455477238
 40
0.9493699717
 40
0.9531675758
 40
0.9569400155
 40
0.9644069242
 40
0.9717653053
 40
0.9790091161
 40
0.9861330974
 40
0.9931319446
 40
1.0
 40
1.0
 40
1.0
 40
1.0
 10
15.3157357174
 20
12.8836998745
 30
0.0
 10
15.3157357174
 20
12.9540748773
 30
0.0
 10
15.3137715843
 20
13.0955003752
 30
0.0
 10
15.305759616
 20
13.2725302791
 30
0.0
 10
15.2955721514
 20
13.4148895161
 30
0.0
 10
15.2859004826
 20
13.5222075227
 30
0.0
 10
15.2741054282
 20
13.6297851515
 30
0.0
 10
15.2600553847
 20
13.7375709426
 30
0.0
 10
15.2436073968
 20
13.8455098105
 30
0.0
 10
15.2246212206
 20
13.9535465552
 30
0.0
 10
15.2029560954
 20
14.0616252223
 30
0.0
 10
15.1825794964
 20
14.1515567636
 30
0.0
 10
15.164808235
 20
14.2234528327
 30
0.0
 10
15.1507052299
 20
14.2774160224
 30
0.0
 10
15.1358437646
 20
14.3313215146
 30
0.0
 10
15.1150095972
 20
14.4031233508
 30
0.0
 10
15.0926984395
 20
14.4745949685
 30
0.0
 10
15.0689166454
 20
14.5456479203
 30
0.0
 10
15.0503410088
 20
14.5987152133
 30
0.0
 10
15.0310358209
 20
14.6515043306
 30
0.0
 10
15.0043385122
 20
14.7214675766
 30
0.0
 10
14.9691850394
 20
14.8081515699
 30
0.0
 10
14.9242092644
 20
14.9109074881
 30
0.0
 10
14.8765208818
 20
15.0123292757
 30
0.0
 10
14.8261878502
 20
15.1123735501
 30
0.0
 10
14.7732781319
 20
15.2109977215
 30
0.0
 10
14.7178590479
 20
15.3081587271
 30
0.0
 10
14.6599999969
 20
15.4038152738
 30
0.0
 10
14.5997584616
 20
15.4979223543
 30
0.0
 10
14.5163438448
 20
15.6212257969
 30
0.0
 10
14.4063368878
 20
15.7712452344
 30
0.0
 10
14.2655151732
 20
15.9442687564
 30
0.0
 10
14.1162669391
 20
16.1098610282
 30
0.0
 10
13.9589512018
 20
16.2676202513
 30
0.0
 10
13.8214065945
 20
16.3922577821
 30
0.0
 10
13.7077020842
 20
16.4876669077
 30
0.0
 10
13.6205899004
 20
16.5570521121
 30
0.0
 10
13.5316700686
 20
16.6242196115
 30
0.0
 10
13.4409714248
 20
16.6891213425
 30
0.0
 10
13.3485603532
 20
16.7516960222
 30
0.0
 10
13.2702017196
 20
16.8018468726
 30
0.0
 10
13.2067546542
 20
16.8407318566
 30
0.0
 10
13.1588139391
 20
16.8692610156
 30
0.0
 10
13.1105281483
 20
16.8971463146
 30
0.0
 10
13.0457245149
 20
16.9334500116
 30
0.0
 10
12.9639206648
 20
16.9772166502
 30
0.0
 10
12.8645450977
 20
17.0271854609
 30
0.0
 10
12.7640751212
 20
17.0746109191
 30
0.0
 10
12.6288712889
 20
17.1344405416
 30
0.0
 10
12.4575513888
 20
17.2030042712
 30
0.0
 10
12.2834488374
 20
17.2634989364
 30
0.0
 10
12.1428850962
 20
17.3071256335
 30
0.0
 10
12.0369047075
 20
17.3374917389
 30
0.0
 10
11.9303787124
 20
17.3655520597
 30
0.0
 10
11.8233622087
 20
17.3913406402
 30
0.0
 10
11.7159072061
 20
17.4148807047
 30
0.0
 10
11.5721758986
 20
17.4432901107
 30
0.0
 10
11.3916752702
 20
17.4733063193
 30
0.0
 10
11.174103419
 20
17.5007217898
 30
0.0
 10
10.9922863792
 20
17.5165602516
 30
0.0
 10
10.8467929781
 20
17.5251450944
 30
0.0
 10
10.7377759995
 20
17.5295715744
 30
0.0
 10
10.6288618752
 20
17.5320212831
 30
0.0
 10
10.5201068729
 20
17.5325263065
 30
0.0
 10
10.4296095153
 20
17.531352398
 30
0.0
 10
10.3573415508
 20
17.5294715846
 30
0.0
 10
10.2852369065
 20
17.526969401
 30
0.0
 10
10.1952611212
 20
17.522659733
 30
0.0
 10
10.0874983493
 20
17.5155556022
 30
0.0
 10
9.9799688751
 20
17.5064831675
 30
0.0
 10
9.8726500125
 20
17.4954044954
 30
0.0
 10
9.765518825
 20
17.4822816808
 30
0.0
 10
9.658552477
 20
17.4670765603
 30
0.0
 10
9.5517319115
 20
17.4497526443
 30
0.0
 10
9.4450540371
 20
17.4302727432
 30
0.0
 10
9.3385453979
 20
17.4085412729
 30
0.0
 10
9.2322480641
 20
17.3844679599
 30
0.0
 10
9.1262067269
 20
17.3579621652
 30
0.0
 10
9.0204660831
 20
17.328933466
 30
0.0
 10
8.9150708837
 20
17.297291325
 30
0.0
 10
8.8100658333
 20
17.2629453803
 30
0.0
 10
8.7054969721
 20
17.2258049958
 30
0.0
 10
8.601414993
 20
17.1857842178
 30
0.0
 10
8.4978931358
 20
17.1427592998
 30
0.0
 10
8.3950199246
 20
17.096607495
 30
0.0
 10
8.3100566494
 20
17.0555169451
 30
0.0
 10
8.2425510473
 20
17.0209852732
 30
0.0
 10
8.192120431
 20
16.9942097379
 30
0.0
 10
8.1419952839
 20
16.9665873468
 30
0.0
 10
8.0922086859
 20
16.9381097976
 30
0.0
 10
8.04279592
 20
16.9087712611
 30
0.0
 10
7.9938141594
 20
16.8785753733
 30
0.0
 10
7.9453277048
 20
16.8475754076
 30
0.0
 10
7.897420137
 20
16.8158437946
 30
0.0
 10
7.8501620956
 20
16.7834384771
 30
0.0
 10
7.8035794289
 20
16.7503985537
 30
0.0
 10
7.7576535329
 20
16.7167441824
 30
0.0
 10
7.6973034432
 20
16.6711044082
 30
0.0
 10
7.6233079024
 20
16.6125399531
 30
0.0
 10
7.5367494383
 20
16.5398328355
 30
0.0
 10
7.4664877516
 20
16.4772779033
 30
0.0
 10
7.4114099004
 20
16.4260970712
 30
0.0
 10
7.3570780804
 20
16.3741657635
 30
0.0
 10
7.2905415236
 20
16.3078267702
 30
0.0
 10
7.2129734223
 20
16.2259919726
 30
0.0
 10
7.1377473738
 20
16.1419806095
 30
0.0
 10
7.0649664229
 20
16.0558854341
 30
0.0
 10
7.0063781497
 20
15.9825210876
 30
0.0
 10
6.9607982864
 20
15.9229689243
 30
0.0
 10
6.92730625
 20
15.87794908
 30
0.0
 10
6.8945008873
 20
15.8325779004
 30
0.0
 10
6.8623960263
 20
15.786882073
 30
0.0
 10
6.8309937548
 20
15.7408880543
 30
0.0
 10
6.7901081657
 20
15.6792930178
 30
0.0
 10
6.7407008711
 20
15.6016861562
 30
0.0
 10
6.6933355386
 20
15.5231535094
 30
0.0
 10
6.6567107937
 20
15.4599915146
 30
0.0
 10
6.6298972603
 20
15.412535971
 30
0.0
 10
6.6036626321
 20
15.3649062108
 30
0.0
 10
6.5822456538
 20
15.3250400092
 30
0.0
 10
6.5653672508
 20
15.2930429122
 30
0.0
 10
6.5528279217
 20
15.2689858842
 30
0.0
 10
6.5404011467
 20
15.2448526527
 30
0.0
 10
6.523960521
 20
15.2125068375
 30
0.0
 10
6.5036538092
 20
15.1717234292
 30
0.0
 10
6.4797166941
 20
15.1221802458
 30
0.0
 10
6.4561612628
 20
15.0718130329
 30
0.0
 10
6.4330092716
 20
15.0205533331
 30
0.0
 10
6.4141785492
 20
14.9772019534
 30
0.0
 10
6.3994241457
 20
14.9421060444
 30
0.0
 10
6.3885191295
 20
14.91555698
 30
0.0
 10
6.3778190573
 20
14.8888512481
 30
0.0
 10
6.3638354208
 20
14.8530607258
 30
0.0
 10
6.3469248923
 20
14.8081231642
 30
0.0
 10
6.3275513397
 20
14.7540181341
 30
0.0
 10
6.3030827369
 20
14.6821674924
 30
0.0
 10
6.2748656101
 20
14.5926934303
 30
0.0
 10
6.2493431407
 20
14.5031645459
 30
0.0
 10
6.2304833551
 20
14.4319730851
 30
0.0
 10
6.2171024026
 20
14.3789700536
 30
0.0
 10
6.2043831345
 20
14.3261714138
 30
0.0
 10
6.1922758805
 20
14.2735871129
 30
0.0
 10
6.1807431608
 20
14.2212312844
 30
0.0
 10
6.1661335259
 20
14.1519937493
 30
0.0
 10
6.149117978
 20
14.0661421824
 30
0.0
 10
6.1303412182
 20
13.9639976486
 30
0.0
 10
6.1129818263
 20
13.8632407384
 30
0.0
 10
6.096773781
 20
13.7640069675
 30
0.0
 10
6.0814515252
 20
13.6664226389
 30
0.0
 10
6.0715535199
 20
13.6019223365
 30
0.0
 10
6.0666615992
 20
13.5699747916
 30
0.0
  0
SPLINE
  5
2D6
100
AcDbEntity
  8
0
100
AcDbSpline
 62
7
  6
CONTINUOUS
 70
0
 71
3
 72
15
 73
11
 74
0
 42
0.0000001
 43
0.0000001
 44
0.0000000001
 40
0.0
 40
0.0
 40
0.0
 40
0.0
 40
0.1246729575
 40
0.2496133787
 40
0.3747349123
 40
0.4999497759
 40
0.6251698386
 40
0.7503078517
 40
0.8752785274
 40
1.0
 40
1.0
 40
1.0
 40
1.0
 10
7.2598337126
 20
12.7698900603
 30
0.0
 10
7.2632474789
 20
12.7255802778
 30
0.0
 10
7.2688262824
 20
12.6367639748
 30
0.0
 10
7.273490668
 20
12.5032507644
 30
0.0
 10
7.2744751495
 20
12.3694655962
 30
0.0
 10
7.271776389
 20
12.2356045331
 30
0.0
 10
7.2653775559
 20
12.1018631179
 30
0.0
 10
7.2552493502
 20
11.9684388346
 30
0.0
 10
7.2413510761
 20
11.835533684
 30
0.0
 10
7.2295219961
 20
11.7473021895
 30
0.0
 10
7.2229553942
 20
11.7033314291
 30
0.0
  0
SPLINE
  5
2D7
100
AcDbEntity
  8
0
100
AcDbSpline
 62
7
  6
CONTINUOUS
 70
0
 71
3
 72
26
 73
22
 74
0
 42
0.0000001
 43
0.0000001
 44
0.0000000001
 40
0.0
 40
0.0
 40
0.0
 40
0.0
 40
0.1959630145
 40
0.3816216294
 40
0.4685742529
 40
0.5505919266
 40
0.6269791589
 40
0.6971107941
 40
0.7604443398
 40
0.8165336065
 40
0.8650465912
 40
0.8864010335
 40
0.9058056914
 40
0.9232713922
 40
0.9388275012
 40
0.952535282
 40
0.9644973812
 40
0.9748846363
 40
0.9839683048
 40
0.9921565355
 40
1.0
 40
1.0
 40
1.0
 40
1.0
 10
7.2229554641
 20
11.7033314538
 30
0.0
 10
7.2224310072
 20
11.6998193354
 30
0.0
 10
7.2215388759
 20
11.692959718
 30
0.0
 10
7.2207856884
 20
11.6844992704
 30
0.0
 10
7.2204394177
 20
11.6780817935
 30
0.0
 10
7.220310206
 20
11.6736370206
 30
0.0
 10
7.220303153
 20
11.6694951178
 30
0.0
 10
7.2204143332
 20
11.6656933104
 30
0.0
 10
7.220638242
 20
11.6622647573
 30
0.0
 10
7.2209684557
 20
11.6592385135
 30
0.0
 10
7.2213394531
 20
11.6569845615
 30
0.0
 10
7.2216935797
 20
11.6554056568
 30
0.0
 10
7.2219700739
 20
11.6543870046
 30
0.0
 10
7.2222677108
 20
11.6534842305
 30
0.0
 10
7.2225856736
 20
11.6526985805
 30
0.0
 10
7.2229230915
 20
11.65203084
 30
0.0
 10
7.2232796519
 20
11.6514813634
 30
0.0
 10
7.2236557647
 20
11.6510503187
 30
0.0
 10
7.2240533008
 20
11.6507386756
 30
0.0
 10
7.2244735992
 20
11.6505507214
 30
0.0
 10
7.2247664668
 20
11.6505122814
 30
0.0
 10
7.224908586
 20
11.6505141863
 30
0.0
  0
SPLINE
  5
2D8
100
AcDbEntity
  8
0
100
AcDbSpline
 62
7
  6
CONTINUOUS
 70
0
 71
3
 72
28
 73
24
 74
0
 42
0.0000001
 43
0.0000001
 44
0.0000000001
 40
0.0
 40
0.0
 40
0.0
 40
0.0
 40
0.0088825729
 40
0.0178726166
 40
0.0275070461
 40
0.0382292857
 40
0.0503628574
 40
0.0641266827
 40
0.0796614187
 40
0.097056696
 40
0.1163623776
 40
0.1376043745
 40
0.1607858645
 40
0.1858960756
 40
0.2417869471
 40
0.3049651104
 40
0.3749736692
 40
0.4512449226
 40
0.5331221539
 40
0.6198803233
 40
0.7107499019
 40
0.8049293098
 40
1.0
 40
1.0
 40
1.0
 40
1.0
 10
7.2668831771
 20
12.8221526692
 30
0.0
 10
7.2667235539
 20
12.822180238
 30
0.0
 10
7.266393714
 20
12.8221960423
 30
0.0
 10
7.2658986233
 20
12.822087222
 30
0.0
 10
7.2654146681
 20
12.8218485631
 30
0.0
 10
7.2649433409
 20
12.8214845066
 30
0.0
 10
7.2644836458
 20
12.820997198
 30
0.0
 10
7.2640351854
 20
12.8203873076
 30
0.0
 10
7.2635982501
 20
12.8196552293
 30
0.0
 10
7.2631738333
 20
12.8188015739
 30
0.0
 10
7.2627630239
 20
12.8178274197
 30
0.0
 10
7.2623672559
 20
12.8167342315
 30
0.0
 10
7.261987821
 20
12.8155239229
 30
0.0
 10
7.2614877425
 20
12.813690623
 30
0.0
 10
7.2609231942
 20
12.8111209312
 30
0.0
 10
7.2603538467
 20
12.8077190635
 30
0.0
 10
7.2598813068
 20
12.8039276564
 30
0.0
 10
7.2595145681
 20
12.7997823154
 30
0.0
 10
7.2592611802
 20
12.7953226193
 30
0.0
 10
7.2591267628
 20
12.7905915135
 30
0.0
 10
7.2591149234
 20
12.785634184
 30
0.0
 10
7.2592665067
 20
12.778703341
 30
0.0
 10
7.2595640686
 20
12.7734345907
 30
0.0
 10
7.2598377388
 20
12.7698877397
 30
0.0
  0
SPLINE
  5
2D9
100
AcDbEntity
  8
0
100
AcDbSpline
 62
9
  6
CONTINUOUS
 70
0
 71
3
 72
17
 73
13
 74
0
 42
0.0000001
 43
0.0000001
 44
0.0000000001
 40
0.0
 40
0.0
 40
0.0
 40
0.0
 40
0.1252609532
 40
0.2504607725
 40
0.3130903361
 40
0.3756939331
 40
0.5007025227
 40
0.6256075398
 40
0.688082631
 40
0.7505383667
 40
0.8752858676
 40
1.0
 40
1.0
 40
1.0
 40
1.0
 10
7.3556646668
 20
12.7532764735
 30
0.0
 10
7.3579394419
 20
12.7528847185
 30
0.0
 10
7.3624255897
 20
12.7516836958
 30
0.0
 10
7.3676766341
 20
12.7492200228
 30
0.0
 10
7.3715650593
 20
12.7467246874
 30
0.0
 10
7.3752158894
 20
12.7438990681
 30
0.0
 10
7.3792909678
 20
12.7397856676
 30
0.0
 10
7.3825895515
 20
12.7350304566
 30
0.0
 10
7.3847046333
 20
12.7309355684
 30
0.0
 10
7.3864577359
 20
12.7266761641
 30
0.0
 10
7.3879540526
 20
12.721096363
 30
0.0
 10
7.3883720967
 20
12.7164919777
 30
0.0
 10
7.3883809851
 20
12.7141938094
 30
0.0
  0
SPLINE
  5
2DA
100
AcDbEntity
  8
0
100
AcDbSpline
 62
9
  6
CONTINUOUS
 70
0
 71
3
 72
17
 73
13
 74
0
 42
0.0000001
 43
0.0000001
 44
0.0000000001
 40
0.0
 40
0.0
 40
0.0
 40
0.0
 40
0.1246744318
 40
0.2493928525
 40
0.3118528624
 40
0.3743376696
 40
0.4992439832
 40
0.624267566
 40
0.6868975539
 40
0.7495517599
 40
0.8747610121
 40
1.0
 40
1.0
 40
1.0
 40
1.0
 10
7.3929043492
 20
11.7451234051
 30
0.0
 10
7.3929192961
 20
11.7425556378
 30
0.0
 10
7.3924469922
 20
11.7374038059
 30
0.0
 10
7.3906417206
 20
11.7311975308
 30
0.0
 10
7.3885106968
 20
11.7265099645
 30
0.0
 10
7.3859355969
 20
11.7220465576
 30
0.0
 10
7.3819197463
 20
11.7169639736
 30
0.0
 10
7.3769911153
 20
11.7127546204
 30
0.0
 10
7.3726147254
 20
11.710015836
 30
0.0
 10
7.367985927
 20
11.7077203747
 30
0.0
 10
7.3618084836
 20
11.7057243081
 30
0.0
 10
7.3566434764
 20
11.7051331964
 30
0.0
 10
7.3540642141
 20
11.7051030491
 30
0.0
  0
LINE
  5
2DB
100
AcDbEntity
  8
0
100
AcDbLine
 62
7
  6
CONTINUOUS
 10
7.3540644735
 20
11.7050824169
 11
7.2229554641
 21
11.7033314538
  0
SPLINE
  5
2DC
100
AcDbEntity
  8
0
100
AcDbSpline
 62
9
  6
CONTINUOUS
 70
0
 71
3
 72
35
 73
31
 74
0
 42
0.0000001
 43
0.0000001
 44
0.0000000001
 40
0.0
 40
0.0
 40
0.0
 40
0.0
 40
0.0001143186
 40
0.0003328873
 40
0.0011479277
 40
0.0024901772
 40
0.0043704953
 40
0.0067965272
 40
0.0097750174
 40
0.0133123609
 40
0.0174147885
 40
0.022088444
 40
0.0273394208
 40
0.0395975516
 40
0.0542374892
 40
0.0713073516
 40
0.0908390562
 40
0.1127996054
 40
0.1371396469
 40
0.1638098047
 40
0.1927517534
 40
0.2238710802
 40
0.2922277448
 40
0.367986136
 40
0.4499893017
 40
0.536979615
 40
0.6275606921
 40
0.7203451444
 40
0.8141231734
 40
1.0
 40
1.0
 40
1.0
 40
1.0
 10
7.354310929
 20
11.6522477396
 30
0.0
 10
7.3543129424
 20
11.6522477664
 30
0.0
 10
7.3543176245
 20
11.6522528183
 30
0.0
 10
7.3543241497
 20
11.6522712976
 30
0.0
 10
7.3543323205
 20
11.6523131429
 30
0.0
 10
7.3543405939
 20
11.6523833909
 30
0.0
 10
7.3543491095
 20
11.6524827127
 30
0.0
 10
7.3543572892
 20
11.652610706
 30
0.0
 10
7.354365237
 20
11.6527680395
 30
0.0
 10
7.354372846
 20
11.6529549125
 30
0.0
 10
7.354380112
 20
11.6531716888
 30
0.0
 10
7.3543870076
 20
11.653418671
 30
0.0
 10
7.3543961626
 20
11.6538093015
 30
0.0
 10
7.3544062299
 20
11.6543755023
 30
0.0
 10
7.3544161211
 20
11.6551499104
 30
0.0
 10
7.3544242093
 20
11.6560524648
 30
0.0
 10
7.3544303881
 20
11.6570839846
 30
0.0
 10
7.35443462
 20
11.6582435748
 30
0.0
 10
7.3544368527
 20
11.6595289102
 30
0.0
 10
7.3544370372
 20
11.6609372206
 30
0.0
 10
7.3544351322
 20
11.6624649429
 30
0.0
 10
7.3544296356
 20
11.6647269429
 30
0.0
 10
7.3544172478
 20
11.6678135703
 30
0.0
 10
7.3543947481
 20
11.6717964472
 30
0.0
 10
7.3543646395
 20
11.676107503
 30
0.0
 10
7.3543274575
 20
11.6806796054
 30
0.0
 10
7.3542840183
 20
11.6854415667
 30
0.0
 10
7.3542351171
 20
11.6903230427
 30
0.0
 10
7.3541641747
 20
11.6968829582
 30
0.0
 10
7.3541056019
 20
11.7018085674
 30
0.0
 10
7.3540644728
 20
11.7050824197
 30
0.0
  0
SPLINE
  5
2DD
100
AcDbEntity
  8
0
100
AcDbSpline
 62
9
  6
CONTINUOUS
 70
0
 71
3
 72
28
 73
24
 74
0
 42
0.0000001
 43
0.0000001
 44
0.0000000001
 40
0.0
 40
0.0
 40
0.0
 40
0.0
 40
0.1798238579
 40
0.3634679035
 40
0.4533897834
 40
0.5400690415
 40
0.6220119639
 40
0.6978452113
 40
0.7663087272
 40
0.8264635786
 40
0.8775661792
 40
0.8996207286
 40
0.9193132075
 40
0.9366380564
 40
0.9516439022
 40
0.9644008944
 40
0.9749960623
 40
0.983556153
 40
0.9902998839
 40
0.9930990141
 40
0.9955922228
 40
0.9978599176
 40
1.0
 40
1.0
 40
1.0
 40
1.0
 10
7.3883809851
 20
12.7141938087
 30
0.0
 10
7.3919432919
 20
12.7142074264
 30
0.0
 10
7.3991439589
 20
12.7141722583
 30
0.0
 10
7.4081238859
 20
12.7139626347
 30
0.0
 10
7.4152548559
 20
12.7136780673
 30
0.0
 10
7.420369846
 20
12.7134113547
 30
0.0
 10
7.4252021201
 20
12.7130911197
 30
0.0
 10
7.4296690063
 20
12.7127225448
 30
0.0
 10
7.433698479
 20
12.7123099049
 30
0.0
 10
7.437230837
 20
12.7118617519
 30
0.0
 10
7.4398396966
 20
12.7114467754
 30
0.0
 10
7.4416454351
 20
12.7110957877
 30
0.0
 10
7.4427879362
 20
12.7108417867
 30
0.0
 10
7.4437861905
 20
12.7105847527
 30
0.0
 10
7.4446414386
 20
12.7103259902
 30
0.0
 10
7.4453561826
 20
12.7100667231
 30
0.0
 10
7.4459339392
 20
12.7098078963
 30
0.0
 10
7.4463785598
 20
12.709549932
 30
0.0
 10
7.4466595167
 20
12.7093224392
 30
0.0
 10
7.4468125228
 20
12.7091385577
 30
0.0
 10
7.4468893796
 20
12.7090091183
 30
0.0
 10
7.446935801
 20
12.7088795379
 30
0.0
 10
7.4469465123
 20
12.7087919763
 30
0.0
 10
7.4469467103
 20
12.7087495815
 30
0.0
  0
SPLINE
  5
2DE
100
AcDbEntity
  8
0
100
AcDbSpline
 62
9
  6
CONTINUOUS
 70
0
 71
3
 72
28
 73
24
 74
0
 42
0.0000001
 43
0.0000001
 44
0.0000000001
 40
0.0
 40
0.0
 40
0.0
 40
0.0
 40
0.0021433769
 40
0.0044142277
 40
0.0069103391
 40
0.0097120716
 40
0.0164601154
 40
0.0250235093
 40
0.0356212337
 40
0.0483802361
 40
0.0633876151
 40
0.0807135505
 40
0.100406771
 40
0.1224618082
 40
0.1735645485
 40
0.2337186177
 40
0.3021806188
 40
0.378011688
 40
0.4599519427
 40
0.5466281069
 40
0.6365466144
 40
0.8201834204
 40
1.0
 40
1.0
 40
1.0
 40
1.0
 10
7.4514166278
 20
11.7511232833
 30
0.0
 10
7.4514168263
 20
11.7510808215
 30
0.0
 10
7.4514069357
 20
11.7509930327
 30
0.0
 10
7.4513617319
 20
11.7508628216
 30
0.0
 10
7.4512860913
 20
11.7507324627
 30
0.0
 10
7.4511348279
 20
11.7505468813
 30
0.0
 10
7.4508560257
 20
11.7503164079
 30
0.0
 10
7.450413825
 20
11.7500538749
 30
0.0
 10
7.4498385041
 20
11.7497892398
 30
0.0
 10
7.4491262068
 20
11.7495228876
 30
0.0
 10
7.4482734092
 20
11.7492557294
 30
0.0
 10
7.4472775979
 20
11.7489889665
 30
0.0
 10
7.4461375185
 20
11.7487238945
 30
0.0
 10
7.4443351485
 20
11.7483554915
 30
0.0
 10
7.441730285
 20
11.7479154935
 30
0.0
 10
7.4382022633
 20
11.7474336389
 30
0.0
 10
7.4341768195
 20
11.7469827089
 30
0.0
 10
7.4297135705
 20
11.7465718259
 30
0.0
 10
7.4248844994
 20
11.746205945
 30
0.0
 10
7.4197722246
 20
11.7458910282
 30
0.0
 10
7.4126442302
 20
11.7455393946
 30
0.0
 10
7.4036666547
 20
11.7452455466
 30
0.0
 10
7.3964666273
 20
11.7451430496
 30
0.0
 10
7.3929043491
 20
11.7451234066
 30
0.0
  0
SPLINE
  5
2DF
100
AcDbEntity
  8
0
100
AcDbSpline
 62
9
  6
CONTINUOUS
 70
0
 71
3
 72
35
 73
31
 74
0
 42
0.0000001
 43
0.0000001
 44
0.0000000001
 40
0.0
 40
0.0
 40
0.0
 40
0.0
 40
0.0001306023
 40
0.0003562948
 40
0.0011760688
 40
0.0025187877
 40
0.0043977564
 40
0.0068214791
 40
0.0097971049
 40
0.0133312555
 40
0.0174303054
 40
0.0221004977
 40
0.0273479992
 40
0.039599357
 40
0.0542330533
 40
0.071297476
 40
0.090824765
 40
0.1127820383
 40
0.1371200023
 40
0.1637893277
 40
0.192731679
 40
0.2238525512
 40
0.2922153882
 40
0.3679830746
 40
0.4499969763
 40
0.536997592
 40
0.6275863239
 40
0.7203741598
 40
0.8141500622
 40
1.0
 40
1.0
 40
1.0
 40
1.0
 10
7.3651615342
 20
12.8052985726
 30
0.0
 10
7.3651592768
 20
12.8052990268
 30
0.0
 10
7.3651529202
 20
12.8052957014
 30
0.0
 10
7.3651411987
 20
12.8052788413
 30
0.0
 10
7.3651238772
 20
12.8052399166
 30
0.0
 10
7.3651007146
 20
12.805172736
 30
0.0
 10
7.3650721461
 20
12.8050772675
 30
0.0
 10
7.3650385625
 20
12.8049534459
 30
0.0
 10
7.3649998622
 20
12.8048007465
 30
0.0
 10
7.3649560786
 20
12.8046188985
 30
0.0
 10
7.3649071689
 20
12.8044075569
 30
0.0
 10
7.3648531032
 20
12.8041664105
 30
0.0
 10
7.3647696923
 20
12.8037845456
 30
0.0
 10
7.3646526386
 20
12.8032302284
 30
0.0
 10
7.364497202
 20
12.8024710935
 30
0.0
 10
7.3643201733
 20
12.8015854453
 30
0.0
 10
7.3641215284
 20
12.8005724482
 30
0.0
 10
7.3639014776
 20
12.7994329705
 30
0.0
 10
7.3636605152
 20
12.7981692858
 30
0.0
 10
7.363399214
 20
12.7967841082
 30
0.0
 10
7.363118285
 20
12.7952809356
 30
0.0
 10
7.3627055405
 20
12.7930545663
 30
0.0
 10
7.3621482076
 20
12.7900153518
 30
0.0
 10
7.3614368961
 20
12.7860921157
 30
0.0
 10
7.3606739161
 20
12.78184429
 30
0.0
 10
7.3598710857
 20
12.7773381326
 30
0.0
 10
7.3590406349
 20
12.7726439515
 30
0.0
 10
7.3581946607
 20
12.7678312083
 30
0.0
 10
7.3570642341
 20
12.7613631503
 30
0.0
 10
7.3562218722
 20
12.7565055062
 30
0.0
 10
7.3556646671
 20
12.7532764736
 30
0.0
  0
SPLINE
  5
2E0
100
AcDbEntity
  8
0
100
AcDbSpline
 62
9
  6
CONTINUOUS
 70
0
 71
3
 72
13
 73
9
 74
0
 42
0.0000001
 43
0.0000001
 44
0.0000000001
 40
0.0
 40
0.0
 40
0.0
 40
0.0
 40
0.2648932281
 40
0.5175000568
 40
0.6402593613
 40
0.7612086208
 40
0.8809364442
 40
1.0
 40
1.0
 40
1.0
 40
1.0
 10
7.4479371384
 20
12.4965841973
 30
0.0
 10
7.4491722686
 20
12.4979132288
 30
0.0
 10
7.4513900108
 20
12.5007020008
 30
0.0
 10
7.4534893137
 20
12.5045824156
 30
0.0
 10
7.4546596957
 20
12.5077791445
 30
0.0
 10
7.4552815202
 20
12.5101940299
 30
0.0
 10
7.4556512571
 20
12.5126342518
 30
0.0
 10
7.4557286805
 20
12.5142714519
 30
0.0
 10
7.4557248739
 20
12.5150869533
 30
0.0
  0
SPLINE
  5
2E1
100
AcDbEntity
  8
0
100
AcDbSpline
 62
9
  6
CONTINUOUS
 70
0
 71
3
 72
13
 73
9
 74
0
 42
0.0000001
 43
0.0000001
 44
0.0000000001
 40
0.0
 40
0.0
 40
0.0
 40
0.0
 40
0.2648932281
 40
0.5175000568
 40
0.6402593613
 40
0.7612086208
 40
0.8809364442
 40
1.0
 40
1.0
 40
1.0
 40
1.0
 10
7.4471150347
 20
12.6727089344
 30
0.0
 10
7.448362518
 20
12.671391491
 30
0.0
 10
7.4506061975
 20
12.6686235438
 30
0.0
 10
7.4527416336
 20
12.6647628957
 30
0.0
 10
7.4539418069
 20
12.6615772319
 30
0.0
 10
7.4545861479
 20
12.6591682566
 30
0.0
 10
7.4549786489
 20
12.6567315926
 30
0.0
 10
7.4550713526
 20
12.6550951866
 30
0.0
 10
7.4550751591
 20
12.6542796852
 30
0.0
  0
SPLINE
  5
2E2
100
AcDbEntity
  8
0
100
AcDbSpline
 62
9
  6
CONTINUOUS
 70
0
 71
3
 72
16
 73
12
 74
0
 42
0.0000001
 43
0.0000001
 44
0.0000000001
 40
0.0
 40
0.0
 40
0.0
 40
0.0
 40
0.1167464597
 40
0.1764035092
 40
0.2368279043
 40
0.3597005164
 40
0.4848781253
 40
0.6118867762
 40
0.7403036523
 40
0.8697712157
 40
1.0
 40
1.0
 40
1.0
 40
1.0
 10
15.0527076342
 20
4.7110054174
 30
0.0
 10
15.048202295
 20
4.7037013082
 30
0.0
 10
15.0409762191
 20
4.6929151999
 30
0.0
 10
15.0304909493
 20
4.6790144411
 30
0.0
 10
15.0191966584
 20
4.6651750075
 30
0.0
 10
15.0038490351
 20
4.6484495421
 30
0.0
 10
14.9836649287
 20
4.6296285607
 30
0.0
 10
14.9617453344
 20
4.6121957768
 30
0.0
 10
14.9382565544
 20
4.5963699986
 30
0.0
 10
14.9133850285
 20
4.5823354916
 30
0.0
 10
14.896047905
 20
4.5742888587
 30
0.0
 10
14.8872124897
 20
4.5706042881
 30
0.0
  0
SPLINE
  5
2E3
100
AcDbEntity
  8
0
100
AcDbSpline
 62
9
  6
CONTINUOUS
 70
0
 71
3
 72
17
 73
13
 74
0
 42
0.0000001
 43
0.0000001
 44
0.0000000001
 40
0.0
 40
0.0
 40
0.0
 40
0.0
 40
0.1302257734
 40
0.2596904102
 40
0.3881043637
 40
0.515109952
 40
0.6402847582
 40
0.7020503727
 40
0.7631775078
 40
0.8236006009
 40
0.8832563202
 40
1.0
 40
1.0
 40
1.0
 40
1.0
 10
14.6042593771
 20
4.5706040613
 30
0.0
 10
14.5954239497
 20
4.574288652
 30
0.0
 10
14.5780868337
 20
4.582335435
 30
0.0
 10
14.5532152272
 20
4.5963697667
 30
0.0
 10
14.5297260479
 20
4.612195522
 30
0.0
 10
14.5078075652
 20
4.6296283677
 30
0.0
 10
14.4909093891
 20
4.6453842433
 30
0.0
 10
14.4783228111
 20
4.6585846178
 30
0.0
 10
14.469404973
 20
4.6686918402
 30
0.0
 10
14.4609804119
 20
4.6790144455
 30
0.0
 10
14.4504951541
 20
4.692915035
 30
0.0
 10
14.4432691691
 20
4.7037013134
 30
0.0
 10
14.4387638005
 20
4.7110054174
 30
0.0
  0
SPLINE
  5
2E4
100
AcDbEntity
  8
0
100
AcDbSpline
 62
9
  6
CONTINUOUS
 70
0
 71
3
 72
17
 73
13
 74
0
 42
0.0000001
 43
0.0000001
 44
0.0000000001
 40
0.0
 40
0.0
 40
0.0
 40
0.0
 40
0.0580113377
 40
0.1171603492
 40
0.2382121156
 40
0.3620794061
 40
0.4878745853
 40
0.6149457649
 40
0.6788234251
 40
0.7428621092
 40
0.8712718899
 40
1.0
 40
1.0
 40
1.0
 40
1.0
 10
15.1693288664
 20
4.7110054174
 30
0.0
 10
15.1653446637
 20
4.7059375197
 30
0.0
 10
15.1570158881
 20
4.6959208606
 30
0.0
 10
15.139049003
 20
4.6764678988
 30
0.0
 10
15.1142579188
 20
4.6534211033
 30
0.0
 10
15.0815472881
 20
4.6282892314
 30
0.0
 10
15.0461963517
 20
4.6057689104
 30
0.0
 10
15.0150125557
 20
4.5893567463
 30
0.0
 10
14.9892015379
 20
4.5776511825
 30
0.0
 10
14.9628233236
 20
4.5668855777
 30
0.0
 10
14.9290423715
 20
4.555263802
 30
0.0
 10
14.9013980378
 20
4.5479257404
 30
0.0
 10
14.8874526472
 20
4.544738829
 30
0.0
  0
SPLINE
  5
2E5
100
AcDbEntity
  8
0
100
AcDbSpline
 62
9
  6
CONTINUOUS
 70
0
 71
3
 72
16
 73
12
 74
0
 42
0.0000001
 43
0.0000001
 44
0.0000000001
 40
0.0
 40
0.0
 40
0.0
 40
0.0
 40
0.1287311546
 40
0.257143965
 40
0.3850398721
 40
0.5121140595
 40
0.6379122216
 40
0.7617823747
 40
0.8828368486
 40
0.9419870374
 40
1.0
 40
1.0
 40
1.0
 40
1.0
 10
14.6040186304
 20
4.5447388531
 30
0.0
 10
14.5900732474
 20
4.5479257709
 30
0.0
 10
14.5624281775
 20
4.5552641162
 30
0.0
 10
14.521934499
 20
4.5691951689
 30
0.0
 10
14.4827584959
 20
4.5860410905
 30
0.0
 10
14.4452757536
 20
4.6057686686
 30
0.0
 10
14.409923813
 20
4.6282892231
 30
0.0
 10
14.3772137252
 20
4.6534212568
 30
0.0
 10
14.352422184
 20
4.6764676475
 30
0.0
 10
14.3344564268
 20
4.6959215705
 30
0.0
 10
14.32612679
 20
4.7059375024
 30
0.0
 10
14.3221425684
 20
4.7110054174
 30
0.0
  0
SPLINE
  5
2E6
100
AcDbEntity
  8
0
100
AcDbSpline
 62
9
  6
CONTINUOUS
 70
0
 71
3
 72
20
 73
16
 74
0
 42
0.0000001
 43
0.0000001
 44
0.0000000001
 40
0.0
 40
0.0
 40
0.0
 40
0.0
 40
0.1171584808
 40
0.1766191126
 40
0.2366909784
 40
0.3586847592
 40
0.483160551
 40
0.5462991439
 40
0.6099829812
 40
0.6741625778
 40
0.7387766346
 40
0.8037528691
 40
0.8690092801
 40
0.9344565178
 40
1.0
 40
1.0
 40
1.0
 40
1.0
 10
14.3221425684
 20
4.7110054174
 30
0.0
 10
14.3084746982
 20
4.729337615
 30
0.0
 10
14.2889432893
 20
4.7577986213
 30
0.0
 10
14.2650867324
 20
4.7973685523
 30
0.0
 10
14.2423671966
 20
4.8386857006
 30
0.0
 10
14.2167442911
 20
4.8928282644
 30
0.0
 10
14.195461779
 20
4.9494653759
 30
0.0
 10
14.1811400651
 20
4.9963883276
 30
0.0
 10
14.1717923986
 20
5.0324888898
 30
0.0
 10
14.1639585157
 20
5.0692421084
 30
0.0
 10
14.1577001068
 20
5.1065524435
 30
0.0
 10
14.1530717511
 20
5.1443117737
 30
0.0
 10
14.150117803
 20
5.1824024127
 30
0.0
 10
14.1488709023
 20
5.2206972055
 30
0.0
 10
14.1491907902
 20
5.2462717798
 30
0.0
 10
14.1496396572
 20
5.2590564445
 30
0.0
  0
SPLINE
  5
2E7
100
AcDbEntity
  8
0
100
AcDbSpline
 62
9
  6
CONTINUOUS
 70
0
 71
3
 72
19
 73
15
 74
0
 42
0.0000001
 43
0.0000001
 44
0.0000000001
 40
0.0
 40
0.0
 40
0.0
 40
0.0
 40
0.0655449256
 40
0.130993604
 40
0.1962515431
 40
0.2612293133
 40
0.3258449211
 40
0.3900260446
 40
0.4537114104
 40
0.5168515023
 40
0.6413302941
 40
0.7633270236
 40
0.882838699
 40
1.0
 40
1.0
 40
1.0
 40
1.0
 10
15.3418317775
 20
5.2590564445
 30
0.0
 10
15.3422804897
 20
5.2462718001
 30
0.0
 10
15.3425970698
 20
5.2206972432
 30
0.0
 10
15.3413523909
 20
5.1824025266
 30
0.0
 10
15.3384002747
 20
5.144311724
 30
0.0
 10
15.3337707704
 20
5.1065525496
 30
0.0
 10
15.3275131082
 20
5.0692421036
 30
0.0
 10
15.319678635
 20
5.0324890148
 30
0.0
 10
15.3103313014
 20
4.99638835
 30
0.0
 10
15.2960099377
 20
4.9494654697
 30
0.0
 10
15.2747266866
 20
4.8928272087
 30
0.0
 10
15.2441376741
 20
4.8281916096
 30
0.0
 10
15.2091646782
 20
4.7674697142
 30
0.0
 10
15.18299689
 20
4.7293375016
 30
0.0
 10
15.1693288664
 20
4.7110054174
 30
0.0
  0
SPLINE
  5
2E8
100
AcDbEntity
  8
0
100
AcDbSpline
 62
9
  6
CONTINUOUS
 70
0
 71
3
 72
21
 73
17
 74
0
 42
0.0000001
 43
0.0000001
 44
0.0000000001
 40
0.0
 40
0.0
 40
0.0
 40
0.0
 40
0.0653636429
 40
0.1306373124
 40
0.195732388
 40
0.2605649097
 40
0.3250578511
 40
0.3891428768
 40
0.4527619405
 40
0.5158678227
 40
0.578424445
 40
0.6404067605
 40
0.7018000217
 40
0.7625991401
 40
0.8824130323
 40
1.0
 40
1.0
 40
1.0
 40
1.0
 10
15.3601099684
 20
5.2597113045
 30
0.0
 10
15.3605716469
 20
5.2468232259
 30
0.0
 10
15.3608960126
 20
5.2210393471
 30
0.0
 10
15.3595885522
 20
5.1824300424
 30
0.0
 10
15.3565086724
 20
5.1440260526
 30
0.0
 10
15.3516902577
 20
5.1059569927
 30
0.0
 10
15.3451786425
 20
5.0683432191
 30
0.0
 10
15.3370307564
 20
5.0312951492
 30
0.0
 10
15.3273110479
 20
4.9949116517
 30
0.0
 10
15.3160904819
 20
4.9592791258
 30
0.0
 10
15.3034436746
 20
4.9244713052
 30
0.0
 10
15.2894469137
 20
4.8905498962
 30
0.0
 10
15.2741759426
 20
4.8575643308
 30
0.0
 10
15.2523242842
 20
4.8150966305
 30
0.0
 10
15.2222166256
 20
4.7644699442
 30
0.0
 10
15.1950952157
 20
4.7262121227
 30
0.0
 10
15.1809374615
 20
4.7078327328
 30
0.0
  0
SPLINE
  5
2E9
100
AcDbEntity
  8
0
100
AcDbSpline
 62
9
  6
CONTINUOUS
 70
0
 71
3
 72
18
 73
14
 74
0
 42
0.0000001
 43
0.0000001
 44
0.0000000001
 40
0.0
 40
0.0
 40
0.0
 40
0.0
 40
0.0581205936
 40
0.1173394222
 40
0.2384517354
 40
0.3001134472
 40
0.362344395
 40
0.4881008649
 40
0.6151199467
 40
0.6789700077
 40
0.7429802886
 40
0.8713314906
 40
1.0
 40
1.0
 40
1.0
 40
1.0
 10
15.1809374615
 20
4.7078327328
 30
0.0
 10
15.1768284928
 20
4.7024985819
 30
0.0
 10
15.168243014
 20
4.6919492569
 30
0.0
 10
15.149726234
 20
4.6714375018
 30
0.0
 10
15.1293924824
 20
4.652061069
 30
0.0
 10
15.107521991
 20
4.6339577715
 30
0.0
 10
15.0844180616
 20
4.6165447908
 30
0.0
 10
15.0538351869
 20
4.5965444491
 30
0.0
 10
15.0215213272
 20
4.5790950566
 30
0.0
 10
14.9947386058
 20
4.5666467886
 30
0.0
 10
14.9673450341
 20
4.5552002651
 30
0.0
 10
14.9322232361
 20
4.5428547491
 30
0.0
 10
14.9034467614
 20
4.5350876869
 30
0.0
 10
14.8889245553
 20
4.5317259896
 30
0.0
  0
SPLINE
  5
2EA
100
AcDbEntity
  8
0
100
AcDbSpline
 62
9
  6
CONTINUOUS
 70
0
 71
3
 72
18
 73
14
 74
0
 42
0.0000001
 43
0.0000001
 44
0.0000000001
 40
0.0
 40
0.0
 40
0.0
 40
0.0
 40
0.1286685006
 40
0.2570196874
 40
0.3210299644
 40
0.3848800388
 40
0.511899167
 40
0.6376555547
 40
0.6998865537
 40
0.7615483579
 40
0.8826602355
 40
0.9418786363
 40
1.0
 40
1.0
 40
1.0
 40
1.0
 10
14.6025467686
 20
4.5317259935
 30
0.0
 10
14.5880245709
 20
4.5350876972
 30
0.0
 10
14.5592481151
 20
4.5428547754
 30
0.0
 10
14.5241263429
 20
4.5552003112
 30
0.0
 10
14.4967327877
 20
4.5666468428
 30
0.0
 10
14.4699500661
 20
4.5790950962
 30
0.0
 10
14.4376361835
 20
4.5965444185
 30
0.0
 10
14.407053381
 20
4.616544848
 30
0.0
 10
14.3839494337
 20
4.6339577965
 30
0.0
 10
14.3620789152
 20
4.6520609853
 30
0.0
 10
14.3417452248
 20
4.671437378
 30
0.0
 10
14.3232289006
 20
4.6919494939
 30
0.0
 10
14.3146429981
 20
4.7024985159
 30
0.0
 10
14.3105339732
 20
4.7078327328
 30
0.0
  0
SPLINE
  5
2EB
100
AcDbEntity
  8
0
100
AcDbSpline
 62
9
  6
CONTINUOUS
 70
0
 71
3
 72
22
 73
18
 74
0
 42
0.0000001
 43
0.0000001
 44
0.0000000001
 40
0.0
 40
0.0
 40
0.0
 40
0.0
 40
0.1175842348
 40
0.1772122887
 40
0.2374196725
 40
0.2982172627
 40
0.3596089786
 40
0.4215897809
 40
0.4841448625
 40
0.5472491475
 40
0.6108666304
 40
0.674950102
 40
0.7394414343
 40
0.8042724007
 40
0.8693658287
 40
0.9346379031
 40
1.0
 40
1.0
 40
1.0
 40
1.0
 10
14.3105339732
 20
4.7078327328
 30
0.0
 10
14.2963762936
 20
4.7262122199
 30
0.0
 10
14.2761268169
 20
4.7547764174
 30
0.0
 10
14.2513653496
 20
4.7945516542
 30
0.0
 10
14.2337656086
 20
4.8255553123
 30
0.0
 10
14.2172953527
 20
4.8575645473
 30
0.0
 10
14.202024579
 20
4.8905498091
 30
0.0
 10
14.188027746
 20
4.9244712839
 30
0.0
 10
14.1753809406
 20
4.9592790719
 30
0.0
 10
14.1641604322
 20
4.9949116109
 30
0.0
 10
14.1544407499
 20
5.0312951034
 30
0.0
 10
14.1462927801
 20
5.0683431541
 30
0.0
 10
14.1397812848
 20
5.1059569552
 30
0.0
 10
14.1349627097
 20
5.1440259876
 30
0.0
 10
14.1318830479
 20
5.1824300067
 30
0.0
 10
14.1305759896
 20
5.2210393134
 30
0.0
 10
14.1308997255
 20
5.2468232159
 30
0.0
 10
14.1313614663
 20
5.2597113045
 30
0.0
  0
SPLINE
  5
2EC
100
AcDbEntity
  8
0
100
AcDbSpline
 62
9
  6
CONTINUOUS
 70
0
 71
3
 72
14
 73
10
 74
0
 42
0.0000001
 43
0.0000001
 44
0.0000000001
 40
0.0
 40
0.0
 40
0.0
 40
0.0
 40
0.0995116489
 40
0.2069520553
 40
0.3222368508
 40
0.4450916387
 40
0.5750186228
 40
0.711356487
 40
1.0
 40
1.0
 40
1.0
 40
1.0
 10
14.3105339732
 20
4.7078327328
 30
0.0
 10
14.3109366153
 20
4.7077990913
 30
0.0
 10
14.3117786063
 20
4.7077794607
 30
0.0
 10
14.3130849315
 20
4.7078779358
 30
0.0
 10
14.3144715884
 20
4.7081021576
 30
0.0
 10
14.3159262317
 20
4.7084499507
 30
0.0
 10
14.317436285
 20
4.7089183055
 30
0.0
 10
14.3195455549
 20
4.7097130542
 30
0.0
 10
14.3211080237
 20
4.7104547467
 30
0.0
 10
14.3221425684
 20
4.7110054174
 30
0.0
  0
SPLINE
  5
2ED
100
AcDbEntity
  8
0
100
AcDbSpline
 62
9
  6
CONTINUOUS
 70
0
 71
3
 72
14
 73
10
 74
0
 42
0.0000001
 43
0.0000001
 44
0.0000000001
 40
0.0
 40
0.0
 40
0.0
 40
0.0
 40
0.0995116499
 40
0.206952057
 40
0.3222368527
 40
0.4450916406
 40
0.5750186244
 40
0.7113564882
 40
1.0
 40
1.0
 40
1.0
 40
1.0
 10
15.1809374615
 20
4.7078327328
 30
0.0
 10
15.1805348195
 20
4.7077990913
 30
0.0
 10
15.1796928284
 20
4.7077794607
 30
0.0
 10
15.1783865032
 20
4.7078779357
 30
0.0
 10
15.1769998463
 20
4.7081021575
 30
0.0
 10
15.175545203
 20
4.7084499507
 30
0.0
 10
15.1740351497
 20
4.7089183055
 30
0.0
 10
15.1719258798
 20
4.7097130542
 30
0.0
 10
15.170363411
 20
4.7104547467
 30
0.0
 10
15.1693288664
 20
4.7110054174
 30
0.0
  0
SPLINE
  5
2EE
100
AcDbEntity
  8
0
100
AcDbSpline
 62
9
  6
CONTINUOUS
 70
0
 71
3
 72
20
 73
16
 74
0
 42
0.0000001
 43
0.0000001
 44
0.0000000001
 40
0.0
 40
0.0
 40
0.0
 40
0.0
 40
0.1540797979
 40
0.3095961027
 40
0.460263472
 40
0.5319621625
 40
0.6003410135
 40
0.6648575405
 40
0.7250929423
 40
0.7807885976
 40
0.8318932549
 40
0.8786234661
 40
0.9215269188
 40
0.9615498518
 40
1.0
 40
1.0
 40
1.0
 40
1.0
 10
14.4387638005
 20
4.7110054174
 30
0.0
 10
14.4401721386
 20
4.7115935668
 30
0.0
 10
14.4429322041
 20
4.7129489785
 30
0.0
 10
14.446781231
 20
4.7154082937
 30
0.0
 10
14.4496929122
 20
4.71777683
 30
0.0
 10
14.4517411556
 20
4.7198040475
 30
0.0
 10
14.4530794861
 20
4.7213283445
 30
0.0
 10
14.4542276558
 20
4.7228611921
 30
0.0
 10
14.4551706082
 20
4.7243827496
 30
0.0
 10
14.45589591
 20
4.7258735735
 30
0.0
 10
14.4563936928
 20
4.7273151867
 30
0.0
 10
14.4566561583
 20
4.7286901178
 30
0.0
 10
14.4566769772
 20
4.7299819154
 30
0.0
 10
14.456451154
 20
4.7311720068
 30
0.0
 10
14.4561322623
 20
4.731890227
 30
0.0
 10
14.4559370546
 20
4.7322172596
 30
0.0
  0
SPLINE
  5
2EF
100
AcDbEntity
  8
0
100
AcDbSpline
 62
9
  6
CONTINUOUS
 70
0
 71
3
 72
20
 73
16
 74
0
 42
0.0000001
 43
0.0000001
 44
0.0000000001
 40
0.0
 40
0.0
 40
0.0
 40
0.0
 40
0.1540797947
 40
0.3095960946
 40
0.4602634585
 40
0.5319621465
 40
0.6003409953
 40
0.6648575207
 40
0.7250929215
 40
0.7807885769
 40
0.8318932355
 40
0.8786234493
 40
0.9215269061
 40
0.9615498447
 40
1.0
 40
1.0
 40
1.0
 40
1.0
 10
15.0527076342
 20
4.7110054174
 30
0.0
 10
15.051299296
 20
4.7115935667
 30
0.0
 10
15.0485392304
 20
4.7129489781
 30
0.0
 10
15.0446902033
 20
4.715408293
 30
0.0
 10
15.041778522
 20
4.7177768292
 30
0.0
 10
15.0397302785
 20
4.7198040466
 30
0.0
 10
15.038391948
 20
4.7213283436
 30
0.0
 10
15.0372437784
 20
4.7228611912
 30
0.0
 10
15.036300826
 20
4.7243827487
 30
0.0
 10
15.0355755242
 20
4.7258735727
 30
0.0
 10
15.0350777415
 20
4.727315186
 30
0.0
 10
15.034815276
 20
4.7286901172
 30
0.0
 10
15.0347944573
 20
4.729981915
 30
0.0
 10
15.0350202806
 20
4.7311720066
 30
0.0
 10
15.0353391723
 20
4.731890227
 30
0.0
 10
15.0355343801
 20
4.7322172596
 30
0.0
  0
ENDSEC
  0
SECTION
  2
OBJECTS
  0
DICTIONARY
  5
C
100
AcDbDictionary
280
0
281
1
  3
ACAD_GROUP
350
D
  3
ACAD_MLINESTYLE
350
17
  3
ACAD_LAYOUT
350
1A
  3
ACAD_PLOTSETTINGS
350
19
  3
ACAD_PLOTSTYLENAME
350
E
  0
DICTIONARY
  5
D
102
{ACAD_REACTORS
330
C
102
}
100
AcDbDictionary
280
0
281
1
  0
ACDBDICTIONARYWDFLT
  5
E
102
{ACAD_REACTORS
330
C
102
}
100
AcDbDictionary
281
1
  3
Normal
350
F
100
AcDbDictionaryWithDefault
340
F
  0
DICTIONARY
  5
17
102
{ACAD_REACTORS
330
C
102
}
100
AcDbDictionary
280
0
281
1
  3
Standard
350
18
  0
DICTIONARY
  5
19
102
{ACAD_REACTORS
330
C
102
}
100
AcDbDictionary
281
1
  0
DICTIONARY
  5
1A
102
{ACAD_REACTORS
330
C
102
}
100
AcDbDictionary
281
1
  3
Model
350
2F0
  3
Layout1
350
2F1
  0
ACDBPLACEHOLDER
  5
F
102
{ACAD_REACTORS
330
E
102
}
  0
MLINESTYLE
  5
18
102
{ACAD_REACTORS
330
17
102
}
100
AcDbMlineStyle
  2
STANDARD
 70
0
  3

 62
256
 51
90.0
 52
90.0
 71
2
 49
0.5
 62
256
  6
BYLAYER
 49
-0.5
 62
256
  6
BYLAYER
  0
LAYOUT
  5
2F0
102
{ACAD_REACTORS
330
1A
102
}
100
AcDbPlotSettings
  1

  2
none_device
  4
ANSI_C_(22.00_x_17.00_Inches)
  6

 40
0.0
 41
0.0
 42
0.0
 43
0.0
 44
558.8
 45
431.8
 46
0.0
 47
0.0
 48
0.0
 49
0.0
140
0.0
141
0.0
142
1.0
143
1.0
 70
1024
 72
0
 73
0
 74
0
  7

 75
0
147
1.0
148
0.0
149
0.0
100
AcDbLayout
  1
Model
 70
0
 71
0
 10
0.0
 20
0.0
 11
22.0
 21
17.0
 12
0.0
 22
0.0
 32
0.0
 14
0.0
 24
0.0
 34
0.0
 15
0.0
 25
0.0
 35
0.0
146
0.0
 13
0.0
 23
0.0
 33
0.0
 16
1.0
 26
0.0
 36
0.0
 17
0.0
 27
1.0
 37
0.0
 76
0
330
205
345
0
346
0
  0
LAYOUT
  5
2F1
102
{ACAD_REACTORS
330
1A
102
}
100
AcDbPlotSettings
  1

  2
none_device
  4
ANSI_C_(22.00_x_17.00_Inches)
  6

 40
0.0
 41
0.0
 42
0.0
 43
0.0
 44
558.8
 45
431.8
 46
0.0
 47
0.0
 48
0.0
 49
0.0
140
0.0
141
0.0
142
1.0
143
1.0
 70
0
 72
0
 73
0
 74
0
  7

 75
0
147
1.0
148
0.0
149
0.0
100
AcDbLayout
  1
Layout1
 70
0
 71
1
 10
0.0
 20
0.0
 11
22.0
 21
17.0
 12
0.0
 22
0.0
 32
0.0
 14
0.0
 24
0.0
 34
0.0
 15
0.0
 25
0.0
 35
0.0
146
0.0
 13
0.0
 23
0.0
 33
0.0
 16
1.0
 26
0.0
 36
0.0
 17
0.0
 27
1.0
 37
0.0
 76
0
330
206
345
0
346
0
  0
ENDSEC
  0
EOF
