999
DXF file: 1030-5223_right.dxf
999
Pro/ENGINEER 2018400 by Parametric Technology Corporation
  0
SECTION
  2
HEADER
  9
$ACADVER
  1
AC1027
  9
$DWGCODEPAGE
  3
ANSI_1252
  9
$EXTMAX
 10
11.0
 20
8.5
 30
0.0
  9
$EXTMIN
 10
0.0
 20
0.0
 30
0.0
  9
$LIMMIN
 10
0.0
 20
0.0
  9
$LIMMAX
 10
11.0
 20
8.5
  9
$VIEWCTR
 10
5.5
 20
4.25
  9
$VIEWSIZE
 40
8.5
  9
$CLAYER
  8
0
  9
$LTSCALE
 40
0.605
  9
$CELTYPE
  6
BYLAYER
  9
$DIMSCALE
 40
1.0
  9
$DIMASZ
 40
0.1
  9
$DIMEXO
 40
0.0625
  9
$DIMDLI
 40
0.418
  9
$DIMEXE
 40
0.125
  9
$DIMCEN
 40
0.099
  9
$DIMLFAC
 40
1.0
  9
$DIMBLK
  1
_FILLED
  9
$DIMALT
 70
1
  9
$DIMALTD
 70
1
  9
$DIMALTTD
 70
2
  9
$DIMALTF
 40
25.4
  9
$DIMTXT
 40
0.08
  9
$DIMTOL
 70
1
  9
$DIMLIM
 70
0
  9
$DIMTFAC
 40
1.0
  9
$DIMTP
 40
0.01
  9
$DIMTM
 40
0.01
  9
$DIMGAP
 40
0.09
  9
$DIMDSEP
 70
46
  9
$AUNITS
 70
0
  9
$PDMODE
 70
3
  9
$PDSIZE
 40
0.3125
  9
$HANDSEED
  5
2FD
  9
$TILEMODE
 70
1
  9
$MEASUREMENT
 70
0
  9
$INSUNITS
 70
1
  0
ENDSEC
  0
SECTION
  2
CLASSES
  0
CLASS
  1
ACDBDICTIONARYWDFLT
  2
AcDbDictionaryWithDefault
  3
AutoCAD 2000
 90
0
 91
1
280
0
281
0
  0
CLASS
  1
ACDBPLACEHOLDER
  2
AcDbPlaceHolder
  3
AutoCAD 2000
 90
0
 91
1
280
0
281
0
  0
CLASS
  1
LAYOUT
  2
AcDbLayout
  3
AutoCAD 2000
 90
0
 91
0
280
0
281
0
  0
ENDSEC
  0
SECTION
  2
TABLES
  0
TABLE
  2
VPORT
  5
8
100
AcDbSymbolTable
 70
2
  0
VPORT
  5
1F4
100
AcDbSymbolTableRecord
100
AcDbViewportTableRecord
  2
*ACTIVE
 70
0
 10
0.0
 20
0.0
 11
1.0
 21
1.0
 12
5.5
 22
4.25
 13
0.0
 23
0.0
 14
1.0
 24
1.0
 15
0.0
 25
0.0
 16
0.0
 26
0.0
 36
1.0
 17
0.0
 27
0.0
 37
0.0
 40
8.5
 41
1.2941176471
 42
50.0
 43
0.0
 44
0.0
 50
0.0
 51
0.0
 71
0
 72
100
 73
1
 74
1
 75
0
 76
0
 77
0
 78
0
  0
ENDTAB
  0
TABLE
  2
LTYPE
  5
5
100
AcDbSymbolTable
 70
6
  0
LTYPE
  5
14
100
AcDbSymbolTableRecord
100
AcDbLinetypeTableRecord
  2
BYBLOCK
 70
0
  3

 72
65
 73
0
 40
0.0
  0
LTYPE
  5
15
100
AcDbSymbolTableRecord
100
AcDbLinetypeTableRecord
  2
BYLAYER
 70
0
  3

 72
65
 73
0
 40
0.0
  0
LTYPE
  5
16
100
AcDbSymbolTableRecord
100
AcDbLinetypeTableRecord
  2
CONTINUOUS
 70
64
  3
Solid line
 72
65
 73
0
 40
0.0
  0
LTYPE
  5
1F5
100
AcDbSymbolTableRecord
100
AcDbLinetypeTableRecord
  2
CENTER
 70
64
  3
____ _ ____ _ ____ _ ____ _ ____ _ ____ _ ____
 72
65
 73
4
 40
0.6
 49
0.375
 74
0
 49
-0.075
 74
0
 49
0.075
 74
0
 49
-0.075
 74
0
  0
LTYPE
  5
1F6
100
AcDbSymbolTableRecord
100
AcDbLinetypeTableRecord
  2
HIDDEN
 70
64
  3
- - - - - - - - - - - - - - - - - - - -
 72
65
 73
2
 40
0.2
 49
0.1
 74
0
 49
-0.1
 74
0
  0
LTYPE
  5
1F7
100
AcDbSymbolTableRecord
100
AcDbLinetypeTableRecord
  2
PHANTOM
 70
64
  3
_____ _ _ _____ _ _ _____ _ _ _____
 72
65
 73
6
 40
0.8
 49
0.45
 74
0
 49
-0.05
 74
0
 49
0.1
 74
0
 49
-0.05
 74
0
 49
0.1
 74
0
 49
-0.05
 74
0
  0
LTYPE
  5
1F8
100
AcDbSymbolTableRecord
100
AcDbLinetypeTableRecord
  2
DOT
 70
64
  3
. . . . . . . . . . . . . . . . . . . .
 72
65
 73
2
 40
0.2
 49
0.1
 74
0
 49
-0.1
 74
0
  0
LTYPE
  5
1F9
100
AcDbSymbolTableRecord
100
AcDbLinetypeTableRecord
  2
DASHED
 70
64
  3
- - - - - - - - - - - - - - - - - - - -
 72
65
 73
2
 40
0.2
 49
0.1
 74
0
 49
-0.1
 74
0
  0
ENDTAB
  0
TABLE
  2
LAYER
  5
2
100
AcDbSymbolTable
 70
36
  0
LAYER
  5
10
100
AcDbSymbolTableRecord
100
AcDbLayerTableRecord
  2
0
 70
0
 62
7
  6
CONTINUOUS
370
-3
390
F
  0
LAYER
  5
1FA
100
AcDbSymbolTableRecord
100
AcDbLayerTableRecord
  2
DEFAULT_1
 70
0
 62
7
  6
CENTER
370
-3
390
F
  0
LAYER
  5
1FB
100
AcDbSymbolTableRecord
100
AcDbLayerTableRecord
  2
DEFAULT_2
 70
0
 62
8
  6
HIDDEN
370
-3
390
F
  0
LAYER
  5
1FC
100
AcDbSymbolTableRecord
100
AcDbLayerTableRecord
  2
DEFAULT_3
 70
0
 62
7
  6
PHANTOM
370
-3
390
F
  0
LAYER
  5
1FD
100
AcDbSymbolTableRecord
100
AcDbLayerTableRecord
  2
DEFAULT_COORDINATE_SYSTEM
 70
0
 62
7
  6
CONTINUOUS
370
-3
390
F
  0
LAYER
  5
1FE
100
AcDbSymbolTableRecord
100
AcDbLayerTableRecord
  2
DEFAULT_DATUM_AXES
 70
0
 62
7
  6
CONTINUOUS
370
-3
390
F
  0
LAYER
  5
1FF
100
AcDbSymbolTableRecord
100
AcDbLayerTableRecord
  2
DEFAULT_DATUM_PLANES
 70
0
 62
7
  6
CONTINUOUS
370
-3
390
F
  0
ENDTAB
  0
TABLE
  2
STYLE
  5
3
100
AcDbSymbolTable
 70
1
  0
STYLE
  5
11
100
AcDbSymbolTableRecord
100
AcDbTextStyleTableRecord
  2
STANDARD
 70
0
 40
0.0
 41
0.8
 50
0.0
 71
0
 42
0.2
  3
txt
  4

  0
STYLE
  5
200
100
AcDbSymbolTableRecord
100
AcDbTextStyleTableRecord
  2
TEXTSTYLE_1
 70
0
 40
0.0
 41
0.8
 50
0.0
 71
0
 42
0.2
  3
gdt
  4

  0
ENDTAB
  0
TABLE
  2
VIEW
  5
6
100
AcDbSymbolTable
 70
0
  0
ENDTAB
  0
TABLE
  2
UCS
  5
7
100
AcDbSymbolTable
 70
0
  0
ENDTAB
  0
TABLE
  2
APPID
  5
9
100
AcDbSymbolTable
 70
1
  0
APPID
  5
201
100
AcDbSymbolTableRecord
100
AcDbRegAppTableRecord
  2
ACAD
 70
0
  0
ENDTAB
  0
TABLE
  2
BLOCK_RECORD
  5
1
100
AcDbSymbolTable
 70
0
  0
BLOCK_RECORD
  5
202
100
AcDbSymbolTableRecord
100
AcDbBlockTableRecord
  2
*Model_Space
  0
BLOCK_RECORD
  5
203
100
AcDbSymbolTableRecord
100
AcDbBlockTableRecord
  2
*Paper_Space
  0
BLOCK_RECORD
  5
204
100
AcDbSymbolTableRecord
100
AcDbBlockTableRecord
  2
_FILLED
  0
ENDTAB
  0
TABLE
  2
DIMSTYLE
  5
A
100
AcDbSymbolTable
 70
1
100
AcDbDimStyleTable
 71
0
  0
DIMSTYLE
105
205
100
AcDbSymbolTableRecord
100
AcDbDimStyleTableRecord
  2
STANDARD
 70
0
  3

  4

 40
1.0
 41
0.1
 42
0.0625
 43
0.38
 44
0.125
 45
0.0
 46
0.0
 47
0.01
 48
0.01
140
0.08
141
0.09
142
0.0
143
25.4
144
1.0
145
0.0
146
1.0
147
0.09
 71
1.0
 72
0.0
 73
1
 74
1
 75
0
 76
0
 77
0
 78
4
 79
1
170
1
171
1
172
0
173
0
174
0
175
0
176
0
177
0
178
0
270
2
179
2
271
2
272
2
273
2
274
2
275
0
280
0
281
0
282
0
283
1
284
4
285
0
286
0
287
3
288
0
340
11
278
46
341
204
342
204
343
204
344
204
  0
ENDTAB
  0
ENDSEC
  0
SECTION
  2
BLOCKS
  0
BLOCK
  5
20
100
AcDbEntity
  8
0
100
AcDbBlockBegin
  2
*Model_Space
 70
0
 10
0.0
 20
0.0
 30
0.0
  3
*Model_Space
  1

  0
ENDBLK
  5
21
100
AcDbEntity
  8
0
100
AcDbBlockEnd
  0
BLOCK
  5
1C
100
AcDbEntity
  8
0
100
AcDbBlockBegin
  2
*Paper_Space
 70
0
 10
0.0
 20
0.0
 30
0.0
  3
*Paper_Space
  1

  0
ENDBLK
  5
1D
100
AcDbEntity
  8
0
100
AcDbBlockEnd
  0
BLOCK
  5
206
100
AcDbEntity
  8
0
100
AcDbBlockBegin
  2
_FILLED
 70
64
 10
0.0
 20
0.0
  3
_FILLED
  1

  0
SOLID
  5
207
100
AcDbEntity
  8
0
  6
BYBLOCK
 62
0
100
AcDbTrace
 10
0.0
 20
0.0
 11
-1.0
 21
0.2
 12
-1.0
 22
-0.2
 13
-1.0
 23
-0.2
  0
ENDBLK
  5
208
100
AcDbEntity
  8
0
  6
BYBLOCK
 62
0
100
AcDbBlockEnd
  0
ENDSEC
  0
SECTION
  2
ENTITIES
  0
MTEXT
  5
209
100
AcDbEntity
  8
0
100
AcDbMText
 62
2
  6
CONTINUOUS
  7
STANDARD
 71
3
 72
1
 10
4.5092057712
 20
0.3834769594
 30
0.0
 11
1.0
 21
0.0
 31
0.0
 73
2
 44
0.9
  1
SCALE  .500
 40
0.08
 41
0.704
  0
LINE
  5
20A
100
AcDbEntity
  8
0
100
AcDbLine
 62
7
  6
CONTINUOUS
 10
0.0
 20
0.0
 11
0.0
 21
8.5
  0
LINE
  5
20B
100
AcDbEntity
  8
0
100
AcDbLine
 62
7
  6
CONTINUOUS
 10
0.0
 20
0.0
 11
11.0
 21
0.0
  0
LINE
  5
20C
100
AcDbEntity
  8
0
100
AcDbLine
 62
7
  6
CONTINUOUS
 10
0.0
 20
8.5
 11
11.0
 21
8.5
  0
LINE
  5
20D
100
AcDbEntity
  8
0
100
AcDbLine
 62
7
  6
CONTINUOUS
 10
11.0
 20
0.0
 11
11.0
 21
8.5
  0
LINE
  5
20E
100
AcDbEntity
  8
0
100
AcDbLine
 62
7
  6
CONTINUOUS
 10
6.0794197831
 20
0.7090670215
 11
7.3569193407
 21
0.7090670215
  0
LINE
  5
20F
100
AcDbEntity
  8
0
100
AcDbLine
 62
7
  6
CONTINUOUS
 10
6.1744699945
 20
0.8451921137
 11
7.2618691293
 21
0.8451921137
  0
LINE
  5
210
100
AcDbEntity
  8
0
100
AcDbLine
 62
7
  6
CONTINUOUS
 10
6.1841029944
 20
0.8617141394
 11
7.2522361294
 21
0.8617141394
  0
LINE
  5
211
100
AcDbEntity
  8
0
100
AcDbLine
 62
7
  6
CONTINUOUS
 10
6.2331698066
 20
1.0140670215
 11
7.2031693172
 21
1.0140670215
  0
LINE
  5
212
100
AcDbEntity
  8
0
100
AcDbLine
 62
7
  6
CONTINUOUS
 10
2.5611220348
 20
5.5404317428
 11
2.5470301608
 21
5.4962045456
  0
LINE
  5
213
100
AcDbEntity
  8
0
100
AcDbLine
 62
7
  6
CONTINUOUS
 10
2.5640181979
 20
5.5438238534
 11
2.5474300803
 21
5.4917622219
  0
LINE
  5
214
100
AcDbEntity
  8
0
100
AcDbLine
 62
7
  6
CONTINUOUS
 10
2.6841756735
 20
5.9136659732
 11
2.5388136601
 21
5.4574488324
  0
LINE
  5
215
100
AcDbEntity
  8
0
100
AcDbLine
 62
7
  6
CONTINUOUS
 10
2.7129322042
 20
5.9075044593
 11
2.5658321345
 21
5.4458324471
  0
LINE
  5
216
100
AcDbEntity
  8
0
100
AcDbLine
 62
7
  6
CONTINUOUS
 10
2.74359358
 20
4.823007615
 11
2.7445532076
 21
4.8378471178
  0
LINE
  5
217
100
AcDbEntity
  8
0
100
AcDbLine
 62
7
  6
CONTINUOUS
 10
2.7572269387
 20
4.8359077644
 11
2.7562673111
 21
4.8210682616
  0
LINE
  5
218
100
AcDbEntity
  8
0
100
AcDbLine
 62
7
  6
CONTINUOUS
 10
2.7937194928
 20
4.8303236189
 11
2.7927598652
 21
4.8154841161
  0
LINE
  5
219
100
AcDbEntity
  8
0
100
AcDbLine
 62
7
  6
CONTINUOUS
 10
2.8496293295
 20
4.8217682117
 11
2.8486697019
 21
4.8069287089
  0
LINE
  5
21A
100
AcDbEntity
  8
0
100
AcDbLine
 62
7
  6
CONTINUOUS
 10
2.9182128972
 20
4.8112734511
 11
2.9172532696
 21
4.7964339483
  0
LINE
  5
21B
100
AcDbEntity
  8
0
100
AcDbLine
 62
7
  6
CONTINUOUS
 10
2.9364488042
 20
6.3896763553
 11
2.9080874004
 21
6.2043337515
  0
LINE
  5
21C
100
AcDbEntity
  8
0
100
AcDbLine
 62
7
  6
CONTINUOUS
 10
2.9101506157
 20
6.1913725347
 11
2.9120413759
 21
6.2037287082
  0
LINE
  5
21D
100
AcDbEntity
  8
0
100
AcDbLine
 62
7
  6
CONTINUOUS
 10
2.84780639
 20
4.8220471606
 11
2.8442844886
 21
4.8075997408
  0
LINE
  5
21E
100
AcDbEntity
  8
0
100
AcDbLine
 62
7
  6
CONTINUOUS
 10
2.9037162266
 20
4.8134917534
 11
2.9001943253
 21
4.7990443336
  0
LINE
  5
21F
100
AcDbEntity
  8
0
100
AcDbLine
 62
7
  6
CONTINUOUS
 10
2.5667914696
 20
5.5452568913
 11
2.5640181979
 21
5.5438238534
  0
LINE
  5
220
100
AcDbEntity
  8
0
100
AcDbLine
 62
7
  6
CONTINUOUS
 10
6.8206879223
 20
2.3055861504
 11
6.6156512015
 21
2.3055861504
  0
LINE
  5
221
100
AcDbEntity
  8
0
100
AcDbLine
 62
7
  6
CONTINUOUS
 10
6.8035382406
 20
2.3301691854
 11
6.6328008832
 21
2.3301691854
  0
LINE
  5
222
100
AcDbEntity
  8
0
100
AcDbLine
 62
7
  6
CONTINUOUS
 10
6.8081695619
 20
2.34251015
 11
6.6281695619
 21
2.34251015
  0
LINE
  5
223
100
AcDbEntity
  8
0
100
AcDbLine
 62
7
  6
CONTINUOUS
 10
6.8139913441
 20
2.3559971211
 11
6.6223477797
 21
2.3559971211
  0
LINE
  5
224
100
AcDbEntity
  8
0
100
AcDbLine
 62
7
  6
CONTINUOUS
 10
2.9911980054
 20
4.8001051601
 11
2.9902383778
 21
4.7852656573
  0
LINE
  5
225
100
AcDbEntity
  8
0
100
AcDbLine
 62
7
  6
CONTINUOUS
 10
3.0597815731
 20
4.7896103995
 11
3.0588219455
 21
4.7747708967
  0
LINE
  5
226
100
AcDbEntity
  8
0
100
AcDbLine
 62
7
  6
CONTINUOUS
 10
3.1156914098
 20
4.7810549923
 11
3.1147317822
 21
4.7662154895
  0
LINE
  5
227
100
AcDbEntity
  8
0
100
AcDbLine
 62
7
  6
CONTINUOUS
 10
2.9722997943
 20
4.8029969928
 11
2.968777893
 21
4.788549573
  0
LINE
  5
228
100
AcDbEntity
  8
0
100
AcDbLine
 62
7
  6
CONTINUOUS
 10
3.0452849026
 20
4.7918287018
 11
3.0417630012
 21
4.777381282
  0
LINE
  5
229
100
AcDbEntity
  8
0
100
AcDbLine
 62
7
  6
CONTINUOUS
 10
3.1138684703
 20
4.7813339412
 11
3.1103465689
 21
4.7668865214
  0
LINE
  5
22A
100
AcDbEntity
  8
0
100
AcDbLine
 62
7
  6
CONTINUOUS
 10
3.1697783069
 20
4.772778534
 11
3.1662564056
 21
4.7583311142
  0
LINE
  5
22B
100
AcDbEntity
  8
0
100
AcDbLine
 62
7
  6
CONTINUOUS
 10
3.206270861
 20
4.7671943885
 11
3.2027489597
 21
4.7527469687
  0
LINE
  5
22C
100
AcDbEntity
  8
0
100
AcDbLine
 62
7
  6
CONTINUOUS
 10
3.2154226908
 20
4.7508076153
 11
3.2189445921
 21
4.7652550351
  0
LINE
  5
22D
100
AcDbEntity
  8
0
100
AcDbLine
 62
7
  6
CONTINUOUS
 10
6.8122409905
 20
2.4816594361
 11
6.7253306746
 21
2.4816594361
  0
LINE
  5
22E
100
AcDbEntity
  8
0
100
AcDbLine
 62
7
  6
CONTINUOUS
 10
6.7110084492
 20
2.4816594361
 11
6.6240981333
 21
2.4816594361
  0
LINE
  5
22F
100
AcDbEntity
  8
0
100
AcDbLine
 62
7
  6
CONTINUOUS
 10
6.6201695619
 20
2.4919721487
 11
6.6428928797
 21
2.4919721487
  0
LINE
  5
230
100
AcDbEntity
  8
0
100
AcDbLine
 62
7
  6
CONTINUOUS
 10
6.7934462441
 20
2.4919721487
 11
6.8161695619
 21
2.4919721487
  0
LINE
  5
231
100
AcDbEntity
  8
0
100
AcDbLine
 62
7
  6
CONTINUOUS
 10
6.5063729874
 20
2.495719793
 11
6.5646836035
 21
2.495719793
  0
LINE
  5
232
100
AcDbEntity
  8
0
100
AcDbLine
 62
7
  6
CONTINUOUS
 10
6.8716555203
 20
2.495719793
 11
6.9299661364
 21
2.495719793
  0
LINE
  5
233
100
AcDbEntity
  8
0
100
AcDbLine
 62
7
  6
CONTINUOUS
 10
6.6201695619
 20
2.4990670215
 11
6.6211837382
 21
2.4990670215
  0
LINE
  5
234
100
AcDbEntity
  8
0
100
AcDbLine
 62
7
  6
CONTINUOUS
 10
6.8151553856
 20
2.4990670215
 11
6.8161695619
 21
2.4990670215
  0
LINE
  5
235
100
AcDbEntity
  8
0
100
AcDbLine
 62
7
  6
CONTINUOUS
 10
3.4675749403
 20
6.1187201273
 11
3.4656841801
 21
6.1063639537
  0
LINE
  5
236
100
AcDbEntity
  8
0
100
AcDbLine
 62
7
  6
CONTINUOUS
 10
3.4919491266
 20
6.2515617587
 11
3.4715289159
 21
6.118115084
  0
LINE
  5
237
100
AcDbEntity
  8
0
100
AcDbLine
 62
7
  6
CONTINUOUS
 10
7.0253566874
 20
2.7700727365
 11
7.016217592
 21
2.7697453065
  0
LINE
  5
238
100
AcDbEntity
  8
0
100
AcDbLine
 62
7
  6
CONTINUOUS
 10
6.4201215318
 20
2.7697453065
 11
6.4408904596
 21
2.7697453065
  0
LINE
  5
239
100
AcDbEntity
  8
0
100
AcDbLine
 62
7
  6
CONTINUOUS
 10
6.9954486642
 20
2.7697453065
 11
7.016217592
 21
2.7697453065
  0
LINE
  5
23A
100
AcDbEntity
  8
0
100
AcDbLine
 62
7
  6
CONTINUOUS
 10
6.4109824364
 20
2.7700727365
 11
6.4201215318
 21
2.7697453065
  0
LINE
  5
23B
100
AcDbEntity
  8
0
100
AcDbLine
 62
7
  6
CONTINUOUS
 10
2.5474300803
 20
5.4917622219
 11
2.5488631182
 21
5.4889889502
  0
LINE
  5
23C
100
AcDbEntity
  8
0
100
AcDbLine
 62
7
  6
CONTINUOUS
 10
6.6196695619
 20
3.0190670215
 11
6.6211837382
 21
3.0190670215
  0
LINE
  5
23D
100
AcDbEntity
  8
0
100
AcDbLine
 62
7
  6
CONTINUOUS
 10
6.8151553856
 20
3.0190670215
 11
6.8166695619
 21
3.0190670215
  0
LINE
  5
23E
100
AcDbEntity
  8
0
100
AcDbLine
 62
7
  6
CONTINUOUS
 10
6.6196695619
 20
3.0490670215
 11
6.8166695619
 21
3.0490670215
  0
LINE
  5
23F
100
AcDbEntity
  8
0
100
AcDbLine
 62
7
  6
CONTINUOUS
 10
6.5774195619
 20
3.1490670215
 11
6.8589195619
 21
3.1490670215
  0
LINE
  5
240
100
AcDbEntity
  8
0
100
AcDbLine
 62
7
  6
CONTINUOUS
 10
6.5774195619
 20
3.2015670215
 11
6.8589195619
 21
3.2015670215
  0
LINE
  5
241
100
AcDbEntity
  8
0
100
AcDbLine
 62
7
  6
CONTINUOUS
 10
7.1931695619
 20
3.7990670215
 11
6.8629179379
 21
3.7990670215
  0
LINE
  5
242
100
AcDbEntity
  8
0
100
AcDbLine
 62
7
  6
CONTINUOUS
 10
6.5734211859
 20
3.7990670215
 11
6.2431695619
 21
3.7990670215
  0
LINE
  5
243
100
AcDbEntity
  8
0
100
AcDbLine
 62
7
  6
CONTINUOUS
 10
7.2181694874
 20
3.8140670215
 11
6.863805636
 21
3.8140670215
  0
LINE
  5
244
100
AcDbEntity
  8
0
100
AcDbLine
 62
7
  6
CONTINUOUS
 10
6.2181696364
 20
3.8140670215
 11
6.5725334878
 21
3.8140670215
  0
LINE
  5
245
100
AcDbEntity
  8
0
100
AcDbLine
 62
7
  6
CONTINUOUS
 10
7.2481695619
 20
3.8440670215
 11
6.8655810323
 21
3.8440670215
  0
LINE
  5
246
100
AcDbEntity
  8
0
100
AcDbLine
 62
7
  6
CONTINUOUS
 10
6.1881695619
 20
3.8440670215
 11
6.5707580915
 21
3.8440670215
  0
LINE
  5
247
100
AcDbEntity
  8
0
100
AcDbLine
 62
7
  6
CONTINUOUS
 10
7.2364974662
 20
3.8640670215
 11
6.8669575403
 21
3.8640670215
  0
LINE
  5
248
100
AcDbEntity
  8
0
100
AcDbLine
 62
7
  6
CONTINUOUS
 10
6.1998416576
 20
3.8640670215
 11
6.5693815835
 21
3.8640670215
  0
LINE
  5
249
100
AcDbEntity
  8
0
100
AcDbLine
 62
7
  6
CONTINUOUS
 10
7.1881695619
 20
4.0490670215
 11
6.8823082856
 21
4.0490670215
  0
LINE
  5
24A
100
AcDbEntity
  8
0
100
AcDbLine
 62
7
  6
CONTINUOUS
 10
6.2481695619
 20
4.0490670215
 11
6.5540308383
 21
4.0490670215
  0
LINE
  5
24B
100
AcDbEntity
  8
0
100
AcDbLine
 62
7
  6
CONTINUOUS
 10
7.1881695619
 20
4.0740670215
 11
6.8847683878
 21
4.0740670215
  0
LINE
  5
24C
100
AcDbEntity
  8
0
100
AcDbLine
 62
7
  6
CONTINUOUS
 10
6.551570736
 20
4.0740670215
 11
6.2481695619
 21
4.0740670215
  0
LINE
  5
24D
100
AcDbEntity
  8
0
100
AcDbLine
 62
7
  6
CONTINUOUS
 10
7.1731695619
 20
4.0890670215
 11
6.8863594882
 21
4.0890670215
  0
LINE
  5
24E
100
AcDbEntity
  8
0
100
AcDbLine
 62
7
  6
CONTINUOUS
 10
6.5499796356
 20
4.0890670215
 11
6.2631695619
 21
4.0890670215
  0
LINE
  5
24F
100
AcDbEntity
  8
0
100
AcDbLine
 62
7
  6
CONTINUOUS
 10
6.4331695619
 20
4.0965670215
 11
6.5491677415
 21
4.0965670215
  0
LINE
  5
250
100
AcDbEntity
  8
0
100
AcDbLine
 62
7
  6
CONTINUOUS
 10
6.8871713823
 20
4.0965670215
 11
7.0031695619
 21
4.0965670215
  0
LINE
  5
251
100
AcDbEntity
  8
0
100
AcDbLine
 62
7
  6
CONTINUOUS
 10
6.5306695619
 20
4.2515670215
 11
6.9056695619
 21
4.2515670215
  0
LINE
  5
252
100
AcDbEntity
  8
0
100
AcDbLine
 62
7
  6
CONTINUOUS
 10
6.6181695619
 20
4.4890670215
 11
6.8181695619
 21
4.4890670215
  0
LINE
  5
253
100
AcDbEntity
  8
0
100
AcDbLine
 62
7
  6
CONTINUOUS
 10
6.6181695619
 20
4.5190670215
 11
6.8181695619
 21
4.5190670215
  0
LINE
  5
254
100
AcDbEntity
  8
0
100
AcDbLine
 62
7
  6
CONTINUOUS
 10
6.6281695619
 20
4.5290670215
 11
6.8081695619
 21
4.5290670215
  0
LINE
  5
255
100
AcDbEntity
  8
0
100
AcDbLine
 62
7
  6
CONTINUOUS
 10
2.9621451812
 20
4.7841109586
 11
2.9222551438
 21
4.7902149921
  0
LINE
  5
256
100
AcDbEntity
  8
0
100
AcDbLine
 62
7
  6
CONTINUOUS
 10
2.893546061
 20
4.7946080991
 11
2.8536871287
 21
4.8007073728
  0
LINE
  5
257
100
AcDbEntity
  8
0
100
AcDbLine
 62
7
  6
CONTINUOUS
 10
2.74859351
 20
4.8167889563
 11
2.8376535959
 21
4.8031608481
  0
LINE
  5
258
100
AcDbEntity
  8
0
100
AcDbLine
 62
7
  6
CONTINUOUS
 10
2.9952383078
 20
4.7790469987
 11
3.0351321249
 21
4.7729423868
  0
LINE
  5
259
100
AcDbEntity
  8
0
100
AcDbLine
 62
7
  6
CONTINUOUS
 10
3.0638218754
 20
4.7685522381
 11
3.1037158016
 21
4.7624476095
  0
LINE
  5
25A
100
AcDbEntity
  8
0
100
AcDbLine
 62
7
  6
CONTINUOUS
 10
3.1197317121
 20
4.7599968308
 11
3.1961179759
 21
4.7483080899
  0
LINE
  5
25B
100
AcDbEntity
  8
0
100
AcDbLine
 62
7
  6
CONTINUOUS
 10
3.1964881991
 20
4.7482514378
 11
3.2087919234
 21
4.7463687034
  0
LINE
  5
25C
100
AcDbEntity
  8
0
100
AcDbLine
 62
7
  6
CONTINUOUS
 10
2.74359358
 20
4.823007615
 11
2.8442844886
 21
4.8075997408
  0
LINE
  5
25D
100
AcDbEntity
  8
0
100
AcDbLine
 62
7
  6
CONTINUOUS
 10
2.8486697019
 20
4.8069287089
 11
2.9001943253
 21
4.7990443336
  0
LINE
  5
25E
100
AcDbEntity
  8
0
100
AcDbLine
 62
7
  6
CONTINUOUS
 10
2.9172532696
 20
4.7964339483
 11
2.968777893
 21
4.788549573
  0
LINE
  5
25F
100
AcDbEntity
  8
0
100
AcDbLine
 62
7
  6
CONTINUOUS
 10
2.9902383778
 20
4.7852656573
 11
3.0417630012
 21
4.777381282
  0
LINE
  5
260
100
AcDbEntity
  8
0
100
AcDbLine
 62
7
  6
CONTINUOUS
 10
3.0588219455
 20
4.7747708967
 11
3.1103465689
 21
4.7668865214
  0
LINE
  5
261
100
AcDbEntity
  8
0
100
AcDbLine
 62
7
  6
CONTINUOUS
 10
3.1147317822
 20
4.7662154895
 11
3.2154226908
 21
4.7508076153
  0
LINE
  5
262
100
AcDbEntity
  8
0
100
AcDbLine
 62
7
  6
CONTINUOUS
 10
3.3311814889
 20
4.7480803765
 11
2.6323163109
 21
4.8550217764
  0
LINE
  5
263
100
AcDbEntity
  8
0
100
AcDbLine
 62
7
  6
CONTINUOUS
 10
3.4012559477
 20
4.8509905337
 11
2.5962227712
 21
4.9741779203
  0
LINE
  5
264
100
AcDbEntity
  8
0
100
AcDbLine
 62
7
  6
CONTINUOUS
 10
3.3969955176
 20
4.9023964513
 11
2.6156607118
 21
5.0219574776
  0
LINE
  5
265
100
AcDbEntity
  8
0
100
AcDbLine
 62
7
  6
CONTINUOUS
 10
2.5703539908
 20
5.3957485247
 11
2.6318332691
 21
5.375567075
  0
LINE
  5
266
100
AcDbEntity
  8
0
100
AcDbLine
 62
7
  6
CONTINUOUS
 10
6.8035382406
 20
2.3301691854
 11
6.8206879223
 21
2.3055861504
  0
LINE
  5
267
100
AcDbEntity
  8
0
100
AcDbLine
 62
7
  6
CONTINUOUS
 10
6.2181695619
 20
3.8140670215
 11
6.1881695619
 21
3.8440670215
  0
LINE
  5
268
100
AcDbEntity
  8
0
100
AcDbLine
 62
7
  6
CONTINUOUS
 10
2.665337641
 20
5.8545430074
 11
2.6615864449
 21
5.8557382308
  0
LINE
  5
269
100
AcDbEntity
  8
0
100
AcDbLine
 62
7
  6
CONTINUOUS
 10
6.628169562
 20
4.5290670217
 11
6.618169562
 21
4.5190670217
  0
LINE
  5
26A
100
AcDbEntity
  8
0
100
AcDbLine
 62
7
  6
CONTINUOUS
 10
6.6196695619
 20
3.0490670215
 11
6.5774195619
 21
3.1490670215
  0
LINE
  5
26B
100
AcDbEntity
  8
0
100
AcDbLine
 62
7
  6
CONTINUOUS
 10
6.2431695619
 20
1.0140670215
 11
6.2431695619
 21
2.5134921267
  0
LINE
  5
26C
100
AcDbEntity
  8
0
100
AcDbLine
 62
7
  6
CONTINUOUS
 10
6.2431695619
 20
3.0046419164
 11
6.2431695619
 21
3.7990670215
  0
LINE
  5
26D
100
AcDbEntity
  8
0
100
AcDbLine
 62
7
  6
CONTINUOUS
 10
6.2481695619
 20
4.0490670215
 11
6.2481695619
 21
4.0740670215
  0
LINE
  5
26E
100
AcDbEntity
  8
0
100
AcDbLine
 62
7
  6
CONTINUOUS
 10
6.4331695619
 20
4.0965670215
 11
6.4331695619
 21
6.0803289031
  0
LINE
  5
26F
100
AcDbEntity
  8
0
100
AcDbLine
 62
7
  6
CONTINUOUS
 10
6.1881695619
 20
3.8440670215
 11
6.1998416576
 21
3.8640670215
  0
LINE
  5
270
100
AcDbEntity
  8
0
100
AcDbLine
 62
7
  6
CONTINUOUS
 10
2.7870474341
 20
5.9408411976
 11
2.7376367743
 21
5.9474982127
  0
LINE
  5
271
100
AcDbEntity
  8
0
100
AcDbLine
 62
7
  6
CONTINUOUS
 10
3.4939341687
 20
5.9686874629
 11
2.8420224503
 21
6.0684439739
  0
LINE
  5
272
100
AcDbEntity
  8
0
100
AcDbLine
 62
7
  6
CONTINUOUS
 10
3.4996349012
 20
6.0109711734
 11
2.8492271357
 21
6.1104975472
  0
LINE
  5
273
100
AcDbEntity
  8
0
100
AcDbLine
 62
7
  6
CONTINUOUS
 10
3.4656841801
 20
6.1063639537
 11
2.9101506157
 21
6.1913725347
  0
LINE
  5
274
100
AcDbEntity
  8
0
100
AcDbLine
 62
7
  6
CONTINUOUS
 10
3.4715289159
 20
6.118115084
 11
2.9080874004
 21
6.2043337515
  0
LINE
  5
275
100
AcDbEntity
  8
0
100
AcDbLine
 62
7
  6
CONTINUOUS
 10
6.8081695618
 20
4.5290670217
 11
6.8181695618
 21
4.5190670217
  0
LINE
  5
276
100
AcDbEntity
  8
0
100
AcDbLine
 62
7
  6
CONTINUOUS
 10
6.5774195619
 20
3.1490670215
 11
6.5774195619
 21
3.2015670215
  0
LINE
  5
277
100
AcDbEntity
  8
0
100
AcDbLine
 62
7
  6
CONTINUOUS
 10
6.6181695619
 20
4.4890670215
 11
6.6181695619
 21
4.5190670215
  0
LINE
  5
278
100
AcDbEntity
  8
0
100
AcDbLine
 62
7
  6
CONTINUOUS
 10
6.6196695619
 20
3.0190670215
 11
6.6196695619
 21
3.0490670215
  0
LINE
  5
279
100
AcDbEntity
  8
0
100
AcDbLine
 62
7
  6
CONTINUOUS
 10
6.6201695619
 20
2.4919721487
 11
6.6201695619
 21
2.4990670215
  0
LINE
  5
27A
100
AcDbEntity
  8
0
100
AcDbLine
 62
7
  6
CONTINUOUS
 10
6.4331695619
 20
6.0803289031
 11
7.0031695619
 21
6.0803289031
  0
LINE
  5
27B
100
AcDbEntity
  8
0
100
AcDbLine
 62
7
  6
CONTINUOUS
 10
3.494980897
 20
6.304208935
 11
2.9364488042
 21
6.3896763553
  0
LINE
  5
27C
100
AcDbEntity
  8
0
100
AcDbLine
 62
7
  6
CONTINUOUS
 10
7.2481695619
 20
3.8440670215
 11
7.2364974662
 21
3.8640670215
  0
LINE
  5
27D
100
AcDbEntity
  8
0
100
AcDbLine
 62
7
  6
CONTINUOUS
 10
6.8161695619
 20
2.4919721487
 11
6.8161695619
 21
2.4990670215
  0
LINE
  5
27E
100
AcDbEntity
  8
0
100
AcDbLine
 62
7
  6
CONTINUOUS
 10
6.8166695619
 20
3.0190670215
 11
6.8166695619
 21
3.0490670215
  0
LINE
  5
27F
100
AcDbEntity
  8
0
100
AcDbLine
 62
7
  6
CONTINUOUS
 10
6.8181695619
 20
4.4890670215
 11
6.8181695619
 21
4.5190670215
  0
LINE
  5
280
100
AcDbEntity
  8
0
100
AcDbLine
 62
7
  6
CONTINUOUS
 10
6.8589195619
 20
3.1490670215
 11
6.8589195619
 21
3.2015670215
  0
LINE
  5
281
100
AcDbEntity
  8
0
100
AcDbLine
 62
7
  6
CONTINUOUS
 10
7.0031695619
 20
4.0965670215
 11
7.0031695619
 21
6.0803289031
  0
LINE
  5
282
100
AcDbEntity
  8
0
100
AcDbLine
 62
7
  6
CONTINUOUS
 10
7.2181695619
 20
3.8140670215
 11
7.2481695619
 21
3.8440670215
  0
LINE
  5
283
100
AcDbEntity
  8
0
100
AcDbLine
 62
7
  6
CONTINUOUS
 10
7.1881695619
 20
4.0490670215
 11
7.1881695619
 21
4.0740670215
  0
LINE
  5
284
100
AcDbEntity
  8
0
100
AcDbLine
 62
7
  6
CONTINUOUS
 10
7.1931695619
 20
1.0140670215
 11
7.1931695619
 21
2.5134921267
  0
LINE
  5
285
100
AcDbEntity
  8
0
100
AcDbLine
 62
7
  6
CONTINUOUS
 10
7.1931695619
 20
3.0046419164
 11
7.1931695619
 21
3.7990670215
  0
LINE
  5
286
100
AcDbEntity
  8
0
100
AcDbLine
 62
7
  6
CONTINUOUS
 10
6.8166695619
 20
3.0490670215
 11
6.8589195619
 21
3.1490670215
  0
LINE
  5
287
100
AcDbEntity
  8
0
100
AcDbLine
 62
7
  6
CONTINUOUS
 10
6.6328008832
 20
2.3301691854
 11
6.6156512015
 21
2.3055861504
  0
ARC
  5
288
100
AcDbEntity
  8
0
100
AcDbCircle
 62
7
  6
CONTINUOUS
 10
0.6676860373
 20
-9.8119604405
 40
15.8683774211
100
AcDbArc
 50
82.3409459965
 51
82.5165267175
  0
ARC
  5
289
100
AcDbEntity
  8
0
100
AcDbCircle
 62
7
  6
CONTINUOUS
 10
0.5830186127
 20
3.4607141995
 40
6.0
100
AcDbArc
 50
357.5245566829
 51
7.5741286837
  0
ARC
  5
28A
100
AcDbEntity
  8
0
100
AcDbCircle
 62
7
  6
CONTINUOUS
 10
1.5263590875
 20
5.6100117044
 40
2.0
100
AcDbArc
 50
339.2796157448
 51
10.3311955299
  0
ARC
  5
28B
100
AcDbEntity
  8
0
100
AcDbCircle
 62
7
  6
CONTINUOUS
 10
3.3416184854
 20
4.8162864547
 40
0.069
100
AcDbArc
 50
261.3
 51
30.1958713343
  0
ARC
  5
28C
100
AcDbEntity
  8
0
100
AcDbCircle
 62
7
  6
CONTINUOUS
 10
2.6427533075
 20
4.9232278546
 40
0.069
100
AcDbArc
 50
132.4041286657
 51
261.3
  0
ARC
  5
28D
100
AcDbEntity
  8
0
100
AcDbCircle
 62
7
  6
CONTINUOUS
 10
3.4531146105
 20
4.8811679937
 40
0.06
100
AcDbArc
 50
159.2796157448
 51
210.1958713343
  0
ARC
  5
28E
100
AcDbEntity
  8
0
100
AcDbCircle
 62
7
  6
CONTINUOUS
 10
2.5557614353
 20
5.0184823253
 40
0.06
100
AcDbArc
 50
312.4041286657
 51
3.3203842552
  0
ARC
  5
28F
100
AcDbEntity
  8
0
100
AcDbCircle
 62
7
  6
CONTINUOUS
 10
2.7621605136
 20
4.8206871653
 40
0.0059055118
100
AcDbArc
 50
176.3
 51
261.3
  0
ARC
  5
290
100
AcDbEntity
  8
0
100
AcDbCircle
 62
7
  6
CONTINUOUS
 10
2.8385469938
 20
4.8089983913
 40
0.0059055118
100
AcDbArc
 50
261.3
 51
346.3
  0
ARC
  5
291
100
AcDbEntity
  8
0
100
AcDbCircle
 62
7
  6
CONTINUOUS
 10
2.7986530677
 20
4.8151030198
 40
0.0059055118
100
AcDbArc
 50
176.3
 51
261.3
  0
ARC
  5
292
100
AcDbEntity
  8
0
100
AcDbCircle
 62
7
  6
CONTINUOUS
 10
2.8545629043
 20
4.8065476126
 40
0.0059055118
100
AcDbArc
 50
176.3
 51
261.3
  0
ARC
  5
293
100
AcDbEntity
  8
0
100
AcDbCircle
 62
7
  6
CONTINUOUS
 10
2.8944568305
 20
4.800442984
 40
0.0059055118
100
AcDbArc
 50
261.3
 51
346.3
  0
ARC
  5
294
100
AcDbEntity
  8
0
100
AcDbCircle
 62
7
  6
CONTINUOUS
 10
2.923146472
 20
4.796052852
 40
0.0059055118
100
AcDbArc
 50
176.3
 51
261.3
  0
ARC
  5
295
100
AcDbEntity
  8
0
100
AcDbCircle
 62
7
  6
CONTINUOUS
 10
2.9630403982
 20
4.7899482234
 40
0.0059055118
100
AcDbArc
 50
261.3
 51
346.3
  0
ARC
  5
296
100
AcDbEntity
  8
0
100
AcDbCircle
 62
7
  6
CONTINUOUS
 10
2.9961315803
 20
4.784884561
 40
0.0059055118
100
AcDbArc
 50
176.3
 51
261.3
  0
ARC
  5
297
100
AcDbEntity
  8
0
100
AcDbCircle
 62
7
  6
CONTINUOUS
 10
3.0360255064
 20
4.7787799325
 40
0.0059055118
100
AcDbArc
 50
261.3
 51
346.3
  0
ARC
  5
298
100
AcDbEntity
  8
0
100
AcDbCircle
 62
7
  6
CONTINUOUS
 10
3.064715148
 20
4.7743898004
 40
0.0059055118
100
AcDbArc
 50
176.3
 51
261.3
  0
ARC
  5
299
100
AcDbEntity
  8
0
100
AcDbCircle
 62
7
  6
CONTINUOUS
 10
3.1046090741
 20
4.7682851719
 40
0.0059055118
100
AcDbArc
 50
261.3
 51
346.3
  0
ARC
  5
29A
100
AcDbEntity
  8
0
100
AcDbCircle
 62
7
  6
CONTINUOUS
 10
3.1206249846
 20
4.7658343932
 40
0.0059055118
100
AcDbArc
 50
176.3
 51
261.3
  0
ARC
  5
29B
100
AcDbEntity
  8
0
100
AcDbCircle
 62
7
  6
CONTINUOUS
 10
3.1605189108
 20
4.7597297646
 40
0.0059055118
100
AcDbArc
 50
261.3
 51
346.3
  0
ARC
  5
29C
100
AcDbEntity
  8
0
100
AcDbCircle
 62
7
  6
CONTINUOUS
 10
3.1970114649
 20
4.7541456191
 40
0.0059055118
100
AcDbArc
 50
261.3
 51
346.3
  0
ARC
  5
29D
100
AcDbEntity
  8
0
100
AcDbCircle
 62
7
  6
CONTINUOUS
 10
3.209685196
 20
4.7522062658
 40
0.0059055118
100
AcDbArc
 50
261.3
 51
346.2999999956
  0
ARC
  5
29E
100
AcDbEntity
  8
0
100
AcDbCircle
 62
7
  6
CONTINUOUS
 10
2.7494867825
 20
4.8226265187
 40
0.0059055118
100
AcDbArc
 50
176.3000000044
 51
261.3
  0
ARC
  5
29F
100
AcDbEntity
  8
0
100
AcDbCircle
 62
7
  6
CONTINUOUS
 10
2.917506509
 20
6.1204437617
 40
0.069
100
AcDbArc
 50
81.3
 51
188.2879469452
  0
ARC
  5
2A0
100
AcDbEntity
  8
0
100
AcDbCircle
 62
7
  6
CONTINUOUS
 10
3.4374542935
 20
6.0408805703
 40
0.069
100
AcDbArc
 50
334.3120530548
 51
81.3
  0
ARC
  5
2A1
100
AcDbEntity
  8
0
100
AcDbCircle
 62
7
  6
CONTINUOUS
 10
3.561815509
 20
5.9810617766
 40
0.069
100
AcDbArc
 50
154.3120530548
 51
190.3311955299
  0
ARC
  5
2A2
100
AcDbEntity
  8
0
100
AcDbCircle
 62
7
  6
CONTINUOUS
 10
2.7809477624
 20
6.1005513328
 40
0.069
100
AcDbArc
 50
332.2688044701
 51
8.2879469452
  0
ARC
  5
2A3
100
AcDbEntity
  8
0
100
AcDbCircle
 62
7
  6
CONTINUOUS
 10
2.5857029016
 20
5.4425063131
 40
0.0492125984
100
AcDbArc
 50
162.3268404051
 51
251.8268395387
  0
ARC
  5
2A4
100
AcDbEntity
  8
0
100
AcDbCircle
 62
7
  6
CONTINUOUS
 10
2.7310658126
 20
5.8987262709
 40
0.0492125984
100
AcDbArc
 50
82.3255479151
 51
162.3268404051
  0
ARC
  5
2A5
100
AcDbEntity
  8
0
100
AcDbCircle
 62
7
  6
CONTINUOUS
 10
2.673529239
 20
5.815410688
 40
0.0236220472
100
AcDbArc
 50
128.7695306432
 51
195.884150167
  0
ARC
  5
2A6
100
AcDbEntity
  8
0
100
AcDbCircle
 62
7
  6
CONTINUOUS
 10
2.6840936213
 20
5.8485668902
 40
0.0236220472
100
AcDbArc
 50
128.7695306431
 51
195.884150167
  0
ARC
  5
2A7
100
AcDbEntity
  8
0
100
AcDbCircle
 62
7
  6
CONTINUOUS
 10
2.6946580037
 20
5.8817230925
 40
0.0236220472
100
AcDbArc
 50
128.7695306431
 51
195.884150167
  0
ARC
  5
2A8
100
AcDbEntity
  8
0
100
AcDbCircle
 62
7
  6
CONTINUOUS
 10
2.6691533285
 20
5.8016769393
 40
0.0236220472
100
AcDbArc
 50
144.5620829177
 51
195.884150167
  0
ARC
  5
2A9
100
AcDbEntity
  8
0
100
AcDbCircle
 62
7
  6
CONTINUOUS
 10
2.6990339141
 20
5.8954568411
 40
0.0236220472
100
AcDbArc
 50
128.7673978789
 51
180.0915978924
  0
ARC
  5
2AA
100
AcDbEntity
  8
0
100
AcDbCircle
 62
7
  6
CONTINUOUS
 10
2.5526765563
 20
5.494473229
 40
0.0059055118
100
AcDbArc
 50
162.3267205068
 51
207.3267176999
  0
ARC
  5
2AB
100
AcDbEntity
  8
0
100
AcDbCircle
 62
7
  6
CONTINUOUS
 10
2.5667292275
 20
5.5385773891
 40
0.0059055118
100
AcDbArc
 50
117.3269631102
 51
162.3269603033
  0
ARC
  5
2AC
100
AcDbEntity
  8
0
100
AcDbCircle
 62
7
  6
CONTINUOUS
 10
6.7124573907
 20
2.5887827537
 40
0.1844042703
100
AcDbArc
 50
329.6905879942
 51
345.2343557535
  0
ARC
  5
2AD
100
AcDbEntity
  8
0
100
AcDbCircle
 62
7
  6
CONTINUOUS
 10
6.3567719536
 20
0.8901822009
 40
0.175
100
AcDbArc
 50
134.9346148905
 51
189.3621759922
  0
ARC
  5
2AE
100
AcDbEntity
  8
0
100
AcDbCircle
 62
7
  6
CONTINUOUS
 10
6.2244195619
 20
0.7090670215
 40
0.145
100
AcDbArc
 50
110.150042552
 51
180.0
  0
ARC
  5
2AF
100
AcDbEntity
  8
0
100
AcDbCircle
 62
7
  6
CONTINUOUS
 10
6.5546695619
 20
2.4197831606
 40
0.093
100
AcDbArc
 50
316.6958241996
 51
41.7081302521
  0
ARC
  5
2B0
100
AcDbEntity
  8
0
100
AcDbCircle
 62
7
  6
CONTINUOUS
 10
6.6356695619
 20
2.4919721487
 40
0.0155
100
AcDbArc
 50
180.0
 51
221.7081302521
  0
ARC
  5
2B1
100
AcDbEntity
  8
0
100
AcDbCircle
 62
7
  6
CONTINUOUS
 10
6.1693027979
 20
0.8592740198
 40
0.015
100
AcDbArc
 50
290.150042552
 51
9.3621759922
  0
ARC
  5
2B2
100
AcDbEntity
  8
0
100
AcDbCircle
 62
7
  6
CONTINUOUS
 10
6.6281695619
 20
2.35051015
 40
0.008
100
AcDbArc
 50
136.6958241996
 51
270.0
  0
ARC
  5
2B3
100
AcDbEntity
  8
0
100
AcDbCircle
 62
7
  6
CONTINUOUS
 10
6.6262397082
 20
2.3347464096
 40
0.008
100
AcDbArc
 50
325.0995
 51
76.0407512246
  0
ARC
  5
2B4
100
AcDbEntity
  8
0
100
AcDbCircle
 62
7
  6
CONTINUOUS
 10
4.9580434554
 20
6.0803288851
 40
2.0451261065
100
AcDbArc
 50
0.0000005064
 51
171.2999994936
  0
ARC
  5
2B5
100
AcDbEntity
  8
0
100
AcDbCircle
 62
7
  6
CONTINUOUS
 10
4.6123032592
 20
5.1377958891
 40
2.0
100
AcDbArc
 50
152.2688044701
 51
156.3009609147
  0
ARC
  5
2B6
100
AcDbEntity
  8
0
100
AcDbCircle
 62
7
  6
CONTINUOUS
 10
4.6123032592
 20
5.1377958891
 40
2.0
100
AcDbArc
 50
173.1234950086
 51
183.3203842552
  0
ARC
  5
2B7
100
AcDbEntity
  8
0
100
AcDbCircle
 62
7
  6
CONTINUOUS
 10
4.9580434551
 20
6.0803288851
 40
1.4751261068
100
AcDbArc
 50
0.0000006996
 51
169.2604015999
  0
ARC
  5
2B8
100
AcDbEntity
  8
0
100
AcDbCircle
 62
7
  6
CONTINUOUS
 10
3.7747074965
 20
6.2617120856
 40
0.2829404072
100
AcDbArc
 50
171.3615205836
 51
182.0558941338
  0
ARC
  5
2B9
100
AcDbEntity
  8
0
100
AcDbCircle
 62
7
  6
CONTINUOUS
 10
6.6366805036
 20
4.2873342106
 40
0.2713566017
100
AcDbArc
 50
352.4258713163
 51
48.0238475461
  0
ARC
  5
2BA
100
AcDbEntity
  8
0
100
AcDbCircle
 62
7
  6
CONTINUOUS
 10
6.3019195619
 20
3.9362134106
 40
0.125
100
AcDbArc
 50
115.4675601425
 51
215.2518187511
  0
ARC
  5
2BB
100
AcDbEntity
  8
0
100
AcDbCircle
 62
7
  6
CONTINUOUS
 10
6.2631695619
 20
4.0740670215
 40
0.015
100
AcDbArc
 50
90.0
 51
180.0
  0
ARC
  5
2BC
100
AcDbEntity
  8
0
100
AcDbCircle
 62
7
  6
CONTINUOUS
 10
6.2581695619
 20
3.7990670215
 40
0.015
100
AcDbArc
 50
90.0
 51
180.0
  0
ARC
  5
2BD
100
AcDbEntity
  8
0
100
AcDbCircle
 62
7
  6
CONTINUOUS
 10
7.0795671702
 20
0.8901822009
 40
0.175
100
AcDbArc
 50
350.6378240078
 51
45.0653851095
  0
ARC
  5
2BE
100
AcDbEntity
  8
0
100
AcDbCircle
 62
7
  6
CONTINUOUS
 10
7.2119195619
 20
0.7090670215
 40
0.145
100
AcDbArc
 50
0.0
 51
69.849957448
  0
ARC
  5
2BF
100
AcDbEntity
  8
0
100
AcDbCircle
 62
7
  6
CONTINUOUS
 10
6.7181695619
 20
2.2340670215
 40
0.125
100
AcDbArc
 50
145.0995
 51
34.9005
  0
ARC
  5
2C0
100
AcDbEntity
  8
0
100
AcDbCircle
 62
7
  6
CONTINUOUS
 10
6.8816695619
 20
2.4197831606
 40
0.093
100
AcDbArc
 50
138.2918697479
 51
223.3041758004
  0
ARC
  5
2C1
100
AcDbEntity
  8
0
100
AcDbCircle
 62
7
  6
CONTINUOUS
 10
6.8006695619
 20
2.4919721487
 40
0.0155
100
AcDbArc
 50
318.2918697479
 51
360.0
  0
ARC
  5
2C2
100
AcDbEntity
  8
0
100
AcDbCircle
 62
7
  6
CONTINUOUS
 10
7.2670363259
 20
0.8592740198
 40
0.015
100
AcDbArc
 50
170.6378240078
 51
249.849957448
  0
ARC
  5
2C3
100
AcDbEntity
  8
0
100
AcDbCircle
 62
7
  6
CONTINUOUS
 10
6.8081695619
 20
2.35051015
 40
0.008
100
AcDbArc
 50
270.0
 51
43.3041758004
  0
ARC
  5
2C4
100
AcDbEntity
  8
0
100
AcDbCircle
 62
7
  6
CONTINUOUS
 10
6.8100994157
 20
2.3347464096
 40
0.008
100
AcDbArc
 50
103.9592487754
 51
214.9005
  0
ARC
  5
2C5
100
AcDbEntity
  8
0
100
AcDbCircle
 62
7
  6
CONTINUOUS
 10
6.7181695619
 20
2.7590670215
 40
0.53475
100
AcDbArc
 50
104.9625842062
 51
256.4937293115
  0
ARC
  5
2C6
100
AcDbEntity
  8
0
100
AcDbCircle
 62
7
  6
CONTINUOUS
 10
6.7181695619
 20
2.7590670215
 40
0.53475
100
AcDbArc
 50
283.5062706885
 51
75.0374157938
  0
ARC
  5
2C7
100
AcDbEntity
  8
0
100
AcDbCircle
 62
7
  6
CONTINUOUS
 10
6.7181695619
 20
2.7590670215
 40
0.5042142857
100
AcDbArc
 50
283.7580077673
 51
73.9813580005
  0
ARC
  5
2C8
100
AcDbEntity
  8
0
100
AcDbCircle
 62
7
  6
CONTINUOUS
 10
6.7181695619
 20
2.7590670215
 40
0.5042142857
100
AcDbArc
 50
106.0186419995
 51
256.2419922327
  0
ARC
  5
2C9
100
AcDbEntity
  8
0
100
AcDbCircle
 62
7
  6
CONTINUOUS
 10
6.7181695619
 20
2.7590670215
 40
0.4872670058
100
AcDbArc
 50
283.5296841433
 51
73.324088976
  0
ARC
  5
2CA
100
AcDbEntity
  8
0
100
AcDbCircle
 62
7
  6
CONTINUOUS
 10
6.7181695619
 20
2.7590670215
 40
0.4872670058
100
AcDbArc
 50
106.6759110239
 51
256.4703158567
  0
ARC
  5
2CB
100
AcDbEntity
  8
0
100
AcDbCircle
 62
7
  6
CONTINUOUS
 10
6.7181695619
 20
2.7590670215
 40
0.4681816366
100
AcDbArc
 50
282.8938839434
 51
72.5240004062
  0
ARC
  5
2CC
100
AcDbEntity
  8
0
100
AcDbCircle
 62
7
  6
CONTINUOUS
 10
6.7181695619
 20
2.7590670215
 40
0.4681816366
100
AcDbArc
 50
107.4759995938
 51
257.1061160566
  0
ARC
  5
2CD
100
AcDbEntity
  8
0
100
AcDbCircle
 62
7
  6
CONTINUOUS
 10
6.7181695619
 20
2.7590670215
 40
0.3073842154
100
AcDbArc
 50
2.0518809893
 51
71.2248639684
  0
ARC
  5
2CE
100
AcDbEntity
  8
0
100
AcDbCircle
 62
7
  6
CONTINUOUS
 10
6.7181695619
 20
2.7590670215
 40
0.3073842154
100
AcDbArc
 50
108.7751360317
 51
177.9481190107
  0
ARC
  5
2CF
100
AcDbEntity
  8
0
100
AcDbCircle
 62
7
  6
CONTINUOUS
 10
6.7181695619
 20
2.7590670215
 40
0.2982392563
100
AcDbArc
 50
2.0518809893
 51
70.714261862
  0
ARC
  5
2D0
100
AcDbEntity
  8
0
100
AcDbCircle
 62
7
  6
CONTINUOUS
 10
6.7181695619
 20
2.7590670215
 40
0.2982392563
100
AcDbArc
 50
109.2857381381
 51
177.9481190107
  0
CIRCLE
  5
2D1
100
AcDbEntity
  8
0
100
AcDbCircle
 62
7
  6
CONTINUOUS
 10
6.7181695619
 20
2.7590670215
 40
0.2775
  0
ARC
  5
2D2
100
AcDbEntity
  8
0
100
AcDbCircle
 62
7
  6
CONTINUOUS
 10
6.7996586202
 20
4.2873342106
 40
0.2713566017
100
AcDbArc
 50
131.9761524539
 51
187.5741286837
  0
CIRCLE
  5
2D3
100
AcDbEntity
  8
0
100
AcDbCircle
 62
7
  6
CONTINUOUS
 10
6.7181695619
 20
2.7590670215
 40
0.262
  0
CIRCLE
  5
2D4
100
AcDbEntity
  8
0
100
AcDbCircle
 62
7
  6
CONTINUOUS
 10
6.7181695619
 20
2.7590670215
 40
0.2548670761
  0
CIRCLE
  5
2D5
100
AcDbEntity
  8
0
100
AcDbCircle
 62
7
  6
CONTINUOUS
 10
6.7181695619
 20
2.7590670215
 40
0.225
  0
CIRCLE
  5
2D6
100
AcDbEntity
  8
0
100
AcDbCircle
 62
7
  6
CONTINUOUS
 10
6.7181695619
 20
2.7590670215
 40
0.215
  0
CIRCLE
  5
2D7
100
AcDbEntity
  8
0
100
AcDbCircle
 62
7
  6
CONTINUOUS
 10
6.7181695619
 20
2.7590670215
 40
0.1911937812
  0
ARC
  5
2D8
100
AcDbEntity
  8
0
100
AcDbCircle
 62
7
  6
CONTINUOUS
 10
6.7238840225
 20
2.5887837376
 40
0.1844067505
100
AcDbArc
 50
194.7657418564
 51
210.3093169367
  0
ARC
  5
2D9
100
AcDbEntity
  8
0
100
AcDbCircle
 62
7
  6
CONTINUOUS
 10
6.7181695619
 20
2.5928170215
 40
0.16875
100
AcDbArc
 50
295.5872500381
 51
338.1487441242
  0
ARC
  5
2DA
100
AcDbEntity
  8
0
100
AcDbCircle
 62
7
  6
CONTINUOUS
 10
6.7181695619
 20
2.5928170215
 40
0.16875
100
AcDbArc
 50
201.8512858439
 51
244.4127575082
  0
ARC
  5
2DB
100
AcDbEntity
  8
0
100
AcDbCircle
 62
7
  6
CONTINUOUS
 10
7.1344195619
 20
3.9362134106
 40
0.125
100
AcDbArc
 50
324.7481812489
 51
64.5324398575
  0
ARC
  5
2DC
100
AcDbEntity
  8
0
100
AcDbCircle
 62
7
  6
CONTINUOUS
 10
6.7181695619
 20
4.4503170215
 40
0.10875
100
AcDbArc
 50
46.3971810273
 51
133.6028189727
  0
ARC
  5
2DD
100
AcDbEntity
  8
0
100
AcDbCircle
 62
7
  6
CONTINUOUS
 10
7.1731695619
 20
4.0740670215
 40
0.015
100
AcDbArc
 50
0.0
 51
90.0
  0
ARC
  5
2DE
100
AcDbEntity
  8
0
100
AcDbCircle
 62
7
  6
CONTINUOUS
 10
7.1781695619
 20
3.7990670215
 40
0.015
100
AcDbArc
 50
0.0
 51
90.0
  0
ARC
  5
2DF
100
AcDbEntity
  8
0
100
AcDbCircle
 62
7
  6
CONTINUOUS
 10
12.8533205111
 20
3.4607141995
 40
6.0
100
AcDbArc
 50
172.4258713163
 51
182.4754433171
  0
SPLINE
  5
2E0
100
AcDbEntity
  8
0
100
AcDbSpline
 62
7
  6
CONTINUOUS
 70
0
 71
3
 72
15
 73
11
 74
0
 42
0.0000001
 43
0.0000001
 44
0.0000000001
 40
0.0
 40
0.0
 40
0.0
 40
0.0
 40
0.194071858
 40
0.3806905105
 40
0.5528408892
 40
0.7041728696
 40
0.8290284013
 40
0.9224486587
 40
0.9803623857
 40
1.0
 40
1.0
 40
1.0
 40
1.0
 10
3.494980897
 20
6.304208935
 30
0.0
 10
3.4954988861
 20
6.3075940089
 30
0.0
 10
3.4966614147
 20
6.3142127085
 30
0.0
 10
3.4987615827
 20
6.3237418482
 30
0.0
 10
3.5010508887
 20
6.3324491081
 30
0.0
 10
3.5033350199
 20
6.3400248059
 30
0.0
 10
3.5054050064
 20
6.3462103144
 30
0.0
 10
3.5070604427
 20
6.3507943632
 30
0.0
 10
3.508131476
 20
6.3536147998
 30
0.0
 10
3.5086286585
 20
6.3548897145
 30
0.0
 10
3.508755298
 20
6.3552122578
 30
0.0
  0
SPLINE
  5
2E1
100
AcDbEntity
  8
0
100
AcDbSpline
 62
7
  6
CONTINUOUS
 70
0
 71
3
 72
13
 73
9
 74
0
 42
0.0000001
 43
0.0000001
 44
0.0000000001
 40
0.0
 40
0.0
 40
0.0
 40
0.0
 40
0.0995130126
 40
0.2069785791
 40
0.3222774542
 40
0.4451467826
 40
0.7113186194
 40
1.0
 40
1.0
 40
1.0
 40
1.0
 10
6.5005686898
 20
2.4941334507
 30
0.0
 10
6.5007699895
 20
2.4941166317
 30
0.0
 10
6.5011909892
 20
2.4941068392
 30
0.0
 10
6.5018441548
 20
2.4941560431
 30
0.0
 10
6.5025375212
 20
2.4942681422
 30
0.0
 10
6.503533933
 20
2.494506532
 30
0.0
 10
6.5048363172
 20
2.4949607127
 30
0.0
 10
6.5058557091
 20
2.4954444545
 30
0.0
 10
6.5063729874
 20
2.495719793
 30
0.0
  0
SPLINE
  5
2E2
100
AcDbEntity
  8
0
100
AcDbSpline
 62
7
  6
CONTINUOUS
 70
0
 71
3
 72
13
 73
9
 74
0
 42
0.0000001
 43
0.0000001
 44
0.0000000001
 40
0.0
 40
0.0
 40
0.0
 40
0.0
 40
0.0995130137
 40
0.2069785808
 40
0.3222774562
 40
0.4451467844
 40
0.7113186205
 40
1.0
 40
1.0
 40
1.0
 40
1.0
 10
6.935770434
 20
2.4941334507
 30
0.0
 10
6.9355691343
 20
2.4941166317
 30
0.0
 10
6.9351481346
 20
2.4941068392
 30
0.0
 10
6.934494969
 20
2.4941560431
 30
0.0
 10
6.9338016026
 20
2.4942681422
 30
0.0
 10
6.9328051908
 20
2.494506532
 30
0.0
 10
6.9315028066
 20
2.4949607127
 30
0.0
 10
6.9304834147
 20
2.4954444545
 30
0.0
 10
6.9299661364
 20
2.495719793
 30
0.0
  0
SPLINE
  5
2E3
100
AcDbEntity
  8
0
100
AcDbSpline
 62
7
  6
CONTINUOUS
 70
0
 71
3
 72
20
 73
16
 74
0
 42
0.0000001
 43
0.0000001
 44
0.0000000001
 40
0.0
 40
0.0
 40
0.0
 40
0.0
 40
0.1540813777
 40
0.3095960371
 40
0.4602632133
 40
0.5319621741
 40
0.600341441
 40
0.6648577261
 40
0.7250926663
 40
0.7807883168
 40
0.8318936087
 40
0.878623737
 40
0.9215262459
 40
0.9615516271
 40
1.0
 40
1.0
 40
1.0
 40
1.0
 10
6.5646836035
 20
2.495719793
 30
0.0
 10
6.5653877796
 20
2.4960138707
 30
0.0
 10
6.5667678101
 20
2.4966915789
 30
0.0
 10
6.5686923277
 20
2.4979212281
 30
0.0
 10
6.5701481489
 20
2.4991055068
 30
0.0
 10
6.5711722803
 20
2.500119108
 30
0.0
 10
6.5718414545
 20
2.5008812517
 30
0.0
 10
6.5724155316
 20
2.5016476798
 30
0.0
 10
6.5728869951
 20
2.5024084618
 30
0.0
 10
6.5732496516
 20
2.5031538707
 30
0.0
 10
6.5734985568
 20
2.5038746763
 30
0.0
 10
6.5736297803
 20
2.5045621409
 30
0.0
 10
6.5736401977
 20
2.5052080479
 30
0.0
 10
6.5735272608
 20
2.5058030865
 30
0.0
 10
6.5733678299
 20
2.5061622054
 30
0.0
 10
6.5732702305
 20
2.5063257141
 30
0.0
  0
SPLINE
  5
2E4
100
AcDbEntity
  8
0
100
AcDbSpline
 62
7
  6
CONTINUOUS
 70
0
 71
3
 72
20
 73
16
 74
0
 42
0.0000001
 43
0.0000001
 44
0.0000000001
 40
0.0
 40
0.0
 40
0.0
 40
0.0
 40
0.1540813745
 40
0.309596029
 40
0.4602631998
 40
0.5319621581
 40
0.6003414228
 40
0.6648577063
 40
0.7250926456
 40
0.7807882962
 40
0.8318935893
 40
0.8786237202
 40
0.9215262332
 40
0.96155162
 40
1.0
 40
1.0
 40
1.0
 40
1.0
 10
6.8716555203
 20
2.495719793
 30
0.0
 10
6.8709513442
 20
2.4960138706
 30
0.0
 10
6.8695713136
 20
2.4966915787
 30
0.0
 10
6.8676467959
 20
2.4979212277
 30
0.0
 10
6.8661909747
 20
2.4991055063
 30
0.0
 10
6.8651668433
 20
2.5001191075
 30
0.0
 10
6.864497669
 20
2.5008812513
 30
0.0
 10
6.8639235919
 20
2.5016476794
 30
0.0
 10
6.8634521285
 20
2.5024084614
 30
0.0
 10
6.8630894719
 20
2.5031538703
 30
0.0
 10
6.8628405668
 20
2.503874676
 30
0.0
 10
6.8627093434
 20
2.5045621407
 30
0.0
 10
6.862698926
 20
2.5052080477
 30
0.0
 10
6.8628118629
 20
2.5058030864
 30
0.0
 10
6.8629712939
 20
2.5061622054
 30
0.0
 10
6.8630688933
 20
2.5063257141
 30
0.0
  0
SPLINE
  5
2E5
100
AcDbEntity
  8
0
100
AcDbSpline
 62
7
  6
CONTINUOUS
 70
0
 71
3
 72
15
 73
11
 74
0
 42
0.0000001
 43
0.0000001
 44
0.0000000001
 40
0.0
 40
0.0
 40
0.0
 40
0.0
 40
0.1167471314
 40
0.2368089517
 40
0.3596849055
 40
0.4848660636
 40
0.6118782541
 40
0.7402985543
 40
0.8697689998
 40
1.0
 40
1.0
 40
1.0
 40
1.0
 10
6.8716555203
 20
2.495719793
 30
0.0
 10
6.8694016983
 20
2.49206587
 30
0.0
 10
6.864549716
 20
2.4848232436
 30
0.0
 10
6.8563747058
 20
2.474409949
 30
0.0
 10
6.8472116605
 20
2.4644272141
 30
0.0
 10
6.8371128688
 20
2.455012789
 30
0.0
 10
6.8261457605
 20
2.4462936573
 30
0.0
 10
6.8143932801
 20
2.4383792438
 30
0.0
 10
6.8019491153
 20
2.4313615428
 30
0.0
 10
6.7932748315
 20
2.4273385897
 30
0.0
 10
6.7888542141
 20
2.4254967802
 30
0.0
  0
SPLINE
  5
2E6
100
AcDbEntity
  8
0
100
AcDbSpline
 62
7
  6
CONTINUOUS
 70
0
 71
3
 72
16
 73
12
 74
0
 42
0.0000001
 43
0.0000001
 44
0.0000000001
 40
0.0
 40
0.0
 40
0.0
 40
0.0
 40
0.1302277251
 40
0.1950857142
 40
0.2597202812
 40
0.3881372744
 40
0.5151462834
 40
0.6403241778
 40
0.7631970332
 40
0.8832559268
 40
1.0
 40
1.0
 40
1.0
 40
1.0
 10
6.6474848399
 20
2.4254967999
 30
0.0
 10
6.6430642172
 20
2.4273385905
 30
0.0
 10
6.6365470881
 20
2.4303611147
 30
0.0
 10
6.6281355115
 20
2.4348886816
 30
0.0
 10
6.6199667264
 20
2.4397120518
 30
0.0
 10
6.6101932218
 20
2.4462938967
 30
0.0
 10
6.5992262692
 20
2.4550127627
 30
0.0
 10
6.5891274806
 20
2.4644272886
 30
0.0
 10
6.5799645068
 20
2.4744100416
 30
0.0
 10
6.5717893017
 20
2.4848231844
 30
0.0
 10
6.5669374339
 20
2.4920658829
 30
0.0
 10
6.5646836035
 20
2.495719793
 30
0.0
  0
SPLINE
  5
2E7
100
AcDbEntity
  8
0
100
AcDbSpline
 62
7
  6
CONTINUOUS
 70
0
 71
3
 72
16
 73
12
 74
0
 42
0.0000001
 43
0.0000001
 44
0.0000000001
 40
0.0
 40
0.0
 40
0.0
 40
0.0
 40
0.0580122138
 40
0.1171625137
 40
0.2382176002
 40
0.3620885933
 40
0.4878873601
 40
0.614961787
 40
0.7428575155
 40
0.8712697505
 40
1.0
 40
1.0
 40
1.0
 40
1.0
 10
6.9299661364
 20
2.495719793
 30
0.0
 10
6.9279732005
 20
2.4931847825
 30
0.0
 10
6.9238069941
 20
2.4881743828
 30
0.0
 10
6.9148194041
 20
2.4784440384
 30
0.0
 10
6.9024177617
 20
2.4669164089
 30
0.0
 10
6.8860542809
 20
2.4543466374
 30
0.0
 10
6.8683693191
 20
2.4430835953
 30
0.0
 10
6.849618375
 20
2.4332184144
 30
0.0
 10
6.8300205299
 20
2.4247952929
 30
0.0
 10
6.8097637239
 20
2.4178308215
 30
0.0
 10
6.7959345376
 20
2.4141631399
 30
0.0
 10
6.7889585418
 20
2.412570628
 30
0.0
  0
SPLINE
  5
2E8
100
AcDbEntity
  8
0
100
AcDbSpline
 62
7
  6
CONTINUOUS
 70
0
 71
3
 72
16
 73
12
 74
0
 42
0.0000001
 43
0.0000001
 44
0.0000000001
 40
0.0
 40
0.0
 40
0.0
 40
0.0
 40
0.1287302733
 40
0.2571425255
 40
0.3850382692
 40
0.5121127241
 40
0.6379115249
 40
0.7617824769
 40
0.8828374334
 40
0.9419875227
 40
1.0
 40
1.0
 40
1.0
 40
1.0
 10
6.6473806334
 20
2.4125706103
 30
0.0
 10
6.6404046353
 20
2.4141631237
 30
0.0
 10
6.6265754426
 20
2.4178308004
 30
0.0
 10
6.6063186295
 20
2.4247952716
 30
0.0
 10
6.5867207776
 20
2.4332184008
 30
0.0
 10
6.5679698447
 20
2.4430836084
 30
0.0
 10
6.5502848081
 20
2.4543465609
 30
0.0
 10
6.5339214664
 20
2.4669164766
 30
0.0
 10
6.521519611
 20
2.4784438976
 30
0.0
 10
6.5125325744
 20
2.4881747324
 30
0.0
 10
6.5083659344
 20
2.4931847719
 30
0.0
 10
6.5063729874
 20
2.495719793
 30
0.0
  0
SPLINE
  5
2E9
100
AcDbEntity
  8
0
100
AcDbSpline
 62
7
  6
CONTINUOUS
 70
0
 71
3
 72
19
 73
15
 74
0
 42
0.0000001
 43
0.0000001
 44
0.0000000001
 40
0.0
 40
0.0
 40
0.0
 40
0.0
 40
0.1171617534
 40
0.176623856
 40
0.2366973748
 40
0.3586945893
 40
0.4831739029
 40
0.6099710809
 40
0.6741526274
 40
0.7387685952
 40
0.8037468891
 40
0.8690050633
 40
0.9344547592
 40
1.0
 40
1.0
 40
1.0
 40
1.0
 10
6.5063729874
 20
2.495719793
 30
0.0
 10
6.4995390606
 20
2.5048858807
 30
0.0
 10
6.4897733439
 20
2.5191163129
 30
0.0
 10
6.4778451174
 20
2.5389012946
 30
0.0
 10
6.4664854169
 20
2.5595596839
 30
0.0
 10
6.4536737335
 20
2.5866321209
 30
0.0
 10
6.4408456985
 20
2.6207678706
 30
0.0
 10
6.43248191
 20
2.6504371353
 30
0.0
 10
6.4272810173
 20
2.6748377881
 30
0.0
 10
6.4241517479
 20
2.6934932493
 30
0.0
 10
6.4218376261
 20
2.7123728523
 30
0.0
 10
6.4203606138
 20
2.7314182447
 30
0.0
 10
6.4197371653
 20
2.7505656616
 30
0.0
 10
6.4198970989
 20
2.763352989
 30
0.0
 10
6.4201215318
 20
2.7697453065
 30
0.0
  0
SPLINE
  5
2EA
100
AcDbEntity
  8
0
100
AcDbSpline
 62
7
  6
CONTINUOUS
 70
0
 71
3
 72
19
 73
15
 74
0
 42
0.0000001
 43
0.0000001
 44
0.0000000001
 40
0.0
 40
0.0
 40
0.0
 40
0.0
 40
0.0655447566
 40
0.1309939812
 40
0.196251755
 40
0.2612297128
 40
0.3258453308
 40
0.3900265511
 40
0.4537119856
 40
0.5168521971
 40
0.6413308804
 40
0.7633275057
 40
0.8828388445
 40
1.0
 40
1.0
 40
1.0
 40
1.0
 10
7.016217592
 20
2.7697453065
 30
0.0
 10
7.0164419475
 20
2.7633530009
 30
0.0
 10
7.0166001633
 20
2.7505656891
 30
0.0
 10
7.015978093
 20
2.7314182944
 30
0.0
 10
7.0145015479
 20
2.7123728803
 30
0.0
 10
7.0121873284
 20
2.6934932244
 30
0.0
 10
7.0090579964
 20
2.6748380519
 30
0.0
 10
7.0051410601
 20
2.6564614346
 30
0.0
 10
7.000467373
 20
2.638411071
 30
0.0
 10
6.993306502
 20
2.6149496841
 30
0.0
 10
6.9826650313
 20
2.5866305093
 30
0.0
 10
6.9673704661
 20
2.5543127914
 30
0.0
 10
6.9498840149
 20
2.5239518868
 30
0.0
 10
6.9368001397
 20
2.5048858237
 30
0.0
 10
6.9299661364
 20
2.495719793
 30
0.0
  0
SPLINE
  5
2EB
100
AcDbEntity
  8
0
100
AcDbSpline
 62
7
  6
CONTINUOUS
 70
0
 71
3
 72
13
 73
9
 74
0
 42
0.0000001
 43
0.0000001
 44
0.0000000001
 40
0.0
 40
0.0
 40
0.0
 40
0.0
 40
0.2648932281
 40
0.5175000568
 40
0.6402593613
 40
0.7612086208
 40
0.8809364442
 40
1.0
 40
1.0
 40
1.0
 40
1.0
 10
2.6519702112
 20
5.8125894705
 30
0.0
 10
2.6515797047
 20
5.8134082944
 30
0.0
 10
2.6509387195
 20
5.8150705355
 30
0.0
 10
2.650517517
 20
5.8172358903
 30
0.0
 10
2.6504372501
 20
5.8189361181
 30
0.0
 10
2.650501764
 20
5.8201812776
 30
0.0
 10
2.6506903398
 20
5.8214008211
 30
0.0
 10
2.6508982735
 20
5.8221935179
 30
0.0
 10
2.6510220625
 20
5.8225820285
 30
0.0
  0
SPLINE
  5
2EC
100
AcDbEntity
  8
0
100
AcDbSpline
 62
7
  6
CONTINUOUS
 70
0
 71
3
 72
15
 73
11
 74
0
 42
0.0000001
 43
0.0000001
 44
0.0000000001
 40
0.0
 40
0.0
 40
0.0
 40
0.0
 40
0.1247214741
 40
0.2496921494
 40
0.374830161
 40
0.5000502242
 40
0.6252650884
 40
0.7503866231
 40
0.8753270449
 40
1.0
 40
1.0
 40
1.0
 40
1.0
 10
2.6406648903
 20
5.4004741353
 30
0.0
 10
2.6441085476
 20
5.4224349807
 30
0.0
 10
2.6516614506
 20
5.4662999619
 30
0.0
 10
2.6649088709
 20
5.5317884763
 30
0.0
 10
2.6800326626
 20
5.5969607886
 30
0.0
 10
2.696983191
 20
5.6617266115
 30
0.0
 10
2.7157169411
 20
5.7259961064
 30
0.0
 10
2.7361966355
 20
5.7896784957
 30
0.0
 10
2.7583913569
 20
5.8526807353
 30
0.0
 10
2.7743371208
 20
5.8942210678
 30
0.0
 10
2.7825931776
 20
5.9148509163
 30
0.0
  0
SPLINE
  5
2ED
100
AcDbEntity
  8
0
100
AcDbSpline
 62
7
  6
CONTINUOUS
 70
0
 71
3
 72
26
 73
22
 74
0
 42
0.0000001
 43
0.0000001
 44
0.0000000001
 40
0.0
 40
0.0
 40
0.0
 40
0.0
 40
0.1950702595
 40
0.3801055408
 40
0.4668642309
 40
0.5487422397
 40
0.6250145694
 40
0.6950246029
 40
0.7582046916
 40
0.8140979154
 40
0.8623837729
 40
0.8836272681
 40
0.902934526
 40
0.9203314332
 40
0.9358678252
 40
0.9496332862
 40
0.9617683767
 40
0.9724919131
 40
0.982127267
 40
0.9911176957
 40
1.0
 40
1.0
 40
1.0
 40
1.0
 10
2.7825908911
 20
5.9148504071
 30
0.0
 10
2.7832519363
 20
5.9165016445
 30
0.0
 10
2.7844737506
 20
5.9197462084
 30
0.0
 10
2.7857930628
 20
5.9237953531
 30
0.0
 10
2.7866701432
 20
5.9268989276
 30
0.0
 10
2.787216262
 20
5.9290645336
 30
0.0
 10
2.7876613219
 20
5.9310971223
 30
0.0
 10
2.7880029336
 20
5.9329766582
 30
0.0
 10
2.7882402166
 20
5.9346849395
 30
0.0
 10
2.7883734585
 20
5.9362057889
 30
0.0
 10
2.7884007037
 20
5.9373503
 30
0.0
 10
2.7883655434
 20
5.938159835
 30
0.0
 10
2.7883152535
 20
5.9386860839
 30
0.0
 10
2.7882404701
 20
5.9391568811
 30
0.0
 10
2.7881415267
 20
5.9395715506
 30
0.0
 10
2.7880188119
 20
5.9399296518
 30
0.0
 10
2.787872404
 20
5.9402309531
 30
0.0
 10
2.7877020144
 20
5.9404751943
 30
0.0
 10
2.7875068472
 20
5.9406615021
 30
0.0
 10
2.7872869487
 20
5.9407875361
 30
0.0
 10
2.7871272331
 20
5.9408293783
 30
0.0
 10
2.7870469605
 20
5.9408401227
 30
0.0
  0
SPLINE
  5
2EE
100
AcDbEntity
  8
0
100
AcDbSpline
 62
7
  6
CONTINUOUS
 70
0
 71
3
 72
13
 73
9
 74
0
 42
0.0000001
 43
0.0000001
 44
0.0000000001
 40
0.0
 40
0.0
 40
0.0
 40
0.0
 40
0.2648932281
 40
0.5175000568
 40
0.6402593613
 40
0.7612086208
 40
0.8809364442
 40
1.0
 40
1.0
 40
1.0
 40
1.0
 10
2.6787050707
 20
5.8964965442
 30
0.0
 10
2.6779128425
 20
5.8960545687
 30
0.0
 10
2.6764283749
 20
5.8950695493
 30
0.0
 10
2.6748321176
 20
5.8935470068
 30
0.0
 10
2.6737830352
 20
5.8922066175
 30
0.0
 10
2.673115311
 20
5.8911536556
 30
0.0
 10
2.6725635998
 20
5.890049816
 30
0.0
 10
2.6722746163
 20
5.8892829437
 30
0.0
 10
2.6721508273
 20
5.888894433
 30
0.0
  0
LINE
  5
2EF
100
AcDbEntity
  8
0
100
AcDbLine
 62
7
  6
CONTINUOUS
 10
2.5703540106
 20
5.3957485846
 11
2.5783772007
 21
5.4209292833
  0
SPLINE
  5
2F0
100
AcDbEntity
  8
0
100
AcDbSpline
 62
7
  6
CONTINUOUS
 70
0
 71
3
 72
26
 73
22
 74
0
 42
0.0000001
 43
0.0000001
 44
0.0000000001
 40
0.0
 40
0.0
 40
0.0
 40
0.0
 40
0.0078434923
 40
0.0160317319
 40
0.0251153861
 40
0.0355026099
 40
0.0474646728
 40
0.0611724154
 40
0.0767284719
 40
0.0941941029
 40
0.1135986842
 40
0.1349530476
 40
0.183465896
 40
0.2395550728
 40
0.3028885571
 40
0.3730201009
 40
0.4494073143
 40
0.5314250198
 40
0.6183777309
 40
0.8040364561
 40
1.0
 40
1.0
 40
1.0
 40
1.0
 10
2.6318332706
 20
5.3755671012
 30
0.0
 10
2.631900791
 20
5.3755449353
 30
0.0
 10
2.632046268
 20
5.3755194701
 30
0.0
 10
2.6322749053
 20
5.3755462778
 30
0.0
 10
2.6325111825
 20
5.3756355025
 30
0.0
 10
2.6327550971
 20
5.3757848981
 30
0.0
 10
2.6330073968
 20
5.3759937225
 30
0.0
 10
2.6332682519
 20
5.3762618338
 30
0.0
 10
2.6335374603
 20
5.3765891096
 30
0.0
 10
2.6338144889
 20
5.3769753054
 30
0.0
 10
2.6340987617
 20
5.377419949
 30
0.0
 10
2.6345038687
 20
5.3781202778
 30
0.0
 10
2.6350179901
 20
5.3791401492
 30
0.0
 10
2.6356281633
 20
5.3805345822
 30
0.0
 10
2.6362477908
 20
5.3821368578
 30
0.0
 10
2.6368694621
 20
5.3839340748
 30
0.0
 10
2.6374855915
 20
5.3859112365
 30
0.0
 10
2.6380887387
 20
5.3880511704
 30
0.0
 10
2.6388833796
 20
5.3911647503
 30
0.0
 10
2.639789441
 20
5.3953139007
 30
0.0
 10
2.6403897866
 20
5.3987200723
 30
0.0
 10
2.6406648672
 20
5.4004741554
 30
0.0
  0
SPLINE
  5
2F1
100
AcDbEntity
  8
0
100
AcDbSpline
 62
7
  6
CONTINUOUS
 70
0
 71
3
 72
19
 73
15
 74
0
 42
0.0000001
 43
0.0000001
 44
0.0000000001
 40
0.0
 40
0.0
 40
0.0
 40
0.0
 40
0.0653670804
 40
0.1306449027
 40
0.195743395
 40
0.2605796854
 40
0.325076166
 40
0.389164827
 40
0.4527874983
 40
0.5158969026
 40
0.6404140624
 40
0.7625865671
 40
0.8824067038
 40
1.0
 40
1.0
 40
1.0
 40
1.0
 10
7.0253566874
 20
2.7700727365
 30
0.0
 10
7.0255875261
 20
2.7636287132
 30
0.0
 10
7.0257497013
 20
2.7507367343
 30
0.0
 10
7.0250959561
 20
2.7314320612
 30
0.0
 10
7.0235560414
 20
2.7122300038
 30
0.0
 10
7.0211467614
 20
2.6931954871
 30
0.0
 10
7.0178910013
 20
2.6743885433
 30
0.0
 10
7.013817052
 20
2.6558645648
 30
0.0
 10
7.0089570663
 20
2.6376725393
 30
0.0
 10
7.001511107
 20
2.6140260615
 30
0.0
 10
6.9904475884
 20
2.5854949518
 30
0.0
 10
6.9745605762
 20
2.5529722066
 30
0.0
 10
6.9564102993
 20
2.5224526505
 30
0.0
 10
6.9428493022
 20
2.5033231341
 30
0.0
 10
6.935770434
 20
2.4941334507
 30
0.0
  0
SPLINE
  5
2F2
100
AcDbEntity
  8
0
100
AcDbSpline
 62
7
  6
CONTINUOUS
 70
0
 71
3
 72
18
 73
14
 74
0
 42
0.0000001
 43
0.0000001
 44
0.0000000001
 40
0.0
 40
0.0
 40
0.0
 40
0.0
 40
0.0581198513
 40
0.1173395141
 40
0.2384522064
 40
0.300114577
 40
0.3623458963
 40
0.4881030163
 40
0.6151222257
 40
0.6789722814
 40
0.7429825308
 40
0.87133283
 40
1.0
 40
1.0
 40
1.0
 40
1.0
 10
6.935770434
 20
2.4941334507
 30
0.0
 10
6.933715092
 20
2.4914652619
 30
0.0
 10
6.9294204577
 20
2.4861883573
 30
0.0
 10
6.9201576583
 20
2.4759284113
 30
0.0
 10
6.9099857935
 20
2.4662364909
 30
0.0
 10
6.8990449685
 20
2.457181869
 30
0.0
 10
6.8874870241
 20
2.4484728082
 30
0.0
 10
6.872187702
 20
2.4384701787
 30
0.0
 10
6.8560223756
 20
2.4297442805
 30
0.0
 10
6.8426241719
 20
2.4235197819
 30
0.0
 10
6.8289204742
 20
2.4177966321
 30
0.0
 10
6.8113508622
 20
2.4116248768
 30
0.0
 10
6.7969556611
 20
2.4077430038
 30
0.0
 10
6.7896911035
 20
2.406063206
 30
0.0
  0
SPLINE
  5
2F3
100
AcDbEntity
  8
0
100
AcDbSpline
 62
7
  6
CONTINUOUS
 70
0
 71
3
 72
18
 73
14
 74
0
 42
0.0000001
 43
0.0000001
 44
0.0000000001
 40
0.0
 40
0.0
 40
0.0
 40
0.0
 40
0.1286671814
 40
0.2570174873
 40
0.3210277403
 40
0.3848777846
 40
0.5118969597
 40
0.6376541106
 40
0.6998854225
 40
0.7615478094
 40
0.882660166
 40
0.9418793633
 40
1.0
 40
1.0
 40
1.0
 40
1.0
 10
6.6466480017
 20
2.4060632033
 30
0.0
 10
6.6393834441
 20
2.4077429991
 30
0.0
 10
6.6249882434
 20
2.4116248686
 30
0.0
 10
6.6074186324
 20
2.4177966219
 30
0.0
 10
6.5937149364
 20
2.4235197697
 30
0.0
 10
6.5803167405
 20
2.4297442746
 30
0.0
 10
6.5641514321
 20
2.4384701965
 30
0.0
 10
6.5488520979
 20
2.4484728003
 30
0.0
 10
6.5372941612
 20
2.4571818729
 30
0.0
 10
6.5263533488
 20
2.4662364715
 30
0.0
 10
6.5161814617
 20
2.4759283211
 30
0.0
 10
6.5069189184
 20
2.486188484
 30
0.0
 10
6.5026240609
 20
2.4914652276
 30
0.0
 10
6.5005686898
 20
2.4941334507
 30
0.0
  0
SPLINE
  5
2F4
100
AcDbEntity
  8
0
100
AcDbSpline
 62
7
  6
CONTINUOUS
 70
0
 71
3
 72
28
 73
24
 74
0
 42
0.0000001
 43
0.0000001
 44
0.0000000001
 40
0.0
 40
0.0
 40
0.0
 40
0.0
 40
0.0021433771
 40
0.0044142281
 40
0.0069103396
 40
0.0097120722
 40
0.0164601162
 40
0.0250235101
 40
0.0356212344
 40
0.0483802365
 40
0.0633876152
 40
0.0807135501
 40
0.1004067701
 40
0.1224618067
 40
0.1735645455
 40
0.233718613
 40
0.3021806125
 40
0.3780116803
 40
0.4599519339
 40
0.5466280976
 40
0.6365466053
 40
0.8201834142
 40
1.0
 40
1.0
 40
1.0
 40
1.0
 10
2.5388130139
 20
5.4574465853
 30
0.0
 10
2.5388065682
 20
5.4574263562
 30
0.0
 10
2.5387981567
 20
5.4573829924
 30
0.0
 10
2.5388002482
 20
5.457314107
 30
0.0
 10
2.5388168392
 20
5.4572405987
 30
0.0
 10
2.5388612507
 20
5.4571294326
 30
0.0
 10
2.5389597972
 20
5.4569777727
 30
0.0
 10
2.5391315069
 20
5.4567863778
 30
0.0
 10
2.5393664146
 20
5.4565740694
 30
0.0
 10
2.5396664175
 20
5.4563404545
 30
0.0
 10
2.5400333333
 20
5.4560854406
 30
0.0
 10
2.5404685408
 20
5.4558092252
 30
0.0
 10
2.5409728322
 20
5.4555122385
 30
0.0
 10
2.541777651
 20
5.4550668947
 30
0.0
 10
2.5429546352
 20
5.4544673651
 30
0.0
 10
2.5445658025
 20
5.4537097906
 30
0.0
 10
2.5464189177
 20
5.4528925719
 30
0.0
 10
2.5484869019
 20
5.4520289783
 30
0.0
 10
2.5507361526
 20
5.45113214
 30
0.0
 10
2.5531281438
 20
5.4502172588
 30
0.0
 10
2.5564763537
 20
5.4489833726
 30
0.0
 10
2.5607156512
 20
5.4475004181
 30
0.0
 10
2.5641354913
 20
5.4463746224
 30
0.0
 10
2.5658321347
 20
5.4458324478
 30
0.0
  0
SPLINE
  5
2F5
100
AcDbEntity
  8
0
100
AcDbSpline
 62
7
  6
CONTINUOUS
 70
0
 71
3
 72
28
 73
24
 74
0
 42
0.0000001
 43
0.0000001
 44
0.0000000001
 40
0.0
 40
0.0
 40
0.0
 40
0.0
 40
0.0021400832
 40
0.0044077788
 40
0.0069009881
 40
0.0097001189
 40
0.0164438504
 40
0.0250039409
 40
0.0355991078
 40
0.0483560981
 40
0.0633619414
 40
0.080686787
 40
0.1003792619
 40
0.1224338066
 40
0.1735363966
 40
0.2336912362
 40
0.3021547403
 40
0.3779879773
 40
0.459930892
 40
0.5466101464
 40
0.6365320279
 40
0.820176095
 40
1.0
 40
1.0
 40
1.0
 40
1.0
 10
2.6841759286
 20
5.9136665435
 30
0.0
 10
2.684182364
 20
5.9136867407
 30
0.0
 10
2.6842005708
 20
5.9137269147
 30
0.0
 10
2.6842420998
 20
5.913781795
 30
0.0
 10
2.6842981285
 20
5.9138320559
 30
0.0
 10
2.6843986312
 20
5.9138969019
 30
0.0
 10
2.6845667028
 20
5.9139634177
 30
0.0
 10
2.6848174166
 20
5.9140199928
 30
0.0
 10
2.6851317793
 20
5.9140570666
 30
0.0
 10
2.6855115651
 20
5.9140738615
 30
0.0
 10
2.6859583107
 20
5.9140694007
 30
0.0
 10
2.6864730266
 20
5.9140427261
 30
0.0
 10
2.6870561097
 20
5.9139930298
 30
0.0
 10
2.6879701327
 20
5.9138904073
 30
0.0
 10
2.6892768993
 20
5.9136981931
 30
0.0
 10
2.6910292335
 20
5.9133836818
 30
0.0
 10
2.693013432
 20
5.9129778746
 30
0.0
 10
2.6951997319
 20
5.9124856208
 30
0.0
 10
2.6975531302
 20
5.9119156535
 30
0.0
 10
2.7000334086
 20
5.911277865
 30
0.0
 10
2.7034781916
 20
5.9103470693
 30
0.0
 10
2.7077939123
 20
5.9091039726
 30
0.0
 10
2.7112346463
 20
5.9080437626
 30
0.0
 10
2.712932204
 20
5.9075044586
 30
0.0
  0
SPLINE
  5
2F6
100
AcDbEntity
  8
0
100
AcDbSpline
 62
7
  6
CONTINUOUS
 70
0
 71
3
 72
34
 73
30
 74
0
 42
0.0000001
 43
0.0000001
 44
0.0000000001
 40
0.0
 40
0.0
 40
0.0
 40
0.0
 40
0.0001322099
 40
0.0003607303
 40
0.0011867123
 40
0.0025356716
 40
0.0044207895
 40
0.0068505379
 40
0.0098320522
 40
0.0133719459
 40
0.0174765873
 40
0.0274049515
 40
0.039666356
 40
0.0543094039
 40
0.0713824511
 40
0.0909173906
 40
0.1128811316
 40
0.1372244072
 40
0.1638979145
 40
0.1928432458
 40
0.2239658457
 40
0.2923286207
 40
0.3680916895
 40
0.4500967939
 40
0.5370850553
 40
0.6276585858
 40
0.7204293018
 40
0.8141869903
 40
1.0
 40
1.0
 40
1.0
 40
1.0
 10
2.7376367653
 20
5.9474981474
 30
0.0
 10
2.7376379203
 20
5.9474979913
 30
0.0
 10
2.7376404186
 20
5.947495375
 30
0.0
 10
2.7376434871
 20
5.9474854943
 30
0.0
 10
2.7376458985
 20
5.9474641805
 30
0.0
 10
2.7376468899
 20
5.9474285079
 30
0.0
 10
2.7376462161
 20
5.947378521
 30
0.0
 10
2.7376436992
 20
5.947314265
 30
0.0
 10
2.7376393023
 20
5.9472354679
 30
0.0
 10
2.7376329731
 20
5.9471420082
 30
0.0
 10
2.7376211346
 20
5.9469875433
 30
0.0
 10
2.737600964
 20
5.9467566171
 30
0.0
 10
2.7375699503
 20
5.9464333966
 30
0.0
 10
2.7375305259
 20
5.9460477173
 30
0.0
 10
2.7374824918
 20
5.9455984691
 30
0.0
 10
2.7374257241
 20
5.9450852545
 30
0.0
 10
2.7373602564
 20
5.9445085227
 30
0.0
 10
2.7372861921
 20
5.9438694339
 30
0.0
 10
2.7372036641
 20
5.9431693687
 30
0.0
 10
2.7371128565
 20
5.9424101033
 30
0.0
 10
2.7369767752
 20
5.9412861195
 30
0.0
 10
2.7367881101
 20
5.9397527644
 30
0.0
 10
2.7365406998
 20
5.9377747005
 30
0.0
 10
2.7362694076
 20
5.9356341529
 30
0.0
 10
2.7359785032
 20
5.9333644862
 30
0.0
 10
2.735672665
 20
5.931001054
 30
0.0
 10
2.7353565077
 20
5.9285787846
 30
0.0
 10
2.7349285079
 20
5.9253244022
 30
0.0
 10
2.7346039192
 20
5.9228812906
 30
0.0
 10
2.7343868481
 20
5.9212576877
 30
0.0
  0
SPLINE
  5
2F7
100
AcDbEntity
  8
0
100
AcDbSpline
 62
7
  6
CONTINUOUS
 70
0
 71
3
 72
15
 73
11
 74
0
 42
0.0000001
 43
0.0000001
 44
0.0000000001
 40
0.0
 40
0.0
 40
0.0
 40
0.0
 40
0.1247443768
 40
0.2495204975
 40
0.3743650032
 40
0.4992995494
 40
0.6243377303
 40
0.7494798999
 40
0.874708262
 40
1.0
 40
1.0
 40
1.0
 40
1.0
 10
2.7129322042
 20
5.9075044593
 30
0.0
 10
2.7132804804
 20
5.9085995091
 30
0.0
 10
2.7141684871
 20
5.9107340705
 30
0.0
 10
2.7160253234
 20
5.9136590307
 30
0.0
 10
2.7183563459
 20
5.9162262974
 30
0.0
 10
2.7210971036
 20
5.9183544697
 30
0.0
 10
2.7241669687
 20
5.9199785097
 30
0.0
 10
2.7274766685
 20
5.921041827
 30
0.0
 10
2.730922649
 20
5.9215088401
 30
0.0
 10
2.7332429068
 20
5.9214107969
 30
0.0
 10
2.7343868479
 20
5.9212576877
 30
0.0
  0
SPLINE
  5
2F8
100
AcDbEntity
  8
0
100
AcDbSpline
 62
7
  6
CONTINUOUS
 70
0
 71
3
 72
17
 73
13
 74
0
 42
0.0000001
 43
0.0000001
 44
0.0000000001
 40
0.0
 40
0.0
 40
0.0
 40
0.0
 40
0.1252399452
 40
0.2504480221
 40
0.3131029097
 40
0.3757320897
 40
0.5007562377
 40
0.6256631415
 40
0.6881471787
 40
0.7506079121
 40
0.8753250149
 40
1.0
 40
1.0
 40
1.0
 40
1.0
 10
2.5783772005
 20
5.4209292834
 30
0.0
 10
2.5771511161
 20
5.4213294332
 30
0.0
 10
2.5747752815
 20
5.4223840068
 30
0.0
 10
2.5721265638
 20
5.4242603052
 30
0.0
 10
2.5702613785
 20
5.4260477036
 30
0.0
 10
2.5685831916
 20
5.428009113
 30
0.0
 10
2.5668610067
 20
5.4307544005
 30
0.0
 10
2.5657054501
 20
5.4337800834
 30
0.0
 10
2.5651443486
 20
5.4362947326
 30
0.0
 10
2.5648288224
 20
5.4388499273
 30
0.0
 10
2.5648956794
 20
5.4420809892
 30
0.0
 10
2.5654409945
 20
5.4446095657
 30
0.0
 10
2.5658321345
 20
5.4458324471
 30
0.0
  0
LINE
  5
2F9
100
AcDbEntity
  8
0
100
AcDbLine
 62
7
  6
CONTINUOUS
 10
2.6406648672
 20
5.4004741554
 11
2.5783771995
 21
5.4209292821
  0
SPLINE
  5
2FA
100
AcDbEntity
  8
0
100
AcDbSpline
 62
7
  6
CONTINUOUS
 70
0
 71
3
 72
19
 73
15
 74
0
 42
0.0000001
 43
0.0000001
 44
0.0000000001
 40
0.0
 40
0.0
 40
0.0
 40
0.0
 40
0.1175935007
 40
0.2374134177
 40
0.3595859263
 40
0.4841030328
 40
0.5472124637
 40
0.6108350881
 40
0.6749237355
 40
0.7394202399
 40
0.8042565452
 40
0.8693550155
 40
0.9346328523
 40
1.0
 40
1.0
 40
1.0
 40
1.0
 10
6.5005686898
 20
2.4941334507
 30
0.0
 10
6.4934898564
 20
2.503323186
 30
0.0
 10
6.4799286615
 20
2.5224525591
 30
0.0
 10
6.4617785892
 20
2.5529722429
 30
0.0
 10
6.4458915065
 20
2.5854949168
 30
0.0
 10
6.43482805
 20
2.6140260493
 30
0.0
 10
6.4273820414
 20
2.6376725029
 30
0.0
 10
6.4225221025
 20
2.6558645379
 30
0.0
 10
6.4184481586
 20
2.6743885124
 30
0.0
 10
6.4151923797
 20
2.6931954552
 30
0.0
 10
6.4127830929
 20
2.7122299718
 30
0.0
 10
6.4112432242
 20
2.7314320379
 30
0.0
 10
6.41058971
 20
2.750736717
 30
0.0
 10
6.4107515665
 20
2.7636287079
 30
0.0
 10
6.4109824364
 20
2.7700727365
 30
0.0
  0
ENDSEC
  0
SECTION
  2
OBJECTS
  0
DICTIONARY
  5
C
100
AcDbDictionary
280
0
281
1
  3
ACAD_GROUP
350
D
  3
ACAD_MLINESTYLE
350
17
  3
ACAD_LAYOUT
350
1A
  3
ACAD_PLOTSETTINGS
350
19
  3
ACAD_PLOTSTYLENAME
350
E
  0
DICTIONARY
  5
D
102
{ACAD_REACTORS
330
C
102
}
100
AcDbDictionary
280
0
281
1
  0
ACDBDICTIONARYWDFLT
  5
E
102
{ACAD_REACTORS
330
C
102
}
100
AcDbDictionary
281
1
  3
Normal
350
F
100
AcDbDictionaryWithDefault
340
F
  0
DICTIONARY
  5
17
102
{ACAD_REACTORS
330
C
102
}
100
AcDbDictionary
280
0
281
1
  3
Standard
350
18
  0
DICTIONARY
  5
19
102
{ACAD_REACTORS
330
C
102
}
100
AcDbDictionary
281
1
  0
DICTIONARY
  5
1A
102
{ACAD_REACTORS
330
C
102
}
100
AcDbDictionary
281
1
  3
Model
350
2FB
  3
Layout1
350
2FC
  0
ACDBPLACEHOLDER
  5
F
102
{ACAD_REACTORS
330
E
102
}
  0
MLINESTYLE
  5
18
102
{ACAD_REACTORS
330
17
102
}
100
AcDbMlineStyle
  2
STANDARD
 70
0
  3

 62
256
 51
90.0
 52
90.0
 71
2
 49
0.5
 62
256
  6
BYLAYER
 49
-0.5
 62
256
  6
BYLAYER
  0
LAYOUT
  5
2FB
102
{ACAD_REACTORS
330
1A
102
}
100
AcDbPlotSettings
  1

  2
none_device
  4
ANSI_A_(11.00_x_8.50_Inches)
  6

 40
0.0
 41
0.0
 42
0.0
 43
0.0
 44
279.4
 45
215.9
 46
0.0
 47
0.0
 48
0.0
 49
0.0
140
0.0
141
0.0
142
1.0
143
1.0
 70
1024
 72
0
 73
0
 74
0
  7

 75
0
147
1.0
148
0.0
149
0.0
100
AcDbLayout
  1
Model
 70
0
 71
0
 10
0.0
 20
0.0
 11
11.0
 21
8.5
 12
0.0
 22
0.0
 32
0.0
 14
0.0
 24
0.0
 34
0.0
 15
0.0
 25
0.0
 35
0.0
146
0.0
 13
0.0
 23
0.0
 33
0.0
 16
1.0
 26
0.0
 36
0.0
 17
0.0
 27
1.0
 37
0.0
 76
0
330
202
345
0
346
0
  0
LAYOUT
  5
2FC
102
{ACAD_REACTORS
330
1A
102
}
100
AcDbPlotSettings
  1

  2
none_device
  4
ANSI_A_(11.00_x_8.50_Inches)
  6

 40
0.0
 41
0.0
 42
0.0
 43
0.0
 44
279.4
 45
215.9
 46
0.0
 47
0.0
 48
0.0
 49
0.0
140
0.0
141
0.0
142
1.0
143
1.0
 70
0
 72
0
 73
0
 74
0
  7

 75
0
147
1.0
148
0.0
149
0.0
100
AcDbLayout
  1
Layout1
 70
0
 71
1
 10
0.0
 20
0.0
 11
11.0
 21
8.5
 12
0.0
 22
0.0
 32
0.0
 14
0.0
 24
0.0
 34
0.0
 15
0.0
 25
0.0
 35
0.0
146
0.0
 13
0.0
 23
0.0
 33
0.0
 16
1.0
 26
0.0
 36
0.0
 17
0.0
 27
1.0
 37
0.0
 76
0
330
203
345
0
346
0
  0
ENDSEC
  0
EOF
