999
DXF file: 1030-5223_top.dxf
999
Pro/ENGINEER 2018400 by Parametric Technology Corporation
  0
SECTION
  2
HEADER
  9
$ACADVER
  1
AC1027
  9
$DWGCODEPAGE
  3
ANSI_1252
  9
$EXTMAX
 10
11.0
 20
8.5
 30
0.0
  9
$EXTMIN
 10
0.0
 20
0.0
 30
0.0
  9
$LIMMIN
 10
0.0
 20
0.0
  9
$LIMMAX
 10
11.0
 20
8.5
  9
$VIEWCTR
 10
5.5
 20
4.25
  9
$VIEWSIZE
 40
8.5
  9
$CLAYER
  8
0
  9
$LTSCALE
 40
0.605
  9
$CELTYPE
  6
BYLAYER
  9
$DIMSCALE
 40
1.0
  9
$DIMASZ
 40
0.1
  9
$DIMEXO
 40
0.0625
  9
$DIMDLI
 40
0.418
  9
$DIMEXE
 40
0.125
  9
$DIMCEN
 40
0.099
  9
$DIMLFAC
 40
1.0
  9
$DIMBLK
  1
_FILLED
  9
$DIMALT
 70
1
  9
$DIMALTD
 70
1
  9
$DIMALTTD
 70
2
  9
$DIMALTF
 40
25.4
  9
$DIMTXT
 40
0.08
  9
$DIMTOL
 70
1
  9
$DIMLIM
 70
0
  9
$DIMTFAC
 40
1.0
  9
$DIMTP
 40
0.01
  9
$DIMTM
 40
0.01
  9
$DIMGAP
 40
0.09
  9
$DIMDSEP
 70
46
  9
$AUNITS
 70
0
  9
$PDMODE
 70
3
  9
$PDSIZE
 40
0.3125
  9
$HANDSEED
  5
2D4
  9
$TILEMODE
 70
1
  9
$MEASUREMENT
 70
0
  9
$INSUNITS
 70
1
  0
ENDSEC
  0
SECTION
  2
CLASSES
  0
CLASS
  1
ACDBDICTIONARYWDFLT
  2
AcDbDictionaryWithDefault
  3
AutoCAD 2000
 90
0
 91
1
280
0
281
0
  0
CLASS
  1
ACDBPLACEHOLDER
  2
AcDbPlaceHolder
  3
AutoCAD 2000
 90
0
 91
1
280
0
281
0
  0
CLASS
  1
LAYOUT
  2
AcDbLayout
  3
AutoCAD 2000
 90
0
 91
0
280
0
281
0
  0
ENDSEC
  0
SECTION
  2
TABLES
  0
TABLE
  2
VPORT
  5
8
100
AcDbSymbolTable
 70
2
  0
VPORT
  5
1F4
100
AcDbSymbolTableRecord
100
AcDbViewportTableRecord
  2
*ACTIVE
 70
0
 10
0.0
 20
0.0
 11
1.0
 21
1.0
 12
5.5
 22
4.25
 13
0.0
 23
0.0
 14
1.0
 24
1.0
 15
0.0
 25
0.0
 16
0.0
 26
0.0
 36
1.0
 17
0.0
 27
0.0
 37
0.0
 40
8.5
 41
1.2941176471
 42
50.0
 43
0.0
 44
0.0
 50
0.0
 51
0.0
 71
0
 72
100
 73
1
 74
1
 75
0
 76
0
 77
0
 78
0
  0
ENDTAB
  0
TABLE
  2
LTYPE
  5
5
100
AcDbSymbolTable
 70
6
  0
LTYPE
  5
14
100
AcDbSymbolTableRecord
100
AcDbLinetypeTableRecord
  2
BYBLOCK
 70
0
  3

 72
65
 73
0
 40
0.0
  0
LTYPE
  5
15
100
AcDbSymbolTableRecord
100
AcDbLinetypeTableRecord
  2
BYLAYER
 70
0
  3

 72
65
 73
0
 40
0.0
  0
LTYPE
  5
16
100
AcDbSymbolTableRecord
100
AcDbLinetypeTableRecord
  2
CONTINUOUS
 70
64
  3
Solid line
 72
65
 73
0
 40
0.0
  0
LTYPE
  5
1F5
100
AcDbSymbolTableRecord
100
AcDbLinetypeTableRecord
  2
CENTER
 70
64
  3
____ _ ____ _ ____ _ ____ _ ____ _ ____ _ ____
 72
65
 73
4
 40
0.6
 49
0.375
 74
0
 49
-0.075
 74
0
 49
0.075
 74
0
 49
-0.075
 74
0
  0
LTYPE
  5
1F6
100
AcDbSymbolTableRecord
100
AcDbLinetypeTableRecord
  2
HIDDEN
 70
64
  3
- - - - - - - - - - - - - - - - - - - -
 72
65
 73
2
 40
0.2
 49
0.1
 74
0
 49
-0.1
 74
0
  0
LTYPE
  5
1F7
100
AcDbSymbolTableRecord
100
AcDbLinetypeTableRecord
  2
PHANTOM
 70
64
  3
_____ _ _ _____ _ _ _____ _ _ _____
 72
65
 73
6
 40
0.8
 49
0.45
 74
0
 49
-0.05
 74
0
 49
0.1
 74
0
 49
-0.05
 74
0
 49
0.1
 74
0
 49
-0.05
 74
0
  0
LTYPE
  5
1F8
100
AcDbSymbolTableRecord
100
AcDbLinetypeTableRecord
  2
DOT
 70
64
  3
. . . . . . . . . . . . . . . . . . . .
 72
65
 73
2
 40
0.2
 49
0.1
 74
0
 49
-0.1
 74
0
  0
LTYPE
  5
1F9
100
AcDbSymbolTableRecord
100
AcDbLinetypeTableRecord
  2
DASHED
 70
64
  3
- - - - - - - - - - - - - - - - - - - -
 72
65
 73
2
 40
0.2
 49
0.1
 74
0
 49
-0.1
 74
0
  0
ENDTAB
  0
TABLE
  2
LAYER
  5
2
100
AcDbSymbolTable
 70
36
  0
LAYER
  5
10
100
AcDbSymbolTableRecord
100
AcDbLayerTableRecord
  2
0
 70
0
 62
7
  6
CONTINUOUS
370
-3
390
F
  0
LAYER
  5
1FA
100
AcDbSymbolTableRecord
100
AcDbLayerTableRecord
  2
DEFAULT_1
 70
0
 62
7
  6
CENTER
370
-3
390
F
  0
LAYER
  5
1FB
100
AcDbSymbolTableRecord
100
AcDbLayerTableRecord
  2
DEFAULT_2
 70
0
 62
8
  6
HIDDEN
370
-3
390
F
  0
LAYER
  5
1FC
100
AcDbSymbolTableRecord
100
AcDbLayerTableRecord
  2
DEFAULT_3
 70
0
 62
7
  6
PHANTOM
370
-3
390
F
  0
LAYER
  5
1FD
100
AcDbSymbolTableRecord
100
AcDbLayerTableRecord
  2
DEFAULT_COORDINATE_SYSTEM
 70
0
 62
7
  6
CONTINUOUS
370
-3
390
F
  0
LAYER
  5
1FE
100
AcDbSymbolTableRecord
100
AcDbLayerTableRecord
  2
DEFAULT_DATUM_AXES
 70
0
 62
7
  6
CONTINUOUS
370
-3
390
F
  0
LAYER
  5
1FF
100
AcDbSymbolTableRecord
100
AcDbLayerTableRecord
  2
DEFAULT_DATUM_PLANES
 70
0
 62
7
  6
CONTINUOUS
370
-3
390
F
  0
ENDTAB
  0
TABLE
  2
STYLE
  5
3
100
AcDbSymbolTable
 70
1
  0
STYLE
  5
11
100
AcDbSymbolTableRecord
100
AcDbTextStyleTableRecord
  2
STANDARD
 70
0
 40
0.0
 41
0.8
 50
0.0
 71
0
 42
0.2
  3
txt
  4

  0
STYLE
  5
200
100
AcDbSymbolTableRecord
100
AcDbTextStyleTableRecord
  2
TEXTSTYLE_1
 70
0
 40
0.0
 41
0.8
 50
0.0
 71
0
 42
0.2
  3
gdt
  4

  0
ENDTAB
  0
TABLE
  2
VIEW
  5
6
100
AcDbSymbolTable
 70
0
  0
ENDTAB
  0
TABLE
  2
UCS
  5
7
100
AcDbSymbolTable
 70
0
  0
ENDTAB
  0
TABLE
  2
APPID
  5
9
100
AcDbSymbolTable
 70
1
  0
APPID
  5
201
100
AcDbSymbolTableRecord
100
AcDbRegAppTableRecord
  2
ACAD
 70
0
  0
ENDTAB
  0
TABLE
  2
BLOCK_RECORD
  5
1
100
AcDbSymbolTable
 70
0
  0
BLOCK_RECORD
  5
202
100
AcDbSymbolTableRecord
100
AcDbBlockTableRecord
  2
*Model_Space
  0
BLOCK_RECORD
  5
203
100
AcDbSymbolTableRecord
100
AcDbBlockTableRecord
  2
*Paper_Space
  0
BLOCK_RECORD
  5
204
100
AcDbSymbolTableRecord
100
AcDbBlockTableRecord
  2
_FILLED
  0
ENDTAB
  0
TABLE
  2
DIMSTYLE
  5
A
100
AcDbSymbolTable
 70
1
100
AcDbDimStyleTable
 71
0
  0
DIMSTYLE
105
205
100
AcDbSymbolTableRecord
100
AcDbDimStyleTableRecord
  2
STANDARD
 70
0
  3

  4

 40
1.0
 41
0.1
 42
0.0625
 43
0.38
 44
0.125
 45
0.0
 46
0.0
 47
0.01
 48
0.01
140
0.08
141
0.09
142
0.0
143
25.4
144
1.0
145
0.0
146
1.0
147
0.09
 71
1.0
 72
0.0
 73
1
 74
1
 75
0
 76
0
 77
0
 78
4
 79
1
170
1
171
1
172
0
173
0
174
0
175
0
176
0
177
0
178
0
270
2
179
2
271
2
272
2
273
2
274
2
275
0
280
0
281
0
282
0
283
1
284
4
285
0
286
0
287
3
288
0
340
11
278
46
341
204
342
204
343
204
344
204
  0
ENDTAB
  0
ENDSEC
  0
SECTION
  2
BLOCKS
  0
BLOCK
  5
20
100
AcDbEntity
  8
0
100
AcDbBlockBegin
  2
*Model_Space
 70
0
 10
0.0
 20
0.0
 30
0.0
  3
*Model_Space
  1

  0
ENDBLK
  5
21
100
AcDbEntity
  8
0
100
AcDbBlockEnd
  0
BLOCK
  5
1C
100
AcDbEntity
  8
0
100
AcDbBlockBegin
  2
*Paper_Space
 70
0
 10
0.0
 20
0.0
 30
0.0
  3
*Paper_Space
  1

  0
ENDBLK
  5
1D
100
AcDbEntity
  8
0
100
AcDbBlockEnd
  0
BLOCK
  5
206
100
AcDbEntity
  8
0
100
AcDbBlockBegin
  2
_FILLED
 70
64
 10
0.0
 20
0.0
  3
_FILLED
  1

  0
SOLID
  5
207
100
AcDbEntity
  8
0
  6
BYBLOCK
 62
0
100
AcDbTrace
 10
0.0
 20
0.0
 11
-1.0
 21
0.2
 12
-1.0
 22
-0.2
 13
-1.0
 23
-0.2
  0
ENDBLK
  5
208
100
AcDbEntity
  8
0
  6
BYBLOCK
 62
0
100
AcDbBlockEnd
  0
ENDSEC
  0
SECTION
  2
ENTITIES
  0
MTEXT
  5
209
100
AcDbEntity
  8
0
100
AcDbMText
 62
2
  6
CONTINUOUS
  7
STANDARD
 71
3
 72
1
 10
4.7159937888
 20
1.6814946118
 30
0.0
 11
1.0
 21
0.0
 31
0.0
 73
2
 44
0.9
  1
SCALE  .500
 40
0.08
 41
0.704
  0
LINE
  5
20A
100
AcDbEntity
  8
0
100
AcDbLine
 62
7
  6
CONTINUOUS
 10
0.0
 20
0.0
 11
0.0
 21
8.5
  0
LINE
  5
20B
100
AcDbEntity
  8
0
100
AcDbLine
 62
7
  6
CONTINUOUS
 10
0.0
 20
0.0
 11
11.0
 21
0.0
  0
LINE
  5
20C
100
AcDbEntity
  8
0
100
AcDbLine
 62
7
  6
CONTINUOUS
 10
0.0
 20
8.5
 11
11.0
 21
8.5
  0
LINE
  5
20D
100
AcDbEntity
  8
0
100
AcDbLine
 62
7
  6
CONTINUOUS
 10
11.0
 20
0.0
 11
11.0
 21
8.5
  0
LWPOLYLINE
  5
20E
100
AcDbEntity
  8
0
100
AcDbPolyline
 62
7
  6
CONTINUOUS
 90
44
 70
0
 10
4.3834452048
 20
2.0070842795
 10
4.3840225311
 20
2.0070898503
 10
4.3851931234
 20
2.007135638
 10
4.3863453467
 20
2.0072260179
 10
4.3874774877
 20
2.0073590047
 10
4.3885915779
 20
2.0075332005
 10
4.3896850451
 20
2.0077467113
 10
4.3907550129
 20
2.0079973252
 10
4.3918035053
 20
2.0082839604
 10
4.3928287042
 20
2.0086047058
 10
4.3938282765
 20
2.008957287
 10
4.3948037415
 20
2.0093407494
 10
4.395753757
 20
2.0097531753
 10
4.3966766147
 20
2.0101923233
 10
4.3975734406
 20
2.0106572582
 10
4.3984432114
 20
2.0111460379
 10
4.3992848563
 20
2.0116565545
 10
4.4000995172
 20
2.0121880285
 10
4.4008865814
 20
2.0127386434
 10
4.4016453662
 20
2.0133064204
 10
4.402376945
 20
2.0138906862
 10
4.4030810952
 20
2.0144898358
 10
4.4037574017
 20
2.0151020129
 10
4.4044066774
 20
2.0157264432
 10
4.4050290833
 20
2.0163618028
 10
4.4056243927
 20
2.0170063118
 10
4.4061929289
 20
2.0176586981
 10
4.4067349869
 20
2.018317638
 10
4.407250803
 20
2.0189816915
 10
4.4077407733
 20
2.0196495686
 10
4.4082054753
 20
2.0203202029
 10
4.4086453844
 20
2.0209923664
 10
4.4090609449
 20
2.0216647288
 10
4.409453358
 20
2.0223372115
 10
4.4098229031
 20
2.0230082219
 10
4.4101690452
 20
2.0236743686
 10
4.4104931873
 20
2.024335714
 10
4.4107961153
 20
2.0249911974
 10
4.4110770268
 20
2.0256359494
 10
4.4113371409
 20
2.0262691846
 10
4.4115781638
 20
2.0268915019
 10
4.4118005331
 20
2.0275003413
 10
4.4120054603
 20
2.0280950819
 10
4.4121431246
 20
2.0285150275
  0
LINE
  5
20F
100
AcDbEntity
  8
0
100
AcDbLine
 62
7
  6
CONTINUOUS
 10
4.2459725557
 20
2.0070842472
 11
4.3834452199
 21
2.0070842472
  0
LINE
  5
210
100
AcDbEntity
  8
0
100
AcDbLine
 62
7
  6
CONTINUOUS
 10
4.245388743
 20
2.0094072481
 11
4.3840291193
 21
2.0094076042
  0
LINE
  5
211
100
AcDbEntity
  8
0
100
AcDbLine
 62
7
  6
CONTINUOUS
 10
4.3840662791
 20
2.1547696176
 11
4.3170848551
 21
2.1547698058
  0
LINE
  5
212
100
AcDbEntity
  8
0
100
AcDbLine
 62
7
  6
CONTINUOUS
 10
4.3123328467
 20
2.1547696715
 11
4.2453513229
 21
2.1547692695
  0
LINE
  5
213
100
AcDbEntity
  8
0
100
AcDbLine
 62
7
  6
CONTINUOUS
 10
4.3822459301
 20
2.2082307184
 11
4.2471717816
 21
2.2082312777
  0
LINE
  5
214
100
AcDbEntity
  8
0
100
AcDbLine
 62
7
  6
CONTINUOUS
 10
4.2888125278
 20
2.0236753919
 11
4.2867202393
 21
2.0255650309
  0
LINE
  5
215
100
AcDbEntity
  8
0
100
AcDbLine
 62
7
  6
CONTINUOUS
 10
5.7708450047
 20
6.450763506
 11
5.8092088509
 21
6.466263506
  0
LWPOLYLINE
  5
216
100
AcDbEntity
  8
0
100
AcDbPolyline
 62
7
  6
CONTINUOUS
 90
44
 70
0
 10
4.2172745651
 20
2.0285150629
 10
4.2174113383
 20
2.028097779
 10
4.2176157564
 20
2.0275043235
 10
4.2178375608
 20
2.0268967627
 10
4.2180779578
 20
2.0262757175
 10
4.218337383
 20
2.0256437412
 10
4.218617537
 20
2.0250002352
 10
4.2189196351
 20
2.0243459819
 10
4.2192428786
 20
2.0236858358
 10
4.219588049
 20
2.0230208596
 10
4.2199565501
 20
2.0223509808
 10
4.2203478647
 20
2.0216795577
 10
4.2207622845
 20
2.0210081642
 10
4.2212010047
 20
2.0203368896
 10
4.2216644632
 20
2.019667074
 10
4.2221531418
 20
2.0189999369
 10
4.222667619
 20
2.0183365438
 10
4.2232082753
 20
2.0176782036
 10
4.2237753472
 20
2.0170263532
 10
4.2243691352
 20
2.0163823072
 10
4.2249899523
 20
2.0157473451
 10
4.2256375725
 20
2.0151232429
 10
4.2263121629
 20
2.0145113146
 10
4.2270145347
 20
2.0139123309
 10
4.2277442822
 20
2.0133281378
 10
4.2285011844
 20
2.0127603366
 10
4.2292862998
 20
2.0122096058
 10
4.2300989532
 20
2.0116779147
 10
4.2309385382
 20
2.0111670725
 10
4.2318061795
 20
2.0106778608
 10
4.2327008166
 20
2.0102123773
 10
4.2336214343
 20
2.009772555
 10
4.2345691402
 20
2.0093593283
 10
4.2355422382
 20
2.0089749279
 10
4.2365393993
 20
2.0086212609
 10
4.2375621272
 20
2.0082992754
 10
4.2386081117
 20
2.0080112335
 10
4.2396755469
 20
2.0077590382
 10
4.2407664295
 20
2.0075437627
 10
4.2418779103
 20
2.0073676072
 10
4.2430074377
 20
2.0072324572
 10
4.2441570132
 20
2.0071396965
 10
4.2453249371
 20
2.0070912967
 10
4.2459725691
 20
2.0070842825
  0
LINE
  5
217
100
AcDbEntity
  8
0
100
AcDbLine
 62
7
  6
CONTINUOUS
 10
4.217274451
 20
2.0285153715
 11
4.2172737821
 21
2.0285174555
  0
LINE
  5
218
100
AcDbEntity
  8
0
100
AcDbLine
 62
7
  6
CONTINUOUS
 10
4.0298363279
 20
6.1888344263
 11
4.0298363193
 21
2.6604021022
  0
LINE
  5
219
100
AcDbEntity
  8
0
100
AcDbLine
 62
7
  6
CONTINUOUS
 10
4.0298371275
 20
6.1888344286
 11
4.0298363193
 21
6.188763506
  0
LWPOLYLINE
  5
21A
100
AcDbEntity
  8
0
100
AcDbPolyline
 62
7
  6
CONTINUOUS
 90
25
 70
0
 10
5.6861382965
 20
5.8813277793
 10
5.6866464942
 20
5.8815696192
 10
5.6871299904
 20
5.8818330444
 10
5.6875977105
 20
5.8821217113
 10
5.6880470974
 20
5.8824337206
 10
5.6884769687
 20
5.8827677456
 10
5.6888865002
 20
5.8831226221
 10
5.689274041
 20
5.8834962777
 10
5.6896388941
 20
5.8838872466
 10
5.6899805053
 20
5.8842941029
 10
5.6902978146
 20
5.8847145916
 10
5.6905907103
 20
5.8851474235
 10
5.6908588431
 20
5.8855908676
 10
5.6911013047
 20
5.8860418065
 10
5.6913185043
 20
5.8864990256
 10
5.6915106043
 20
5.8869607164
 10
5.6916771017
 20
5.8874226776
 10
5.6918189511
 20
5.8878836522
 10
5.6919370408
 20
5.888342121
 10
5.6920317347
 20
5.8887934033
 10
5.6921045264
 20
5.8892362419
 10
5.6921569566
 20
5.8896697437
 10
5.6921903495
 20
5.8900898619
 10
5.6922065566
 20
5.890494823
 10
5.6922088509
 20
5.8907156094
  0
LINE
  5
21B
100
AcDbEntity
  8
0
100
AcDbLine
 62
7
  6
CONTINUOUS
 10
5.6861384277
 20
5.8813278036
 11
5.3228085765
 21
5.7205818695
  0
LINE
  5
21C
100
AcDbEntity
  8
0
100
AcDbLine
 62
7
  6
CONTINUOUS
 10
6.0192088509
 20
5.911263506
 11
6.0573027641
 21
5.9268018127
  0
LINE
  5
21D
100
AcDbEntity
  8
0
100
AcDbLine
 62
7
  6
CONTINUOUS
 10
4.2037020707
 20
2.1652211127
 11
4.2042268617
 21
2.1079243943
  0
LINE
  5
21E
100
AcDbEntity
  8
0
100
AcDbLine
 62
7
  6
CONTINUOUS
 10
4.3817395063
 20
2.2576413782
 11
4.3822459301
 21
2.2082307184
  0
LINE
  5
21F
100
AcDbEntity
  8
0
100
AcDbLine
 62
7
  6
CONTINUOUS
 10
4.3147088509
 20
2.01764371
 11
4.314708851
 21
2.0173649885
  0
LINE
  5
220
100
AcDbEntity
  8
0
100
AcDbLine
 62
7
  6
CONTINUOUS
 10
4.3147088509
 20
2.1548366711
 11
4.3147088509
 21
2.146005811
  0
LINE
  5
221
100
AcDbEntity
  8
0
100
AcDbLine
 62
7
  6
CONTINUOUS
 10
4.3147088509
 20
2.034612142
 11
4.3147088509
 21
2.0316963738
  0
LINE
  5
222
100
AcDbEntity
  8
0
100
AcDbLine
 62
7
  6
CONTINUOUS
 10
4.3147088509
 20
2.1161252254
 11
4.3147088509
 21
2.1249553999
  0
LINE
  5
223
100
AcDbEntity
  8
0
100
AcDbLine
 62
7
  6
CONTINUOUS
 10
4.2471717816
 20
2.2082312777
 11
4.2476795983
 21
2.2576411215
  0
LINE
  5
224
100
AcDbEntity
  8
0
100
AcDbLine
 62
7
  6
CONTINUOUS
 10
6.1175044496
 20
5.9338964299
 11
6.1076868222
 21
5.926763506
  0
LINE
  5
225
100
AcDbEntity
  8
0
100
AcDbLine
 62
7
  6
CONTINUOUS
 10
4.5995813826
 20
2.6604021022
 11
4.5995813512
 21
6.1888984766
  0
LINE
  5
226
100
AcDbEntity
  8
0
100
AcDbLine
 62
7
  6
CONTINUOUS
 10
4.5995813826
 20
6.188763506
 11
4.5995813747
 21
6.188831346
  0
LINE
  5
227
100
AcDbEntity
  8
0
100
AcDbLine
 62
7
  6
CONTINUOUS
 10
4.4257156311
 20
2.1652211127
 11
4.4251908402
 21
2.1079243943
  0
LINE
  5
228
100
AcDbEntity
  8
0
100
AcDbLine
 62
7
  6
CONTINUOUS
 10
4.5995813826
 20
6.188763506
 11
4.5995798448
 21
6.1888984594
  0
LINE
  5
229
100
AcDbEntity
  8
0
100
AcDbLine
 62
7
  6
CONTINUOUS
 10
6.0642088509
 20
6.438763506
 11
6.0711370542
 21
6.450763506
  0
LINE
  5
22A
100
AcDbEntity
  8
0
100
AcDbLine
 62
7
  6
CONTINUOUS
 10
5.1297088509
 20
5.6990136483
 11
5.1297088509
 21
6.6785133638
  0
LINE
  5
22B
100
AcDbEntity
  8
0
100
AcDbLine
 62
7
  6
CONTINUOUS
 10
5.7472088509
 20
6.3780189047
 11
5.7708450047
 21
6.450763506
  0
LINE
  5
22C
100
AcDbEntity
  8
0
100
AcDbLine
 62
7
  6
CONTINUOUS
 10
5.2173208732
 20
6.6929777917
 11
5.2173208732
 21
5.6845492203
  0
LINE
  5
22D
100
AcDbEntity
  8
0
100
AcDbLine
 62
7
  6
CONTINUOUS
 10
5.2400722636
 20
5.7014965002
 11
5.2400722636
 21
6.6760305118
  0
LINE
  5
22E
100
AcDbEntity
  8
0
100
AcDbLine
 62
7
  6
CONTINUOUS
 10
5.3228085765
 20
5.7205818695
 11
5.3228085765
 21
6.6569451426
  0
LINE
  5
22F
100
AcDbEntity
  8
0
100
AcDbLine
 62
7
  6
CONTINUOUS
 10
4.4121432393
 20
2.0285153355
 11
4.4121439198
 21
2.0285174555
  0
LINE
  5
230
100
AcDbEntity
  8
0
100
AcDbLine
 62
7
  6
CONTINUOUS
 10
6.0573027641
 20
5.9268018127
 11
6.0642088509
 21
5.938763506
  0
LINE
  5
231
100
AcDbEntity
  8
0
100
AcDbLine
 62
7
  6
CONTINUOUS
 10
5.6862548025
 20
5.8815763805
 11
5.6862548025
 21
6.4959506315
  0
LINE
  5
232
100
AcDbEntity
  8
0
100
AcDbLine
 62
7
  6
CONTINUOUS
 10
5.6922088499
 20
6.4868161592
 11
5.6922088509
 21
5.8907154759
  0
LINE
  5
233
100
AcDbEntity
  8
0
100
AcDbLine
 62
7
  6
CONTINUOUS
 10
6.1175044496
 20
5.9338964299
 11
6.1272088509
 21
5.963763506
  0
LWPOLYLINE
  5
234
100
AcDbEntity
  8
0
100
AcDbPolyline
 62
7
  6
CONTINUOUS
 90
25
 70
0
 10
5.6922088499
 20
6.4868161592
 10
5.6922073917
 20
6.486987331
 10
5.6921928308
 20
6.4873935288
 10
5.6921610502
 20
6.4878150598
 10
5.6921101725
 20
6.4882501442
 10
5.6920388432
 20
6.4886947041
 10
5.6919455018
 20
6.4891478492
 10
5.691828635
 20
6.4896083131
 10
5.6916878616
 20
6.4900713606
 10
5.6915222833
 20
6.4905354577
 10
5.6913309326
 20
6.4909993434
 10
5.6911143059
 20
6.491458777
 10
5.6908722377
 20
6.4919119329
 10
5.6906043138
 20
6.4923575879
 10
5.6903114437
 20
6.4927925984
 10
5.6899939825
 20
6.4932152121
 10
5.68965204
 20
6.4936241335
 10
5.6892866682
 20
6.4940171029
 10
5.6888984238
 20
6.4943926793
 10
5.6884880094
 20
6.4947493803
 10
5.6880570726
 20
6.4950851231
 10
5.6876064415
 20
6.4953987294
 10
5.6871373097
 20
6.4956888534
 10
5.686652245
 20
6.4959535787
 10
5.6861392918
 20
6.496197899
  0
LINE
  5
235
100
AcDbEntity
  8
0
100
AcDbLine
 62
7
  6
CONTINUOUS
 10
5.7472088509
 20
5.9995081074
 11
5.7472088509
 21
6.0984396195
  0
LINE
  5
236
100
AcDbEntity
  8
0
100
AcDbLine
 62
7
  6
CONTINUOUS
 10
5.7472088509
 20
6.2790873926
 11
5.7472088509
 21
6.3780189047
  0
LINE
  5
237
100
AcDbEntity
  8
0
100
AcDbLine
 62
7
  6
CONTINUOUS
 10
5.7708450047
 20
5.926763506
 11
5.7708450047
 21
6.0642983602
  0
LINE
  5
238
100
AcDbEntity
  8
0
100
AcDbLine
 62
7
  6
CONTINUOUS
 10
5.7708450047
 20
6.3132286518
 11
5.7708450047
 21
6.450763506
  0
LINE
  5
239
100
AcDbEntity
  8
0
100
AcDbLine
 62
7
  6
CONTINUOUS
 10
5.8092088509
 20
5.911263506
 11
5.8092088509
 21
6.030589292
  0
LINE
  5
23A
100
AcDbEntity
  8
0
100
AcDbLine
 62
7
  6
CONTINUOUS
 10
5.8092088509
 20
6.34693772
 11
5.8092088509
 21
6.466263506
  0
LINE
  5
23B
100
AcDbEntity
  8
0
100
AcDbLine
 62
7
  6
CONTINUOUS
 10
6.0192088509
 20
5.911263506
 11
6.0192088509
 21
6.030589292
  0
LINE
  5
23C
100
AcDbEntity
  8
0
100
AcDbLine
 62
7
  6
CONTINUOUS
 10
6.0192088509
 20
6.34693772
 11
6.0192088509
 21
6.466263506
  0
LINE
  5
23D
100
AcDbEntity
  8
0
100
AcDbLine
 62
7
  6
CONTINUOUS
 10
6.0573027641
 20
5.9268018127
 11
6.0573027641
 21
6.0639846923
  0
LINE
  5
23E
100
AcDbEntity
  8
0
100
AcDbLine
 62
7
  6
CONTINUOUS
 10
6.0573027641
 20
6.3135423197
 11
6.0573027641
 21
6.4507251993
  0
LINE
  5
23F
100
AcDbEntity
  8
0
100
AcDbLine
 62
7
  6
CONTINUOUS
 10
6.0642088509
 20
6.438763506
 11
6.0642088509
 21
6.3051426698
  0
LINE
  5
240
100
AcDbEntity
  8
0
100
AcDbLine
 62
7
  6
CONTINUOUS
 10
6.0642088509
 20
6.0723843422
 11
6.0642088509
 21
5.938763506
  0
LINE
  5
241
100
AcDbEntity
  8
0
100
AcDbLine
 62
7
  6
CONTINUOUS
 10
6.0711370542
 20
5.926763506
 11
6.0711370542
 21
6.0818860786
  0
LINE
  5
242
100
AcDbEntity
  8
0
100
AcDbLine
 62
7
  6
CONTINUOUS
 10
6.0711370542
 20
6.2956409334
 11
6.0711370542
 21
6.450763506
  0
LINE
  5
243
100
AcDbEntity
  8
0
100
AcDbLine
 62
7
  6
CONTINUOUS
 10
6.1076868222
 20
6.450763506
 11
6.1076868222
 21
5.926763506
  0
LINE
  5
244
100
AcDbEntity
  8
0
100
AcDbLine
 62
7
  6
CONTINUOUS
 10
6.1175044496
 20
6.4436305821
 11
6.1175044496
 21
5.9338964299
  0
LINE
  5
245
100
AcDbEntity
  8
0
100
AcDbLine
 62
7
  6
CONTINUOUS
 10
6.1272088509
 20
5.963763506
 11
6.1272088509
 21
6.413763506
  0
LINE
  5
246
100
AcDbEntity
  8
0
100
AcDbLine
 62
7
  6
CONTINUOUS
 10
6.1526485522
 20
5.973763506
 11
6.1526485522
 21
6.403763506
  0
LINE
  5
247
100
AcDbEntity
  8
0
100
AcDbLine
 62
7
  6
CONTINUOUS
 10
6.185810266
 20
5.9975697248
 11
6.185810266
 21
6.3799572872
  0
LINE
  5
248
100
AcDbEntity
  8
0
100
AcDbLine
 62
7
  6
CONTINUOUS
 10
5.7472088509
 20
5.9995081074
 11
5.7708450047
 21
5.926763506
  0
LINE
  5
249
100
AcDbEntity
  8
0
100
AcDbLine
 62
7
  6
CONTINUOUS
 10
4.3406051741
 20
2.0236753919
 11
4.3426974625
 21
2.0255650309
  0
LINE
  5
24A
100
AcDbEntity
  8
0
100
AcDbLine
 62
7
  6
CONTINUOUS
 10
5.1297088509
 20
5.738763506
 11
4.6154170129
 21
5.738763506
  0
LINE
  5
24B
100
AcDbEntity
  8
0
100
AcDbLine
 62
7
  6
CONTINUOUS
 10
5.8092088509
 20
5.911263506
 11
6.0192088509
 21
5.911263506
  0
LINE
  5
24C
100
AcDbEntity
  8
0
100
AcDbLine
 62
7
  6
CONTINUOUS
 10
6.0711370542
 20
5.926763506
 11
6.1076868222
 21
5.926763506
  0
LINE
  5
24D
100
AcDbEntity
  8
0
100
AcDbLine
 62
7
  6
CONTINUOUS
 10
6.1526485522
 20
5.973763506
 11
6.1272088509
 21
5.973763506
  0
LINE
  5
24E
100
AcDbEntity
  8
0
100
AcDbLine
 62
7
  6
CONTINUOUS
 10
5.6922088509
 20
6.038763506
 11
5.7472088509
 21
6.038763506
  0
LINE
  5
24F
100
AcDbEntity
  8
0
100
AcDbLine
 62
7
  6
CONTINUOUS
 10
5.7708450047
 20
5.926763506
 11
5.8092088509
 21
5.911263506
  0
LINE
  5
250
100
AcDbEntity
  8
0
100
AcDbLine
 62
7
  6
CONTINUOUS
 10
6.0642088509
 20
5.938763506
 11
6.0711370542
 21
5.926763506
  0
LINE
  5
251
100
AcDbEntity
  8
0
100
AcDbLine
 62
7
  6
CONTINUOUS
 10
6.1175044496
 20
6.4436305821
 11
6.1272088509
 21
6.413763506
  0
LINE
  5
252
100
AcDbEntity
  8
0
100
AcDbLine
 62
7
  6
CONTINUOUS
 10
5.6922088509
 20
6.338763506
 11
5.7472088509
 21
6.338763506
  0
LINE
  5
253
100
AcDbEntity
  8
0
100
AcDbLine
 62
7
  6
CONTINUOUS
 10
6.1526485522
 20
6.403763506
 11
6.1272088509
 21
6.403763506
  0
LINE
  5
254
100
AcDbEntity
  8
0
100
AcDbLine
 62
7
  6
CONTINUOUS
 10
6.0573027641
 20
6.4507251993
 11
6.0642088509
 21
6.438763506
  0
LINE
  5
255
100
AcDbEntity
  8
0
100
AcDbLine
 62
7
  6
CONTINUOUS
 10
6.0711370542
 20
6.450763506
 11
6.1076868222
 21
6.450763506
  0
LINE
  5
256
100
AcDbEntity
  8
0
100
AcDbLine
 62
7
  6
CONTINUOUS
 10
5.8092088509
 20
6.466263506
 11
6.0192088509
 21
6.466263506
  0
LINE
  5
257
100
AcDbEntity
  8
0
100
AcDbLine
 62
7
  6
CONTINUOUS
 10
5.686138244
 20
6.4961992897
 11
5.3228085765
 21
6.6569451426
  0
LINE
  5
258
100
AcDbEntity
  8
0
100
AcDbLine
 62
7
  6
CONTINUOUS
 10
5.1297088509
 20
6.638763506
 11
4.6154170129
 21
6.638763506
  0
LINE
  5
259
100
AcDbEntity
  8
0
100
AcDbLine
 62
7
  6
CONTINUOUS
 10
6.0192088509
 20
6.466263506
 11
6.0573027641
 21
6.4507251993
  0
LINE
  5
25A
100
AcDbEntity
  8
0
100
AcDbLine
 62
7
  6
CONTINUOUS
 10
6.1175044496
 20
6.4436305821
 11
6.1076868222
 21
6.450763506
  0
ARC
  5
25B
100
AcDbEntity
  8
0
100
AcDbCircle
 62
7
  6
CONTINUOUS
 10
4.3147128102
 20
2.6238826721
 40
0.3723241374
100
AcDbArc
 50
259.6291533004
 51
280.3710663155
  0
ARC
  5
25C
100
AcDbEntity
  8
0
100
AcDbCircle
 62
7
  6
CONTINUOUS
 10
4.3160917652
 20
2.1428965824
 40
0.1252753364
100
AcDbArc
 50
269.1023575906
 51
269.612913492
  0
ARC
  5
25D
100
AcDbEntity
  8
0
100
AcDbCircle
 62
7
  6
CONTINUOUS
 10
4.3143740083
 20
2.0775453817
 40
0.0599276127
100
AcDbArc
 50
270.8331710726
 51
271.5381255151
  0
ARC
  5
25E
100
AcDbEntity
  8
0
100
AcDbCircle
 62
7
  6
CONTINUOUS
 10
4.3147046665
 20
2.1124398632
 40
0.0423968081
100
AcDbArc
 50
86.78167978
 51
89.9943450291
  0
ARC
  5
25F
100
AcDbEntity
  8
0
100
AcDbCircle
 62
7
  6
CONTINUOUS
 10
4.3147098866
 20
2.1125517544
 40
0.0422849167
100
AcDbArc
 50
90.0014032861
 51
93.2225719048
  0
ARC
  5
260
100
AcDbEntity
  8
0
100
AcDbCircle
 62
7
  6
CONTINUOUS
 10
4.2799102889
 20
2.1652519478
 40
0.0236220472
100
AcDbArc
 50
240.9990512651
 51
299.0009487349
  0
ARC
  5
261
100
AcDbEntity
  8
0
100
AcDbCircle
 62
7
  6
CONTINUOUS
 10
4.2654962525
 20
2.1546875654
 40
0.0236220472
100
AcDbArc
 50
240.9990512651
 51
299.0009487349
  0
ARC
  5
262
100
AcDbEntity
  8
0
100
AcDbCircle
 62
7
  6
CONTINUOUS
 10
4.2799102889
 20
2.1441231831
 40
0.0236220472
100
AcDbArc
 50
240.9990512651
 51
299.0009487349
  0
ARC
  5
263
100
AcDbEntity
  8
0
100
AcDbCircle
 62
7
  6
CONTINUOUS
 10
4.3147088509
 20
2.1397472726
 40
0.0236220472
100
AcDbArc
 50
240.9990512651
 51
299.0009487349
  0
ARC
  5
264
100
AcDbEntity
  8
0
100
AcDbCircle
 62
7
  6
CONTINUOUS
 10
4.349507413
 20
2.1441231831
 40
0.0236220472
100
AcDbArc
 50
240.9990512651
 51
299.0009487349
  0
ARC
  5
265
100
AcDbEntity
  8
0
100
AcDbCircle
 62
7
  6
CONTINUOUS
 10
4.3639214494
 20
2.1546875654
 40
0.0236220472
100
AcDbArc
 50
240.9990512651
 51
299.0009487349
  0
ARC
  5
266
100
AcDbEntity
  8
0
100
AcDbCircle
 62
7
  6
CONTINUOUS
 10
4.349507413
 20
2.1652519478
 40
0.0236220472
100
AcDbArc
 50
240.9990512651
 51
299.0009487349
  0
ARC
  5
267
100
AcDbEntity
  8
0
100
AcDbCircle
 62
7
  6
CONTINUOUS
 10
4.3147088509
 20
2.1696278582
 40
0.0236220472
100
AcDbArc
 50
240.9990567696
 51
299.0009439953
  0
ARC
  5
268
100
AcDbEntity
  8
0
100
AcDbCircle
 62
7
  6
CONTINUOUS
 10
4.3147088509
 20
6.188763506
 40
0.63875
100
AcDbArc
 50
296.4874824786
 51
315.2084778282
  0
ARC
  5
269
100
AcDbEntity
  8
0
100
AcDbCircle
 62
7
  6
CONTINUOUS
 10
4.3147088509
 20
6.188763506
 40
0.63875
100
AcDbArc
 50
44.7915221718
 51
243.5125175214
  0
ARC
  5
26A
100
AcDbEntity
  8
0
100
AcDbCircle
 62
7
  6
CONTINUOUS
 10
4.3147088509
 20
6.188763506
 40
0.5436995674
100
AcDbArc
 50
55.861930381
 51
238.4006829454
  0
ARC
  5
26B
100
AcDbEntity
  8
0
100
AcDbCircle
 62
7
  6
CONTINUOUS
 10
4.3147088509
 20
6.188763506
 40
0.5436995674
100
AcDbArc
 50
301.5993170546
 51
304.1380696189
  0
ARC
  5
26C
100
AcDbEntity
  8
0
100
AcDbCircle
 62
7
  6
CONTINUOUS
 10
4.3147088509
 20
6.188763506
 40
0.54125
100
AcDbArc
 50
301.7588981985
 51
238.2411018015
  0
ARC
  5
26D
100
AcDbEntity
  8
0
100
AcDbCircle
 62
7
  6
CONTINUOUS
 10
4.3147088509
 20
6.188763506
 40
0.47
100
AcDbArc
 50
307.3108677997
 51
232.6891322003
  0
ARC
  5
26E
100
AcDbEntity
  8
0
100
AcDbCircle
 62
7
  6
CONTINUOUS
 10
4.3147088509
 20
6.188763506
 40
0.455
100
AcDbArc
 50
308.7646504427
 51
231.2353495574
  0
ARC
  5
26F
100
AcDbEntity
  8
0
100
AcDbCircle
 62
7
  6
CONTINUOUS
 10
4.3198681966
 20
6.1887649719
 40
0.290031877
100
AcDbArc
 50
176.1156167131
 51
179.9862787819
  0
ARC
  5
270
100
AcDbEntity
  8
0
100
AcDbCircle
 62
7
  6
CONTINUOUS
 10
4.3095505528
 20
6.1887650122
 40
0.2900308291
100
AcDbArc
 50
0.0263627145
 51
3.88438935
  0
ARC
  5
271
100
AcDbEntity
  8
0
100
AcDbCircle
 62
7
  6
CONTINUOUS
 10
4.314673092
 20
6.1956739721
 40
0.2780895362
100
AcDbArc
 50
86.5309224495
 51
89.9926324588
  0
ARC
  5
272
100
AcDbEntity
  8
0
100
AcDbCircle
 62
7
  6
CONTINUOUS
 10
4.3147446099
 20
6.1956739721
 40
0.2780895362
100
AcDbArc
 50
90.0073675412
 51
93.4690775508
  0
ARC
  5
273
100
AcDbEntity
  8
0
100
AcDbCircle
 62
7
  6
CONTINUOUS
 10
5.1747088509
 20
5.699013506
 40
0.045
100
AcDbArc
 50
180.0
 51
341.250659153
  0
ARC
  5
274
100
AcDbEntity
  8
0
100
AcDbCircle
 62
7
  6
CONTINUOUS
 10
5.1747088509
 20
6.678513506
 40
0.045
100
AcDbArc
 50
18.749340847
 51
180.0
  0
ARC
  5
275
100
AcDbEntity
  8
0
100
AcDbCircle
 62
7
  6
CONTINUOUS
 10
5.6193963509
 20
6.188763506
 40
0.5978125
100
AcDbArc
 50
341.3478200484
 51
18.6521799516
  0
ARC
  5
276
100
AcDbEntity
  8
0
100
AcDbCircle
 62
7
  6
CONTINUOUS
 10
5.2317746661
 20
6.4511835642
 40
0.225
100
AcDbArc
 50
66.1342398804
 51
87.8865549168
  0
ARC
  5
277
100
AcDbEntity
  8
0
100
AcDbCircle
 62
7
  6
CONTINUOUS
 10
5.2317746661
 20
5.9263434479
 40
0.225
100
AcDbArc
 50
272.1134450832
 51
293.8657601196
  0
CIRCLE
  5
278
100
AcDbEntity
  8
0
100
AcDbCircle
 62
7
  6
CONTINUOUS
 10
5.9142088509
 20
6.188763506
 40
0.1898675434
  0
CIRCLE
  5
279
100
AcDbEntity
  8
0
100
AcDbCircle
 62
7
  6
CONTINUOUS
 10
5.9142088509
 20
6.188763506
 40
0.1
  0
CIRCLE
  5
27A
100
AcDbEntity
  8
0
100
AcDbCircle
 62
7
  6
CONTINUOUS
 10
5.9142088509
 20
6.188763506
 40
0.09
  0
CIRCLE
  5
27B
100
AcDbEntity
  8
0
100
AcDbCircle
 62
7
  6
CONTINUOUS
 10
5.9142088509
 20
6.188763506
 40
0.075
  0
ARC
  5
27C
100
AcDbEntity
  8
0
100
AcDbCircle
 62
7
  6
CONTINUOUS
 10
6.1526485522
 20
6.368763506
 40
0.035
100
AcDbArc
 50
18.6521799516
 51
90.0
  0
ARC
  5
27D
100
AcDbEntity
  8
0
100
AcDbCircle
 62
7
  6
CONTINUOUS
 10
6.1526485522
 20
6.008763506
 40
0.035
100
AcDbArc
 50
270.0
 51
341.3478200484
  0
ARC
  5
27E
100
AcDbEntity
  8
0
100
AcDbCircle
 62
7
  6
CONTINUOUS
 10
5.2409942188
 20
5.676513506
 40
0.025
100
AcDbArc
 50
92.1134450832
 51
161.250659153
  0
ARC
  5
27F
100
AcDbEntity
  8
0
100
AcDbCircle
 62
7
  6
CONTINUOUS
 10
5.2409942188
 20
6.701013506
 40
0.025
100
AcDbArc
 50
198.749340847
 51
267.8865549168
  0
ARC
  5
280
100
AcDbEntity
  8
0
100
AcDbCircle
 62
7
  6
CONTINUOUS
 10
5.6822156551
 20
6.486809797
 40
0.0099933285
100
AcDbArc
 50
0.0364770657
 51
66.1603472182
  0
ARC
  5
281
100
AcDbEntity
  8
0
100
AcDbCircle
 62
7
  6
CONTINUOUS
 10
5.6822325275
 20
5.8907156366
 40
0.0099763235
100
AcDbArc
 50
293.8559525684
 51
359.9990772613
  0
SPLINE
  5
282
100
AcDbEntity
  8
0
100
AcDbSpline
 62
7
  6
CONTINUOUS
 70
0
 71
3
 72
45
 73
41
 74
0
 42
0.0000001
 43
0.0000001
 44
0.0000000001
 40
0.0
 40
0.0
 40
0.0
 40
0.0
 40
0.0167295361
 40
0.033403791
 40
0.0500186582
 40
0.0665707772
 40
0.0994726277
 40
0.1321053237
 40
0.148322968
 40
0.1644738159
 40
0.1805591572
 40
0.1965805451
 40
0.2284342571
 40
0.2600570176
 40
0.2914688335
 40
0.3226904101
 40
0.3537427015
 40
0.3846469065
 40
0.4154233889
 40
0.4460918377
 40
0.4766714087
 40
0.5071804689
 40
0.5376366844
 40
0.5680573754
 40
0.5984594768
 40
0.6288597076
 40
0.6592747794
 40
0.6897215305
 40
0.7202172409
 40
0.750779455
 40
0.7814263214
 40
0.812176918
 40
0.8430507463
 40
0.8585422663
 40
0.8740722638
 40
0.9052540471
 40
0.9366213805
 40
0.9523834562
 40
0.9681997531
 40
1.0
 40
1.0
 40
1.0
 40
1.0
 10
4.2045469071
 20
2.0975461981
 30
0.0
 10
4.199250162
 20
2.0989779817
 30
0.0
 10
4.1887284642
 20
2.1020422245
 30
0.0
 10
4.173163102
 20
2.1072347101
 30
0.0
 10
4.1578623508
 20
2.1129998188
 30
0.0
 10
4.1378866753
 20
2.1214081062
 30
0.0
 10
4.1136792068
 20
2.1332514019
 30
0.0
 10
4.0905156071
 20
2.1468068294
 30
0.0
 10
4.0727328006
 20
2.1585722872
 30
0.0
 10
4.059803535
 20
2.1678183905
 30
0.0
 10
4.0472665937
 20
2.177484676
 30
0.0
 10
4.0311189376
 20
2.1908807775
 30
0.0
 10
4.0119454957
 20
2.2085843393
 30
0.0
 10
3.9905907063
 20
2.2312556456
 30
0.0
 10
3.9709732168
 20
2.2551782866
 30
0.0
 10
3.9531280128
 20
2.2802199322
 30
0.0
 10
3.9370819858
 20
2.3062547188
 30
0.0
 10
3.9228567685
 20
2.3331616495
 30
0.0
 10
3.9104695904
 20
2.3608242388
 30
0.0
 10
3.8999342471
 20
2.3891296823
 30
0.0
 10
3.8912616699
 20
2.4179683025
 30
0.0
 10
3.8844603818
 20
2.4472329129
 30
0.0
 10
3.8795367982
 20
2.4768182475
 30
0.0
 10
3.8764954304
 20
2.5066204652
 30
0.0
 10
3.8753390083
 20
2.5365366901
 30
0.0
 10
3.8760685656
 20
2.566464516
 30
0.0
 10
3.8786834587
 20
2.5963015731
 30
0.0
 10
3.8831813458
 20
2.6259451385
 30
0.0
 10
3.8895581505
 20
2.6552916391
 30
0.0
 10
3.8978078758
 20
2.6842361143
 30
0.0
 10
3.9079226165
 20
2.7126720534
 30
0.0
 10
3.9198916071
 20
2.7404896717
 30
0.0
 10
3.931388639
 20
2.7630396206
 30
0.0
 10
3.9414913663
 20
2.7806508758
 30
0.0
 10
3.9522245782
 20
2.7980041086
 30
0.0
 10
3.9667787663
 20
2.8190987184
 30
0.0
 10
3.9827703331
 20
2.8392237495
 30
0.0
 10
3.9964271994
 20
2.8547105734
 30
0.0
 10
4.0107064875
 20
2.8698202364
 30
0.0
 10
4.022022929
 20
2.8806069821
 30
0.0
 10
4.0298206663
 20
2.8875332242
 30
0.0
  0
SPLINE
  5
283
100
AcDbEntity
  8
0
100
AcDbSpline
 62
7
  6
CONTINUOUS
 70
0
 71
3
 72
31
 73
27
 74
0
 42
0.0000001
 43
0.0000001
 44
0.0000000001
 40
0.0
 40
0.0
 40
0.0
 40
0.0
 40
0.062815492
 40
0.1256505629
 40
0.1884893492
 40
0.251295483
 40
0.2826828557
 40
0.3140484257
 40
0.3453899616
 40
0.3767073434
 40
0.4080031375
 40
0.4392828339
 40
0.4705514784
 40
0.5018114338
 40
0.5642856811
 40
0.6267085245
 40
0.6890550389
 40
0.7202033163
 40
0.7513284599
 40
0.7824329203
 40
0.7979801817
 40
0.8135245254
 40
0.8446060387
 40
0.8756863667
 40
0.9378366725
 40
1.0
 40
1.0
 40
1.0
 40
1.0
 10
4.3147088509
 20
2.3786813445
 30
0.0
 10
4.3053936816
 20
2.3786813445
 30
0.0
 10
4.2867478527
 20
2.3796170466
 30
0.0
 10
4.2590599452
 20
2.3837419582
 30
0.0
 10
4.2318959744
 20
2.3905024991
 30
0.0
 10
4.2099008966
 20
2.3982677303
 30
0.0
 10
4.1928288453
 20
2.4057147377
 30
0.0
 10
4.1803180823
 20
2.411907082
 30
0.0
 10
4.1681330614
 20
2.418696338
 30
0.0
 10
4.1563057901
 20
2.4260721036
 30
0.0
 10
4.1448693958
 20
2.4340247747
 30
0.0
 10
4.1338552054
 20
2.4425405701
 30
0.0
 10
4.1232823686
 20
2.4515905742
 30
0.0
 10
4.1098061821
 20
2.46432815
 30
0.0
 10
4.0941592748
 20
2.4814537695
 30
0.0
 10
4.0774733533
 20
2.5036995531
 30
0.0
 10
4.0654324976
 20
2.5234856491
 30
0.0
 10
4.0570083265
 20
2.5399412583
 30
0.0
 10
4.0513132301
 20
2.5525697246
 30
0.0
 10
4.047102104
 20
2.5633129762
 30
0.0
 10
4.0440651763
 20
2.5720229061
 30
0.0
 10
4.0412532948
 20
2.5808044576
 30
0.0
 10
4.0381597586
 20
2.5919105955
 30
0.0
 10
4.0341109767
 20
2.6099018289
 30
0.0
 10
4.0307356589
 20
2.6327368688
 30
0.0
 10
4.0298363193
 20
2.6511836451
 30
0.0
 10
4.0298363193
 20
2.6604021022
 30
0.0
  0
SPLINE
  5
284
100
AcDbEntity
  8
0
100
AcDbSpline
 62
7
  6
CONTINUOUS
 70
0
 71
3
 72
31
 73
27
 74
0
 42
0.0000001
 43
0.0000001
 44
0.0000000001
 40
0.0
 40
0.0
 40
0.0
 40
0.0
 40
0.0624564656
 40
0.1249464013
 40
0.1874668358
 40
0.2499932052
 40
0.2812586536
 40
0.3125158486
 40
0.3437637021
 40
0.3750031509
 40
0.4062377215
 40
0.4374736124
 40
0.4687161241
 40
0.4999676896
 40
0.5624780368
 40
0.6250056097
 40
0.6875215292
 40
0.7187769051
 40
0.7500229464
 40
0.7812610574
 40
0.7968795456
 40
0.8124978474
 40
0.8437347241
 40
0.8749789181
 40
0.9374760697
 40
1.0
 40
1.0
 40
1.0
 40
1.0
 10
4.3147088509
 20
6.473763506
 30
0.0
 10
4.3053948868
 20
6.473763506
 30
0.0
 10
4.2867490949
 20
6.4728169621
 30
0.0
 10
4.2590627707
 20
6.4686444644
 30
0.0
 10
4.2319004972
 20
6.4618060369
 30
0.0
 10
4.2099109906
 20
6.4539528798
 30
0.0
 10
4.1928441865
 20
6.446422624
 30
0.0
 10
4.1803347741
 20
6.4401598559
 30
0.0
 10
4.168150991
 20
6.4332933937
 30
0.0
 10
4.156324822
 20
6.4258337546
 30
0.0
 10
4.1448894047
 20
6.417790681
 30
0.0
 10
4.1338761161
 20
6.409178124
 30
0.0
 10
4.1233040354
 20
6.4000252803
 30
0.0
 10
4.1098248304
 20
6.387139299
 30
0.0
 10
4.0941749442
 20
6.3698136931
 30
0.0
 10
4.0774900876
 20
6.3473147748
 30
0.0
 10
4.0654523503
 20
6.3273086644
 30
0.0
 10
4.0570289205
 20
6.3106697171
 30
0.0
 10
4.0513326035
 20
6.297897464
 30
0.0
 10
4.0471206244
 20
6.2870328968
 30
0.0
 10
4.0440827175
 20
6.2782244572
 30
0.0
 10
4.041269255
 20
6.2693420146
 30
0.0
 10
4.0381737758
 20
6.258108445
 30
0.0
 10
4.034121519
 20
6.2399101301
 30
0.0
 10
4.0307419984
 20
6.2168139493
 30
0.0
 10
4.0298386069
 20
6.1981584624
 30
0.0
 10
4.0298363279
 20
6.1888344377
 30
0.0
  0
SPLINE
  5
285
100
AcDbEntity
  8
0
100
AcDbSpline
 62
7
  6
CONTINUOUS
 70
0
 71
3
 72
21
 73
17
 74
0
 42
0.0000001
 43
0.0000001
 44
0.0000000001
 40
0.0
 40
0.0
 40
0.0
 40
0.0
 40
0.1473089417
 40
0.2200415612
 40
0.2916866161
 40
0.4304045073
 40
0.5612307672
 40
0.6232047894
 40
0.6827536224
 40
0.7399022759
 40
0.7947824703
 40
0.8477056426
 40
0.8991036222
 40
0.9244149636
 40
0.9495833689
 40
1.0
 40
1.0
 40
1.0
 40
1.0
 10
4.314708851
 20
2.0173649885
 30
0.0
 10
4.3133764927
 20
2.0173649885
 30
0.0
 10
4.3113858176
 20
2.0174131335
 30
0.0
 10
4.3087524043
 20
2.0175755005
 30
0.0
 10
4.3062013931
 20
2.0177986388
 30
0.0
 10
4.3031385822
 20
2.0181886318
 30
0.0
 10
4.3001894896
 20
2.0187432695
 30
0.0
 10
4.2979718076
 20
2.0192850001
 30
0.0
 10
4.2964177335
 20
2.0197298702
 30
0.0
 10
4.2949455603
 20
2.0202225267
 30
0.0
 10
4.2935555473
 20
2.0207665184
 30
0.0
 10
4.2922467795
 20
2.021369078
 30
0.0
 10
4.2912164663
 20
2.0219311982
 30
0.0
 10
4.2904359198
 20
2.0224214377
 30
0.0
 10
4.2896847829
 20
2.0229399832
 30
0.0
 10
4.2891509542
 20
2.0233697453
 30
0.0
 10
4.2888125403
 20
2.0236753805
 30
0.0
  0
SPLINE
  5
286
100
AcDbEntity
  8
0
100
AcDbSpline
 62
7
  6
CONTINUOUS
 70
0
 71
3
 72
21
 73
17
 74
0
 42
0.0000001
 43
0.0000001
 44
0.0000000001
 40
0.0
 40
0.0
 40
0.0
 40
0.0
 40
0.0504155727
 40
0.0755846999
 40
0.1008963857
 40
0.1522941252
 40
0.205217239
 40
0.2600976409
 40
0.317246536
 40
0.3767954561
 40
0.4387696039
 40
0.5695959445
 40
0.7083137856
 40
0.7799587993
 40
0.8526913232
 40
1.0
 40
1.0
 40
1.0
 40
1.0
 10
4.3406051615
 20
2.0236753805
 30
0.0
 10
4.3402667548
 20
2.0233697517
 30
0.0
 10
4.3397329243
 20
2.0229399969
 30
0.0
 10
4.3389817923
 20
2.0224214447
 30
0.0
 10
4.3382012416
 20
2.0219311974
 30
0.0
 10
4.3371709236
 20
2.0213690854
 30
0.0
 10
4.3358621621
 20
2.0207665145
 30
0.0
 10
4.3344721425
 20
2.0202225292
 30
0.0
 10
4.3329999656
 20
2.0197298689
 30
0.0
 10
4.3314458873
 20
2.0192849985
 30
0.0
 10
4.3292282028
 20
2.0187432672
 30
0.0
 10
4.3262791086
 20
2.0181886302
 30
0.0
 10
4.3232162978
 20
2.0177986375
 30
0.0
 10
4.3206652883
 20
2.0175754999
 30
0.0
 10
4.3180318786
 20
2.0174131333
 30
0.0
 10
4.3160412068
 20
2.0173649885
 30
0.0
 10
4.314708851
 20
2.0173649885
 30
0.0
  0
SPLINE
  5
287
100
AcDbEntity
  8
0
100
AcDbSpline
 62
7
  6
CONTINUOUS
 70
0
 71
3
 72
11
 73
7
 74
0
 42
0.0000001
 43
0.0000001
 44
0.0000000001
 40
0.0
 40
0.0
 40
0.0
 40
0.0
 40
0.2475865071
 40
0.4961563026
 40
0.7466552742
 40
1.0
 40
1.0
 40
1.0
 40
1.0
 10
4.2042268617
 20
2.1079243943
 30
0.0
 10
4.2042879053
 20
2.1012596436
 30
0.0
 10
4.2049301404
 20
2.0879027077
 30
0.0
 10
4.2074467645
 20
2.06794181
 30
0.0
 10
4.2114996272
 20
2.0480776476
 30
0.0
 10
4.2151896264
 20
2.0350112418
 30
0.0
 10
4.2172737821
 20
2.0285174555
 30
0.0
  0
SPLINE
  5
288
100
AcDbEntity
  8
0
100
AcDbSpline
 62
7
  6
CONTINUOUS
 70
0
 71
3
 72
11
 73
7
 74
0
 42
0.0000001
 43
0.0000001
 44
0.0000000001
 40
0.0
 40
0.0
 40
0.0
 40
0.0
 40
0.2533447235
 40
0.5038436974
 40
0.7524134922
 40
1.0
 40
1.0
 40
1.0
 40
1.0
 10
4.4121439198
 20
2.0285174555
 30
0.0
 10
4.4142280755
 20
2.0350112418
 30
0.0
 10
4.4179180746
 20
2.0480776476
 30
0.0
 10
4.4219709374
 20
2.0679418099
 30
0.0
 10
4.4244875615
 20
2.0879027077
 30
0.0
 10
4.4251297965
 20
2.1012596436
 30
0.0
 10
4.4251908402
 20
2.1079243943
 30
0.0
  0
SPLINE
  5
289
100
AcDbEntity
  8
0
100
AcDbSpline
 62
7
  6
CONTINUOUS
 70
0
 71
3
 72
28
 73
24
 74
0
 42
0.0000001
 43
0.0000001
 44
0.0000000001
 40
0.0
 40
0.0
 40
0.0
 40
0.0
 40
0.0627278357
 40
0.094088797
 40
0.1254436783
 40
0.18812305
 40
0.250772731
 40
0.2820906722
 40
0.3134001906
 40
0.3759827058
 40
0.4385291784
 40
0.5010389717
 40
0.5635122326
 40
0.6259498845
 40
0.6883535912
 40
0.7195486687
 40
0.7507362142
 40
0.8130798746
 40
0.8753986909
 40
0.9065553286
 40
0.9377073652
 40
0.9688553844
 40
1.0
 40
1.0
 40
1.0
 40
1.0
 10
4.2096687427
 20
2.0574848777
 30
0.0
 10
4.1997434043
 20
2.0600079066
 30
0.0
 10
4.1849851854
 20
2.0643318178
 30
0.0
 10
4.1656690245
 20
2.0711470538
 30
0.0
 10
4.1466180988
 20
2.0786528503
 30
0.0
 10
4.1233399282
 20
2.0893153964
 30
0.0
 10
4.1008991814
 20
2.1016310845
 30
0.0
 10
4.0835269023
 20
2.1124331205
 30
0.0
 10
4.0665667179
 20
2.1238515249
 30
0.0
 10
4.0461683649
 20
2.1392612843
 30
0.0
 10
4.0231109643
 20
2.159470713
 30
0.0
 10
4.0015963852
 20
2.1812914159
 30
0.0
 10
3.9817400172
 20
2.2046079486
 30
0.0
 10
3.9636481191
 20
2.2292963451
 30
0.0
 10
3.950118904
 20
2.2509106467
 30
0.0
 10
3.9402722002
 20
2.268750199
 30
0.0
 10
3.9310896929
 20
2.2869296633
 30
0.0
 10
3.9208737171
 20
2.3102593448
 30
0.0
 10
3.9123982072
 20
2.3342709901
 30
0.0
 10
3.9066916908
 20
2.3538051161
 30
0.0
 10
3.9029532797
 20
2.3686016053
 30
0.0
 10
3.8997617813
 20
2.3835231959
 30
0.0
 10
3.8980012726
 20
2.393542366
 30
0.0
 10
3.8972135668
 20
2.3985656759
 30
0.0
  0
SPLINE
  5
28A
100
AcDbEntity
  8
0
100
AcDbSpline
 62
7
  6
CONTINUOUS
 70
0
 71
3
 72
43
 73
39
 74
0
 42
0.0000001
 43
0.0000001
 44
0.0000000001
 40
0.0
 40
0.0
 40
0.0
 40
0.0
 40
0.0313859375
 40
0.0627698887
 40
0.0941499584
 40
0.1255242559
 40
0.1568910325
 40
0.1882486545
 40
0.2195956503
 40
0.2509307414
 40
0.2822528536
 40
0.3135611346
 40
0.3448549848
 40
0.3604984989
 40
0.3761382924
 40
0.4074024689
 40
0.4386519254
 40
0.4542733891
 40
0.469891348
 40
0.5011128543
 40
0.5323216202
 40
0.5635187633
 40
0.5947055985
 40
0.6258836258
 40
0.6570544906
 40
0.6882199601
 40
0.7193818979
 40
0.7505422253
 40
0.7817028916
 40
0.8128658398
 40
0.8440329747
 40
0.8596208463
 40
0.8752104417
 40
0.9063913463
 40
0.9375815977
 40
0.9531828342
 40
0.9687869287
 40
1.0
 40
1.0
 40
1.0
 40
1.0
 10
4.3147088509
 20
2.3191004531
 30
0.0
 10
4.307421344
 20
2.3191004531
 30
0.0
 10
4.2928423129
 20
2.3195762702
 30
0.0
 10
4.2710715895
 20
2.3217144279
 30
0.0
 10
4.2494884199
 20
2.3252678737
 30
0.0
 10
4.228187307
 20
2.3302214361
 30
0.0
 10
4.2072600437
 20
2.3365539401
 30
0.0
 10
4.1867972871
 20
2.3442383027
 30
0.0
 10
4.1668876439
 20
2.3532416358
 30
0.0
 10
4.1476174857
 20
2.3635253303
 30
0.0
 10
4.1290703548
 20
2.3750453734
 30
0.0
 10
4.1113273205
 20
2.3877518772
 30
0.0
 10
4.09727251
 20
2.3992867074
 30
0.0
 10
4.0865080712
 20
2.4090492717
 30
0.0
 10
4.0760758137
 20
2.4191562006
 30
0.0
 10
4.063673142
 20
2.4324217736
 30
0.0
 10
4.0521754484
 20
2.4464735275
 30
0.0
 10
4.0435537111
 20
2.4581462765
 30
0.0
 10
4.0353262437
 20
2.4700922495
 30
0.0
 10
4.0257928351
 20
2.4855209428
 30
0.0
 10
4.015608094
 20
2.5047445798
 30
0.0
 10
4.0067231747
 20
2.5245941807
 30
0.0
 10
3.9991775678
 20
2.5449828438
 30
0.0
 10
3.9930044705
 20
2.5658218386
 30
0.0
 10
3.9882311684
 20
2.5870202161
 30
0.0
 10
3.9848787511
 20
2.6084854238
 30
0.0
 10
3.9829620494
 20
2.6301236888
 30
0.0
 10
3.9824895327
 20
2.6518403941
 30
0.0
 10
3.9834633308
 20
2.6735407589
 30
0.0
 10
3.9858789902
 20
2.6951293373
 30
0.0
 10
3.9890850768
 20
2.7129495363
 30
0.0
 10
3.992356307
 20
2.7270532367
 30
0.0
 10
3.9960954328
 20
2.7410435317
 30
0.0
 10
4.0016397131
 20
2.7582901827
 30
0.0
 10
4.0083180666
 20
2.7751329933
 30
0.0
 10
4.0143226747
 20
2.7883203713
 30
0.0
 10
4.0207633742
 20
2.8013056496
 30
0.0
 10
4.0260770057
 20
2.8108009606
 30
0.0
 10
4.0298236722
 20
2.8170047375
 30
0.0
  0
SPLINE
  5
28B
100
AcDbEntity
  8
0
100
AcDbSpline
 62
7
  6
CONTINUOUS
 70
0
 71
3
 72
28
 73
24
 74
0
 42
0.0000001
 43
0.0000001
 44
0.0000000001
 40
0.0
 40
0.0
 40
0.0
 40
0.0
 40
0.0311446181
 40
0.0622926365
 40
0.0934446698
 40
0.1246013017
 40
0.1869200966
 40
0.2492637308
 40
0.2804512647
 40
0.3116463303
 40
0.3740500101
 40
0.4364876383
 40
0.4989608809
 40
0.561470663
 40
0.6240171324
 40
0.6865996532
 40
0.7179091801
 40
0.7492271318
 40
0.811876836
 40
0.8745562383
 40
0.9059111397
 40
0.9372721225
 40
1.0
 40
1.0
 40
1.0
 40
1.0
 10
4.7322202859
 20
2.3986687569
 30
0.0
 10
4.7314336762
 20
2.3936441787
 30
0.0
 10
4.7296752746
 20
2.3836224375
 30
0.0
 10
4.7264866734
 20
2.3686969032
 30
0.0
 10
4.722750897
 20
2.3538963962
 30
0.0
 10
4.7170475389
 20
2.3343568362
 30
0.0
 10
4.7085753133
 20
2.3103382791
 30
0.0
 10
4.6983617353
 20
2.2870016258
 30
0.0
 10
4.6891806218
 20
2.2688166052
 30
0.0
 10
4.6793349675
 20
2.2509715246
 30
0.0
 10
4.6658064206
 20
2.2293503975
 30
0.0
 10
4.6477143328
 20
2.2046540584
 30
0.0
 10
4.6278568248
 20
2.1813299254
 30
0.0
 10
4.6063402073
 20
2.1595020583
 30
0.0
 10
4.5832799304
 20
2.1392859892
 30
0.0
 10
4.5628785385
 20
2.1238711997
 30
0.0
 10
4.5459155779
 20
2.1124491115
 30
0.0
 10
4.5285403027
 20
2.1016436269
 30
0.0
 10
4.5060954251
 20
2.0893240908
 30
0.0
 10
4.4828126881
 20
2.0786583662
 30
0.0
 10
4.4637578948
 20
2.0711504523
 30
0.0
 10
4.444437737
 20
2.064333388
 30
0.0
 10
4.4296763909
 20
2.0600084379
 30
0.0
 10
4.4197489318
 20
2.0574848707
 30
0.0
  0
SPLINE
  5
28C
100
AcDbEntity
  8
0
100
AcDbSpline
 62
7
  6
CONTINUOUS
 70
0
 71
3
 72
45
 73
41
 74
0
 42
0.0000001
 43
0.0000001
 44
0.0000000001
 40
0.0
 40
0.0
 40
0.0
 40
0.0
 40
0.031799867
 40
0.04761592
 40
0.0633777703
 40
0.0947447322
 40
0.1259261295
 40
0.1414559624
 40
0.1569473106
 40
0.1878208289
 40
0.2185711126
 40
0.2492177402
 40
0.2797797151
 40
0.3102752167
 40
0.3407218083
 40
0.371136739
 40
0.4015368647
 40
0.4319388927
 40
0.4623595472
 40
0.4928157432
 40
0.5233248457
 40
0.5539044804
 40
0.5845730084
 40
0.6153496486
 40
0.6462540081
 40
0.6773065225
 40
0.7085283359
 40
0.739940413
 40
0.7715635082
 40
0.8034174817
 40
0.8194390652
 40
0.8355245598
 40
0.8516755838
 40
0.8678933657
 40
0.9005264823
 40
0.9334286383
 40
0.9499809463
 40
0.9665959417
 40
0.9832703347
 40
1.0
 40
1.0
 40
1.0
 40
1.0
 10
4.5995856225
 20
2.8875433722
 30
0.0
 10
4.607383645
 20
2.8806173576
 30
0.0
 10
4.6187005052
 20
2.8698309414
 30
0.0
 10
4.6329803591
 20
2.8547216842
 30
0.0
 10
4.6466378016
 20
2.8392352432
 30
0.0
 10
4.662630113
 20
2.8191106273
 30
0.0
 10
4.677185067
 20
2.7980163559
 30
0.0
 10
4.6879189035
 20
2.7806633582
 30
0.0
 10
4.6980222503
 20
2.7630522835
 30
0.0
 10
4.7095200693
 20
2.7405025198
 30
0.0
 10
4.7214899999
 20
2.7126850227
 30
0.0
 10
4.7316056735
 20
2.6842491168
 30
0.0
 10
4.7398563142
 20
2.6553045758
 30
0.0
 10
4.7462340081
 20
2.6259579216
 30
0.0
 10
4.7507327544
 20
2.596314112
 30
0.0
 10
4.7533484634
 20
2.5664767211
 30
0.0
 10
4.7540787888
 20
2.536548482
 30
0.0
 10
4.7529230775
 20
2.506631763
 30
0.0
 10
4.7498823553
 20
2.4768289822
 30
0.0
 10
4.7449593456
 20
2.4472430114
 30
0.0
 10
4.7381585505
 20
2.4179777042
 30
0.0
 10
4.7294863783
 20
2.3891383348
 30
0.0
 10
4.7189513444
 20
2.3608320928
 30
0.0
 10
4.7065643767
 20
2.3331686727
 30
0.0
 10
4.6923392562
 20
2.3062608744
 30
0.0
 10
4.6762932123
 20
2.2802252167
 30
0.0
 10
4.658447878
 20
2.255182696
 30
0.0
 10
4.638830134
 20
2.2312591918
 30
0.0
 10
4.6174749841
 20
2.2085870711
 30
0.0
 10
4.5983011533
 20
2.1908828557
 30
0.0
 10
4.5821531258
 20
2.1774863
 30
0.0
 10
4.5696158922
 20
2.1678196467
 30
0.0
 10
4.5566862945
 20
2.1585732544
 30
0.0
 10
4.5389030201
 20
2.1468073749
 30
0.0
 10
4.5157387665
 20
2.1332515491
 30
0.0
 10
4.4915306051
 20
2.121407884
 30
0.0
 10
4.4715543542
 20
2.1129994363
 30
0.0
 10
4.4562531836
 20
2.1072341861
 30
0.0
 10
4.4406873923
 20
2.1020416461
 30
0.0
 10
4.4301654057
 20
2.0989773797
 30
0.0
 10
4.424868517
 20
2.0975455887
 30
0.0
  0
SPLINE
  5
28D
100
AcDbEntity
  8
0
100
AcDbSpline
 62
7
  6
CONTINUOUS
 70
0
 71
3
 72
43
 73
39
 74
0
 42
0.0000001
 43
0.0000001
 44
0.0000000001
 40
0.0
 40
0.0
 40
0.0
 40
0.0
 40
0.0312130633
 40
0.0468171539
 40
0.0624183867
 40
0.0936086313
 40
0.1247895297
 40
0.1403791223
 40
0.1559669913
 40
0.1871341217
 40
0.2182970663
 40
0.2494577298
 40
0.2806180553
 40
0.3117799922
 40
0.3429454616
 40
0.3741163271
 40
0.4052943558
 40
0.4364811931
 40
0.4676783389
 40
0.4988871081
 40
0.530108618
 40
0.5457265789
 40
0.5613480445
 40
0.5925975052
 40
0.6238616859
 40
0.6395014815
 40
0.6551449977
 40
0.686438852
 40
0.7177471368
 40
0.7490692524
 40
0.7804043465
 40
0.8117513449
 40
0.8431089688
 40
0.8744757466
 40
0.9058500447
 40
0.9372301141
 40
0.9686140644
 40
1.0
 40
1.0
 40
1.0
 40
1.0
 10
4.5995946259
 20
2.8170037507
 30
0.0
 10
4.6033412636
 20
2.8107999725
 30
0.0
 10
4.6086548527
 20
2.8013046616
 30
0.0
 10
4.6150954948
 20
2.7883193856
 30
0.0
 10
4.6211000496
 20
2.7751320135
 30
0.0
 10
4.6277783356
 20
2.7582892126
 30
0.0
 10
4.6333225535
 20
2.7410425768
 30
0.0
 10
4.6370616286
 20
2.7270522958
 30
0.0
 10
4.6403328133
 20
2.7129486118
 30
0.0
 10
4.6435388424
 20
2.6951284355
 30
0.0
 10
4.6459544388
 20
2.6735398888
 30
0.0
 10
4.6469281783
 20
2.6518395593
 30
0.0
 10
4.6464556081
 20
2.6301228925
 30
0.0
 10
4.644538858
 20
2.6084846686
 30
0.0
 10
4.6411863975
 20
2.5870195041
 30
0.0
 10
4.6364130572
 20
2.5658211717
 30
0.0
 10
4.630239927
 20
2.5449822231
 30
0.0
 10
4.6226942924
 20
2.5245936071
 30
0.0
 10
4.6138093506
 20
2.5047440537
 30
0.0
 10
4.6036245919
 20
2.4855204643
 30
0.0
 10
4.5940911732
 20
2.4700918101
 30
0.0
 10
4.5858636992
 20
2.4581458687
 30
0.0
 10
4.5772419582
 20
2.4464731498
 30
0.0
 10
4.5657442617
 20
2.432421434
 30
0.0
 10
4.5533415918
 20
2.4191558973
 30
0.0
 10
4.5429093371
 20
2.4090489971
 30
0.0
 10
4.5321449035
 20
2.3992864601
 30
0.0
 10
4.5180901014
 20
2.3877516634
 30
0.0
 10
4.5003470816
 20
2.375045197
 30
0.0
 10
4.4817999689
 20
2.3635251886
 30
0.0
 10
4.4625298325
 20
2.3532415256
 30
0.0
 10
4.4426202143
 20
2.3442382207
 30
0.0
 10
4.4221574859
 20
2.3365538825
 30
0.0
 10
4.4012302533
 20
2.3302213991
 30
0.0
 10
4.3799291734
 20
2.325267853
 30
0.0
 10
4.3583460387
 20
2.3217144191
 30
0.0
 10
4.3365753517
 20
2.3195762686
 30
0.0
 10
4.3219963454
 20
2.3191004531
 30
0.0
 10
4.3147088509
 20
2.3191004531
 30
0.0
  0
SPLINE
  5
28E
100
AcDbEntity
  8
0
100
AcDbSpline
 62
7
  6
CONTINUOUS
 70
0
 71
3
 72
31
 73
27
 74
0
 42
0.0000001
 43
0.0000001
 44
0.0000000001
 40
0.0
 40
0.0
 40
0.0
 40
0.0
 40
0.0621633275
 40
0.1243136333
 40
0.1553939613
 40
0.1864754746
 40
0.2020198183
 40
0.2175670797
 40
0.2486715401
 40
0.2797966837
 40
0.3109449611
 40
0.3732914755
 40
0.4357143189
 40
0.4981885662
 40
0.5294485216
 40
0.5607171661
 40
0.5919968625
 40
0.6232926566
 40
0.6546100384
 40
0.6859515743
 40
0.7173171443
 40
0.748704517
 40
0.8115106508
 40
0.8743494371
 40
0.937184508
 40
1.0
 40
1.0
 40
1.0
 40
1.0
 10
4.5995813826
 20
2.6604021022
 30
0.0
 10
4.5995813826
 20
2.6511836451
 30
0.0
 10
4.5986820429
 20
2.6327368688
 30
0.0
 10
4.5953067252
 20
2.6099018289
 30
0.0
 10
4.5912579432
 20
2.5919105955
 30
0.0
 10
4.5881644071
 20
2.5808044576
 30
0.0
 10
4.5853525256
 20
2.5720229061
 30
0.0
 10
4.5823155979
 20
2.5633129762
 30
0.0
 10
4.5781044718
 20
2.5525697246
 30
0.0
 10
4.5724093753
 20
2.5399412583
 30
0.0
 10
4.5639852043
 20
2.5234856491
 30
0.0
 10
4.5519443486
 20
2.5036995531
 30
0.0
 10
4.5352584271
 20
2.4814537695
 30
0.0
 10
4.5196115198
 20
2.46432815
 30
0.0
 10
4.5061353333
 20
2.4515905742
 30
0.0
 10
4.4955624965
 20
2.4425405701
 30
0.0
 10
4.484548306
 20
2.4340247747
 30
0.0
 10
4.4731119118
 20
2.4260721036
 30
0.0
 10
4.4612846405
 20
2.418696338
 30
0.0
 10
4.4490996196
 20
2.411907082
 30
0.0
 10
4.4365888566
 20
2.4057147377
 30
0.0
 10
4.4195168053
 20
2.3982677303
 30
0.0
 10
4.3975217274
 20
2.3905024991
 30
0.0
 10
4.3703577567
 20
2.3837419582
 30
0.0
 10
4.3426698491
 20
2.3796170466
 30
0.0
 10
4.3240240202
 20
2.3786813445
 30
0.0
 10
4.3147088509
 20
2.3786813445
 30
0.0
  0
SPLINE
  5
28F
100
AcDbEntity
  8
0
100
AcDbSpline
 62
7
  6
CONTINUOUS
 70
0
 71
3
 72
31
 73
27
 74
0
 42
0.0000001
 43
0.0000001
 44
0.0000000001
 40
0.0
 40
0.0
 40
0.0
 40
0.0
 40
0.0625239051
 40
0.1250209906
 40
0.1562651516
 40
0.1875020089
 40
0.2031203091
 40
0.218738802
 40
0.2499769367
 40
0.2812230096
 40
0.3124784165
 40
0.3749943819
 40
0.4375219584
 40
0.5000322777
 40
0.5312838235
 40
0.5625263192
 40
0.5937622027
 40
0.6249967782
 40
0.65623624
 40
0.6874841087
 40
0.7187413172
 40
0.7500067757
 40
0.8125331575
 40
0.8750535927
 40
0.9375435283
 40
1.0
 40
1.0
 40
1.0
 40
1.0
 10
4.5995813512
 20
6.1888984983
 30
0.0
 10
4.5995770147
 20
6.1982211844
 30
0.0
 10
4.5986697645
 20
6.216873786
 30
0.0
 10
4.5952860613
 20
6.2399659519
 30
0.0
 10
4.5912308443
 20
6.258160855
 30
0.0
 10
4.5881336778
 20
6.2693922208
 30
0.0
 10
4.5853189582
 20
6.2782728638
 30
0.0
 10
4.5822798775
 20
6.2870794921
 30
0.0
 10
4.5780665966
 20
6.2979417737
 30
0.0
 10
4.5723689704
 20
6.3107112636
 30
0.0
 10
4.5639441212
 20
6.327346517
 30
0.0
 10
4.5519052012
 20
6.3473480159
 30
0.0
 10
4.5352197928
 20
6.3698415248
 30
0.0
 10
4.5195701146
 20
6.3871627942
 30
0.0
 10
4.5060914436
 20
6.400045457
 30
0.0
 10
4.4955199398
 20
6.4091958982
 30
0.0
 10
4.4845073933
 20
6.4178061501
 30
0.0
 10
4.4730728827
 20
6.4258470352
 30
0.0
 10
4.4612477927
 20
6.4333046403
 30
0.0
 10
4.4490652407
 20
6.4401692205
 30
0.0
 10
4.4365571993
 20
6.4464302646
 30
0.0
 10
4.41949239
 20
6.4539584385
 30
0.0
 10
4.3975056584
 20
6.4618094088
 30
0.0
 10
4.3703470448
 20
6.468645917
 30
0.0
 10
4.3426646047
 20
6.472817233
 30
0.0
 10
4.3240214833
 20
6.473763506
 30
0.0
 10
4.3147088509
 20
6.473763506
 30
0.0
  0
SPLINE
  5
290
100
AcDbEntity
  8
0
100
AcDbSpline
 62
7
  6
CONTINUOUS
 70
0
 71
3
 72
31
 73
27
 74
0
 42
0.0000001
 43
0.0000001
 44
0.0000000001
 40
0.0
 40
0.0
 40
0.0
 40
0.0
 40
0.062815492
 40
0.1256505629
 40
0.1884893492
 40
0.251295483
 40
0.2826828557
 40
0.3140484257
 40
0.3453899616
 40
0.3767073434
 40
0.4080031375
 40
0.4392828339
 40
0.4705514784
 40
0.5018114338
 40
0.5642856811
 40
0.6267085245
 40
0.6890550389
 40
0.7202033163
 40
0.7513284599
 40
0.7824329203
 40
0.7979801817
 40
0.8135245254
 40
0.8446060387
 40
0.8756863667
 40
0.9378366725
 40
1.0
 40
1.0
 40
1.0
 40
1.0
 10
4.3147088509
 20
2.4070427483
 30
0.0
 10
4.3053936816
 20
2.4070427483
 30
0.0
 10
4.2867478527
 20
2.4079784504
 30
0.0
 10
4.2590599452
 20
2.412103362
 30
0.0
 10
4.2318959744
 20
2.4188639029
 30
0.0
 10
4.2099008966
 20
2.4266291341
 30
0.0
 10
4.1928288453
 20
2.4340761415
 30
0.0
 10
4.1803180823
 20
2.4402684858
 30
0.0
 10
4.1681330614
 20
2.4470577418
 30
0.0
 10
4.1563057901
 20
2.4544335074
 30
0.0
 10
4.1448693958
 20
2.4623861785
 30
0.0
 10
4.1338552054
 20
2.4709019739
 30
0.0
 10
4.1232823686
 20
2.479951978
 30
0.0
 10
4.1098061821
 20
2.4926895538
 30
0.0
 10
4.0941592748
 20
2.5098151733
 30
0.0
 10
4.0774733533
 20
2.5320609569
 30
0.0
 10
4.0654324976
 20
2.5518470529
 30
0.0
 10
4.0570083265
 20
2.5683026621
 30
0.0
 10
4.0513132301
 20
2.5809311284
 30
0.0
 10
4.047102104
 20
2.59167438
 30
0.0
 10
4.0440651763
 20
2.6003843099
 30
0.0
 10
4.0412532948
 20
2.6091658614
 30
0.0
 10
4.0381597586
 20
2.6202719993
 30
0.0
 10
4.0341109767
 20
2.6382632327
 30
0.0
 10
4.0307356589
 20
2.6610982726
 30
0.0
 10
4.0298363193
 20
2.6795450489
 30
0.0
 10
4.0298363193
 20
2.688763506
 30
0.0
  0
SPLINE
  5
291
100
AcDbEntity
  8
0
100
AcDbSpline
 62
7
  6
CONTINUOUS
 70
0
 71
3
 72
32
 73
28
 74
0
 42
0.0000001
 43
0.0000001
 44
0.0000000001
 40
0.0
 40
0.0
 40
0.0
 40
0.0
 40
0.0200823014
 40
0.0384768733
 40
0.0554171755
 40
0.0712239522
 40
0.0863077303
 40
0.1011498347
 40
0.1162580439
 40
0.1321110486
 40
0.1491153234
 40
0.1675870792
 40
0.1877559435
 40
0.2097772282
 40
0.2337480042
 40
0.2597187005
 40
0.2877047909
 40
0.3176922668
 40
0.3496452818
 40
0.3835080524
 40
0.4566572573
 40
0.536432309
 40
0.6219497314
 40
0.7122006824
 40
0.8060821313
 40
0.90242071
 40
1.0
 40
1.0
 40
1.0
 40
1.0
 10
4.3426974533
 20
2.0255650318
 30
0.0
 10
4.3428751229
 20
2.0257254869
 30
0.0
 10
4.3432016505
 20
2.0260490287
 30
0.0
 10
4.3436151339
 20
2.0265664268
 30
0.0
 10
4.343927841
 20
2.0270924295
 30
0.0
 10
4.3441375427
 20
2.0276257045
 30
0.0
 10
4.3442419254
 20
2.0281641749
 30
0.0
 10
4.3442393232
 20
2.0287045217
 30
0.0
 10
4.3441297727
 20
2.0292428052
 30
0.0
 10
4.3439150189
 20
2.02977577
 30
0.0
 10
4.343597373
 20
2.0303013713
 30
0.0
 10
4.3431790095
 20
2.0308183662
 30
0.0
 10
4.3426617881
 20
2.0313256434
 30
0.0
 10
4.3420475942
 20
2.0318220371
 30
0.0
 10
4.3413384396
 20
2.0323061581
 30
0.0
 10
4.3405366728
 20
2.0327765823
 30
0.0
 10
4.3396449339
 20
2.0332317519
 30
0.0
 10
4.3386662403
 20
2.0336701812
 30
0.0
 10
4.3376039089
 20
2.0340903447
 30
0.0
 10
4.3360402308
 20
2.0346384204
 30
0.0
 10
4.3339005473
 20
2.0352609346
 30
0.0
 10
4.3311287936
 20
2.0358965331
 30
0.0
 10
4.3281283146
 20
2.0364294813
 30
0.0
 10
4.3249408124
 20
2.0368521665
 30
0.0
 10
4.3216105457
 20
2.0371584912
 30
0.0
 10
4.3181839913
 20
2.037344066
 30
0.0
 10
4.3158720878
 20
2.0373854136
 30
0.0
 10
4.3147088509
 20
2.0373854136
 30
0.0
  0
SPLINE
  5
292
100
AcDbEntity
  8
0
100
AcDbSpline
 62
7
  6
CONTINUOUS
 70
0
 71
3
 72
32
 73
28
 74
0
 42
0.0000001
 43
0.0000001
 44
0.0000000001
 40
0.0
 40
0.0
 40
0.0
 40
0.0
 40
0.0229865826
 40
0.0432739486
 40
0.0610441719
 40
0.0766690167
 40
0.090773252
 40
0.1042477326
 40
0.1181259524
 40
0.1333475523
 40
0.1505993226
 40
0.1703030039
 40
0.1926792538
 40
0.2178075587
 40
0.2456682088
 40
0.276173188
 40
0.3091798638
 40
0.3445047169
 40
0.4212045513
 40
0.5042582074
 40
0.5913434489
 40
0.6799669295
 40
0.767571594
 40
0.8516431983
 40
0.9298121345
 40
0.9660293175
 40
1.0
 40
1.0
 40
1.0
 40
1.0
 10
4.291362827
 20
2.1445918293
 30
0.0
 10
4.2915388878
 20
2.1446894289
 30
0.0
 10
4.2918630097
 20
2.144887183
 30
0.0
 10
4.2922864503
 20
2.1452157658
 30
0.0
 10
4.2926136815
 20
2.1455562851
 30
0.0
 10
4.2928415279
 20
2.1459081808
 30
0.0
 10
4.2929650341
 20
2.1462707749
 30
0.0
 10
4.2929776163
 20
2.1466391702
 30
0.0
 10
4.2928783652
 20
2.1470037249
 30
0.0
 10
4.2926732566
 20
2.1473581377
 30
0.0
 10
4.2923678837
 20
2.1477011917
 30
0.0
 10
4.2919656563
 20
2.1480325599
 30
0.0
 10
4.2914694042
 20
2.148350995
 30
0.0
 10
4.2908825348
 20
2.1486546159
 30
0.0
 10
4.2902092898
 20
2.148941317
 30
0.0
 10
4.2894547011
 20
2.1492088529
 30
0.0
 10
4.288624573
 20
2.1494551583
 30
0.0
 10
4.2873914711
 20
2.1497609608
 30
0.0
 10
4.2857096748
 20
2.1500706117
 30
0.0
 10
4.2835616054
 20
2.1503234953
 30
0.0
 10
4.281298337
 20
2.1504584449
 30
0.0
 10
4.2789913311
 20
2.1504710162
 30
0.0
 10
4.2767132655
 20
2.1503607826
 30
0.0
 10
4.2745361286
 20
2.150131353
 30
0.0
 10
4.2728210368
 20
2.1498405253
 30
0.0
 10
4.2715546372
 20
2.149548989
 30
0.0
 10
4.270961854
 20
2.1493854359
 30
0.0
 10
4.270677187
 20
2.1492990148
 30
0.0
  0
SPLINE
  5
293
100
AcDbEntity
  8
0
100
AcDbSpline
 62
7
  6
CONTINUOUS
 70
0
 71
3
 72
15
 73
11
 74
0
 42
0.0000001
 43
0.0000001
 44
0.0000000001
 40
0.0
 40
0.0
 40
0.0
 40
0.0
 40
0.1046283687
 40
0.2147954752
 40
0.3306706615
 40
0.4523973316
 40
0.5800958899
 40
0.7138726499
 40
0.8538170757
 40
1.0
 40
1.0
 40
1.0
 40
1.0
 10
4.4257156272
 20
2.1652211095
 30
0.0
 10
4.4257442136
 20
2.1683412435
 30
0.0
 10
4.4256296709
 20
2.1747491437
 30
0.0
 10
4.4249848698
 20
2.184592544
 30
0.0
 10
4.4238625025
 20
2.1949058937
 30
0.0
 10
4.4222631428
 20
2.2056844709
 30
0.0
 10
4.4201873724
 20
2.2169245466
 30
0.0
 10
4.4176366305
 20
2.2286228503
 30
0.0
 10
4.4146124477
 20
2.2407763314
 30
0.0
 10
4.4123324323
 20
2.2490001853
 30
0.0
 10
4.4111179457
 20
2.2531871217
 30
0.0
  0
SPLINE
  5
294
100
AcDbEntity
  8
0
100
AcDbSpline
 62
7
  6
CONTINUOUS
 70
0
 71
3
 72
14
 73
10
 74
0
 42
0.0000001
 43
0.0000001
 44
0.0000000001
 40
0.0
 40
0.0
 40
0.0
 40
0.0
 40
0.3175767387
 40
0.4565421578
 40
0.5831240398
 40
0.6985799166
 40
0.8047695287
 40
0.9042046249
 40
1.0
 40
1.0
 40
1.0
 40
1.0
 10
4.2769487799
 20
2.1340274488
 30
0.0
 10
4.2771897766
 20
2.1341610406
 30
0.0
 10
4.2775267806
 20
2.1343731064
 30
0.0
 10
4.2779150702
 20
2.134698552
 30
0.0
 10
4.2781450574
 20
2.1349370672
 30
0.0
 10
4.2783259464
 20
2.1351802888
 30
0.0
 10
4.2784566824
 20
2.1354277803
 30
0.0
 10
4.2785359295
 20
2.1356786016
 30
0.0
 10
4.2785538304
 20
2.1358484677
 30
0.0
 10
4.2785538304
 20
2.1359315851
 30
0.0
  0
SPLINE
  5
295
100
AcDbEntity
  8
0
100
AcDbSpline
 62
7
  6
CONTINUOUS
 70
0
 71
3
 72
11
 73
7
 74
0
 42
0.0000001
 43
0.0000001
 44
0.0000000001
 40
0.0
 40
0.0
 40
0.0
 40
0.0
 40
0.2465319953
 40
0.4943995892
 40
0.7450858037
 40
1.0
 40
1.0
 40
1.0
 40
1.0
 10
4.204226889
 20
2.1079243943
 30
0.0
 10
4.2041690793
 20
2.1142366353
 30
0.0
 10
4.2045745039
 20
2.1269061664
 30
0.0
 10
4.206746341
 20
2.1458806201
 30
0.0
 10
4.2104794896
 20
2.1648288291
 30
0.0
 10
4.2139720555
 20
2.1773103209
 30
0.0
 10
4.2159637799
 20
2.1835261483
 30
0.0
  0
SPLINE
  5
296
100
AcDbEntity
  8
0
100
AcDbSpline
 62
7
  6
CONTINUOUS
 70
0
 71
3
 72
23
 73
19
 74
0
 42
0.0000001
 43
0.0000001
 44
0.0000000001
 40
0.0
 40
0.0
 40
0.0
 40
0.0
 40
0.0719555646
 40
0.1363141101
 40
0.1934769823
 40
0.2442474933
 40
0.2899598588
 40
0.3325764007
 40
0.3745814076
 40
0.4185780435
 40
0.4668000945
 40
0.5208726871
 40
0.5818253718
 40
0.650231672
 40
0.7263250274
 40
0.8101221741
 40
0.9014744922
 40
1.0
 40
1.0
 40
1.0
 40
1.0
 10
4.2913628267
 20
2.1234630647
 30
0.0
 10
4.2915223228
 20
2.1235514778
 30
0.0
 10
4.2918183595
 20
2.1237305674
 30
0.0
 10
4.2922116041
 20
2.1240250807
 30
0.0
 10
4.2925268881
 20
2.1243292287
 30
0.0
 10
4.2927620964
 20
2.1246421374
 30
0.0
 10
4.2929145
 20
2.124963277
 30
0.0
 10
4.2929801142
 20
2.1252908502
 30
0.0
 10
4.2929559704
 20
2.1256199016
 30
0.0
 10
4.2928432175
 20
2.1259444062
 30
0.0
 10
4.2926460016
 20
2.1262612364
 30
0.0
 10
4.29236753
 20
2.1265694968
 30
0.0
 10
4.2920101505
 20
2.1268686275
 30
0.0
 10
4.2915759571
 20
2.1271575144
 30
0.0
 10
4.2910674507
 20
2.1274347847
 30
0.0
 10
4.2904875462
 20
2.1276988519
 30
0.0
 10
4.2898398827
 20
2.127947998
 30
0.0
 10
4.2893823228
 20
2.1280977135
 30
0.0
 10
4.2891433908
 20
2.1281702501
 30
0.0
  0
SPLINE
  5
297
100
AcDbEntity
  8
0
100
AcDbSpline
 62
7
  6
CONTINUOUS
 70
0
 71
3
 72
29
 73
25
 74
0
 42
0.0000001
 43
0.0000001
 44
0.0000000001
 40
0.0
 40
0.0
 40
0.0
 40
0.0
 40
0.0537671637
 40
0.0774894637
 40
0.0992214456
 40
0.1191323681
 40
0.137473729
 40
0.1545907072
 40
0.170923326
 40
0.1869893482
 40
0.2033346558
 40
0.2387357035
 40
0.2586867749
 40
0.2804621272
 40
0.3042326155
 40
0.3301039857
 40
0.3883077837
 40
0.4551384792
 40
0.5302143449
 40
0.6128750926
 40
0.7022596999
 40
0.7973406592
 40
0.8970079964
 40
1.0
 40
1.0
 40
1.0
 40
1.0
 10
4.3261613801
 20
2.14896774
 30
0.0
 10
4.3263896403
 20
2.1490942793
 30
0.0
 10
4.3267099709
 20
2.1492946361
 30
0.0
 10
4.3270835237
 20
2.1495995156
 30
0.0
 10
4.3273092395
 20
2.149823351
 30
0.0
 10
4.3274914764
 20
2.1500514149
 30
0.0
 10
4.3276294013
 20
2.1502832436
 30
0.0
 10
4.3277221317
 20
2.1505182489
 30
0.0
 10
4.3277685448
 20
2.1507555519
 30
0.0
 10
4.3277680063
 20
2.1509937039
 30
0.0
 10
4.3277030718
 20
2.1513183215
 30
0.0
 10
4.3275394994
 20
2.1516336073
 30
0.0
 10
4.3273045521
 20
2.151925488
 30
0.0
 10
4.3270778091
 20
2.1521493819
 30
0.0
 10
4.3268084925
 20
2.152368302
 30
0.0
 10
4.3263764971
 20
2.1526648156
 30
0.0
 10
4.3257305172
 20
2.1530142919
 30
0.0
 10
4.3248334152
 20
2.1533895604
 30
0.0
 10
4.3237971842
 20
2.1537308488
 30
0.0
 10
4.3226357545
 20
2.1540333978
 30
0.0
 10
4.3213647984
 20
2.1542928997
 30
0.0
 10
4.32000167
 20
2.1545057135
 30
0.0
 10
4.3185652711
 20
2.1546687044
 30
0.0
 10
4.317583996
 20
2.1547417642
 30
0.0
 10
4.3170848551
 20
2.1547698058
 30
0.0
  0
SPLINE
  5
298
100
AcDbEntity
  8
0
100
AcDbSpline
 62
7
  6
CONTINUOUS
 70
0
 71
3
 72
11
 73
7
 74
0
 42
0.0000001
 43
0.0000001
 44
0.0000000001
 40
0.0
 40
0.0
 40
0.0
 40
0.0
 40
0.2423632978
 40
0.4879356122
 40
0.739663933
 40
1.0
 40
1.0
 40
1.0
 40
1.0
 10
4.2730482008
 20
2.1215197985
 30
0.0
 10
4.2735861032
 20
2.1213565013
 30
0.0
 10
4.2746969491
 20
2.1211130033
 30
0.0
 10
4.2764158992
 20
2.1210099013
 30
0.0
 10
4.2781721371
 20
2.1211680076
 30
0.0
 10
4.2793324985
 20
2.1214405971
 30
0.0
 10
4.2799102889
 20
2.1216160066
 30
0.0
  0
SPLINE
  5
299
100
AcDbEntity
  8
0
100
AcDbSpline
 62
7
  6
CONTINUOUS
 70
0
 71
3
 72
31
 73
27
 74
0
 42
0.0000001
 43
0.0000001
 44
0.0000000001
 40
0.0
 40
0.0
 40
0.0
 40
0.0
 40
0.0262798227
 40
0.0503331452
 40
0.0722344546
 40
0.0921200288
 40
0.1102139023
 40
0.1268453692
 40
0.1424645085
 40
0.1576299821
 40
0.1729577345
 40
0.1890420179
 40
0.206389462
 40
0.2253851875
 40
0.2463023134
 40
0.2693150776
 40
0.2945262229
 40
0.3219798575
 40
0.3835666491
 40
0.453745604
 40
0.531791004
 40
0.6167208066
 40
0.7073660893
 40
0.802411351
 40
0.9004533264
 40
1.0
 40
1.0
 40
1.0
 40
1.0
 10
4.3261613764
 20
2.1190871563
 30
0.0
 10
4.3262911682
 20
2.119159104
 30
0.0
 10
4.326535613
 20
2.1193046577
 30
0.0
 10
4.3268694346
 20
2.1195398611
 30
0.0
 10
4.327152929
 20
2.1197813783
 30
0.0
 10
4.3273849075
 20
2.1200285536
 30
0.0
 10
4.3275643205
 20
2.1202807631
 30
0.0
 10
4.3276899263
 20
2.1205374591
 30
0.0
 10
4.3277602103
 20
2.1207977244
 30
0.0
 10
4.327773868
 20
2.1210597941
 30
0.0
 10
4.3277304719
 20
2.1213211933
 30
0.0
 10
4.3276311162
 20
2.1215797632
 30
0.0
 10
4.3274772021
 20
2.121834179
 30
0.0
 10
4.3272702072
 20
2.1220838426
 30
0.0
 10
4.3270111651
 20
2.1223281268
 30
0.0
 10
4.3267012307
 20
2.1225664516
 30
0.0
 10
4.3263415711
 20
2.122798019
 30
0.0
 10
4.3257756058
 20
2.1231086179
 30
0.0
 10
4.3249495375
 20
2.1234681468
 30
0.0
 10
4.3238250611
 20
2.1238446183
 30
0.0
 10
4.322549601
 20
2.1241748223
 30
0.0
 10
4.3211440546
 20
2.1244531404
 30
0.0
 10
4.3196314687
 20
2.1246747433
 30
0.0
 10
4.3180368801
 20
2.1248358359
 30
0.0
 10
4.3163868707
 20
2.1249335984
 30
0.0
 10
4.3152709808
 20
2.1249553999
 30
0.0
 10
4.3147088509
 20
2.1249553999
 30
0.0
  0
LINE
  5
29A
100
AcDbEntity
  8
0
100
AcDbLine
 62
7
  6
CONTINUOUS
 10
5.6861383964
 20
5.8813278514
 11
5.6862548025
 21
5.8815763805
  0
SPLINE
  5
29B
100
AcDbEntity
  8
0
100
AcDbSpline
 62
7
  6
CONTINUOUS
 70
0
 71
3
 72
32
 73
28
 74
0
 42
0.0000001
 43
0.0000001
 44
0.0000000001
 40
0.0
 40
0.0
 40
0.0
 40
0.0
 40
0.0229865826
 40
0.0432739486
 40
0.0610441719
 40
0.0766690167
 40
0.090773252
 40
0.1042477326
 40
0.1181259524
 40
0.1333475523
 40
0.1505993226
 40
0.1703030039
 40
0.1926792538
 40
0.2178075587
 40
0.2456682088
 40
0.276173188
 40
0.3091798638
 40
0.3445047169
 40
0.4212045513
 40
0.5042582074
 40
0.5913434489
 40
0.6799669295
 40
0.767571594
 40
0.8516431983
 40
0.9298121345
 40
0.9660293175
 40
1.0
 40
1.0
 40
1.0
 40
1.0
 10
4.3609599511
 20
2.1234630646
 30
0.0
 10
4.361136012
 20
2.1235606641
 30
0.0
 10
4.3614601339
 20
2.1237584182
 30
0.0
 10
4.3618835744
 20
2.1240870011
 30
0.0
 10
4.3622108057
 20
2.1244275203
 30
0.0
 10
4.362438652
 20
2.1247794161
 30
0.0
 10
4.3625621582
 20
2.1251420102
 30
0.0
 10
4.3625747405
 20
2.1255104055
 30
0.0
 10
4.3624754894
 20
2.1258749601
 30
0.0
 10
4.3622703807
 20
2.126229373
 30
0.0
 10
4.3619650079
 20
2.126572427
 30
0.0
 10
4.3615627805
 20
2.1269037951
 30
0.0
 10
4.3610665283
 20
2.1272222303
 30
0.0
 10
4.3604796589
 20
2.1275258512
 30
0.0
 10
4.3598064139
 20
2.1278125522
 30
0.0
 10
4.3590518252
 20
2.1280800882
 30
0.0
 10
4.3582216971
 20
2.1283263936
 30
0.0
 10
4.3569885952
 20
2.1286321961
 30
0.0
 10
4.3553067989
 20
2.128941847
 30
0.0
 10
4.3531587295
 20
2.1291947306
 30
0.0
 10
4.3508954611
 20
2.1293296802
 30
0.0
 10
4.3485884553
 20
2.1293422515
 30
0.0
 10
4.3463103896
 20
2.1292320179
 30
0.0
 10
4.3441332527
 20
2.1290025883
 30
0.0
 10
4.3424181609
 20
2.1287117606
 30
0.0
 10
4.3411517614
 20
2.1284202243
 30
0.0
 10
4.3405589781
 20
2.1282566712
 30
0.0
 10
4.3402743111
 20
2.1281702501
 30
0.0
  0
SPLINE
  5
29C
100
AcDbEntity
  8
0
100
AcDbSpline
 62
7
  6
CONTINUOUS
 70
0
 71
3
 72
24
 73
20
 74
0
 42
0.0000001
 43
0.0000001
 44
0.0000000001
 40
0.0
 40
0.0
 40
0.0
 40
0.0
 40
0.0166894883
 40
0.0336213331
 40
0.0509784124
 40
0.0689358751
 40
0.1072337767
 40
0.149584869
 40
0.1966583625
 40
0.2488154356
 40
0.3061617189
 40
0.3685986293
 40
0.4358657193
 40
0.5075759245
 40
0.5832438172
 40
0.6623108228
 40
0.7441698007
 40
0.828177763
 40
1.0
 40
1.0
 40
1.0
 40
1.0
 10
4.4111105123
 20
2.2531848352
 30
0.0
 10
4.4110619578
 20
2.2533529738
 30
0.0
 10
4.4109441466
 20
2.2536862686
 30
0.0
 10
4.4107084459
 20
2.2541672985
 30
0.0
 10
4.4104131275
 20
2.2546300999
 30
0.0
 10
4.4099302889
 20
2.2552339721
 30
0.0
 10
4.409164844
 20
2.2559387453
 30
0.0
 10
4.4080392355
 20
2.2566731619
 30
0.0
 10
4.4066948689
 20
2.2573117619
 30
0.0
 10
4.4051413173
 20
2.2578511049
 30
0.0
 10
4.4033901748
 20
2.2582886041
 30
0.0
 10
4.4014558069
 20
2.2586222558
 30
0.0
 10
4.399355013
 20
2.2588511244
 30
0.0
 10
4.3971067157
 20
2.2589753708
 30
0.0
 10
4.3947315111
 20
2.2589962445
 30
0.0
 10
4.3922512253
 20
2.2589159735
 30
0.0
 10
4.3896884286
 20
2.2587376315
 30
0.0
 10
4.3861658976
 20
2.2583712207
 30
0.0
 10
4.3835118059
 20
2.2579654054
 30
0.0
 10
4.3817395097
 20
2.2576409046
 30
0.0
  0
SPLINE
  5
29D
100
AcDbEntity
  8
0
100
AcDbSpline
 62
7
  6
CONTINUOUS
 70
0
 71
3
 72
31
 73
27
 74
0
 42
0.0000001
 43
0.0000001
 44
0.0000000001
 40
0.0
 40
0.0
 40
0.0
 40
0.0
 40
0.0310648856
 40
0.062137608
 40
0.0932192267
 40
0.1243107472
 40
0.1865132429
 40
0.2487655054
 40
0.27991886
 40
0.311086435
 40
0.3422686171
 40
0.3734656936
 40
0.4358914144
 40
0.4983775616
 40
0.5609226202
 40
0.623523427
 40
0.6548501214
 40
0.6861888602
 40
0.7175388291
 40
0.7488991475
 40
0.811633361
 40
0.8743967503
 40
0.9057930518
 40
0.9371929314
 40
0.9685970868
 40
1.0
 40
1.0
 40
1.0
 40
1.0
 10
4.6359129913
 20
2.5648452375
 30
0.0
 10
4.6348698174
 20
2.5604044618
 30
0.0
 10
4.6325945967
 20
2.551564871
 30
0.0
 10
4.6286228164
 20
2.538461156
 30
0.0
 10
4.6240983153
 20
2.5255332219
 30
0.0
 10
4.6173396871
 20
2.5085612394
 30
0.0
 10
4.6075483122
 20
2.4878933758
 30
0.0
 10
4.596042968
 20
2.4681179414
 30
0.0
 10
4.5858607947
 20
2.4529156006
 30
0.0
 10
4.5777440514
 20
2.4418361805
 30
0.0
 10
4.5691642195
 20
2.4311031365
 30
0.0
 10
4.5571266331
 20
2.4172782395
 30
0.0
 10
4.5409937853
 20
2.4009514777
 30
0.0
 10
4.5200498696
 20
2.3830401918
 30
0.0
 10
4.4976614457
 20
2.3669270224
 30
0.0
 10
4.4779323628
 20
2.3550933436
 30
0.0
 10
4.4615936779
 20
2.3466338002
 30
0.0
 10
4.4490765349
 20
2.3408005409
 30
0.0
 10
4.4363229163
 20
2.3354914371
 30
0.0
 10
4.4190330835
 20
2.3291239338
 30
0.0
 10
4.3969376452
 20
2.3225182729
 30
0.0
 10
4.3743650581
 20
2.3177682083
 30
0.0
 10
4.3561171529
 20
2.3151002135
 30
0.0
 10
4.3423546383
 20
2.3136679612
 30
0.0
 10
4.3285440636
 20
2.3128077452
 30
0.0
 10
4.3193201433
 20
2.3126163944
 30
0.0
 10
4.3147088509
 20
2.3126163944
 30
0.0
  0
SPLINE
  5
29E
100
AcDbEntity
  8
0
100
AcDbSpline
 62
7
  6
CONTINUOUS
 70
0
 71
3
 72
23
 73
19
 74
0
 42
0.0000001
 43
0.0000001
 44
0.0000000001
 40
0.0
 40
0.0
 40
0.0
 40
0.0
 40
0.0622542439
 40
0.1245404126
 40
0.1868597152
 40
0.2492130526
 40
0.3116010059
 40
0.3740238284
 40
0.4364814476
 40
0.4989734712
 40
0.5614991885
 40
0.6240575727
 40
0.6866472908
 40
0.7492667217
 40
0.8119139743
 40
0.8745868982
 40
0.9372831033
 40
1.0
 40
1.0
 40
1.0
 40
1.0
 10
4.6666325914
 20
2.2668414294
 30
0.0
 10
4.6633333044
 20
2.2612385909
 30
0.0
 10
4.6564595011
 20
2.2501885527
 30
0.0
 10
4.6453547869
 20
2.2341305735
 30
0.0
 10
4.6334783139
 20
2.2186210577
 30
0.0
 10
4.6208581026
 20
2.2036967164
 30
0.0
 10
4.6075235169
 20
2.1893922374
 30
0.0
 10
4.5935056866
 20
2.1757410478
 30
0.0
 10
4.5788373391
 20
2.1627749696
 30
0.0
 10
4.5635527123
 20
2.1505242482
 30
0.0
 10
4.5476874725
 20
2.1390174632
 30
0.0
 10
4.5312786293
 20
2.1282814759
 30
0.0
 10
4.5143644766
 20
2.1183413346
 30
0.0
 10
4.4969844841
 20
2.1092202042
 30
0.0
 10
4.479179247
 20
2.1009393691
 30
0.0
 10
4.4609901542
 20
2.0935181105
 30
0.0
 10
4.4424602075
 20
2.0869739102
 30
0.0
 10
4.4299089632
 20
2.08320618
 30
0.0
 10
4.4235919074
 20
2.0814733748
 30
0.0
  0
SPLINE
  5
29F
100
AcDbEntity
  8
0
100
AcDbSpline
 62
7
  6
CONTINUOUS
 70
0
 71
3
 72
23
 73
19
 74
0
 42
0.0000001
 43
0.0000001
 44
0.0000000001
 40
0.0
 40
0.0
 40
0.0
 40
0.0
 40
0.0622543214
 40
0.1245405637
 40
0.1868599334
 40
0.2492133293
 40
0.3116013309
 40
0.3740241899
 40
0.4364818327
 40
0.4989738663
 40
0.5614995793
 40
0.6240579452
 40
0.686647631
 40
0.7492670161
 40
0.8119142106
 40
0.8745870649
 40
0.9372831907
 40
1.0
 40
1.0
 40
1.0
 40
1.0
 10
3.9628399621
 20
2.2667483092
 30
0.0
 10
3.9661396237
 20
2.2611482839
 30
0.0
 10
3.9730139414
 20
2.2501038371
 30
0.0
 10
3.9841187474
 20
2.2340540851
 30
0.0
 10
3.9959946473
 20
2.2185525951
 30
0.0
 10
4.0086136417
 20
2.203636034
 30
0.0
 10
4.0219463895
 20
2.1893390473
 30
0.0
 10
4.0359617873
 20
2.1756950217
 30
0.0
 10
4.0506271359
 20
2.1627357406
 30
0.0
 10
4.0659082282
 20
2.1504914125
 30
0.0
 10
4.0817694305
 20
2.1389905821
 30
0.0
 10
4.0981737685
 20
2.1282600782
 30
0.0
 10
4.1150829853
 20
2.1183249195
 30
0.0
 10
4.13245765
 20
2.1092082428
 30
0.0
 10
4.1502572079
 20
2.1009313074
 30
0.0
 10
4.1684403121
 20
2.0935133723
 30
0.0
 10
4.1869640045
 20
2.0869718991
 30
0.0
 10
4.1995109318
 20
2.0832055783
 30
0.0
 10
4.2058258007
 20
2.0814733731
 30
0.0
  0
SPLINE
  5
2A0
100
AcDbEntity
  8
0
100
AcDbSpline
 62
7
  6
CONTINUOUS
 70
0
 71
3
 72
15
 73
11
 74
0
 42
0.0000001
 43
0.0000001
 44
0.0000000001
 40
0.0
 40
0.0
 40
0.0
 40
0.0
 40
0.1274325181
 40
0.2527912098
 40
0.376741013
 40
0.4999821694
 40
0.6232256074
 40
0.7471822105
 40
0.8725520925
 40
1.0
 40
1.0
 40
1.0
 40
1.0
 10
4.3840662791
 20
2.1547696176
 30
0.0
 10
4.3859816699
 20
2.1487920906
 30
0.0
 10
4.3893526571
 20
2.1367912617
 30
0.0
 10
4.393001539
 20
2.1185784952
 30
0.0
 10
4.3951906462
 20
2.1003394987
 30
0.0
 10
4.3959173737
 20
2.082088162
 30
0.0
 10
4.3951812909
 20
2.0638368661
 30
0.0
 10
4.3929828377
 20
2.0455979914
 30
0.0
 10
4.3893246284
 20
2.0273854237
 30
0.0
 10
4.385947544
 20
2.0153849543
 30
0.0
 10
4.3840291193
 20
2.0094076042
 30
0.0
  0
SPLINE
  5
2A1
100
AcDbEntity
  8
0
100
AcDbSpline
 62
7
  6
CONTINUOUS
 70
0
 71
3
 72
15
 73
11
 74
0
 42
0.0000001
 43
0.0000001
 44
0.0000000001
 40
0.0
 40
0.0
 40
0.0
 40
0.0
 40
0.127448107
 40
0.2528179938
 40
0.3767745456
 40
0.5000179658
 40
0.6232590911
 40
0.747208801
 40
0.8725674168
 40
1.0
 40
1.0
 40
1.0
 40
1.0
 10
4.245388743
 20
2.0094072481
 30
0.0
 10
4.2434702597
 20
2.015384591
 30
0.0
 10
4.2400930877
 20
2.0273850508
 30
0.0
 10
4.2364348642
 20
2.04559763
 30
0.0
 10
4.2342364843
 20
2.0638365141
 30
0.0
 10
4.2335004153
 20
2.0820878068
 30
0.0
 10
4.2342270738
 20
2.1003391404
 30
0.0
 10
4.2364160514
 20
2.1185781461
 30
0.0
 10
4.2400648804
 20
2.1367909245
 30
0.0
 10
4.2434359022
 20
2.1487917474
 30
0.0
 10
4.2453513229
 20
2.1547692695
 30
0.0
  0
SPLINE
  5
2A2
100
AcDbEntity
  8
0
100
AcDbSpline
 62
7
  6
CONTINUOUS
 70
0
 71
3
 72
28
 73
24
 74
0
 42
0.0000001
 43
0.0000001
 44
0.0000000001
 40
0.0
 40
0.0
 40
0.0
 40
0.0
 40
0.2026349097
 40
0.2977179686
 40
0.3871055746
 40
0.4697687785
 40
0.5448468649
 40
0.6116795189
 40
0.6698849984
 40
0.6957571155
 40
0.7195282927
 40
0.7413042822
 40
0.7612559482
 40
0.7966581006
 40
0.8130039521
 40
0.8290705323
 40
0.8454037373
 40
0.8625213412
 40
0.880863376
 40
0.9007750265
 40
0.9225077956
 40
0.9462309448
 40
1.0
 40
1.0
 40
1.0
 40
1.0
 10
4.3123328467
 20
2.1547696715
 30
0.0
 10
4.3113508347
 20
2.1547145024
 30
0.0
 10
4.3099097793
 20
2.1545827644
 30
0.0
 10
4.3080528424
 20
2.1542928858
 30
0.0
 10
4.3067818756
 20
2.1540333839
 30
0.0
 10
4.3056204629
 20
2.153730832
 30
0.0
 10
4.3045842418
 20
2.1533895435
 30
0.0
 10
4.3036871503
 20
2.1530142757
 30
0.0
 10
4.3030411786
 20
2.1526647997
 30
0.0
 10
4.3026091893
 20
2.152368287
 30
0.0
 10
4.3023398768
 20
2.1521493675
 30
0.0
 10
4.3021131375
 20
2.1519254744
 30
0.0
 10
4.3018781944
 20
2.1516335946
 30
0.0
 10
4.301714626
 20
2.1513183099
 30
0.0
 10
4.3016496946
 20
2.150993694
 30
0.0
 10
4.301649158
 20
2.1507555431
 30
0.0
 10
4.3016955725
 20
2.1505182413
 30
0.0
 10
4.3017883039
 20
2.1502832371
 30
0.0
 10
4.3019262292
 20
2.1500514096
 30
0.0
 10
4.3021084662
 20
2.1498233468
 30
0.0
 10
4.3023341817
 20
2.1495995125
 30
0.0
 10
4.3027077334
 20
2.1492946345
 30
0.0
 10
4.3030280628
 20
2.1490942786
 30
0.0
 10
4.3032563221
 20
2.1489677399
 30
0.0
  0
SPLINE
  5
2A3
100
AcDbEntity
  8
0
100
AcDbSpline
 62
7
  6
CONTINUOUS
 70
0
 71
3
 72
32
 73
28
 74
0
 42
0.0000001
 43
0.0000001
 44
0.0000000001
 40
0.0
 40
0.0
 40
0.0
 40
0.0
 40
0.0339706826
 40
0.0701878617
 40
0.1483567953
 40
0.2324283764
 40
0.3200330492
 40
0.4086564999
 40
0.4957417464
 40
0.5787954146
 40
0.6554952308
 40
0.6908201029
 40
0.7238267888
 40
0.7543317526
 40
0.7821924111
 40
0.8073207309
 40
0.8296969717
 40
0.8494006533
 40
0.8666524384
 40
0.8818740358
 40
0.8957522539
 40
0.9092267425
 40
0.9233309763
 40
0.9389558199
 40
0.9567260491
 40
0.9770134178
 40
1.0
 40
1.0
 40
1.0
 40
1.0
 10
4.3587405149
 20
2.1492990148
 30
0.0
 10
4.3584558479
 20
2.149385436
 30
0.0
 10
4.3578630647
 20
2.149548989
 30
0.0
 10
4.3565966652
 20
2.1498405253
 30
0.0
 10
4.3548815737
 20
2.1501313529
 30
0.0
 10
4.3527044369
 20
2.1503607826
 30
0.0
 10
4.3504263716
 20
2.1504710162
 30
0.0
 10
4.3481193659
 20
2.1504584449
 30
0.0
 10
4.3458560976
 20
2.1503234955
 30
0.0
 10
4.3437080283
 20
2.1500706118
 30
0.0
 10
4.3420262318
 20
2.1497609611
 30
0.0
 10
4.3407931298
 20
2.1494551585
 30
0.0
 10
4.3399630016
 20
2.1492088532
 30
0.0
 10
4.3392084128
 20
2.1489413173
 30
0.0
 10
4.3385351678
 20
2.1486546161
 30
0.0
 10
4.3379482982
 20
2.1483509953
 30
0.0
 10
4.3374520459
 20
2.1480325603
 30
0.0
 10
4.3370498186
 20
2.1477011919
 30
0.0
 10
4.3367444456
 20
2.147358138
 30
0.0
 10
4.3365393366
 20
2.1470037252
 30
0.0
 10
4.3364400857
 20
2.1466391705
 30
0.0
 10
4.3364526677
 20
2.1462707751
 30
0.0
 10
4.3365761738
 20
2.145908181
 30
0.0
 10
4.3368040203
 20
2.1455562852
 30
0.0
 10
4.3371312515
 20
2.1452157659
 30
0.0
 10
4.3375546921
 20
2.1448871829
 30
0.0
 10
4.337878814
 20
2.1446894288
 30
0.0
 10
4.3380548749
 20
2.1445918293
 30
0.0
  0
SPLINE
  5
2A4
100
AcDbEntity
  8
0
100
AcDbSpline
 62
7
  6
CONTINUOUS
 70
0
 71
3
 72
14
 73
10
 74
0
 42
0.0000001
 43
0.0000001
 44
0.0000000001
 40
0.0
 40
0.0
 40
0.0
 40
0.0
 40
0.0957953867
 40
0.1952304906
 40
0.3014200996
 40
0.4168759742
 40
0.5434578794
 40
0.6824233273
 40
1.0
 40
1.0
 40
1.0
 40
1.0
 10
4.3508638714
 20
2.1359315851
 30
0.0
 10
4.3508638714
 20
2.1358484677
 30
0.0
 10
4.3508817724
 20
2.1356786016
 30
0.0
 10
4.3509610194
 20
2.1354277803
 30
0.0
 10
4.3510917555
 20
2.1351802888
 30
0.0
 10
4.3512726445
 20
2.1349370671
 30
0.0
 10
4.3515026318
 20
2.1346985519
 30
0.0
 10
4.3518909214
 20
2.1343731064
 30
0.0
 10
4.3522279253
 20
2.1341610406
 30
0.0
 10
4.352468922
 20
2.1340274488
 30
0.0
  0
SPLINE
  5
2A5
100
AcDbEntity
  8
0
100
AcDbSpline
 62
7
  6
CONTINUOUS
 70
0
 71
3
 72
37
 73
33
 74
0
 42
0.0000001
 43
0.0000001
 44
0.0000000001
 40
0.0
 40
0.0
 40
0.0
 40
0.0
 40
0.0068033529
 40
0.0137689286
 40
0.0287087973
 40
0.0457709772
 40
0.0655168242
 40
0.0882232026
 40
0.1139785276
 40
0.1427459396
 40
0.1743985946
 40
0.2087439136
 40
0.2455397769
 40
0.2845032802
 40
0.3253188983
 40
0.4111132171
 40
0.4999999836
 40
0.5888867294
 40
0.6746810471
 40
0.7154966717
 40
0.7544601973
 40
0.7912560467
 40
0.8256013739
 40
0.8572540469
 40
0.886021454
 40
0.9117767846
 40
0.9344831724
 40
0.954229019
 40
0.9712912004
 40
0.9862310713
 40
0.9931966471
 40
1.0
 40
1.0
 40
1.0
 40
1.0
 10
4.3769790273
 20
2.1359315851
 30
0.0
 10
4.3769790273
 20
2.1359966065
 30
0.0
 10
4.376968206
 20
2.1361284387
 30
0.0
 10
4.3769025479
 20
2.1363958659
 30
0.0
 10
4.3767317173
 20
2.13673247
 30
0.0
 10
4.3764091175
 20
2.1371114167
 30
0.0
 10
4.3759698052
 20
2.1374760405
 30
0.0
 10
4.3754173978
 20
2.1378246902
 30
0.0
 10
4.3747563696
 20
2.1381551883
 30
0.0
 10
4.3739923863
 20
2.138464659
 30
0.0
 10
4.3731323497
 20
2.1387502483
 30
0.0
 10
4.372184247
 20
2.1390092195
 30
0.0
 10
4.3711570084
 20
2.1392390275
 30
0.0
 10
4.3700603865
 20
2.1394374375
 30
0.0
 10
4.3684935561
 20
2.1396611813
 30
0.0
 10
4.3664407758
 20
2.1398465899
 30
0.0
 10
4.36392145
 20
2.1399206788
 30
0.0
 10
4.3614021243
 20
2.1398465899
 30
0.0
 10
4.359349344
 20
2.1396611816
 30
0.0
 10
4.3577825134
 20
2.1394374376
 30
0.0
 10
4.3566858914
 20
2.1392390277
 30
0.0
 10
4.3556586526
 20
2.1390092198
 30
0.0
 10
4.3547105498
 20
2.1387502484
 30
0.0
 10
4.353850513
 20
2.1384646592
 30
0.0
 10
4.3530865294
 20
2.1381551885
 30
0.0
 10
4.3524255012
 20
2.1378246903
 30
0.0
 10
4.3518730936
 20
2.1374760407
 30
0.0
 10
4.3514337813
 20
2.1371114167
 30
0.0
 10
4.3511111814
 20
2.1367324701
 30
0.0
 10
4.3509403508
 20
2.1363958659
 30
0.0
 10
4.3508746927
 20
2.1361284387
 30
0.0
 10
4.3508638714
 20
2.1359966065
 30
0.0
 10
4.3508638714
 20
2.1359315851
 30
0.0
  0
SPLINE
  5
2A6
100
AcDbEntity
  8
0
100
AcDbSpline
 62
7
  6
CONTINUOUS
 70
0
 71
3
 72
23
 73
19
 74
0
 42
0.0000001
 43
0.0000001
 44
0.0000000001
 40
0.0
 40
0.0
 40
0.0
 40
0.0
 40
0.0985255127
 40
0.1898778284
 40
0.2736749683
 40
0.3497683242
 40
0.4181746305
 40
0.4791273054
 40
0.5331998829
 40
0.5814219422
 40
0.6254185861
 40
0.6674235715
 40
0.7100401112
 40
0.7557524992
 40
0.8065229915
 40
0.8636858277
 40
0.9280444094
 40
1.0
 40
1.0
 40
1.0
 40
1.0
 10
4.3402743111
 20
2.1281702501
 30
0.0
 10
4.3400353791
 20
2.1280977135
 30
0.0
 10
4.3395778192
 20
2.127947998
 30
0.0
 10
4.3389301556
 20
2.1276988519
 30
0.0
 10
4.3383502512
 20
2.1274347848
 30
0.0
 10
4.3378417448
 20
2.1271575144
 30
0.0
 10
4.3374075514
 20
2.1268686275
 30
0.0
 10
4.3370501719
 20
2.1265694969
 30
0.0
 10
4.3367717003
 20
2.1262612365
 30
0.0
 10
4.3365744845
 20
2.1259444062
 30
0.0
 10
4.3364617315
 20
2.1256199018
 30
0.0
 10
4.3364375874
 20
2.1252908503
 30
0.0
 10
4.3365032019
 20
2.1249632772
 30
0.0
 10
4.3366556055
 20
2.1246421376
 30
0.0
 10
4.3368908135
 20
2.1243292288
 30
0.0
 10
4.3372060975
 20
2.1240250808
 30
0.0
 10
4.3375993422
 20
2.1237305676
 30
0.0
 10
4.3378953791
 20
2.1235514778
 30
0.0
 10
4.3380548752
 20
2.1234630647
 30
0.0
  0
SPLINE
  5
2A7
100
AcDbEntity
  8
0
100
AcDbSpline
 62
7
  6
CONTINUOUS
 70
0
 71
3
 72
31
 73
27
 74
0
 42
0.0000001
 43
0.0000001
 44
0.0000000001
 40
0.0
 40
0.0
 40
0.0
 40
0.0
 40
0.0995466758
 40
0.1975886423
 40
0.2926339107
 40
0.3832791713
 40
0.4682089784
 40
0.5462543724
 40
0.6164333145
 40
0.6780201292
 40
0.7054737493
 40
0.7306848865
 40
0.7536976673
 40
0.7746148066
 40
0.7936105273
 40
0.8109579621
 40
0.8270422508
 40
0.8423700137
 40
0.8575354842
 40
0.8731546139
 40
0.889786086
 40
0.907879971
 40
0.9277655451
 40
0.9496668383
 40
0.9737201587
 40
1.0
 40
1.0
 40
1.0
 40
1.0
 10
4.3147088509
 20
2.1249553999
 30
0.0
 10
4.314146721
 20
2.1249553999
 30
0.0
 10
4.3130308311
 20
2.1249335984
 30
0.0
 10
4.3113808217
 20
2.1248358359
 30
0.0
 10
4.3097862333
 20
2.1246747433
 30
0.0
 10
4.3082736474
 20
2.1244531405
 30
0.0
 10
4.3068681012
 20
2.1241748223
 30
0.0
 10
4.3055926411
 20
2.1238446185
 30
0.0
 10
4.3044681647
 20
2.1234681469
 30
0.0
 10
4.3036420964
 20
2.123108618
 30
0.0
 10
4.303076131
 20
2.1227980192
 30
0.0
 10
4.3027164715
 20
2.1225664517
 30
0.0
 10
4.302406537
 20
2.1223281269
 30
0.0
 10
4.3021474948
 20
2.1220838427
 30
0.0
 10
4.3019404997
 20
2.1218341792
 30
0.0
 10
4.3017865858
 20
2.1215797634
 30
0.0
 10
4.3016872301
 20
2.1213211934
 30
0.0
 10
4.3016438339
 20
2.1210597941
 30
0.0
 10
4.3016574915
 20
2.1207977245
 30
0.0
 10
4.3017277754
 20
2.1205374592
 30
0.0
 10
4.3018533815
 20
2.1202807633
 30
0.0
 10
4.3020327944
 20
2.1200285536
 30
0.0
 10
4.3022647728
 20
2.1197813783
 30
0.0
 10
4.3025482671
 20
2.1195398611
 30
0.0
 10
4.3028820888
 20
2.1193046578
 30
0.0
 10
4.3031265337
 20
2.1191591041
 30
0.0
 10
4.3032563256
 20
2.1190871563
 30
0.0
  0
SPLINE
  5
2A8
100
AcDbEntity
  8
0
100
AcDbSpline
 62
7
  6
CONTINUOUS
 70
0
 71
3
 72
32
 73
28
 74
0
 42
0.0000001
 43
0.0000001
 44
0.0000000001
 40
0.0
 40
0.0
 40
0.0
 40
0.0
 40
0.0339706826
 40
0.0701878617
 40
0.1483567953
 40
0.2324283764
 40
0.3200330492
 40
0.4086564999
 40
0.4957417464
 40
0.5787954146
 40
0.6554952308
 40
0.6908201029
 40
0.7238267888
 40
0.7543317526
 40
0.7821924111
 40
0.8073207309
 40
0.8296969717
 40
0.8494006533
 40
0.8666524384
 40
0.8818740358
 40
0.8957522539
 40
0.9092267425
 40
0.9233309763
 40
0.9389558199
 40
0.9567260491
 40
0.9770134178
 40
1.0
 40
1.0
 40
1.0
 40
1.0
 10
4.2891433908
 20
2.1281702501
 30
0.0
 10
4.2888587238
 20
2.1282566712
 30
0.0
 10
4.2882659405
 20
2.1284202243
 30
0.0
 10
4.286999541
 20
2.1287117606
 30
0.0
 10
4.2852844495
 20
2.1290025882
 30
0.0
 10
4.2831073127
 20
2.1292320179
 30
0.0
 10
4.2808292475
 20
2.1293422514
 30
0.0
 10
4.2785222418
 20
2.1293296801
 30
0.0
 10
4.2762589735
 20
2.1291947308
 30
0.0
 10
4.2741109041
 20
2.1289418471
 30
0.0
 10
4.2724291076
 20
2.1286321964
 30
0.0
 10
4.2711960057
 20
2.1283263938
 30
0.0
 10
4.2703658774
 20
2.1280800885
 30
0.0
 10
4.2696112887
 20
2.1278125526
 30
0.0
 10
4.2689380437
 20
2.1275258514
 30
0.0
 10
4.2683511741
 20
2.1272222306
 30
0.0
 10
4.2678549218
 20
2.1269037956
 30
0.0
 10
4.2674526945
 20
2.1265724272
 30
0.0
 10
4.2671473214
 20
2.1262293733
 30
0.0
 10
4.2669422124
 20
2.1258749605
 30
0.0
 10
4.2668429616
 20
2.1255104057
 30
0.0
 10
4.2668555436
 20
2.1251420104
 30
0.0
 10
4.2669790497
 20
2.1247794162
 30
0.0
 10
4.2672068962
 20
2.1244275205
 30
0.0
 10
4.2675341274
 20
2.1240870011
 30
0.0
 10
4.267957568
 20
2.1237584182
 30
0.0
 10
4.2682816899
 20
2.1235606641
 30
0.0
 10
4.2684577508
 20
2.1234630646
 30
0.0
  0
SPLINE
  5
2A9
100
AcDbEntity
  8
0
100
AcDbSpline
 62
7
  6
CONTINUOUS
 70
0
 71
3
 72
31
 73
27
 74
0
 42
0.0000001
 43
0.0000001
 44
0.0000000001
 40
0.0
 40
0.0
 40
0.0
 40
0.0
 40
0.0621633275
 40
0.1243136333
 40
0.1553939613
 40
0.1864754746
 40
0.2020198183
 40
0.2175670797
 40
0.2486715401
 40
0.2797966837
 40
0.3109449611
 40
0.3732914755
 40
0.4357143189
 40
0.4981885662
 40
0.5294485216
 40
0.5607171661
 40
0.5919968625
 40
0.6232926566
 40
0.6546100384
 40
0.6859515743
 40
0.7173171443
 40
0.748704517
 40
0.8115106508
 40
0.8743494371
 40
0.937184508
 40
1.0
 40
1.0
 40
1.0
 40
1.0
 10
4.5995813826
 20
2.688763506
 30
0.0
 10
4.5995813826
 20
2.6795450489
 30
0.0
 10
4.5986820429
 20
2.6610982726
 30
0.0
 10
4.5953067252
 20
2.6382632327
 30
0.0
 10
4.5912579432
 20
2.6202719993
 30
0.0
 10
4.5881644071
 20
2.6091658614
 30
0.0
 10
4.5853525256
 20
2.6003843099
 30
0.0
 10
4.5823155979
 20
2.59167438
 30
0.0
 10
4.5781044718
 20
2.5809311284
 30
0.0
 10
4.5724093753
 20
2.5683026621
 30
0.0
 10
4.5639852043
 20
2.5518470529
 30
0.0
 10
4.5519443486
 20
2.5320609569
 30
0.0
 10
4.5352584271
 20
2.5098151733
 30
0.0
 10
4.5196115198
 20
2.4926895538
 30
0.0
 10
4.5061353333
 20
2.479951978
 30
0.0
 10
4.4955624965
 20
2.4709019739
 30
0.0
 10
4.484548306
 20
2.4623861785
 30
0.0
 10
4.4731119118
 20
2.4544335074
 30
0.0
 10
4.4612846405
 20
2.4470577418
 30
0.0
 10
4.4490996196
 20
2.4402684858
 30
0.0
 10
4.4365888566
 20
2.4340761415
 30
0.0
 10
4.4195168053
 20
2.4266291341
 30
0.0
 10
4.3975217274
 20
2.4188639029
 30
0.0
 10
4.3703577567
 20
2.412103362
 30
0.0
 10
4.3426698491
 20
2.4079784504
 30
0.0
 10
4.3240240202
 20
2.4070427483
 30
0.0
 10
4.3147088509
 20
2.4070427483
 30
0.0
  0
SPLINE
  5
2AA
100
AcDbEntity
  8
0
100
AcDbSpline
 62
7
  6
CONTINUOUS
 70
0
 71
3
 72
37
 73
33
 74
0
 42
0.0000001
 43
0.0000001
 44
0.0000000001
 40
0.0
 40
0.0
 40
0.0
 40
0.0
 40
0.0068033529
 40
0.0137689286
 40
0.0287087973
 40
0.0457709772
 40
0.0655168242
 40
0.0882232026
 40
0.1139785276
 40
0.1427459396
 40
0.1743985946
 40
0.2087439136
 40
0.2455397769
 40
0.2845032802
 40
0.3253188983
 40
0.4111132171
 40
0.4999999836
 40
0.5888867294
 40
0.6746810471
 40
0.7154966717
 40
0.7544601973
 40
0.7912560467
 40
0.8256013739
 40
0.8572540469
 40
0.886021454
 40
0.9117767846
 40
0.9344831724
 40
0.954229019
 40
0.9712912004
 40
0.9862310713
 40
0.9931966471
 40
1.0
 40
1.0
 40
1.0
 40
1.0
 10
4.2785538304
 20
2.1359315851
 30
0.0
 10
4.2785538304
 20
2.1359966065
 30
0.0
 10
4.2785430091
 20
2.1361284387
 30
0.0
 10
4.2784773511
 20
2.1363958659
 30
0.0
 10
4.2783065205
 20
2.13673247
 30
0.0
 10
4.2779839207
 20
2.1371114167
 30
0.0
 10
4.2775446084
 20
2.1374760405
 30
0.0
 10
4.276992201
 20
2.1378246902
 30
0.0
 10
4.2763311728
 20
2.1381551883
 30
0.0
 10
4.2755671894
 20
2.138464659
 30
0.0
 10
4.2747071529
 20
2.1387502483
 30
0.0
 10
4.2737590502
 20
2.1390092195
 30
0.0
 10
4.2727318116
 20
2.1392390275
 30
0.0
 10
4.2716351897
 20
2.1394374375
 30
0.0
 10
4.2700683593
 20
2.1396611813
 30
0.0
 10
4.2680155789
 20
2.1398465899
 30
0.0
 10
4.2654962532
 20
2.1399206788
 30
0.0
 10
4.2629769274
 20
2.1398465899
 30
0.0
 10
4.2609241472
 20
2.1396611816
 30
0.0
 10
4.2593573166
 20
2.1394374376
 30
0.0
 10
4.2582606945
 20
2.1392390277
 30
0.0
 10
4.2572334557
 20
2.1390092198
 30
0.0
 10
4.2562853529
 20
2.1387502484
 30
0.0
 10
4.2554253162
 20
2.1384646592
 30
0.0
 10
4.2546613326
 20
2.1381551885
 30
0.0
 10
4.2540003044
 20
2.1378246903
 30
0.0
 10
4.2534478968
 20
2.1374760407
 30
0.0
 10
4.2530085844
 20
2.1371114167
 30
0.0
 10
4.2526859846
 20
2.1367324701
 30
0.0
 10
4.2525151539
 20
2.1363958659
 30
0.0
 10
4.2524494959
 20
2.1361284387
 30
0.0
 10
4.2524386746
 20
2.1359966065
 30
0.0
 10
4.2524386746
 20
2.1359315851
 30
0.0
  0
SPLINE
  5
2AB
100
AcDbEntity
  8
0
100
AcDbSpline
 62
7
  6
CONTINUOUS
 70
0
 71
3
 72
14
 73
10
 74
0
 42
0.0000001
 43
0.0000001
 44
0.0000000001
 40
0.0
 40
0.0
 40
0.0
 40
0.0
 40
0.0957953867
 40
0.1952304906
 40
0.3014200996
 40
0.4168759742
 40
0.5434578794
 40
0.6824233273
 40
1.0
 40
1.0
 40
1.0
 40
1.0
 10
4.2524386746
 20
2.1359315851
 30
0.0
 10
4.2524386746
 20
2.1358484677
 30
0.0
 10
4.2524565755
 20
2.1356786016
 30
0.0
 10
4.2525358226
 20
2.1354277803
 30
0.0
 10
4.2526665586
 20
2.1351802888
 30
0.0
 10
4.2528474477
 20
2.1349370671
 30
0.0
 10
4.2530774349
 20
2.1346985519
 30
0.0
 10
4.2534657245
 20
2.1343731064
 30
0.0
 10
4.2538027284
 20
2.1341610406
 30
0.0
 10
4.2540437251
 20
2.1340274488
 30
0.0
  0
SPLINE
  5
2AC
100
AcDbEntity
  8
0
100
AcDbSpline
 62
7
  6
CONTINUOUS
 70
0
 71
3
 72
23
 73
19
 74
0
 42
0.0000001
 43
0.0000001
 44
0.0000000001
 40
0.0
 40
0.0
 40
0.0
 40
0.0
 40
0.0985255127
 40
0.1898778284
 40
0.2736749683
 40
0.3497683242
 40
0.4181746305
 40
0.4791273054
 40
0.5331998829
 40
0.5814219422
 40
0.6254185861
 40
0.6674235715
 40
0.7100401112
 40
0.7557524992
 40
0.8065229915
 40
0.8636858277
 40
0.9280444094
 40
1.0
 40
1.0
 40
1.0
 40
1.0
 10
4.270677187
 20
2.1492990148
 30
0.0
 10
4.270438255
 20
2.1492264782
 30
0.0
 10
4.269980695
 20
2.1490767628
 30
0.0
 10
4.2693330315
 20
2.1488276166
 30
0.0
 10
4.268753127
 20
2.1485635495
 30
0.0
 10
4.2682446207
 20
2.1482862792
 30
0.0
 10
4.2678104273
 20
2.1479973923
 30
0.0
 10
4.2674530478
 20
2.1476982616
 30
0.0
 10
4.2671745762
 20
2.1473900012
 30
0.0
 10
4.2669773604
 20
2.147073171
 30
0.0
 10
4.2668646074
 20
2.1467486665
 30
0.0
 10
4.2668404633
 20
2.146419615
 30
0.0
 10
4.2669060778
 20
2.1460920419
 30
0.0
 10
4.2670584813
 20
2.1457709023
 30
0.0
 10
4.2672936893
 20
2.1454579936
 30
0.0
 10
4.2676089733
 20
2.1451538456
 30
0.0
 10
4.2680022181
 20
2.1448593323
 30
0.0
 10
4.2682982549
 20
2.1446802425
 30
0.0
 10
4.268457751
 20
2.1445918294
 30
0.0
  0
SPLINE
  5
2AD
100
AcDbEntity
  8
0
100
AcDbSpline
 62
7
  6
CONTINUOUS
 70
0
 71
3
 72
32
 73
28
 74
0
 42
0.0000001
 43
0.0000001
 44
0.0000000001
 40
0.0
 40
0.0
 40
0.0
 40
0.0
 40
0.09757929
 40
0.1939178661
 40
0.2877993155
 40
0.3780502609
 40
0.4635676862
 40
0.5433427317
 40
0.6164919417
 40
0.6503547101
 40
0.6823077235
 40
0.7122952028
 40
0.7402812952
 40
0.766251991
 40
0.7902227663
 40
0.8122440534
 40
0.832412919
 40
0.8508846749
 40
0.8678889495
 40
0.883741955
 40
0.8988501648
 40
0.9136922693
 40
0.9287760474
 40
0.9445828237
 40
0.9615231267
 40
0.979917699
 40
1.0
 40
1.0
 40
1.0
 40
1.0
 10
4.3147088509
 20
2.0373854136
 30
0.0
 10
4.313545614
 20
2.0373854136
 30
0.0
 10
4.3112337106
 20
2.037344066
 30
0.0
 10
4.3078071563
 20
2.0371584912
 30
0.0
 10
4.3044768897
 20
2.0368521665
 30
0.0
 10
4.3012893875
 20
2.0364294813
 30
0.0
 10
4.2982889085
 20
2.0358965332
 30
0.0
 10
4.2955171548
 20
2.0352609347
 30
0.0
 10
4.2933774714
 20
2.0346384204
 30
0.0
 10
4.2918137932
 20
2.0340903448
 30
0.0
 10
4.2907514618
 20
2.0336701813
 30
0.0
 10
4.2897727681
 20
2.033231752
 30
0.0
 10
4.2888810292
 20
2.0327765824
 30
0.0
 10
4.2880792624
 20
2.0323061582
 30
0.0
 10
4.2873701078
 20
2.0318220372
 30
0.0
 10
4.2867559139
 20
2.0313256435
 30
0.0
 10
4.2862386924
 20
2.0308183662
 30
0.0
 10
4.2858203288
 20
2.0303013714
 30
0.0
 10
4.285502683
 20
2.02977577
 30
0.0
 10
4.2852879292
 20
2.0292428053
 30
0.0
 10
4.2851783787
 20
2.0287045217
 30
0.0
 10
4.2851757765
 20
2.0281641749
 30
0.0
 10
4.2852801592
 20
2.0276257045
 30
0.0
 10
4.2854898608
 20
2.0270924295
 30
0.0
 10
4.285802568
 20
2.0265664268
 30
0.0
 10
4.2862160514
 20
2.0260490287
 30
0.0
 10
4.286542579
 20
2.0257254869
 30
0.0
 10
4.2867202485
 20
2.0255650318
 30
0.0
  0
SPLINE
  5
2AE
100
AcDbEntity
  8
0
100
AcDbSpline
 62
7
  6
CONTINUOUS
 70
0
 71
3
 72
18
 73
14
 74
0
 42
0.0000001
 43
0.0000001
 44
0.0000000001
 40
0.0
 40
0.0
 40
0.0
 40
0.0
 40
0.1602063623
 40
0.3192748368
 40
0.4723745688
 40
0.6148594162
 40
0.7424138074
 40
0.7993670443
 40
0.851185888
 40
0.8974810019
 40
0.9379055438
 40
0.9721618079
 40
1.0
 40
1.0
 40
1.0
 40
1.0
 10
4.2471757018
 20
2.2082318186
 30
0.0
 10
4.2471623485
 20
2.2053742968
 30
0.0
 10
4.2471167674
 20
2.1996796196
 30
0.0
 10
4.2469931916
 20
2.1912548618
 30
0.0
 10
4.2468181519
 20
2.1831471661
 30
0.0
 10
4.2465971511
 20
2.1756029224
 30
0.0
 10
4.2463733387
 20
2.1697746266
 30
0.0
 10
4.2461724601
 20
2.1655641029
 30
0.0
 10
4.2460207131
 20
2.1628023512
 30
0.0
 10
4.245863494
 20
2.160336253
 30
0.0
 10
4.2457021702
 20
2.1581844093
 30
0.0
 10
4.2455381187
 20
2.1563631271
 30
0.0
 10
4.245415909
 20
2.1552621448
 30
0.0
 10
4.2453514434
 20
2.1547698058
 30
0.0
  0
LINE
  5
2AF
100
AcDbEntity
  8
0
100
AcDbLine
 62
7
  6
CONTINUOUS
 10
4.2183071236
 20
2.2531848369
 11
4.2178078297
 21
2.204980784
  0
SPLINE
  5
2B0
100
AcDbEntity
  8
0
100
AcDbSpline
 62
7
  6
CONTINUOUS
 70
0
 71
3
 72
18
 73
14
 74
0
 42
0.0000001
 43
0.0000001
 44
0.0000000001
 40
0.0
 40
0.0
 40
0.0
 40
0.0
 40
0.1603619872
 40
0.3194211287
 40
0.4722699665
 40
0.6142722528
 40
0.7412971091
 40
0.7980394936
 40
0.8497397212
 40
0.8960620503
 40
0.9367125921
 40
0.9714345529
 40
1.0
 40
1.0
 40
1.0
 40
1.0
 10
4.2178074971
 20
2.204980792
 30
0.0
 10
4.2177962071
 20
2.2038275632
 30
0.0
 10
4.2177518404
 20
2.2015306404
 30
0.0
 10
4.2176259439
 20
2.1981363578
 30
0.0
 10
4.2174455353
 20
2.1948767304
 30
0.0
 10
4.217217611
 20
2.1918510726
 30
0.0
 10
4.2169883328
 20
2.1895191564
 30
0.0
 10
4.216784184
 20
2.1878380147
 30
0.0
 10
4.2166307181
 20
2.1867355435
 30
0.0
 10
4.2164724845
 20
2.18575079
 30
0.0
 10
4.2163109495
 20
2.1848904748
 30
0.0
 10
4.2161475048
 20
2.1841609224
 30
0.0
 10
4.216026603
 20
2.1837217425
 30
0.0
 10
4.2159637799
 20
2.1835261483
 30
0.0
  0
SPLINE
  5
2B1
100
AcDbEntity
  8
0
100
AcDbSpline
 62
7
  6
CONTINUOUS
 70
0
 71
3
 72
11
 73
7
 74
0
 42
0.0000001
 43
0.0000001
 44
0.0000000001
 40
0.0
 40
0.0
 40
0.0
 40
0.0
 40
0.2423632978
 40
0.4879356122
 40
0.739663933
 40
1.0
 40
1.0
 40
1.0
 40
1.0
 10
4.3563695011
 20
2.1215197985
 30
0.0
 10
4.3558315987
 20
2.1213565013
 30
0.0
 10
4.3547207528
 20
2.1211130033
 30
0.0
 10
4.3530018027
 20
2.1210099013
 30
0.0
 10
4.3512455648
 20
2.1211680076
 30
0.0
 10
4.3500852034
 20
2.1214405971
 30
0.0
 10
4.349507413
 20
2.1216160066
 30
0.0
  0
SPLINE
  5
2B2
100
AcDbEntity
  8
0
100
AcDbSpline
 62
7
  6
CONTINUOUS
 70
0
 71
3
 72
18
 73
14
 74
0
 42
0.0000001
 43
0.0000001
 44
0.0000000001
 40
0.0
 40
0.0
 40
0.0
 40
0.0
 40
0.0285702873
 40
0.0632887402
 40
0.1039360801
 40
0.1502553164
 40
0.2019561695
 40
0.2587018223
 40
0.3857288828
 40
0.5277304763
 40
0.6805773124
 40
0.8396376087
 40
1.0
 40
1.0
 40
1.0
 40
1.0
 10
4.413453922
 20
2.1835261483
 30
0.0
 10
4.4133911271
 20
2.1837217881
 30
0.0
 10
4.4132702121
 20
2.1841609717
 30
0.0
 10
4.4131067493
 20
2.1848905076
 30
0.0
 10
4.4129452142
 20
2.1857507506
 30
0.0
 10
4.4127869687
 20
2.1867354611
 30
0.0
 10
4.4126335086
 20
2.187837939
 30
0.0
 10
4.4124293775
 20
2.189519127
 30
0.0
 10
4.4122000956
 20
2.1918510771
 30
0.0
 10
4.4119721701
 20
2.1948767312
 30
0.0
 10
4.4117917343
 20
2.1981363459
 30
0.0
 10
4.4116658605
 20
2.2015306266
 30
0.0
 10
4.411621519
 20
2.2038275606
 30
0.0
 10
4.4116102047
 20
2.204980792
 30
0.0
  0
LINE
  5
2B3
100
AcDbEntity
  8
0
100
AcDbLine
 62
7
  6
CONTINUOUS
 10
4.4116093257
 20
2.2049807709
 11
4.4111105123
 21
2.2531848352
  0
SPLINE
  5
2B4
100
AcDbEntity
  8
0
100
AcDbSpline
 62
7
  6
CONTINUOUS
 70
0
 71
3
 72
19
 73
15
 74
0
 42
0.0000001
 43
0.0000001
 44
0.0000000001
 40
0.0
 40
0.0
 40
0.0
 40
0.0
 40
0.0278382073
 40
0.0620944902
 40
0.1025190095
 40
0.1488140613
 40
0.2006328158
 40
0.2575859551
 40
0.3851400939
 40
0.5276246998
 40
0.6807243497
 40
0.8397929528
 40
0.9200616317
 40
1.0
 40
1.0
 40
1.0
 40
1.0
 10
4.3840662791
 20
2.1547698058
 30
0.0
 10
4.3840018238
 20
2.1552621411
 30
0.0
 10
4.3838796298
 20
2.1563631139
 30
0.0
 10
4.3837155869
 20
2.1581843776
 30
0.0
 10
4.3835542697
 20
2.1603361979
 30
0.0
 10
4.3833970775
 20
2.1628022686
 30
0.0
 10
4.3832453689
 20
2.1655639887
 30
0.0
 10
4.383044512
 20
2.1697744609
 30
0.0
 10
4.3828206998
 20
2.1756026846
 30
0.0
 10
4.3825998057
 20
2.183146842
 30
0.0
 10
4.3824246852
 20
2.1912544441
 30
0.0
 10
4.3823219326
 20
2.1982534541
 30
0.0
 10
4.3822673508
 20
2.2039479671
 30
0.0
 10
4.3822513017
 20
2.2068054661
 30
0.0
 10
4.3822459301
 20
2.2082312777
 30
0.0
  0
SPLINE
  5
2B5
100
AcDbEntity
  8
0
100
AcDbSpline
 62
7
  6
CONTINUOUS
 70
0
 71
3
 72
25
 73
21
 74
0
 42
0.0000001
 43
0.0000001
 44
0.0000000001
 40
0.0
 40
0.0
 40
0.0
 40
0.0
 40
0.1728269891
 40
0.3479880583
 40
0.4337143066
 40
0.5165812725
 40
0.5953425812
 40
0.668902779
 40
0.7362709835
 40
0.7967100693
 40
0.849621013
 40
0.8946802071
 40
0.9142087365
 40
0.9317730099
 40
0.9474327632
 40
0.9612543796
 40
0.9733144026
 40
0.9837054395
 40
0.9925463587
 40
1.0
 40
1.0
 40
1.0
 40
1.0
 10
4.3822459301
 20
2.2082307094
 30
0.0
 10
4.383963147
 20
2.208247102
 30
0.0
 10
4.3874212653
 20
2.2082391009
 30
0.0
 10
4.3917299285
 20
2.2081267322
 30
0.0
 10
4.3951418977
 20
2.2079643851
 30
0.0
 10
4.397594972
 20
2.2078096472
 30
0.0
 10
4.3999245076
 20
2.2076220262
 30
0.0
 10
4.4020967399
 20
2.2074043446
 30
0.0
 10
4.4040827163
 20
2.2071588918
 30
0.0
 10
4.4058585145
 20
2.2068902966
 30
0.0
 10
4.407406273
 20
2.2066021515
 30
0.0
 10
4.4085445125
 20
2.2063396725
 30
0.0
 10
4.4093307435
 20
2.2061196333
 30
0.0
 10
4.4098303426
 20
2.2059605866
 30
0.0
 10
4.4102696088
 20
2.2058001988
 30
0.0
 10
4.4106498345
 20
2.205638968
 30
0.0
 10
4.4109723493
 20
2.205477419
 30
0.0
 10
4.4112386039
 20
2.2053159354
 30
0.0
 10
4.4114499839
 20
2.2051549423
 30
0.0
 10
4.4115641678
 20
2.2050388088
 30
0.0
 10
4.411610205
 20
2.2049807922
 30
0.0
  0
SPLINE
  5
2B6
100
AcDbEntity
  8
0
100
AcDbSpline
 62
7
  6
CONTINUOUS
 70
0
 71
3
 72
21
 73
17
 74
0
 42
0.0000001
 43
0.0000001
 44
0.0000000001
 40
0.0
 40
0.0
 40
0.0
 40
0.0
 40
0.1181880202
 40
0.1801983412
 40
0.2437627079
 40
0.3085874128
 40
0.3742976034
 40
0.4405213841
 40
0.5068514176
 40
0.5728917736
 40
0.6382672541
 40
0.7026184881
 40
0.7656542934
 40
0.8270965796
 40
0.886760813
 40
1.0
 40
1.0
 40
1.0
 40
1.0
 10
4.384066207
 20
2.1547698727
 30
0.0
 10
4.3858517151
 20
2.1548226028
 30
0.0
 10
4.3885745949
 20
2.1551416474
 30
0.0
 10
4.3921489352
 20
2.1560487069
 30
0.0
 10
4.3948666906
 20
2.15700816
 30
0.0
 10
4.3975326917
 20
2.158242514
 30
0.0
 10
4.4001048991
 20
2.1597441467
 30
0.0
 10
4.4025364325
 20
2.1615036042
 30
0.0
 10
4.4047884147
 20
2.1634954609
 30
0.0
 10
4.4068205222
 20
2.1656938471
 30
0.0
 10
4.408606125
 20
2.1680593748
 30
0.0
 10
4.4101195597
 20
2.170554633
 30
0.0
 10
4.4113515708
 20
2.1731341395
 30
0.0
 10
4.4122950708
 20
2.1757577144
 30
0.0
 10
4.4131636547
 20
2.179195378
 30
0.0
 10
4.4134383212
 20
2.1818147291
 30
0.0
 10
4.4134539213
 20
2.1835261481
 30
0.0
  0
SPLINE
  5
2B7
100
AcDbEntity
  8
0
100
AcDbSpline
 62
7
  6
CONTINUOUS
 70
0
 71
3
 72
11
 73
7
 74
0
 42
0.0000001
 43
0.0000001
 44
0.0000000001
 40
0.0
 40
0.0
 40
0.0
 40
0.0
 40
0.2549141963
 40
0.5056004108
 40
0.7534680047
 40
1.0
 40
1.0
 40
1.0
 40
1.0
 10
4.413453922
 20
2.1835261483
 30
0.0
 10
4.4154456463
 20
2.1773103209
 30
0.0
 10
4.4189382123
 20
2.1648288291
 30
0.0
 10
4.4226713609
 20
2.1458806201
 30
0.0
 10
4.424843198
 20
2.1269061665
 30
0.0
 10
4.4252486225
 20
2.1142366353
 30
0.0
 10
4.4251908128
 20
2.1079243943
 30
0.0
  0
SPLINE
  5
2B8
100
AcDbEntity
  8
0
100
AcDbSpline
 62
7
  6
CONTINUOUS
 70
0
 71
3
 72
21
 73
17
 74
0
 42
0.0000001
 43
0.0000001
 44
0.0000000001
 40
0.0
 40
0.0
 40
0.0
 40
0.0
 40
0.1173135369
 40
0.239786419
 40
0.3025877754
 40
0.3661692656
 40
0.4303120739
 40
0.4948108287
 40
0.5594630638
 40
0.6240511342
 40
0.6883800265
 40
0.7522656282
 40
0.8155188988
 40
0.877989869
 40
0.9395311762
 40
1.0
 40
1.0
 40
1.0
 40
1.0
 10
4.3840288915
 20
2.009406958
 30
0.0
 10
4.3854540795
 20
2.0093648
 30
0.0
 10
4.3883769671
 20
2.0094814596
 30
0.0
 10
4.3920061234
 20
2.0101595468
 30
0.0
 10
4.3948997711
 20
2.0110487089
 30
0.0
 10
4.3970549024
 20
2.0119026676
 30
0.0
 10
4.3991535978
 20
2.0129348404
 30
0.0
 10
4.4011715112
 20
2.0141431049
 30
0.0
 10
4.4030859893
 20
2.0155186675
 30
0.0
 10
4.4048767737
 20
2.0170488125
 30
0.0
 10
4.4065226633
 20
2.0187208039
 30
0.0
 10
4.4080101204
 20
2.0205141113
 30
0.0
 10
4.4093247643
 20
2.0224103097
 30
0.0
 10
4.4104581173
 20
2.0243872422
 30
0.0
 10
4.4114065957
 20
2.0264217133
 30
0.0
 10
4.4119183777
 20
2.0278156512
 30
0.0
 10
4.4121429756
 20
2.0285154201
 30
0.0
  0
SPLINE
  5
2B9
100
AcDbEntity
  8
0
100
AcDbSpline
 62
7
  6
CONTINUOUS
 70
0
 71
3
 72
19
 73
15
 74
0
 42
0.0000001
 43
0.0000001
 44
0.0000000001
 40
0.0
 40
0.0
 40
0.0
 40
0.0
 40
0.223812857
 40
0.4191037034
 40
0.5856224591
 40
0.7232509126
 40
0.7812678446
 40
0.8321306666
 40
0.8759088826
 40
0.9127275783
 40
0.9428187696
 40
0.9666214612
 40
0.9850396431
 40
1.0
 40
1.0
 40
1.0
 40
1.0
 10
4.3840334873
 20
2.0094068948
 30
0.0
 10
4.3840097547
 20
2.0092264002
 30
0.0
 10
4.3839630151
 20
2.0088887064
 30
0.0
 10
4.3838888289
 20
2.0084181351
 30
0.0
 10
4.3838152986
 20
2.0080185576
 30
0.0
 10
4.3837516434
 20
2.007730812
 30
0.0
 10
4.3836998634
 20
2.0075370709
 30
0.0
 10
4.3836635
 20
2.0074183087
 30
0.0
 10
4.3836274097
 20
2.0073175973
 30
0.0
 10
4.3835916073
 20
2.0072349025
 30
0.0
 10
4.3835561129
 20
2.0071700283
 30
0.0
 10
4.3835206866
 20
2.0071227453
 30
0.0
 10
4.3834846361
 20
2.0070922744
 30
0.0
 10
4.3834574003
 20
2.0070842503
 30
0.0
 10
4.3834452316
 20
2.0070842482
 30
0.0
  0
SPLINE
  5
2BA
100
AcDbEntity
  8
0
100
AcDbSpline
 62
7
  6
CONTINUOUS
 70
0
 71
3
 72
19
 73
15
 74
0
 42
0.0000001
 43
0.0000001
 44
0.0000000001
 40
0.0
 40
0.0
 40
0.0
 40
0.0
 40
0.2238122636
 40
0.4191026792
 40
0.5856211501
 40
0.7232495349
 40
0.7812665096
 40
0.8321294161
 40
0.8759077516
 40
0.9127266192
 40
0.9428180354
 40
0.9666209877
 40
0.9850394356
 40
1.0
 40
1.0
 40
1.0
 40
1.0
 10
4.245384216
 20
2.0094068948
 30
0.0
 10
4.2454079542
 20
2.0092264001
 30
0.0
 10
4.2454547044
 20
2.0088887062
 30
0.0
 10
4.2455289051
 20
2.008418135
 30
0.0
 10
4.2456024478
 20
2.0080185575
 30
0.0
 10
4.2456661118
 20
2.007730812
 30
0.0
 10
4.2457178976
 20
2.007537071
 30
0.0
 10
4.2457542645
 20
2.0074183088
 30
0.0
 10
4.2457903579
 20
2.0073175973
 30
0.0
 10
4.2458261628
 20
2.0072349025
 30
0.0
 10
4.2458616593
 20
2.0071700282
 30
0.0
 10
4.2458970873
 20
2.0071227451
 30
0.0
 10
4.245933139
 20
2.0070922743
 30
0.0
 10
4.2459603754
 20
2.0070842502
 30
0.0
 10
4.2459725444
 20
2.0070842482
 30
0.0
  0
SPLINE
  5
2BB
100
AcDbEntity
  8
0
100
AcDbSpline
 62
7
  6
CONTINUOUS
 70
0
 71
3
 72
21
 73
17
 74
0
 42
0.0000001
 43
0.0000001
 44
0.0000000001
 40
0.0
 40
0.0
 40
0.0
 40
0.0
 40
0.1132391838
 40
0.1729034172
 40
0.2343457044
 40
0.2973815113
 40
0.3617327474
 40
0.4271082301
 40
0.4931485882
 40
0.5594786234
 40
0.6257024054
 40
0.6914125967
 40
0.7562373014
 40
0.819801667
 40
0.8818119861
 40
1.0
 40
1.0
 40
1.0
 40
1.0
 10
4.2159637803
 20
2.1835261482
 30
0.0
 10
4.2159793795
 20
2.1818147284
 30
0.0
 10
4.2162540447
 20
2.1791953761
 30
0.0
 10
4.2171226272
 20
2.1757577106
 30
0.0
 10
4.2180661262
 20
2.173134134
 30
0.0
 10
4.2192981365
 20
2.1705546256
 30
0.0
 10
4.2208115707
 20
2.1680593656
 30
0.0
 10
4.2225971732
 20
2.1656938359
 30
0.0
 10
4.2246292808
 20
2.1634954478
 30
0.0
 10
4.2268812633
 20
2.1615035894
 30
0.0
 10
4.2293127971
 20
2.1597441302
 30
0.0
 10
4.2318850053
 20
2.1582424961
 30
0.0
 10
4.2345510073
 20
2.157008141
 30
0.0
 10
4.2372687637
 20
2.1560486869
 30
0.0
 10
4.2408431053
 20
2.1551416267
 30
0.0
 10
4.2435659862
 20
2.1548225819
 30
0.0
 10
4.2453514949
 20
2.1547698518
 30
0.0
  0
SPLINE
  5
2BC
100
AcDbEntity
  8
0
100
AcDbSpline
 62
7
  6
CONTINUOUS
 70
0
 71
3
 72
21
 73
17
 74
0
 42
0.0000001
 43
0.0000001
 44
0.0000000001
 40
0.0
 40
0.0
 40
0.0
 40
0.0
 40
0.1173135426
 40
0.2397864353
 40
0.302587798
 40
0.3661692945
 40
0.4303121085
 40
0.4948108682
 40
0.5594631067
 40
0.6240511787
 40
0.6883800705
 40
0.7522656692
 40
0.815518934
 40
0.8779898957
 40
0.939531191
 40
1.0
 40
1.0
 40
1.0
 40
1.0
 10
4.2453888103
 20
2.0094069541
 30
0.0
 10
4.2439636207
 20
2.0093647961
 30
0.0
 10
4.2410407296
 20
2.0094814561
 30
0.0
 10
4.237411569
 20
2.0101595451
 30
0.0
 10
4.2345179182
 20
2.0110487095
 30
0.0
 10
4.2323627847
 20
2.0119026703
 30
0.0
 10
4.2302640874
 20
2.0129348457
 30
0.0
 10
4.2282461725
 20
2.0141431132
 30
0.0
 10
4.2263316933
 20
2.015518679
 30
0.0
 10
4.2245409083
 20
2.0170488275
 30
0.0
 10
4.2228950187
 20
2.0187208225
 30
0.0
 10
4.221407562
 20
2.0205141337
 30
0.0
 10
4.2200929192
 20
2.0224103357
 30
0.0
 10
4.2189595677
 20
2.0243872717
 30
0.0
 10
4.2180110914
 20
2.026421746
 30
0.0
 10
4.217499311
 20
2.027815686
 30
0.0
 10
4.2172747139
 20
2.0285154559
 30
0.0
  0
SPLINE
  5
2BD
100
AcDbEntity
  8
0
100
AcDbSpline
 62
7
  6
CONTINUOUS
 70
0
 71
3
 72
25
 73
21
 74
0
 42
0.0000001
 43
0.0000001
 44
0.0000000001
 40
0.0
 40
0.0
 40
0.0
 40
0.0
 40
0.1728048207
 40
0.3479560658
 40
0.4336813846
 40
0.5165498655
 40
0.5953145001
 40
0.6688792464
 40
0.7362525915
 40
0.7966968603
 40
0.84961258
 40
0.8946757799
 40
0.9142059282
 40
0.9317714882
 40
0.9474322079
 40
0.9612544832
 40
0.973314871
 40
0.983705995
 40
0.9925467457
 40
1.0
 40
1.0
 40
1.0
 40
1.0
 10
4.2471797872
 20
2.2082306296
 30
0.0
 10
4.2454623296
 20
2.2082470888
 30
0.0
 10
4.2420035991
 20
2.2082392039
 30
0.0
 10
4.2376941009
 20
2.2081269575
 30
0.0
 10
4.2342813006
 20
2.2079646879
 30
0.0
 10
4.2318275227
 20
2.2078099901
 30
0.0
 10
4.2294972612
 20
2.2076223926
 30
0.0
 10
4.2273243082
 20
2.2074047182
 30
0.0
 10
4.225337642
 20
2.2071592564
 30
0.0
 10
4.2235612072
 20
2.2068906371
 30
0.0
 10
4.222012884
 20
2.206602455
 30
0.0
 10
4.2208742257
 20
2.2063399343
 30
0.0
 10
4.2200877063
 20
2.2061198563
 30
0.0
 10
4.2195879282
 20
2.2059607804
 30
0.0
 10
4.2191485083
 20
2.2058003622
 30
0.0
 10
4.2187681538
 20
2.2056391003
 30
0.0
 10
4.218445534
 20
2.2054775197
 30
0.0
 10
4.2181791975
 20
2.2053160042
 30
0.0
 10
4.2179677576
 20
2.2051549793
 30
0.0
 10
4.217853544
 20
2.205038821
 30
0.0
 10
4.2178074967
 20
2.2049807919
 30
0.0
  0
SPLINE
  5
2BE
100
AcDbEntity
  8
0
100
AcDbSpline
 62
7
  6
CONTINUOUS
 70
0
 71
3
 72
11
 73
7
 74
0
 42
0.0000001
 43
0.0000001
 44
0.0000000001
 40
0.0
 40
0.0
 40
0.0
 40
0.0
 40
0.270793116
 40
0.5280441247
 40
0.7709780181
 40
1.0
 40
1.0
 40
1.0
 40
1.0
 10
4.3587405149
 20
2.1492990148
 30
0.0
 10
4.3580768428
 20
2.1485043366
 30
0.0
 10
4.3566929282
 20
2.1470263949
 30
0.0
 10
4.3544136916
 20
2.145143229
 30
0.0
 10
4.3520257597
 20
2.1436849037
 30
0.0
 10
4.3503453041
 20
2.142999144
 30
0.0
 10
4.349507413
 20
2.1427447714
 30
0.0
  0
SPLINE
  5
2BF
100
AcDbEntity
  8
0
100
AcDbSpline
 62
7
  6
CONTINUOUS
 70
0
 71
3
 72
11
 73
7
 74
0
 42
0.0000001
 43
0.0000001
 44
0.0000000001
 40
0.0
 40
0.0
 40
0.0
 40
0.0
 40
0.260336067
 40
0.5120643878
 40
0.7576367022
 40
1.0
 40
1.0
 40
1.0
 40
1.0
 10
4.349507413
 20
2.1427447714
 30
0.0
 10
4.3489296226
 20
2.1425693619
 30
0.0
 10
4.3477692612
 20
2.1422967723
 30
0.0
 10
4.3460130233
 20
2.142138666
 30
0.0
 10
4.3442940732
 20
2.142241768
 30
0.0
 10
4.3431832273
 20
2.1424852661
 30
0.0
 10
4.3426453249
 20
2.1426485632
 30
0.0
  0
SPLINE
  5
2C0
100
AcDbEntity
  8
0
100
AcDbSpline
 62
7
  6
CONTINUOUS
 70
0
 71
3
 72
11
 73
7
 74
0
 42
0.0000001
 43
0.0000001
 44
0.0000000001
 40
0.0
 40
0.0
 40
0.0
 40
0.0
 40
0.2484300959
 40
0.4981627509
 40
0.7488327518
 40
1.0
 40
1.0
 40
1.0
 40
1.0
 10
4.3769790273
 20
2.1359315851
 30
0.0
 10
4.3760161381
 20
2.1353230213
 30
0.0
 10
4.3739945427
 20
2.1342402733
 30
0.0
 10
4.3707586566
 20
2.1330598491
 30
0.0
 10
4.3673772725
 20
2.1323411188
 30
0.0
 10
4.3650730805
 20
2.132180389
 30
0.0
 10
4.3639214494
 20
2.132180389
 30
0.0
  0
SPLINE
  5
2C1
100
AcDbEntity
  8
0
100
AcDbSpline
 62
7
  6
CONTINUOUS
 70
0
 71
3
 72
11
 73
7
 74
0
 42
0.0000001
 43
0.0000001
 44
0.0000000001
 40
0.0
 40
0.0
 40
0.0
 40
0.0
 40
0.2511672482
 40
0.5018372491
 40
0.7515699041
 40
1.0
 40
1.0
 40
1.0
 40
1.0
 10
4.3639214494
 20
2.132180389
 30
0.0
 10
4.3627698182
 20
2.132180389
 30
0.0
 10
4.3604656262
 20
2.1323411188
 30
0.0
 10
4.3570842421
 20
2.1330598491
 30
0.0
 10
4.353848356
 20
2.1342402733
 30
0.0
 10
4.3518267606
 20
2.1353230213
 30
0.0
 10
4.3508638714
 20
2.1359315851
 30
0.0
  0
SPLINE
  5
2C2
100
AcDbEntity
  8
0
100
AcDbSpline
 62
7
  6
CONTINUOUS
 70
0
 71
3
 72
11
 73
7
 74
0
 42
0.0000001
 43
0.0000001
 44
0.0000000001
 40
0.0
 40
0.0
 40
0.0
 40
0.0
 40
0.2290219819
 40
0.4719558753
 40
0.729206884
 40
1.0
 40
1.0
 40
1.0
 40
1.0
 10
4.349507413
 20
2.1216160066
 30
0.0
 10
4.3486695219
 20
2.1218703793
 30
0.0
 10
4.3469890663
 20
2.122556139
 30
0.0
 10
4.3446011344
 20
2.1240144642
 30
0.0
 10
4.3423218978
 20
2.1258976302
 30
0.0
 10
4.3409379832
 20
2.1273755719
 30
0.0
 10
4.3402743111
 20
2.1281702501
 30
0.0
  0
SPLINE
  5
2C3
100
AcDbEntity
  8
0
100
AcDbSpline
 62
7
  6
CONTINUOUS
 70
0
 71
3
 72
11
 73
7
 74
0
 42
0.0000001
 43
0.0000001
 44
0.0000000001
 40
0.0
 40
0.0
 40
0.0
 40
0.0
 40
0.2290219819
 40
0.4719558753
 40
0.729206884
 40
1.0
 40
1.0
 40
1.0
 40
1.0
 10
4.2799102889
 20
2.1216160066
 30
0.0
 10
4.28074818
 20
2.1218703793
 30
0.0
 10
4.2824286355
 20
2.122556139
 30
0.0
 10
4.2848165674
 20
2.1240144642
 30
0.0
 10
4.2870958041
 20
2.1258976302
 30
0.0
 10
4.2884797187
 20
2.1273755719
 30
0.0
 10
4.2891433908
 20
2.1281702501
 30
0.0
  0
SPLINE
  5
2C4
100
AcDbEntity
  8
0
100
AcDbSpline
 62
7
  6
CONTINUOUS
 70
0
 71
3
 72
11
 73
7
 74
0
 42
0.0000001
 43
0.0000001
 44
0.0000000001
 40
0.0
 40
0.0
 40
0.0
 40
0.0
 40
0.2484300959
 40
0.4981627509
 40
0.7488327518
 40
1.0
 40
1.0
 40
1.0
 40
1.0
 10
4.2524386746
 20
2.1359315851
 30
0.0
 10
4.2534015638
 20
2.1353230213
 30
0.0
 10
4.2554231592
 20
2.1342402733
 30
0.0
 10
4.2586590452
 20
2.1330598491
 30
0.0
 10
4.2620404294
 20
2.1323411188
 30
0.0
 10
4.2643446214
 20
2.132180389
 30
0.0
 10
4.2654962525
 20
2.132180389
 30
0.0
  0
SPLINE
  5
2C5
100
AcDbEntity
  8
0
100
AcDbSpline
 62
7
  6
CONTINUOUS
 70
0
 71
3
 72
11
 73
7
 74
0
 42
0.0000001
 43
0.0000001
 44
0.0000000001
 40
0.0
 40
0.0
 40
0.0
 40
0.0
 40
0.2511672482
 40
0.5018372491
 40
0.7515699041
 40
1.0
 40
1.0
 40
1.0
 40
1.0
 10
4.2654962525
 20
2.132180389
 30
0.0
 10
4.2666478837
 20
2.132180389
 30
0.0
 10
4.2689520757
 20
2.1323411188
 30
0.0
 10
4.2723334598
 20
2.1330598491
 30
0.0
 10
4.2755693458
 20
2.1342402733
 30
0.0
 10
4.2775909412
 20
2.1353230213
 30
0.0
 10
4.2785538304
 20
2.1359315851
 30
0.0
  0
SPLINE
  5
2C6
100
AcDbEntity
  8
0
100
AcDbSpline
 62
7
  6
CONTINUOUS
 70
0
 71
3
 72
11
 73
7
 74
0
 42
0.0000001
 43
0.0000001
 44
0.0000000001
 40
0.0
 40
0.0
 40
0.0
 40
0.0
 40
0.270793116
 40
0.5280441247
 40
0.7709780181
 40
1.0
 40
1.0
 40
1.0
 40
1.0
 10
4.270677187
 20
2.1492990148
 30
0.0
 10
4.271340859
 20
2.1485043366
 30
0.0
 10
4.2727247737
 20
2.1470263949
 30
0.0
 10
4.2750040103
 20
2.145143229
 30
0.0
 10
4.2773919422
 20
2.1436849037
 30
0.0
 10
4.2790723978
 20
2.142999144
 30
0.0
 10
4.2799102889
 20
2.1427447714
 30
0.0
  0
SPLINE
  5
2C7
100
AcDbEntity
  8
0
100
AcDbSpline
 62
7
  6
CONTINUOUS
 70
0
 71
3
 72
11
 73
7
 74
0
 42
0.0000001
 43
0.0000001
 44
0.0000000001
 40
0.0
 40
0.0
 40
0.0
 40
0.0
 40
0.260336067
 40
0.5120643878
 40
0.7576367022
 40
1.0
 40
1.0
 40
1.0
 40
1.0
 10
4.2799102889
 20
2.1427447714
 30
0.0
 10
4.2804880792
 20
2.1425693619
 30
0.0
 10
4.2816484406
 20
2.1422967723
 30
0.0
 10
4.2834046785
 20
2.142138666
 30
0.0
 10
4.2851236286
 20
2.142241768
 30
0.0
 10
4.2862344746
 20
2.1424852661
 30
0.0
 10
4.2867723769
 20
2.1426485632
 30
0.0
  0
SPLINE
  5
2C8
100
AcDbEntity
  8
0
100
AcDbSpline
 62
7
  6
CONTINUOUS
 70
0
 71
3
 72
32
 73
28
 74
0
 42
0.0000001
 43
0.0000001
 44
0.0000000001
 40
0.0
 40
0.0
 40
0.0
 40
0.0
 40
0.0975787045
 40
0.1939181931
 40
0.2877991818
 40
0.3780503283
 40
0.4635676558
 40
0.5433427585
 40
0.6164919174
 40
0.650354673
 40
0.6823077387
 40
0.7122951552
 40
0.7402812601
 40
0.7662519584
 40
0.7902227622
 40
0.8122440145
 40
0.8324128744
 40
0.8508846473
 40
0.8678889309
 40
0.8837419141
 40
0.8988501291
 40
0.9136922309
 40
0.9287760366
 40
0.9445827482
 40
0.9615231116
 40
0.9799176313
 40
1.0
 40
1.0
 40
1.0
 40
1.0
 10
4.3147088509
 20
2.034612142
 30
0.0
 10
4.3157851236
 20
2.034612142
 30
0.0
 10
4.3179242042
 20
2.0345738837
 30
0.0
 10
4.3210946052
 20
2.0344021855
 30
0.0
 10
4.3241759245
 20
2.034118756
 30
0.0
 10
4.3271251413
 20
2.0337276713
 30
0.0
 10
4.329901321
 20
2.0332345621
 30
0.0
 10
4.3324658714
 20
2.0326464785
 30
0.0
 10
4.3344456027
 20
2.0320705002
 30
0.0
 10
4.3358923877
 20
2.0315633955
 30
0.0
 10
4.3368753044
 20
2.0311746419
 30
0.0
 10
4.3377808359
 20
2.0307689874
 30
0.0
 10
4.3386059121
 20
2.0303478437
 30
0.0
 10
4.3393477436
 20
2.0299125864
 30
0.0
 10
4.3400038848
 20
2.0294646553
 30
0.0
 10
4.3405721658
 20
2.0290053709
 30
0.0
 10
4.3410507202
 20
2.0285360135
 30
0.0
 10
4.3414378116
 20
2.0280576682
 30
0.0
 10
4.3417317089
 20
2.0275713567
 30
0.0
 10
4.3419304133
 20
2.0270782353
 30
0.0
 10
4.3420317686
 20
2.0265801904
 30
0.0
 10
4.3420341822
 20
2.0260802369
 30
0.0
 10
4.3419375972
 20
2.0255820213
 30
0.0
 10
4.3417435781
 20
2.0250886085
 30
0.0
 10
4.3414542406
 20
2.024601932
 30
0.0
 10
4.3410716754
 20
2.0241232038
 30
0.0
 10
4.340769546
 20
2.0238238601
 30
0.0
 10
4.3406051633
 20
2.023675393
 30
0.0
  0
SPLINE
  5
2C9
100
AcDbEntity
  8
0
100
AcDbSpline
 62
7
  6
CONTINUOUS
 70
0
 71
3
 72
32
 73
28
 74
0
 42
0.0000001
 43
0.0000001
 44
0.0000000001
 40
0.0
 40
0.0
 40
0.0
 40
0.0
 40
0.0975786965
 40
0.1939181693
 40
0.287799149
 40
0.3780502899
 40
0.4635676213
 40
0.5433427326
 40
0.6164918977
 40
0.6503546547
 40
0.6823077226
 40
0.71229514
 40
0.7402812475
 40
0.766251947
 40
0.7902227533
 40
0.8122440065
 40
0.8324128685
 40
0.850884642
 40
0.867888927
 40
0.8837419106
 40
0.8988501264
 40
0.9136922286
 40
0.9287760346
 40
0.944582747
 40
0.9615231105
 40
0.9799176314
 40
1.0
 40
1.0
 40
1.0
 40
1.0
 10
4.3147088509
 20
2.034612142
 30
0.0
 10
4.3136325783
 20
2.034612142
 30
0.0
 10
4.311493498
 20
2.0345738837
 30
0.0
 10
4.3083230974
 20
2.0344021855
 30
0.0
 10
4.3052417784
 20
2.0341187561
 30
0.0
 10
4.3022925617
 20
2.0337276714
 30
0.0
 10
4.2995163819
 20
2.0332345623
 30
0.0
 10
4.2969518314
 20
2.0326464787
 30
0.0
 10
4.2949720999
 20
2.0320705005
 30
0.0
 10
4.2935253147
 20
2.0315633956
 30
0.0
 10
4.292542398
 20
2.0311746421
 30
0.0
 10
4.2916368664
 20
2.0307689876
 30
0.0
 10
4.2908117901
 20
2.0303478439
 30
0.0
 10
4.2900699586
 20
2.0299125865
 30
0.0
 10
4.2894138173
 20
2.0294646555
 30
0.0
 10
4.2888455362
 20
2.0290053711
 30
0.0
 10
4.2883669818
 20
2.0285360137
 30
0.0
 10
4.2879798904
 20
2.0280576683
 30
0.0
 10
4.2876859929
 20
2.0275713568
 30
0.0
 10
4.2874872886
 20
2.0270782354
 30
0.0
 10
4.2873859332
 20
2.0265801905
 30
0.0
 10
4.2873835197
 20
2.0260802369
 30
0.0
 10
4.2874801046
 20
2.0255820214
 30
0.0
 10
4.2876741237
 20
2.0250886086
 30
0.0
 10
4.2879634612
 20
2.024601932
 30
0.0
 10
4.2883460265
 20
2.0241232039
 30
0.0
 10
4.2886481559
 20
2.0238238601
 30
0.0
 10
4.2888125386
 20
2.023675393
 30
0.0
  0
SPLINE
  5
2CA
100
AcDbEntity
  8
0
100
AcDbSpline
 62
7
  6
CONTINUOUS
 70
0
 71
3
 72
46
 73
42
 74
0
 42
0.0000001
 43
0.0000001
 44
0.0000000001
 40
0.0
 40
0.0
 40
0.0
 40
0.0
 40
0.0893829918
 40
0.1333005052
 40
0.1761660937
 40
0.2176274475
 40
0.2573418847
 40
0.2949908456
 40
0.3302863357
 40
0.362975913
 40
0.392852865
 40
0.4197691823
 40
0.4436543899
 40
0.4544719126
 40
0.4645583383
 40
0.4739433344
 40
0.4826723053
 40
0.4984054963
 40
0.5056285489
 40
0.5125778661
 40
0.5194011457
 40
0.526255295
 40
0.5332950313
 40
0.5406614562
 40
0.5484753719
 40
0.556834533
 40
0.5754515297
 40
0.596919173
 40
0.6213982887
 40
0.6347784885
 40
0.6489075443
 40
0.6793484468
 40
0.7125655354
 40
0.7483425832
 40
0.8264862526
 40
0.8682461647
 40
0.9113471177
 40
0.9332982822
 40
0.9554340116
 40
0.9776802476
 40
1.0
 40
1.0
 40
1.0
 40
1.0
 10
4.3141722822
 20
2.0317159789
 30
0.0
 10
4.3156646568
 20
2.0317057036
 30
0.0
 10
4.3178908082
 20
2.0316540074
 30
0.0
 10
4.3208261623
 20
2.0314585337
 30
0.0
 10
4.3229573163
 20
2.0312466358
 30
0.0
 10
4.3250108109
 20
2.0309741828
 30
0.0
 10
4.3269674152
 20
2.0306428416
 30
0.0
 10
4.3288087569
 20
2.0302557828
 30
0.0
 10
4.3305177028
 20
2.0298168724
 30
0.0
 10
4.3320783774
 20
2.029330221
 30
0.0
 10
4.3334765676
 20
2.0288004622
 30
0.0
 10
4.334699512
 20
2.0282325347
 30
0.0
 10
4.3355915972
 20
2.0277157647
 30
0.0
 10
4.336202448
 20
2.0272835099
 30
0.0
 10
4.3365948573
 20
2.0269638341
 30
0.0
 10
4.3369360313
 20
2.0266383406
 30
0.0
 10
4.3373083495
 20
2.0262127552
 30
0.0
 10
4.3375959529
 20
2.0257613987
 30
0.0
 10
4.3377715663
 20
2.0252922791
 30
0.0
 10
4.3378443937
 20
2.0249479062
 30
0.0
 10
4.3378614065
 20
2.0246024384
 30
0.0
 10
4.3378225345
 20
2.0242572371
 30
0.0
 10
4.337728
 20
2.0239136764
 30
0.0
 10
4.3375785889
 20
2.0235728194
 30
0.0
 10
4.3373750571
 20
2.0232354467
 30
0.0
 10
4.3370196696
 20
2.0227746388
 30
0.0
 10
4.3364310305
 20
2.0222132851
 30
0.0
 10
4.3355492572
 20
2.0215888315
 30
0.0
 10
4.3346812313
 20
2.0211080394
 30
0.0
 10
4.3338967308
 20
2.0207361591
 30
0.0
 10
4.333006584
 20
2.020356274
 30
0.0
 10
4.3317854086
 20
2.0199111319
 30
0.0
 10
4.3301945812
 20
2.019433439
 30
0.0
 10
4.3278088079
 20
2.0188439477
 30
0.0
 10
4.3252465234
 20
2.0183879261
 30
0.0
 10
4.322546127
 20
2.0180468102
 30
0.0
 10
4.3207699898
 20
2.0178810913
 30
0.0
 10
4.3193174071
 20
2.0177842852
 30
0.0
 10
4.3182113964
 20
2.0177254434
 30
0.0
 10
4.3170987983
 20
2.017675663
 30
0.0
 10
4.3163551284
 20
2.0176493212
 30
0.0
 10
4.3159825931
 20
2.0176393618
 30
0.0
  0
SPLINE
  5
2CB
100
AcDbEntity
  8
0
100
AcDbSpline
 62
7
  6
CONTINUOUS
 70
0
 71
3
 72
45
 73
41
 74
0
 42
0.0000001
 43
0.0000001
 44
0.0000000001
 40
0.0
 40
0.0
 40
0.0
 40
0.0
 40
0.0892392253
 40
0.1751238774
 40
0.2158974397
 40
0.2547757238
 40
0.291456734
 40
0.3256703362
 40
0.3571857652
 40
0.3858220784
 40
0.41146363
 40
0.4340835642
 40
0.4537807175
 40
0.4626227037
 40
0.4708627275
 40
0.485844412
 40
0.4928461259
 40
0.499696274
 40
0.5065497511
 40
0.513561247
 40
0.528578969
 40
0.5368431623
 40
0.5457121798
 40
0.5654694041
 40
0.5881532172
 40
0.6138591492
 40
0.6425581008
 40
0.6741330023
 40
0.7084018257
 40
0.7451326244
 40
0.784054205
 40
0.8248638717
 40
0.8458730396
 40
0.8672280439
 40
0.8888900293
 40
0.910819229
 40
0.9329558449
 40
0.955226185
 40
0.9775741523
 40
1.0
 40
1.0
 40
1.0
 40
1.0
 10
4.3141291799
 20
2.01763662
 30
0.0
 10
4.3126506971
 20
2.0176599761
 30
0.0
 10
4.3097493251
 20
2.0177622338
 30
0.0
 10
4.3061859546
 20
2.01810916
 30
0.0
 10
4.3034727247
 20
2.0185147783
 30
0.0
 10
4.3015777811
 20
2.018870853
 30
0.0
 10
4.2998049602
 20
2.0192802554
 30
0.0
 10
4.2981705541
 20
2.0197391775
 30
0.0
 10
4.2966894823
 20
2.0202432979
 30
0.0
 10
4.2953750986
 20
2.0207878988
 30
0.0
 10
4.2942387853
 20
2.021368167
 30
0.0
 10
4.2932903388
 20
2.0219791653
 30
0.0
 10
4.292640463
 20
2.0225291954
 30
0.0
 10
4.2922322004
 20
2.0229830468
 30
0.0
 10
4.2919184385
 20
2.0234123672
 30
0.0
 10
4.2916929846
 20
2.0238674055
 30
0.0
 10
4.291581827
 20
2.0243338175
 30
0.0
 10
4.2915553272
 20
2.0246773581
 30
0.0
 10
4.2915841761
 20
2.0250208701
 30
0.0
 10
4.2916985736
 20
2.0254873305
 30
0.0
 10
4.291927102
 20
2.0259420748
 30
0.0
 10
4.2922437017
 20
2.0263710944
 30
0.0
 10
4.2926550121
 20
2.0268246661
 30
0.0
 10
4.293308522
 20
2.027374215
 30
0.0
 10
4.2942610475
 20
2.0279846043
 30
0.0
 10
4.2954012577
 20
2.0285641639
 30
0.0
 10
4.2967193122
 20
2.0291079533
 30
0.0
 10
4.2982037894
 20
2.0296111709
 30
0.0
 10
4.2998413131
 20
2.0300690516
 30
0.0
 10
4.3016169022
 20
2.0304773901
 30
0.0
 10
4.3035142131
 20
2.0308323449
 30
0.0
 10
4.3051657053
 20
2.0310776552
 30
0.0
 10
4.3065335369
 20
2.0312464696
 30
0.0
 10
4.307588461
 20
2.0313593342
 30
0.0
 10
4.3086603212
 20
2.0314558219
 30
0.0
 10
4.3097466511
 20
2.0315340419
 30
0.0
 10
4.3108440608
 20
2.0315967211
 30
0.0
 10
4.3119489653
 20
2.0316485648
 30
0.0
 10
4.3130590174
 20
2.0316923842
 30
0.0
 10
4.31380073
 20
2.0317107061
 30
0.0
 10
4.3141722822
 20
2.0317159789
 30
0.0
  0
SPLINE
  5
2CC
100
AcDbEntity
  8
0
100
AcDbSpline
 62
7
  6
CONTINUOUS
 70
0
 71
3
 72
14
 73
10
 74
0
 42
0.0000001
 43
0.0000001
 44
0.0000000001
 40
0.0
 40
0.0
 40
0.0
 40
0.0
 40
0.3175767387
 40
0.4565421578
 40
0.5831240398
 40
0.6985799166
 40
0.8047695287
 40
0.9042046249
 40
1.0
 40
1.0
 40
1.0
 40
1.0
 10
4.3753739767
 20
2.1340274488
 30
0.0
 10
4.3756149735
 20
2.1341610406
 30
0.0
 10
4.3759519774
 20
2.1343731064
 30
0.0
 10
4.376340267
 20
2.134698552
 30
0.0
 10
4.3765702542
 20
2.1349370672
 30
0.0
 10
4.3767511433
 20
2.1351802888
 30
0.0
 10
4.3768818793
 20
2.1354277803
 30
0.0
 10
4.3769611263
 20
2.1356786016
 30
0.0
 10
4.3769790273
 20
2.1358484677
 30
0.0
 10
4.3769790273
 20
2.1359315851
 30
0.0
  0
LINE
  5
2CD
100
AcDbEntity
  8
0
100
AcDbLine
 62
7
  6
CONTINUOUS
 10
5.6862548025
 20
6.4959506315
 11
5.6861388357
 21
6.4961989397
  0
SPLINE
  5
2CE
100
AcDbEntity
  8
0
100
AcDbSpline
 62
7
  6
CONTINUOUS
 70
0
 71
3
 72
24
 73
20
 74
0
 42
0.0000001
 43
0.0000001
 44
0.0000000001
 40
0.0
 40
0.0
 40
0.0
 40
0.0
 40
0.1718206316
 40
0.25582821
 40
0.3376871409
 40
0.4167543924
 40
0.4924226674
 40
0.5641333368
 40
0.6314009356
 40
0.6938383675
 40
0.7511851012
 40
0.8033424749
 40
0.8504160984
 40
0.8927671914
 40
0.9310649501
 40
0.9490222588
 40
0.9663791365
 40
0.9833107514
 40
1.0
 40
1.0
 40
1.0
 40
1.0
 10
4.2476795944
 20
2.2576405822
 30
0.0
 10
4.2459072378
 20
2.2579651281
 30
0.0
 10
4.2432530491
 20
2.2583710051
 30
0.0
 10
4.2397303804
 20
2.2587374908
 30
0.0
 10
4.2371674685
 20
2.258915884
 30
0.0
 10
4.2346870617
 20
2.2589962009
 30
0.0
 10
4.2323117339
 20
2.2589753669
 30
0.0
 10
4.2300633149
 20
2.2588511536
 30
0.0
 10
4.2279624028
 20
2.2586223109
 30
0.0
 10
4.2260279225
 20
2.2582886778
 30
0.0
 10
4.2242766763
 20
2.2578511897
 30
0.0
 10
4.2227230319
 20
2.2573118507
 30
0.0
 10
4.2213785844
 20
2.2566732479
 30
0.0
 10
4.2202529077
 20
2.2559388207
 30
0.0
 10
4.2194874148
 20
2.255234032
 30
0.0
 10
4.219004547
 20
2.2546301433
 30
0.0
 10
4.2187092114
 20
2.2541673296
 30
0.0
 10
4.2184734977
 20
2.2536862858
 30
0.0
 10
4.2183556805
 20
2.2533529808
 30
0.0
 10
4.2183071236
 20
2.2531848369
 30
0.0
  0
SPLINE
  5
2CF
100
AcDbEntity
  8
0
100
AcDbSpline
 62
7
  6
CONTINUOUS
 70
0
 71
3
 72
31
 73
27
 74
0
 42
0.0000001
 43
0.0000001
 44
0.0000000001
 40
0.0
 40
0.0
 40
0.0
 40
0.0
 40
0.0310648827
 40
0.0621375997
 40
0.093219211
 40
0.1243107225
 40
0.1865131938
 40
0.2487654295
 40
0.279918772
 40
0.3110863354
 40
0.3422685063
 40
0.3734655727
 40
0.4358912745
 40
0.4983774088
 40
0.5609224616
 40
0.6235232705
 40
0.6548499702
 40
0.6861887161
 40
0.7175386941
 40
0.7488990232
 40
0.8116332604
 40
0.8743966784
 40
0.9057929973
 40
0.9371928945
 40
0.968597068
 40
1.0
 40
1.0
 40
1.0
 40
1.0
 10
3.9934954141
 20
2.5648848236
 30
0.0
 10
3.9945381248
 20
2.5604435073
 30
0.0
 10
3.9968124588
 20
2.5516028195
 30
0.0
 10
4.0007830331
 20
2.5384974207
 30
0.0
 10
4.0053064509
 20
2.5255677713
 30
0.0
 10
4.0120638
 20
2.5085934712
 30
0.0
 10
4.0218538861
 20
2.4879226661
 30
0.0
 10
4.0333583527
 20
2.4681442838
 30
0.0
 10
4.0435400631
 20
2.4529396094
 30
0.0
 10
4.0516565781
 20
2.4418584567
 30
0.0
 10
4.0602362974
 20
2.431123705
 30
0.0
 10
4.0722738847
 20
2.4172965733
 30
0.0
 10
4.0884070114
 20
2.4009671113
 30
0.0
 10
4.1093516754
 20
2.3830527882
 30
0.0
 10
4.1317412293
 20
2.3669368265
 30
0.0
 10
4.1514715411
 20
2.3551010593
 30
0.0
 10
4.1678113593
 20
2.346640007
 30
0.0
 10
4.1803294238
 20
2.3408056995
 30
0.0
 10
4.1930840283
 20
2.3354956358
 30
0.0
 10
4.2103752539
 20
2.3291269751
 30
0.0
 10
4.2324725661
 20
2.3225201037
 30
0.0
 10
4.2550471593
 20
2.3177691628
 30
0.0
 10
4.2732967221
 20
2.3151006743
 30
0.0
 10
4.287060501
 20
2.3136681565
 30
0.0
 10
4.3008723535
 20
2.3128077807
 30
0.0
 10
4.3100971304
 20
2.3126163944
 30
0.0
 10
4.3147088509
 20
2.3126163944
 30
0.0
  0
SPLINE
  5
2D0
100
AcDbEntity
  8
0
100
AcDbSpline
 62
7
  6
CONTINUOUS
 70
0
 71
3
 72
15
 73
11
 74
0
 42
0.0000001
 43
0.0000001
 44
0.0000000001
 40
0.0
 40
0.0
 40
0.0
 40
0.0
 40
0.146182921
 40
0.2861273449
 40
0.4199041038
 40
0.5476026617
 40
0.6693293322
 40
0.78520452
 40
0.8953716288
 40
1.0
 40
1.0
 40
1.0
 40
1.0
 10
4.2182997512
 20
2.2531871048
 30
0.0
 10
4.217085265
 20
2.2490001692
 30
0.0
 10
4.2148052504
 20
2.240776317
 30
0.0
 10
4.2117810686
 20
2.2286228384
 30
0.0
 10
4.2092303276
 20
2.216924537
 30
0.0
 10
4.2071545578
 20
2.2056844635
 30
0.0
 10
4.2055551987
 20
2.1949058884
 30
0.0
 10
4.2044328318
 20
2.1845925406
 30
0.0
 10
4.203788031
 20
2.1747491421
 30
0.0
 10
4.2036734883
 20
2.168341243
 30
0.0
 10
4.2037020746
 20
2.1652211095
 30
0.0
  0
SPLINE
  5
2D1
100
AcDbEntity
  8
0
100
AcDbSpline
 62
7
  6
CONTINUOUS
 70
0
 71
3
 72
23
 73
19
 74
0
 42
0.0000001
 43
0.0000001
 44
0.0000000001
 40
0.0
 40
0.0
 40
0.0
 40
0.0
 40
0.0719555646
 40
0.1363141101
 40
0.1934769823
 40
0.2442474933
 40
0.2899598588
 40
0.3325764007
 40
0.3745814076
 40
0.4185780435
 40
0.4668000945
 40
0.5208726871
 40
0.5818253718
 40
0.650231672
 40
0.7263250274
 40
0.8101221741
 40
0.9014744922
 40
1.0
 40
1.0
 40
1.0
 40
1.0
 10
4.3609599508
 20
2.1445918294
 30
0.0
 10
4.3611194469
 20
2.1446802425
 30
0.0
 10
4.3614154837
 20
2.1448593321
 30
0.0
 10
4.3618087283
 20
2.1451538454
 30
0.0
 10
4.3621240123
 20
2.1454579934
 30
0.0
 10
4.3623592205
 20
2.1457709021
 30
0.0
 10
4.3625116242
 20
2.1460920417
 30
0.0
 10
4.3625772384
 20
2.1464196149
 30
0.0
 10
4.3625530945
 20
2.1467486664
 30
0.0
 10
4.3624403416
 20
2.1470731709
 30
0.0
 10
4.3622431257
 20
2.1473900011
 30
0.0
 10
4.3619646541
 20
2.1476982615
 30
0.0
 10
4.3616072746
 20
2.1479973923
 30
0.0
 10
4.3611730812
 20
2.1482862792
 30
0.0
 10
4.3606645748
 20
2.1485635495
 30
0.0
 10
4.3600846704
 20
2.1488276166
 30
0.0
 10
4.3594370068
 20
2.1490767628
 30
0.0
 10
4.3589794469
 20
2.1492264782
 30
0.0
 10
4.3587405149
 20
2.1492990148
 30
0.0
  0
ENDSEC
  0
SECTION
  2
OBJECTS
  0
DICTIONARY
  5
C
100
AcDbDictionary
280
0
281
1
  3
ACAD_GROUP
350
D
  3
ACAD_MLINESTYLE
350
17
  3
ACAD_LAYOUT
350
1A
  3
ACAD_PLOTSETTINGS
350
19
  3
ACAD_PLOTSTYLENAME
350
E
  0
DICTIONARY
  5
D
102
{ACAD_REACTORS
330
C
102
}
100
AcDbDictionary
280
0
281
1
  0
ACDBDICTIONARYWDFLT
  5
E
102
{ACAD_REACTORS
330
C
102
}
100
AcDbDictionary
281
1
  3
Normal
350
F
100
AcDbDictionaryWithDefault
340
F
  0
DICTIONARY
  5
17
102
{ACAD_REACTORS
330
C
102
}
100
AcDbDictionary
280
0
281
1
  3
Standard
350
18
  0
DICTIONARY
  5
19
102
{ACAD_REACTORS
330
C
102
}
100
AcDbDictionary
281
1
  0
DICTIONARY
  5
1A
102
{ACAD_REACTORS
330
C
102
}
100
AcDbDictionary
281
1
  3
Model
350
2D2
  3
Layout1
350
2D3
  0
ACDBPLACEHOLDER
  5
F
102
{ACAD_REACTORS
330
E
102
}
  0
MLINESTYLE
  5
18
102
{ACAD_REACTORS
330
17
102
}
100
AcDbMlineStyle
  2
STANDARD
 70
0
  3

 62
256
 51
90.0
 52
90.0
 71
2
 49
0.5
 62
256
  6
BYLAYER
 49
-0.5
 62
256
  6
BYLAYER
  0
LAYOUT
  5
2D2
102
{ACAD_REACTORS
330
1A
102
}
100
AcDbPlotSettings
  1

  2
none_device
  4
ANSI_A_(11.00_x_8.50_Inches)
  6

 40
0.0
 41
0.0
 42
0.0
 43
0.0
 44
279.4
 45
215.9
 46
0.0
 47
0.0
 48
0.0
 49
0.0
140
0.0
141
0.0
142
1.0
143
1.0
 70
1024
 72
0
 73
0
 74
0
  7

 75
0
147
1.0
148
0.0
149
0.0
100
AcDbLayout
  1
Model
 70
0
 71
0
 10
0.0
 20
0.0
 11
11.0
 21
8.5
 12
0.0
 22
0.0
 32
0.0
 14
0.0
 24
0.0
 34
0.0
 15
0.0
 25
0.0
 35
0.0
146
0.0
 13
0.0
 23
0.0
 33
0.0
 16
1.0
 26
0.0
 36
0.0
 17
0.0
 27
1.0
 37
0.0
 76
0
330
202
345
0
346
0
  0
LAYOUT
  5
2D3
102
{ACAD_REACTORS
330
1A
102
}
100
AcDbPlotSettings
  1

  2
none_device
  4
ANSI_A_(11.00_x_8.50_Inches)
  6

 40
0.0
 41
0.0
 42
0.0
 43
0.0
 44
279.4
 45
215.9
 46
0.0
 47
0.0
 48
0.0
 49
0.0
140
0.0
141
0.0
142
1.0
143
1.0
 70
0
 72
0
 73
0
 74
0
  7

 75
0
147
1.0
148
0.0
149
0.0
100
AcDbLayout
  1
Layout1
 70
0
 71
1
 10
0.0
 20
0.0
 11
11.0
 21
8.5
 12
0.0
 22
0.0
 32
0.0
 14
0.0
 24
0.0
 34
0.0
 15
0.0
 25
0.0
 35
0.0
146
0.0
 13
0.0
 23
0.0
 33
0.0
 16
1.0
 26
0.0
 36
0.0
 17
0.0
 27
1.0
 37
0.0
 76
0
330
203
345
0
346
0
  0
ENDSEC
  0
EOF
