999
DXF file: E:\BT Custom\CADOUTPUT\_TOP.dxf
999
Pro/ENGINEER 2018400 by Parametric Technology Corporation
  0
SECTION
  2
HEADER
  9
$ACADVER
  1
AC1018
  9
$DWGCODEPAGE
  3
ANSI_1252
  9
$EXTMAX
 10
22.0
 20
17.0
 30
0.0
  9
$EXTMIN
 10
0.0
 20
0.0
 30
0.0
  9
$LIMMIN
 10
0.0
 20
0.0
  9
$LIMMAX
 10
22.0
 20
17.0
  9
$VIEWCTR
 10
11.0
 20
8.5
  9
$VIEWSIZE
 40
17.0
  9
$CLAYER
  8
0
  9
$LTSCALE
 40
1.21
  9
$CELTYPE
  6
BYLAYER
  9
$DIMSCALE
 40
1.0
  9
$DIMASZ
 40
0.1
  9
$DIMEXO
 40
0.0625
  9
$DIMDLI
 40
0.836
  9
$DIMEXE
 40
0.125
  9
$DIMCEN
 40
0.198
  9
$DIMLFAC
 40
1.0
  9
$DIMBLK
  1
_FILLED
  9
$DIMALT
 70
1
  9
$DIMALTD
 70
2
  9
$DIMALTTD
 70
2
  9
$DIMALTF
 40
25.4
  9
$DIMTXT
 40
0.08
  9
$DIMTOL
 70
1
  9
$DIMLIM
 70
0
  9
$DIMTFAC
 40
1.0
  9
$DIMTP
 40
0.001
  9
$DIMTM
 40
0.001
  9
$DIMGAP
 40
0.09
  9
$DIMDSEP
 70
46
  9
$AUNITS
 70
0
  9
$PDMODE
 70
3
  9
$PDSIZE
 40
0.06
  9
$HANDSEED
  5
27E
  9
$TILEMODE
 70
1
  9
$MEASUREMENT
 70
0
  9
$INSUNITS
 70
1
  0
ENDSEC
  0
SECTION
  2
CLASSES
  0
CLASS
  1
ACDBDICTIONARYWDFLT
  2
AcDbDictionaryWithDefault
  3
AutoCAD 2000
 90
0
 91
1
280
0
281
0
  0
CLASS
  1
ACDBPLACEHOLDER
  2
AcDbPlaceHolder
  3
AutoCAD 2000
 90
0
 91
1
280
0
281
0
  0
CLASS
  1
LAYOUT
  2
AcDbLayout
  3
AutoCAD 2000
 90
0
 91
0
280
0
281
0
  0
ENDSEC
  0
SECTION
  2
TABLES
  0
TABLE
  2
VPORT
  5
8
100
AcDbSymbolTable
 70
2
  0
VPORT
  5
1F4
100
AcDbSymbolTableRecord
100
AcDbViewportTableRecord
  2
*ACTIVE
 70
0
 10
0.0
 20
0.0
 11
1.0
 21
1.0
 12
11.0
 22
8.5
 13
0.0
 23
0.0
 14
1.0
 24
1.0
 15
0.0
 25
0.0
 16
0.0
 26
0.0
 36
1.0
 17
0.0
 27
0.0
 37
0.0
 40
17.0
 41
1.2941176471
 42
50.0
 43
0.0
 44
0.0
 50
0.0
 51
0.0
 71
0
 72
100
 73
1
 74
1
 75
0
 76
0
 77
0
 78
0
  0
ENDTAB
  0
TABLE
  2
LTYPE
  5
5
100
AcDbSymbolTable
 70
6
  0
LTYPE
  5
14
100
AcDbSymbolTableRecord
100
AcDbLinetypeTableRecord
  2
BYBLOCK
 70
0
  3

 72
65
 73
0
 40
0.0
  0
LTYPE
  5
15
100
AcDbSymbolTableRecord
100
AcDbLinetypeTableRecord
  2
BYLAYER
 70
0
  3

 72
65
 73
0
 40
0.0
  0
LTYPE
  5
16
100
AcDbSymbolTableRecord
100
AcDbLinetypeTableRecord
  2
CONTINUOUS
 70
64
  3
Solid line
 72
65
 73
0
 40
0.0
  0
LTYPE
  5
1F5
100
AcDbSymbolTableRecord
100
AcDbLinetypeTableRecord
  2
CENTER
 70
64
  3
____ _ ____ _ ____ _ ____ _ ____ _ ____ _ ____
 72
65
 73
4
 40
0.6
 49
0.375
 74
0
 49
-0.075
 74
0
 49
0.075
 74
0
 49
-0.075
 74
0
  0
LTYPE
  5
1F6
100
AcDbSymbolTableRecord
100
AcDbLinetypeTableRecord
  2
HIDDEN
 70
64
  3
- - - - - - - - - - - - - - - - - - - -
 72
65
 73
2
 40
0.2
 49
0.1
 74
0
 49
-0.1
 74
0
  0
LTYPE
  5
1F7
100
AcDbSymbolTableRecord
100
AcDbLinetypeTableRecord
  2
PHANTOM
 70
64
  3
_____ _ _ _____ _ _ _____ _ _ _____
 72
65
 73
6
 40
0.8
 49
0.45
 74
0
 49
-0.05
 74
0
 49
0.1
 74
0
 49
-0.05
 74
0
 49
0.1
 74
0
 49
-0.05
 74
0
  0
LTYPE
  5
1F8
100
AcDbSymbolTableRecord
100
AcDbLinetypeTableRecord
  2
DOT
 70
64
  3
. . . . . . . . . . . . . . . . . . . .
 72
65
 73
2
 40
0.2
 49
0.1
 74
0
 49
-0.1
 74
0
  0
LTYPE
  5
1F9
100
AcDbSymbolTableRecord
100
AcDbLinetypeTableRecord
  2
DASHED
 70
64
  3
- - - - - - - - - - - - - - - - - - - -
 72
65
 73
2
 40
0.2
 49
0.1
 74
0
 49
-0.1
 74
0
  0
ENDTAB
  0
TABLE
  2
LAYER
  5
2
100
AcDbSymbolTable
 70
36
  0
LAYER
  5
10
100
AcDbSymbolTableRecord
100
AcDbLayerTableRecord
  2
0
 70
0
 62
7
  6
CONTINUOUS
370
-3
390
F
  0
LAYER
  5
1FA
100
AcDbSymbolTableRecord
100
AcDbLayerTableRecord
  2
DEFAULT_1
 70
0
 62
7
  6
CENTER
370
-3
390
F
  0
LAYER
  5
1FB
100
AcDbSymbolTableRecord
100
AcDbLayerTableRecord
  2
DEFAULT_2
 70
0
 62
8
  6
HIDDEN
370
-3
390
F
  0
LAYER
  5
1FC
100
AcDbSymbolTableRecord
100
AcDbLayerTableRecord
  2
DEFAULT_3
 70
0
 62
7
  6
PHANTOM
370
-3
390
F
  0
LAYER
  5
1FD
100
AcDbSymbolTableRecord
100
AcDbLayerTableRecord
  2
ALL_FEATURES
 70
0
 62
7
  6
CONTINUOUS
370
-3
390
F
  0
LAYER
  5
1FE
100
AcDbSymbolTableRecord
100
AcDbLayerTableRecord
  2
AXES_FEATURES
 70
0
 62
7
  6
CONTINUOUS
370
-3
390
F
  0
LAYER
  5
1FF
100
AcDbSymbolTableRecord
100
AcDbLayerTableRecord
  2
DEFAULT_COORDINATE_SYSTEM
 70
0
 62
7
  6
CONTINUOUS
370
-3
390
F
  0
LAYER
  5
200
100
AcDbSymbolTableRecord
100
AcDbLayerTableRecord
  2
DEFAULT_DATUM_AXES
 70
0
 62
7
  6
CONTINUOUS
370
-3
390
F
  0
LAYER
  5
201
100
AcDbSymbolTableRecord
100
AcDbLayerTableRecord
  2
DEFAULT_DATUM_PLANES
 70
0
 62
7
  6
CONTINUOUS
370
-3
390
F
  0
LAYER
  5
202
100
AcDbSymbolTableRecord
100
AcDbLayerTableRecord
  2
DIMENSIONS
 70
0
 62
7
  6
CONTINUOUS
370
-3
390
F
  0
ENDTAB
  0
TABLE
  2
STYLE
  5
3
100
AcDbSymbolTable
 70
1
  0
STYLE
  5
11
100
AcDbSymbolTableRecord
100
AcDbTextStyleTableRecord
  2
STANDARD
 70
0
 40
0.0
 41
0.8
 50
0.0
 71
0
 42
0.2
  3
txt
  4

  0
STYLE
  5
203
100
AcDbSymbolTableRecord
100
AcDbTextStyleTableRecord
  2
TEXTSTYLE_1
 70
0
 40
0.0
 41
0.8
 50
0.0
 71
0
 42
0.2
  3
gdt
  4

  0
ENDTAB
  0
TABLE
  2
VIEW
  5
6
100
AcDbSymbolTable
 70
0
  0
ENDTAB
  0
TABLE
  2
UCS
  5
7
100
AcDbSymbolTable
 70
0
  0
ENDTAB
  0
TABLE
  2
APPID
  5
9
100
AcDbSymbolTable
 70
1
  0
APPID
  5
204
100
AcDbSymbolTableRecord
100
AcDbRegAppTableRecord
  2
ACAD
 70
0
  0
ENDTAB
  0
TABLE
  2
BLOCK_RECORD
  5
1
100
AcDbSymbolTable
 70
0
  0
BLOCK_RECORD
  5
205
100
AcDbSymbolTableRecord
100
AcDbBlockTableRecord
  2
*Model_Space
  0
BLOCK_RECORD
  5
206
100
AcDbSymbolTableRecord
100
AcDbBlockTableRecord
  2
*Paper_Space
  0
BLOCK_RECORD
  5
207
100
AcDbSymbolTableRecord
100
AcDbBlockTableRecord
  2
_FILLED
  0
ENDTAB
  0
TABLE
  2
DIMSTYLE
  5
A
100
AcDbSymbolTable
 70
1
100
AcDbDimStyleTable
 71
0
  0
DIMSTYLE
105
208
100
AcDbSymbolTableRecord
100
AcDbDimStyleTableRecord
  2
STANDARD
 70
0
  3

  4

 40
1.0
 41
0.1
 42
0.0625
 43
0.38
 44
0.125
 45
0.0
 46
0.0
 47
0.001
 48
0.001
140
0.08
141
0.09
142
0.0
143
25.4
144
1.0
145
0.0
146
1.0
147
0.09
 71
1.0
 72
0.0
 73
1
 74
1
 75
0
 76
0
 77
0
 78
4
 79
1
170
1
171
2
172
0
173
0
174
0
175
0
176
0
177
0
178
0
270
2
179
3
271
3
272
3
273
2
274
2
275
0
280
0
281
0
282
0
283
1
284
4
285
0
286
0
287
3
288
0
340
11
278
46
341
207
342
207
343
207
344
207
  0
ENDTAB
  0
ENDSEC
  0
SECTION
  2
BLOCKS
  0
BLOCK
  5
20
100
AcDbEntity
  8
0
100
AcDbBlockBegin
  2
*Model_Space
 70
0
 10
0.0
 20
0.0
 30
0.0
  3
*Model_Space
  1

  0
ENDBLK
  5
21
100
AcDbEntity
  8
0
100
AcDbBlockEnd
  0
BLOCK
  5
1C
100
AcDbEntity
  8
0
100
AcDbBlockBegin
  2
*Paper_Space
 70
0
 10
0.0
 20
0.0
 30
0.0
  3
*Paper_Space
  1

  0
ENDBLK
  5
1D
100
AcDbEntity
  8
0
100
AcDbBlockEnd
  0
BLOCK
  5
209
100
AcDbEntity
  8
0
100
AcDbBlockBegin
  2
_FILLED
 70
64
 10
0.0
 20
0.0
  3
_FILLED
  1

  0
SOLID
  5
20A
100
AcDbEntity
  8
0
  6
BYBLOCK
 62
0
100
AcDbTrace
 10
0.0
 20
0.0
 11
-1.0
 21
0.2
 12
-1.0
 22
-0.2
 13
-1.0
 23
-0.2
  0
ENDBLK
  5
20B
100
AcDbEntity
  8
0
  6
BYBLOCK
 62
0
100
AcDbBlockEnd
  0
ENDSEC
  0
SECTION
  2
ENTITIES
  0
LINE
  5
20C
100
AcDbEntity
  8
0
100
AcDbLine
 62
7
  6
CONTINUOUS
 10
9.1839783266
 20
9.1732168922
 11
9.1839783266
 21
9.7732168922
  0
LINE
  5
20D
100
AcDbEntity
  8
0
100
AcDbLine
 62
7
  6
CONTINUOUS
 10
9.4222784467
 20
9.1732168922
 11
9.4222784467
 21
9.7732168922
  0
LINE
  5
20E
100
AcDbEntity
  8
0
100
AcDbLine
 62
7
  6
CONTINUOUS
 10
9.4422784467
 20
9.1732168922
 11
9.4422784467
 21
9.7732168922
  0
LINE
  5
20F
100
AcDbEntity
  8
0
100
AcDbLine
 62
9
  6
CONTINUOUS
 10
9.8198725707
 20
9.0011458613
 11
9.8198725707
 21
9.9452879232
  0
LINE
  5
210
100
AcDbEntity
  8
0
100
AcDbLine
 62
9
  6
CONTINUOUS
 10
9.9444732864
 20
8.9898835589
 11
9.9444732864
 21
9.9565502256
  0
LINE
  5
211
100
AcDbEntity
  8
0
100
AcDbLine
 62
9
  6
CONTINUOUS
 10
10.0149927721
 20
8.973931178
 11
10.0149927721
 21
9.9725026065
  0
LINE
  5
212
100
AcDbEntity
  8
0
100
AcDbLine
 62
9
  6
CONTINUOUS
 10
10.229397501
 20
8.973931178
 11
10.229397501
 21
9.9725026065
  0
LINE
  5
213
100
AcDbEntity
  8
0
100
AcDbLine
 62
9
  6
CONTINUOUS
 10
10.2722784467
 20
8.9982168922
 11
10.2722784467
 21
9.9482168922
  0
LINE
  5
214
100
AcDbEntity
  8
0
100
AcDbLine
 62
7
  6
CONTINUOUS
 10
10.7348183383
 20
4.7976523438
 11
10.7348183383
 21
4.8181913736
  0
LINE
  5
215
100
AcDbEntity
  8
0
100
AcDbLine
 62
7
  6
CONTINUOUS
 10
10.7973183383
 20
9.4732168922
 11
10.7973183383
 21
4.852393388
  0
LINE
  5
216
100
AcDbEntity
  8
0
100
AcDbLine
 62
7
  6
CONTINUOUS
 10
11.3262020071
 20
4.9075790265
 11
11.333541051
 21
4.8748292658
  0
LINE
  5
217
100
AcDbEntity
  8
0
100
AcDbLine
 62
7
  6
CONTINUOUS
 10
11.2973183383
 20
9.4732168922
 11
11.2973183383
 21
4.852393388
  0
LINE
  5
218
100
AcDbEntity
  8
0
100
AcDbLine
 62
7
  6
CONTINUOUS
 10
10.7684346695
 20
4.9075790265
 11
10.7610956256
 21
4.8748292658
  0
LINE
  5
219
100
AcDbEntity
  8
0
100
AcDbLine
 62
7
  6
CONTINUOUS
 10
11.3598183383
 20
4.7976523438
 11
11.3598183383
 21
4.8181913736
  0
LINE
  5
21A
100
AcDbEntity
  8
0
100
AcDbLine
 62
9
  6
CONTINUOUS
 10
11.8223582298
 20
8.9982168922
 11
11.8223582298
 21
9.9482168922
  0
LINE
  5
21B
100
AcDbEntity
  8
0
100
AcDbLine
 62
9
  6
CONTINUOUS
 10
11.8652391756
 20
8.973931178
 11
11.8652391756
 21
9.9725026065
  0
LINE
  5
21C
100
AcDbEntity
  8
0
100
AcDbLine
 62
9
  6
CONTINUOUS
 10
12.0796439045
 20
8.973931178
 11
12.0796439045
 21
9.9725026065
  0
LINE
  5
21D
100
AcDbEntity
  8
0
100
AcDbLine
 62
9
  6
CONTINUOUS
 10
12.1501633901
 20
8.9898835589
 11
12.1501633901
 21
9.9565502256
  0
LINE
  5
21E
100
AcDbEntity
  8
0
100
AcDbLine
 62
9
  6
CONTINUOUS
 10
12.2747641059
 20
9.0011458613
 11
12.2747641059
 21
9.9452879232
  0
LINE
  5
21F
100
AcDbEntity
  8
0
100
AcDbLine
 62
7
  6
CONTINUOUS
 10
12.6523582298
 20
9.1732168922
 11
12.6523582298
 21
9.7732168922
  0
LINE
  5
220
100
AcDbEntity
  8
0
100
AcDbLine
 62
7
  6
CONTINUOUS
 10
12.6723582298
 20
9.1732168922
 11
12.6723582298
 21
9.7732168922
  0
LINE
  5
221
100
AcDbEntity
  8
0
100
AcDbLine
 62
7
  6
CONTINUOUS
 10
11.8223582298
 20
8.9982168922
 11
11.692163284
 21
8.9982168922
  0
LINE
  5
222
100
AcDbEntity
  8
0
100
AcDbLine
 62
7
  6
CONTINUOUS
 10
10.2722784467
 20
8.9982168922
 11
10.402473392
 21
8.9982168922
  0
LINE
  5
223
100
AcDbEntity
  8
0
100
AcDbLine
 62
7
  6
CONTINUOUS
 10
12.9106583499
 20
9.1732168922
 11
12.9106583499
 21
9.7732168922
  0
LINE
  5
224
100
AcDbEntity
  8
0
100
AcDbLine
 62
7
  6
CONTINUOUS
 10
12.9106583499
 20
9.1732168922
 11
12.6723582298
 21
9.1732168922
  0
LINE
  5
225
100
AcDbEntity
  8
0
100
AcDbLine
 62
7
  6
CONTINUOUS
 10
9.1839783266
 20
9.1732168922
 11
9.4222784467
 21
9.1732168922
  0
LINE
  5
226
100
AcDbEntity
  8
0
100
AcDbLine
 62
7
  6
CONTINUOUS
 10
12.6723582298
 20
9.3232168922
 11
12.6523582298
 21
9.3232168922
  0
LINE
  5
227
100
AcDbEntity
  8
0
100
AcDbLine
 62
7
  6
CONTINUOUS
 10
9.4222784467
 20
9.3232168922
 11
9.4422784467
 21
9.3232168922
  0
LINE
  5
228
100
AcDbEntity
  8
0
100
AcDbLine
 62
7
  6
CONTINUOUS
 10
12.6723582298
 20
9.6232168922
 11
12.6523582298
 21
9.6232168922
  0
LINE
  5
229
100
AcDbEntity
  8
0
100
AcDbLine
 62
7
  6
CONTINUOUS
 10
9.4222784467
 20
9.6232168922
 11
9.4422784467
 21
9.6232168922
  0
LINE
  5
22A
100
AcDbEntity
  8
0
100
AcDbLine
 62
7
  6
CONTINUOUS
 10
12.9106583499
 20
9.7732168922
 11
12.6723582298
 21
9.7732168922
  0
LINE
  5
22B
100
AcDbEntity
  8
0
100
AcDbLine
 62
7
  6
CONTINUOUS
 10
9.1839783266
 20
9.7732168922
 11
9.4222784467
 21
9.7732168922
  0
LINE
  5
22C
100
AcDbEntity
  8
0
100
AcDbLine
 62
7
  6
CONTINUOUS
 10
11.8223582298
 20
9.9482168922
 11
11.6921632797
 21
9.9482168922
  0
LINE
  5
22D
100
AcDbEntity
  8
0
100
AcDbLine
 62
7
  6
CONTINUOUS
 10
10.2722784467
 20
9.9482168922
 11
10.4024733983
 21
9.9482168922
  0
ARC
  5
22E
100
AcDbEntity
  8
0
100
AcDbCircle
 62
7
  6
CONTINUOUS
 10
11.0137366234
 20
4.8181615058
 40
0.2589182868
100
AcDbArc
 50
167.3577134222
 51
179.9933905746
  0
ARC
  5
22F
100
AcDbEntity
  8
0
100
AcDbCircle
 62
7
  6
CONTINUOUS
 10
11.0199595639
 20
4.8509663381
 40
0.2578199535
100
AcDbArc
 50
149.7554435688
 51
167.3153694313
  0
ARC
  5
230
100
AcDbEntity
  8
0
100
AcDbCircle
 62
7
  6
CONTINUOUS
 10
11.01459768
 20
4.8523642869
 40
0.2522793434
100
AcDbArc
 50
167.3577129788
 51
179.9933907815
  0
ARC
  5
231
100
AcDbEntity
  8
0
100
AcDbCircle
 62
7
  6
CONTINUOUS
 10
9.3865998462
 20
10.3957318667
 40
0.625
100
AcDbArc
 50
275.111013774
 51
313.8868439077
  0
ARC
  5
232
100
AcDbEntity
  8
0
100
AcDbCircle
 62
7
  6
CONTINUOUS
 10
9.3865998462
 20
8.5507019178
 40
0.625
100
AcDbArc
 50
46.1131560923
 51
84.888986226
  0
ARC
  5
233
100
AcDbEntity
  8
0
100
AcDbCircle
 62
7
  6
CONTINUOUS
 10
8.8092784467
 20
9.4732168922
 40
0.48
100
AcDbArc
 50
38.6821874535
 51
321.3178125465
  0
CIRCLE
  5
234
100
AcDbEntity
  8
0
100
AcDbCircle
 62
7
  6
CONTINUOUS
 10
8.8092784467
 20
9.4732168922
 40
0.3046163549
  0
CIRCLE
  5
235
100
AcDbEntity
  8
0
100
AcDbCircle
 62
7
  6
CONTINUOUS
 10
8.8092784467
 20
9.4732168922
 40
0.15
  0
CIRCLE
  5
236
100
AcDbEntity
  8
0
100
AcDbCircle
 62
7
  6
CONTINUOUS
 10
8.8092784467
 20
9.4732168922
 40
0.14
  0
ARC
  5
237
100
AcDbEntity
  8
0
100
AcDbCircle
 62
7
  6
CONTINUOUS
 10
10.1221951365
 20
9.9082168922
 40
0.125
100
AcDbArc
 50
30.9497230789
 51
149.0502769211
  0
ARC
  5
238
100
AcDbEntity
  8
0
100
AcDbCircle
 62
7
  6
CONTINUOUS
 10
10.1221951365
 20
9.0382168922
 40
0.125
100
AcDbArc
 50
210.9497230789
 51
329.0502769211
  0
CIRCLE
  5
239
100
AcDbEntity
  8
0
100
AcDbCircle
 62
7
  6
CONTINUOUS
 10
8.8092784467
 20
9.4732168922
 40
0.11
  0
ARC
  5
23A
100
AcDbEntity
  8
0
100
AcDbCircle
 62
7
  6
CONTINUOUS
 10
9.8891962066
 20
9.8732168922
 40
0.1
100
AcDbArc
 50
56.4426902381
 51
133.8868439077
  0
ARC
  5
23B
100
AcDbEntity
  8
0
100
AcDbCircle
 62
7
  6
CONTINUOUS
 10
9.8891962066
 20
9.0732168922
 40
0.1
100
AcDbArc
 50
226.1131560923
 51
303.5573097619
  0
ARC
  5
23C
100
AcDbEntity
  8
0
100
AcDbCircle
 62
7
  6
CONTINUOUS
 10
9.9721118263
 20
9.9982168922
 40
0.05
100
AcDbArc
 50
236.4426902381
 51
329.0502769211
  0
ARC
  5
23D
100
AcDbEntity
  8
0
100
AcDbCircle
 62
7
  6
CONTINUOUS
 10
10.2722784467
 20
9.9982168922
 40
0.05
100
AcDbArc
 50
210.9497230789
 51
270.0
  0
ARC
  5
23E
100
AcDbEntity
  8
0
100
AcDbCircle
 62
7
  6
CONTINUOUS
 10
9.9721118263
 20
8.9482168922
 40
0.05
100
AcDbArc
 50
30.9497230789
 51
123.5573097619
  0
ARC
  5
23F
100
AcDbEntity
  8
0
100
AcDbCircle
 62
7
  6
CONTINUOUS
 10
10.2722784467
 20
8.9482168922
 40
0.05
100
AcDbArc
 50
90.0
 51
149.0502769211
  0
ARC
  5
240
100
AcDbEntity
  8
0
100
AcDbCircle
 62
7
  6
CONTINUOUS
 10
11.0809000532
 20
4.8181615058
 40
0.2589182868
100
AcDbArc
 50
0.0066094254
 51
12.6422865777
  0
ARC
  5
241
100
AcDbEntity
  8
0
100
AcDbCircle
 62
7
  6
CONTINUOUS
 10
11.0746771106
 20
4.8509663434
 40
0.2578199535
100
AcDbArc
 50
12.6846293261
 51
30.2445551881
  0
ARC
  5
242
100
AcDbEntity
  8
0
100
AcDbCircle
 62
7
  6
CONTINUOUS
 10
11.0800389966
 20
4.8523642869
 40
0.2522793434
100
AcDbArc
 50
0.0066092185
 51
12.6422870212
  0
ARC
  5
243
100
AcDbEntity
  8
0
100
AcDbCircle
 62
7
  6
CONTINUOUS
 10
11.97244154
 20
9.0382168922
 40
0.125
100
AcDbArc
 50
210.9497230789
 51
329.0502769211
  0
ARC
  5
244
100
AcDbEntity
  8
0
100
AcDbCircle
 62
7
  6
CONTINUOUS
 10
12.1225248502
 20
8.9482168922
 40
0.05
100
AcDbArc
 50
56.4426902381
 51
149.0502769211
  0
ARC
  5
245
100
AcDbEntity
  8
0
100
AcDbCircle
 62
7
  6
CONTINUOUS
 10
11.8223582298
 20
8.9482168922
 40
0.05
100
AcDbArc
 50
30.9497230789
 51
90.0
  0
ARC
  5
246
100
AcDbEntity
  8
0
100
AcDbCircle
 62
7
  6
CONTINUOUS
 10
11.0473183383
 20
9.4732168922
 40
1.1
100
AcDbArc
 50
30.5084242523
 51
149.4915757478
  0
ARC
  5
247
100
AcDbEntity
  8
0
100
AcDbCircle
 62
7
  6
CONTINUOUS
 10
11.0473183383
 20
9.4732168922
 40
1.1
100
AcDbArc
 50
210.5084242523
 51
256.8554609955
  0
ARC
  5
248
100
AcDbEntity
  8
0
100
AcDbCircle
 62
7
  6
CONTINUOUS
 10
11.0473183383
 20
9.4732168922
 40
1.1
100
AcDbArc
 50
283.1445390045
 51
329.4915757477
  0
ARC
  5
249
100
AcDbEntity
  8
0
100
AcDbCircle
 62
7
  6
CONTINUOUS
 10
11.0473183383
 20
9.4732168922
 40
0.9500926608
100
AcDbArc
 50
31.1977110739
 51
148.8022889262
  0
ARC
  5
24A
100
AcDbEntity
  8
0
100
AcDbCircle
 62
7
  6
CONTINUOUS
 10
11.0473183383
 20
9.4732168922
 40
0.9500926608
100
AcDbArc
 50
285.2600953082
 51
328.8022889261
  0
ARC
  5
24B
100
AcDbEntity
  8
0
100
AcDbCircle
 62
7
  6
CONTINUOUS
 10
11.0473183383
 20
9.4732168922
 40
0.9500926608
100
AcDbArc
 50
211.1977110739
 51
254.7399046918
  0
ARC
  5
24C
100
AcDbEntity
  8
0
100
AcDbCircle
 62
7
  6
CONTINUOUS
 10
11.0473183383
 20
9.4732168922
 40
0.81
100
AcDbArc
 50
215.9063540988
 51
252.0222705507
  0
ARC
  5
24D
100
AcDbEntity
  8
0
100
AcDbCircle
 62
7
  6
CONTINUOUS
 10
11.0473183383
 20
9.4732168922
 40
0.81
100
AcDbArc
 50
287.9777294493
 51
324.0936459012
  0
ARC
  5
24E
100
AcDbEntity
  8
0
100
AcDbCircle
 62
7
  6
CONTINUOUS
 10
11.0473183383
 20
9.4732168922
 40
0.81
100
AcDbArc
 50
35.9063540988
 51
144.0936459012
  0
ARC
  5
24F
100
AcDbEntity
  8
0
100
AcDbCircle
 62
7
  6
CONTINUOUS
 10
11.0473183383
 20
9.4732168922
 40
0.805
100
AcDbArc
 50
141.7759553706
 51
143.8011687372
  0
ARC
  5
250
100
AcDbEntity
  8
0
100
AcDbCircle
 62
7
  6
CONTINUOUS
 10
11.0473183383
 20
9.4732168922
 40
0.805
100
AcDbArc
 50
36.1988312628
 51
38.2240431566
  0
ARC
  5
251
100
AcDbEntity
  8
0
100
AcDbCircle
 62
7
  6
CONTINUOUS
 10
11.0473183383
 20
9.4732168922
 40
0.805
100
AcDbArc
 50
216.1988312628
 51
218.2240442067
  0
ARC
  5
252
100
AcDbEntity
  8
0
100
AcDbCircle
 62
7
  6
CONTINUOUS
 10
11.0473183383
 20
9.4732168922
 40
0.805
100
AcDbArc
 50
321.7759571547
 51
323.8011687372
  0
ARC
  5
253
100
AcDbEntity
  8
0
100
AcDbCircle
 62
7
  6
CONTINUOUS
 10
11.0473183383
 20
9.4732168922
 40
0.805
100
AcDbArc
 50
288.1024334666
 51
321.6021762933
  0
ARC
  5
254
100
AcDbEntity
  8
0
100
AcDbCircle
 62
7
  6
CONTINUOUS
 10
11.0473183383
 20
9.4732168922
 40
0.805
100
AcDbArc
 50
218.3978237067
 51
251.8975665334
  0
ARC
  5
255
100
AcDbEntity
  8
0
100
AcDbCircle
 62
7
  6
CONTINUOUS
 10
11.0473183383
 20
9.4732168922
 40
0.805
100
AcDbArc
 50
38.3978237067
 51
141.6021762933
  0
ARC
  5
256
100
AcDbEntity
  8
0
100
AcDbCircle
 62
7
  6
CONTINUOUS
 10
11.0473183383
 20
9.4732168922
 40
0.7
100
AcDbArc
 50
290.9381555125
 51
249.0618444875
  0
ARC
  5
257
100
AcDbEntity
  8
0
100
AcDbCircle
 62
7
  6
CONTINUOUS
 10
11.0473183383
 20
9.4732168922
 40
0.5255
100
AcDbArc
 50
298.4388158287
 51
241.5611841713
  0
ARC
  5
258
100
AcDbEntity
  8
0
100
AcDbCircle
 62
7
  6
CONTINUOUS
 10
11.0473183383
 20
9.4732168922
 40
0.375
100
AcDbArc
 50
311.8139766386
 51
228.1860233614
  0
ARC
  5
259
100
AcDbEntity
  8
0
100
AcDbCircle
 62
7
  6
CONTINUOUS
 10
11.0473183383
 20
9.4732168922
 40
0.325
100
AcDbArc
 50
320.3756211736
 51
219.6243788264
  0
ARC
  5
25A
100
AcDbEntity
  8
0
100
AcDbCircle
 62
7
  6
CONTINUOUS
 10
11.0473183383
 20
9.4732168922
 40
0.25
100
AcDbArc
 50
0.0
 51
180.0
  0
ARC
  5
25B
100
AcDbEntity
  8
0
100
AcDbCircle
 62
7
  6
CONTINUOUS
 10
11.97244154
 20
9.9082168922
 40
0.125
100
AcDbArc
 50
30.9497230789
 51
149.0502769211
  0
ARC
  5
25C
100
AcDbEntity
  8
0
100
AcDbCircle
 62
7
  6
CONTINUOUS
 10
12.1225248502
 20
9.9982168922
 40
0.05
100
AcDbArc
 50
210.9497230789
 51
303.5573097619
  0
ARC
  5
25D
100
AcDbEntity
  8
0
100
AcDbCircle
 62
7
  6
CONTINUOUS
 10
11.8223582298
 20
9.9982168922
 40
0.05
100
AcDbArc
 50
270.0
 51
329.0502769211
  0
ARC
  5
25E
100
AcDbEntity
  8
0
100
AcDbCircle
 62
7
  6
CONTINUOUS
 10
12.7080368304
 20
8.5507019178
 40
0.625
100
AcDbArc
 50
95.111013774
 51
133.8868439077
  0
ARC
  5
25F
100
AcDbEntity
  8
0
100
AcDbCircle
 62
7
  6
CONTINUOUS
 10
12.20544047
 20
9.0732168922
 40
0.1
100
AcDbArc
 50
236.4426902381
 51
313.8868439077
  0
ARC
  5
260
100
AcDbEntity
  8
0
100
AcDbCircle
 62
7
  6
CONTINUOUS
 10
12.7080368304
 20
10.3957318667
 40
0.625
100
AcDbArc
 50
226.1131560923
 51
264.888986226
  0
ARC
  5
261
100
AcDbEntity
  8
0
100
AcDbCircle
 62
7
  6
CONTINUOUS
 10
13.2853582298
 20
9.4732168922
 40
0.48
100
AcDbArc
 50
218.6821874535
 51
141.3178125465
  0
CIRCLE
  5
262
100
AcDbEntity
  8
0
100
AcDbCircle
 62
7
  6
CONTINUOUS
 10
13.2853582298
 20
9.4732168922
 40
0.3046163549
  0
CIRCLE
  5
263
100
AcDbEntity
  8
0
100
AcDbCircle
 62
7
  6
CONTINUOUS
 10
13.2853582298
 20
9.4732168922
 40
0.15
  0
CIRCLE
  5
264
100
AcDbEntity
  8
0
100
AcDbCircle
 62
7
  6
CONTINUOUS
 10
13.2853582298
 20
9.4732168922
 40
0.14
  0
CIRCLE
  5
265
100
AcDbEntity
  8
0
100
AcDbCircle
 62
7
  6
CONTINUOUS
 10
13.2853582298
 20
9.4732168922
 40
0.11
  0
ARC
  5
266
100
AcDbEntity
  8
0
100
AcDbCircle
 62
7
  6
CONTINUOUS
 10
12.20544047
 20
9.8732168922
 40
0.1
100
AcDbArc
 50
46.1131560923
 51
123.5573097619
  0
SPLINE
  5
267
100
AcDbEntity
  8
0
100
AcDbSpline
 62
7
  6
CONTINUOUS
 70
0
 71
3
 72
53
 73
49
 74
0
 42
0.0000001
 43
0.0000001
 44
0.0000000001
 40
0.0
 40
0.0
 40
0.0
 40
0.0
 40
0.0952933543
 40
0.1896434501
 40
0.282154633
 40
0.3719968015
 40
0.4584279834
 40
0.5407838628
 40
0.6184580308
 40
0.6553599428
 40
0.6908738114
 40
0.7249256118
 40
0.7574386851
 40
0.7883325115
 40
0.8175229612
 40
0.8449204219
 40
0.8704313168
 40
0.8939568406
 40
0.9153950689
 40
0.9346415811
 40
0.9434100936
 40
0.9515917543
 40
0.9591739057
 40
0.9661438845
 40
0.9724900898
 40
0.978201822
 40
0.9832683692
 40
0.9876795522
 40
0.9896369022
 40
0.9914275578
 40
0.9930506175
 40
0.9945051792
 40
0.9957903396
 40
0.9969052774
 40
0.9978495598
 40
0.9982576059
 40
0.9986228688
 40
0.9989453087
 40
0.9992248858
 40
0.9994615604
 40
0.9996552925
 40
0.9998060424
 40
0.9998652865
 40
0.9999137701
 40
0.9999514883
 40
0.999978436
 40
0.9999946082
 40
1.0
 40
1.0
 40
1.0
 40
1.0
 10
11.810358251
 20
9.4732168922
 30
0.0
 10
11.810358251
 20
9.4898326173
 30
0.0
 10
11.8095565656
 20
9.5229052347
 30
0.0
 10
11.8059908776
 20
9.5719915161
 30
0.0
 10
11.8002040012
 20
9.6199087002
 30
0.0
 10
11.7924155661
 20
9.6661401374
 30
0.0
 10
11.7829106331
 20
9.7102381237
 30
0.0
 10
11.7720236834
 20
9.7518234905
 30
0.0
 10
11.7619429866
 20
9.7846590852
 30
0.0
 10
11.7535102708
 20
9.8094349476
 30
0.0
 10
11.7471921426
 20
9.8268920469
 30
0.0
 10
11.7408260603
 20
9.8435145159
 30
0.0
 10
11.7344663268
 20
9.8592737944
 30
0.0
 10
11.728169864
 20
9.8741418897
 30
0.0
 10
11.7219939783
 20
9.8880900795
 30
0.0
 10
11.7159979338
 20
9.9010894599
 30
0.0
 10
11.7102416133
 20
9.9131100074
 30
0.0
 10
11.7047856772
 20
9.9241210002
 30
0.0
 10
11.6996911481
 20
9.9340910017
 30
0.0
 10
11.6956812142
 20
9.9417249557
 30
0.0
 10
11.6927031223
 20
9.9472895715
 30
0.0
 10
11.6906669091
 20
9.9510514102
 30
0.0
 10
11.6887646016
 20
9.9545290883
 30
0.0
 10
11.6870030495
 20
9.9577189355
 30
0.0
 10
11.6853884497
 20
9.9606173479
 30
0.0
 10
11.6839264443
 20
9.9632208316
 30
0.0
 10
11.6826225912
 20
9.9655261533
 30
0.0
 10
11.6816366221
 20
9.9672591777
 30
0.0
 10
11.6809308771
 20
9.968494455
 30
0.0
 10
11.6804654052
 20
9.9693071088
 30
0.0
 10
11.6800427611
 20
9.9700432621
 30
0.0
 10
11.6796634077
 20
9.9707026359
 30
0.0
 10
11.679327796
 20
9.9712849602
 30
0.0
 10
11.6790363486
 20
9.9717900444
 30
0.0
 10
11.6788211519
 20
9.9721625552
 30
0.0
 10
11.6786712393
 20
9.9724218201
 30
0.0
 10
11.6785755606
 20
9.972587195
 30
0.0
 10
11.6784910607
 20
9.9727331618
 30
0.0
 10
11.6784177685
 20
9.972859699
 30
0.0
 10
11.678355679
 20
9.9729668216
 30
0.0
 10
11.6783048843
 20
9.9730544393
 30
0.0
 10
11.6782694662
 20
9.9731154242
 30
0.0
 10
11.6782469759
 20
9.9731542544
 30
0.0
 10
11.6782339556
 20
9.9731764954
 30
0.0
 10
11.678224784
 20
9.9731927562
 30
0.0
 10
11.6782160346
 20
9.9732067527
 30
0.0
 10
11.6782147114
 20
9.9732108929
 30
0.0
 10
11.6782097916
 20
9.9732174287
 30
0.0
 10
11.6782105636
 20
9.9732168922
 30
0.0
  0
SPLINE
  5
268
100
AcDbEntity
  8
0
100
AcDbSpline
 62
7
  6
CONTINUOUS
 70
0
 71
3
 72
52
 73
48
 74
0
 42
0.0000001
 43
0.0000001
 44
0.0000000001
 40
0.0
 40
0.0
 40
0.0
 40
0.0
 40
0.0952936727
 40
0.189644084
 40
0.282155574
 40
0.3719980408
 40
0.4584295098
 40
0.5407856628
 40
0.6184600888
 40
0.6908727814
 40
0.7249246969
 40
0.7574378797
 40
0.7883318096
 40
0.8175223567
 40
0.8449199087
 40
0.8704308881
 40
0.8939564895
 40
0.9153947878
 40
0.9346413634
 40
0.9434099049
 40
0.9515915929
 40
0.9591737698
 40
0.9661437721
 40
0.9724899983
 40
0.9782017493
 40
0.9832683136
 40
0.9876795114
 40
0.9896368678
 40
0.9914275291
 40
0.993050594
 40
0.9945051605
 40
0.9957903253
 40
0.9969052668
 40
0.9978495524
 40
0.9982575997
 40
0.9986228637
 40
0.9989453046
 40
0.9992248826
 40
0.9994615579
 40
0.9996552907
 40
0.9998060411
 40
0.9998652855
 40
0.9999137694
 40
0.9999514877
 40
0.9999784356
 40
0.999994608
 40
1.0
 40
1.0
 40
1.0
 40
1.0
 10
10.2842784467
 20
9.4732168922
 30
0.0
 10
10.2842784467
 20
9.456601167
 30
0.0
 10
10.2850800976
 20
9.4235285489
 30
0.0
 10
10.2886458045
 20
9.3744422659
 30
0.0
 10
10.294432671
 20
9.3265250888
 30
0.0
 10
10.3022211213
 20
9.2802936264
 30
0.0
 10
10.3117260072
 20
9.2361957317
 30
0.0
 10
10.322613118
 20
9.194610049
 30
0.0
 10
10.3345110043
 20
9.1558546592
 30
0.0
 10
10.3451433848
 20
9.125550085
 30
0.0
 10
10.3538106149
 20
9.1029193034
 30
0.0
 10
10.3601703507
 20
9.0871599801
 30
0.0
 10
10.3664668131
 20
9.0722918955
 30
0.0
 10
10.372642699
 20
9.0583437028
 30
0.0
 10
10.3786387435
 20
9.0453443232
 30
0.0
 10
10.3843950639
 20
9.0333237757
 30
0.0
 10
10.3898509999
 20
9.0223127834
 30
0.0
 10
10.3949455287
 20
9.0123427823
 30
0.0
 10
10.3989554624
 20
9.0047088287
 30
0.0
 10
10.4019335543
 20
8.9991442131
 30
0.0
 10
10.4039697674
 20
8.9953823743
 30
0.0
 10
10.4058720749
 20
8.9919046961
 30
0.0
 10
10.4076336272
 20
8.988714849
 30
0.0
 10
10.4092482269
 20
8.9858164365
 30
0.0
 10
10.4107102322
 20
8.9832129528
 30
0.0
 10
10.4120140854
 20
8.9809076311
 30
0.0
 10
10.4130000547
 20
8.9791746068
 30
0.0
 10
10.4137057995
 20
8.9779393295
 30
0.0
 10
10.4141712713
 20
8.9771266758
 30
0.0
 10
10.4145939154
 20
8.9763905225
 30
0.0
 10
10.4149732687
 20
8.9757311487
 30
0.0
 10
10.4153088805
 20
8.9751488244
 30
0.0
 10
10.4156003279
 20
8.9746437403
 30
0.0
 10
10.4158155247
 20
8.9742712294
 30
0.0
 10
10.4159654369
 20
8.9740119647
 30
0.0
 10
10.4160611163
 20
8.9738465894
 30
0.0
 10
10.4161456141
 20
8.9737006239
 30
0.0
 10
10.4162189123
 20
8.9735740826
 30
0.0
 10
10.4162809842
 20
8.973466972
 30
0.0
 10
10.4163318276
 20
8.9733793212
 30
0.0
 10
10.4163671342
 20
8.9733184121
 30
0.0
 10
10.4163897947
 20
8.9732794662
 30
0.0
 10
10.416402458
 20
8.9732574676
 30
0.0
 10
10.4164125514
 20
8.973240581
 30
0.0
 10
10.4164192153
 20
8.9732280003
 30
0.0
 10
10.416424197
 20
8.9732213765
 30
0.0
 10
10.4164253294
 20
8.9732174118
 30
0.0
 10
10.4164261129
 20
8.9732168922
 30
0.0
  0
SPLINE
  5
269
100
AcDbEntity
  8
0
100
AcDbSpline
 62
7
  6
CONTINUOUS
 70
0
 71
3
 72
15
 73
11
 74
0
 42
0.0000001
 43
0.0000001
 44
0.0000000001
 40
0.0
 40
0.0
 40
0.0
 40
0.0
 40
0.1239828688
 40
0.2480718218
 40
0.3723679035
 40
0.4969685779
 40
0.6219614902
 40
0.7474239605
 40
0.8734201724
 40
1.0
 40
1.0
 40
1.0
 40
1.0
 10
10.7348183383
 20
4.8181913736
 30
0.0
 10
10.7348183383
 20
4.8260539194
 30
0.0
 10
10.7354916896
 20
4.8417940179
 30
0.0
 10
10.7385146968
 20
4.8652414729
 30
0.0
 10
10.7435312443
 20
4.8883863728
 30
0.0
 10
10.750508631
 20
4.9110768081
 30
0.0
 10
10.759401481
 20
4.9331666722
 30
0.0
 10
10.7701523491
 20
4.9545135695
 30
0.0
 10
10.7826901664
 20
4.9749781819
 30
0.0
 10
10.7921663862
 20
4.9879180548
 30
0.0
 10
10.7971686961
 20
4.9941960645
 30
0.0
  0
SPLINE
  5
26A
100
AcDbEntity
  8
0
100
AcDbSpline
 62
7
  6
CONTINUOUS
 70
0
 71
3
 72
15
 73
11
 74
0
 42
0.0000001
 43
0.0000001
 44
0.0000000001
 40
0.0
 40
0.0
 40
0.0
 40
0.0
 40
0.1265798276
 40
0.2525760395
 40
0.3780385098
 40
0.5030314221
 40
0.6276320965
 40
0.7519281782
 40
0.8760171312
 40
1.0
 40
1.0
 40
1.0
 40
1.0
 10
11.2974679804
 20
4.9941960645
 30
0.0
 10
11.3024702904
 20
4.9879180548
 30
0.0
 10
11.3119465102
 20
4.9749781819
 30
0.0
 10
11.3244843274
 20
4.9545135695
 30
0.0
 10
11.3352351955
 20
4.9331666722
 30
0.0
 10
11.3441280456
 20
4.9110768081
 30
0.0
 10
11.3511054323
 20
4.8883863728
 30
0.0
 10
11.3561219798
 20
4.8652414729
 30
0.0
 10
11.359144987
 20
4.8417940179
 30
0.0
 10
11.3598183383
 20
4.8260539194
 30
0.0
 10
11.3598183383
 20
4.8181913736
 30
0.0
  0
SPLINE
  5
26B
100
AcDbEntity
  8
0
100
AcDbSpline
 62
7
  6
CONTINUOUS
 70
0
 71
3
 72
39
 73
35
 74
0
 42
0.0000001
 43
0.0000001
 44
0.0000000001
 40
0.0
 40
0.0
 40
0.0
 40
0.0
 40
0.030541035
 40
0.0611086722
 40
0.0917298489
 40
0.1224282353
 40
0.1532251144
 40
0.1841379286
 40
0.2151797496
 40
0.2463586862
 40
0.2776776217
 40
0.3091339985
 40
0.3407199826
 40
0.3724226896
 40
0.404224739
 40
0.4361048639
 40
0.4680387913
 40
0.5000001486
 40
0.5319615032
 40
0.5638954225
 40
0.5957755343
 40
0.6275775657
 40
0.659280251
 40
0.6908662101
 40
0.7223225594
 40
0.753641466
 40
0.7848203736
 40
0.8158621664
 40
0.8467749543
 40
0.8775718101
 40
0.9082701775
 40
0.9388913396
 40
0.9694589679
 40
1.0
 40
1.0
 40
1.0
 40
1.0
 10
11.4173183383
 20
4.7771489564
 30
0.0
 10
11.4173183383
 20
4.7656262695
 30
0.0
 10
11.4161176562
 20
4.7425529178
 30
0.0
 10
11.4107341277
 20
4.7083060204
 30
0.0
 10
11.4018247144
 20
4.674738078
 30
0.0
 10
11.3894820381
 20
4.6421843801
 30
0.0
 10
11.3738338388
 20
4.6109617438
 30
0.0
 10
11.3550403603
 20
4.5813725385
 30
0.0
 10
11.3332918232
 20
4.553699935
 30
0.0
 10
11.3088057099
 20
4.5282060683
 30
0.0
 10
11.2818240909
 20
4.5051299438
 30
0.0
 10
11.252610945
 20
4.4846857446
 30
0.0
 10
11.2214493091
 20
4.4670616872
 30
0.0
 10
11.1886386032
 20
4.4524189187
 30
0.0
 10
11.1544919984
 20
4.440890611
 30
0.0
 10
11.1193337534
 20
4.4325810375
 30
0.0
 10
11.0834964332
 20
4.4275651557
 30
0.0
 10
11.0473181706
 20
4.4258881521
 30
0.0
 10
11.0111399122
 20
4.4275651833
 30
0.0
 10
10.9753026055
 20
4.4325810972
 30
0.0
 10
10.9401443825
 20
4.440890699
 30
0.0
 10
10.9059978053
 20
4.4524190253
 30
0.0
 10
10.8731871308
 20
4.467061804
 30
0.0
 10
10.8420255322
 20
4.4846858707
 30
0.0
 10
10.8128124252
 20
4.5051300714
 30
0.0
 10
10.7858308424
 20
4.5282061883
 30
0.0
 10
10.7613447608
 20
4.5537000402
 30
0.0
 10
10.739596254
 20
4.5813726275
 30
0.0
 10
10.7208028002
 20
4.6109618134
 30
0.0
 10
10.705154618
 20
4.6421844291
 30
0.0
 10
10.6928119527
 20
4.6747381081
 30
0.0
 10
10.683902546
 20
4.7083060357
 30
0.0
 10
10.67851902
 20
4.7425529234
 30
0.0
 10
10.6773183383
 20
4.7656262706
 30
0.0
 10
10.6773183383
 20
4.7771489564
 30
0.0
  0
SPLINE
  5
26C
100
AcDbEntity
  8
0
100
AcDbSpline
 62
7
  6
CONTINUOUS
 70
0
 71
3
 72
31
 73
27
 74
0
 42
0.0000001
 43
0.0000001
 44
0.0000000001
 40
0.0
 40
0.0
 40
0.0
 40
0.0
 40
0.0305312379
 40
0.0611740735
 40
0.091930085
 40
0.1227992567
 40
0.1537799952
 40
0.1848691709
 40
0.2160621539
 40
0.2473529248
 40
0.3101719737
 40
0.3732796299
 40
0.4365883877
 40
0.5000003285
 40
0.5634122556
 40
0.6267209731
 40
0.6898285645
 40
0.7526475273
 40
0.7839382487
 40
0.8151311786
 40
0.8462202984
 40
0.8772009791
 40
0.9080700916
 40
0.9388260436
 40
0.96946882
 40
1.0
 40
1.0
 40
1.0
 40
1.0
 10
10.8185764954
 20
4.5015551837
 30
0.0
 10
10.8218242623
 20
4.4973003751
 30
0.0
 10
10.8285911782
 20
4.4889698248
 30
0.0
 10
10.8394905037
 20
4.4770846131
 30
0.0
 10
10.8511201559
 20
4.4658269405
 30
0.0
 10
10.8634387382
 20
4.4552369031
 30
0.0
 10
10.8764031839
 20
4.4453515621
 30
0.0
 10
10.8899676847
 20
4.4362056718
 30
0.0
 10
10.9040851568
 20
4.4278309694
 30
0.0
 10
10.9235997633
 20
4.4177212662
 30
0.0
 10
10.9491294941
 20
4.4071600298
 30
0.0
 10
10.9810864627
 20
4.3979965871
 30
0.0
 10
11.0139716995
 20
4.3924465512
 30
0.0
 10
11.0473227269
 20
4.3905885298
 30
0.0
 10
11.080673693
 20
4.3924475261
 30
0.0
 10
11.1135587465
 20
4.3979985235
 30
0.0
 10
11.1455154125
 20
4.4071629005
 30
0.0
 10
11.1710447963
 20
4.4177248847
 30
0.0
 10
11.1905590695
 20
4.4278351593
 30
0.0
 10
11.2046762642
 20
4.4362102749
 30
0.0
 10
11.2182404622
 20
4.4453565622
 30
0.0
 10
11.2312045806
 20
4.4552422824
 30
0.0
 10
11.2435228123
 20
4.4658326803
 30
0.0
 10
11.2551520915
 20
4.4770906934
 30
0.0
 10
11.2660510235
 20
4.4889762241
 30
0.0
 10
11.2728176632
 20
4.4973069723
 30
0.0
 10
11.2760652891
 20
4.5015618757
 30
0.0
  0
SPLINE
  5
26D
100
AcDbEntity
  8
0
100
AcDbSpline
 62
7
  6
CONTINUOUS
 70
0
 71
3
 72
16
 73
12
 74
0
 42
0.0000001
 43
0.0000001
 44
0.0000000001
 40
0.0
 40
0.0
 40
0.0
 40
0.0
 40
0.1238699798
 40
0.2478595503
 40
0.3720885271
 40
0.4966621226
 40
0.6216728706
 40
0.7471947255
 40
0.8732801707
 40
0.9365653449
 40
1.0
 40
1.0
 40
1.0
 40
1.0
 10
10.6773183383
 20
4.7771489564
 30
0.0
 10
10.6773183383
 20
4.7892717193
 30
0.0
 10
10.6786477051
 20
4.8135498376
 30
0.0
 10
10.68460577
 20
4.8495440098
 30
0.0
 10
10.6944586041
 20
4.8847478868
 30
0.0
 10
10.7080927462
 20
4.9187723284
 30
0.0
 10
10.7253525372
 20
4.9512519793
 30
0.0
 10
10.7460408495
 20
4.9818376591
 30
0.0
 10
10.7659300823
 20
5.0054580456
 30
0.0
 10
10.783294732
 20
5.0230936929
 30
0.0
 10
10.7924452986
 20
5.0314744903
 30
0.0
 10
10.7971294099
 20
5.0355488263
 30
0.0
  0
SPLINE
  5
26E
100
AcDbEntity
  8
0
100
AcDbSpline
 62
7
  6
CONTINUOUS
 70
0
 71
3
 72
16
 73
12
 74
0
 42
0.0000001
 43
0.0000001
 44
0.0000000001
 40
0.0
 40
0.0
 40
0.0
 40
0.0
 40
0.0634346501
 40
0.1267198174
 40
0.2528052437
 40
0.3783270781
 40
0.5033378093
 40
0.6279113973
 40
0.7521403785
 40
0.8761299735
 40
1.0
 40
1.0
 40
1.0
 40
1.0
 10
11.297505196
 20
5.0355506283
 30
0.0
 10
11.3021893805
 20
5.0314762889
 30
0.0
 10
11.3113400954
 20
5.0230954835
 30
0.0
 10
11.3287050237
 20
5.00545979
 30
0.0
 10
11.3485945921
 20
4.9818393141
 30
0.0
 10
11.3692832604
 20
4.9512534639
 30
0.0
 10
11.3865433568
 20
4.91877359
 30
0.0
 10
11.4001777484
 20
4.8847488804
 30
0.0
 10
11.4100307671
 20
4.849544697
 30
0.0
 10
11.4159889457
 20
4.8135501895
 30
0.0
 10
11.4173183383
 20
4.789271837
 30
0.0
 10
11.4173183383
 20
4.7771489564
 30
0.0
  0
SPLINE
  5
26F
100
AcDbEntity
  8
0
100
AcDbSpline
 62
7
  6
CONTINUOUS
 70
0
 71
3
 72
52
 73
48
 74
0
 42
0.0000001
 43
0.0000001
 44
0.0000000001
 40
0.0
 40
0.0
 40
0.0
 40
0.0
 40
0.000005392
 40
0.0000215644
 40
0.0000485123
 40
0.0000862307
 40
0.0001347145
 40
0.0001939589
 40
0.0003447093
 40
0.0005384421
 40
0.0007751174
 40
0.0010546954
 40
0.0013771363
 40
0.0017424004
 40
0.0021504477
 40
0.0030947332
 40
0.0042096748
 40
0.0054948396
 40
0.006949406
 40
0.008572471
 40
0.0103631322
 40
0.0123204886
 40
0.0167316865
 40
0.0217982507
 40
0.0275100017
 40
0.033856228
 40
0.0408262303
 40
0.0484084072
 40
0.0565900953
 40
0.0653586369
 40
0.0846052125
 40
0.1060435111
 40
0.1295691126
 40
0.1550800922
 40
0.1824776443
 40
0.2116681916
 40
0.2425621216
 40
0.2750753044
 40
0.3091272199
 40
0.3815399122
 40
0.4592143381
 40
0.5415704906
 40
0.6280019593
 40
0.7178444258
 40
0.8103559155
 40
0.9047063268
 40
1.0
 40
1.0
 40
1.0
 40
1.0
 10
11.6782105636
 20
8.9732168922
 30
0.0
 10
11.6782113457
 20
8.973217414
 30
0.0
 10
11.6782124817
 20
8.9732213733
 30
0.0
 10
11.6782174599
 20
8.9732280023
 30
0.0
 10
11.6782241258
 20
8.9732405801
 30
0.0
 10
11.6782342183
 20
8.973257468
 30
0.0
 10
11.678246882
 20
8.9732794661
 30
0.0
 10
11.6782695423
 20
8.9733184122
 30
0.0
 10
11.678304849
 20
8.9733793212
 30
0.0
 10
11.6783556924
 20
8.973466972
 30
0.0
 10
11.6784177643
 20
8.9735740826
 30
0.0
 10
11.6784910625
 20
8.9737006239
 30
0.0
 10
11.6785755603
 20
8.9738465894
 30
0.0
 10
11.6786712396
 20
8.9740119647
 30
0.0
 10
11.6788211519
 20
8.9742712294
 30
0.0
 10
11.6790363487
 20
8.9746437403
 30
0.0
 10
11.6793277961
 20
8.9751488244
 30
0.0
 10
11.6796634079
 20
8.9757311488
 30
0.0
 10
11.6800427611
 20
8.9763905225
 30
0.0
 10
11.6804654052
 20
8.9771266758
 30
0.0
 10
11.680930877
 20
8.9779393295
 30
0.0
 10
11.6816366219
 20
8.9791746068
 30
0.0
 10
11.6826225912
 20
8.9809076312
 30
0.0
 10
11.6839264444
 20
8.9832129528
 30
0.0
 10
11.6853884497
 20
8.9858164366
 30
0.0
 10
11.6870030494
 20
8.988714849
 30
0.0
 10
11.6887646017
 20
8.9919046962
 30
0.0
 10
11.6906669092
 20
8.9953823744
 30
0.0
 10
11.6927031223
 20
8.9991442132
 30
0.0
 10
11.6956812142
 20
9.0047088289
 30
0.0
 10
11.6996911479
 20
9.0123427825
 30
0.0
 10
11.7047856769
 20
9.0223127837
 30
0.0
 10
11.7102416128
 20
9.0333237761
 30
0.0
 10
11.7159979333
 20
9.0453443237
 30
0.0
 10
11.7219939778
 20
9.0583437034
 30
0.0
 10
11.7281698637
 20
9.0722918962
 30
0.0
 10
11.7344663262
 20
9.0871599808
 30
0.0
 10
11.740826062
 20
9.1029193041
 30
0.0
 10
11.7494932921
 20
9.1255500858
 30
0.0
 10
11.7601256725
 20
9.1558546599
 30
0.0
 10
11.7720235587
 20
9.1946100496
 30
0.0
 10
11.7829106694
 20
9.2361957323
 30
0.0
 10
11.7924155558
 20
9.2802936267
 30
0.0
 10
11.800204004
 20
9.3265250892
 30
0.0
 10
11.8059908768
 20
9.3744422658
 30
0.0
 10
11.8095565657
 20
9.4235285495
 30
0.0
 10
11.8103582513
 20
9.4566011669
 30
0.0
 10
11.8103582513
 20
9.4732168922
 30
0.0
  0
SPLINE
  5
270
100
AcDbEntity
  8
0
100
AcDbSpline
 62
7
  6
CONTINUOUS
 70
0
 71
3
 72
52
 73
48
 74
0
 42
0.0000001
 43
0.0000001
 44
0.0000000001
 40
0.0
 40
0.0
 40
0.0
 40
0.0
 40
0.000005392
 40
0.0000215644
 40
0.0000485124
 40
0.0000862308
 40
0.0001347147
 40
0.0001939591
 40
0.0003447096
 40
0.0005384425
 40
0.0007751179
 40
0.001054696
 40
0.0013771369
 40
0.001742401
 40
0.0021504483
 40
0.0030947337
 40
0.0042096749
 40
0.0054948393
 40
0.0069494054
 40
0.0085724702
 40
0.0103631313
 40
0.0123204877
 40
0.0167316855
 40
0.0217982496
 40
0.0275100006
 40
0.0338562268
 40
0.0408262293
 40
0.0484084067
 40
0.0565900952
 40
0.065358637
 40
0.0846052123
 40
0.1060435102
 40
0.1295691117
 40
0.1550800918
 40
0.1824776445
 40
0.2116681924
 40
0.242562123
 40
0.2750753076
 40
0.3091272267
 40
0.3815399223
 40
0.4592143467
 40
0.5415705017
 40
0.6280019697
 40
0.7178444352
 40
0.8103559237
 40
0.9047063307
 40
1.0
 40
1.0
 40
1.0
 40
1.0
 10
10.4164261129
 20
9.9732168922
 30
0.0
 10
10.416425392
 20
9.9732162888
 30
0.0
 10
10.4164241071
 20
9.9732125285
 30
0.0
 10
10.4164192728
 20
9.9732057072
 30
0.0
 10
10.4164125248
 20
9.973193239
 30
0.0
 10
10.4164024686
 20
9.9731763027
 30
0.0
 10
10.4163897909
 20
9.9731543233
 30
0.0
 10
10.4163671372
 20
9.9731153682
 30
0.0
 10
10.416331826
 20
9.9730544651
 30
0.0
 10
10.4162809846
 20
9.9729668117
 30
0.0
 10
10.4162189119
 20
9.9728597019
 30
0.0
 10
10.416145614
 20
9.9727331603
 30
0.0
 10
10.416061116
 20
9.9725871949
 30
0.0
 10
10.4159654367
 20
9.9724218195
 30
0.0
 10
10.4158155244
 20
9.9721625549
 30
0.0
 10
10.4156003277
 20
9.9717900441
 30
0.0
 10
10.4153088804
 20
9.97128496
 30
0.0
 10
10.4149732688
 20
9.9707026358
 30
0.0
 10
10.4145939157
 20
9.9700432622
 30
0.0
 10
10.4141712716
 20
9.969307109
 30
0.0
 10
10.4137057998
 20
9.9684944553
 30
0.0
 10
10.4130000549
 20
9.9672591781
 30
0.0
 10
10.4120140857
 20
9.9655261538
 30
0.0
 10
10.4107102324
 20
9.9632208322
 30
0.0
 10
10.4092482272
 20
9.9606173485
 30
0.0
 10
10.4076336274
 20
9.957718936
 30
0.0
 10
10.4058720751
 20
9.9545290887
 30
0.0
 10
10.4039697675
 20
9.9510514104
 30
0.0
 10
10.4019335543
 20
9.9472895714
 30
0.0
 10
10.3989554624
 20
9.9417249557
 30
0.0
 10
10.3949455288
 20
9.9340910021
 30
0.0
 10
10.3898509999
 20
9.9241210011
 30
0.0
 10
10.3843950639
 20
9.9131100088
 30
0.0
 10
10.3786387434
 20
9.9010894611
 30
0.0
 10
10.3726426988
 20
9.8880900811
 30
0.0
 10
10.3664668127
 20
9.874141888
 30
0.0
 10
10.3601703501
 20
9.8592738029
 30
0.0
 10
10.3538106138
 20
9.8435144786
 30
0.0
 10
10.3451433835
 20
9.8208836955
 30
0.0
 10
10.3345110026
 20
9.7905791206
 30
0.0
 10
10.3226131165
 20
9.7518237301
 30
0.0
 10
10.311726006
 20
9.7102380474
 30
0.0
 10
10.3022211202
 20
9.6661401527
 30
0.0
 10
10.2944326705
 20
9.6199086909
 30
0.0
 10
10.2886458042
 20
9.571991515
 30
0.0
 10
10.2850800975
 20
9.5229052337
 30
0.0
 10
10.2842784467
 20
9.4898326169
 30
0.0
 10
10.2842784467
 20
9.4732168922
 30
0.0
  0
SPLINE
  5
271
100
AcDbEntity
  8
0
100
AcDbSpline
 62
9
  6
CONTINUOUS
 70
0
 71
3
 72
39
 73
35
 74
0
 42
0.0000001
 43
0.0000001
 44
0.0000000001
 40
0.0
 40
0.0
 40
0.0
 40
0.0
 40
0.0302761666
 40
0.0605900489
 40
0.0909793851
 40
0.1214771623
 40
0.1521125896
 40
0.1829090582
 40
0.2138834871
 40
0.2450457236
 40
0.2763982887
 40
0.3079364106
 40
0.3396483316
 40
0.3715158571
 40
0.4035151163
 40
0.4356174986
 40
0.4677907218
 40
0.5
 40
0.5322092782
 40
0.5643825014
 40
0.5964848837
 40
0.6284841429
 40
0.6603516684
 40
0.6920635894
 40
0.7236017113
 40
0.7549542764
 40
0.7861165129
 40
0.8170909418
 40
0.8478874104
 40
0.8785228377
 40
0.9090206149
 40
0.9394099511
 40
0.9697238334
 40
1.0
 40
1.0
 40
1.0
 40
1.0
 10
10.7252350049
 20
4.7942351125
 30
0.0
 10
10.7252350049
 20
4.7843329245
 30
0.0
 10
10.7262721168
 20
4.7645006469
 30
0.0
 10
10.7309232571
 20
4.7350585487
 30
0.0
 10
10.7386244139
 20
4.7061853505
 30
0.0
 10
10.7493008813
 20
4.6781640692
 30
0.0
 10
10.7628485877
 20
4.6512640282
 30
0.0
 10
10.779136013
 20
4.6257447435
 30
0.0
 10
10.7980051463
 20
4.601851685
 30
0.0
 10
10.8192732726
 20
4.5798144363
 30
0.0
 10
10.8427348135
 20
4.5598444517
 30
0.0
 10
10.8681633463
 20
4.5421331375
 30
0.0
 10
10.8953138037
 20
4.526850101
 30
0.0
 10
10.9239247977
 20
4.5141415655
 30
0.0
 10
10.9537211093
 20
4.5041289891
 30
0.0
 10
10.9844163408
 20
4.4969080328
 30
0.0
 10
11.0157156114
 20
4.4925476711
 30
0.0
 10
11.0473183383
 20
4.4910895637
 30
0.0
 10
11.0789210652
 20
4.4925476711
 30
0.0
 10
11.1102203357
 20
4.4969080328
 30
0.0
 10
11.1409155673
 20
4.5041289891
 30
0.0
 10
11.1707118789
 20
4.5141415655
 30
0.0
 10
11.1993228729
 20
4.526850101
 30
0.0
 10
11.2264733303
 20
4.5421331375
 30
0.0
 10
11.251901863
 20
4.5598444517
 30
0.0
 10
11.275363404
 20
4.5798144363
 30
0.0
 10
11.2966315303
 20
4.601851685
 30
0.0
 10
11.3155006636
 20
4.6257447435
 30
0.0
 10
11.3317880888
 20
4.6512640282
 30
0.0
 10
11.3453357953
 20
4.6781640692
 30
0.0
 10
11.3560122627
 20
4.7061853505
 30
0.0
 10
11.3637134195
 20
4.7350585487
 30
0.0
 10
11.3683645598
 20
4.7645006469
 30
0.0
 10
11.3694016716
 20
4.7843329245
 30
0.0
 10
11.3694016716
 20
4.7942351125
 30
0.0
  0
SPLINE
  5
272
100
AcDbEntity
  8
0
100
AcDbSpline
 62
7
  6
CONTINUOUS
 70
0
 71
3
 72
39
 73
35
 74
0
 42
0.0000001
 43
0.0000001
 44
0.0000000001
 40
0.0
 40
0.0
 40
0.0
 40
0.0
 40
0.0302761575
 40
0.0605900433
 40
0.0909793898
 40
0.1214771615
 40
0.1521125896
 40
0.1829090573
 40
0.2138834856
 40
0.2450457222
 40
0.2763982901
 40
0.3079364127
 40
0.3396483316
 40
0.3715158565
 40
0.403515115
 40
0.4356174978
 40
0.467790723
 40
0.5
 40
0.532209277
 40
0.5643825022
 40
0.596484885
 40
0.6284841435
 40
0.6603516684
 40
0.6920635873
 40
0.7236017099
 40
0.7549542778
 40
0.7861165144
 40
0.8170909427
 40
0.8478874104
 40
0.8785228385
 40
0.9090206102
 40
0.9394099567
 40
0.9697238425
 40
1.0
 40
1.0
 40
1.0
 40
1.0
 10
10.7623183383
 20
4.852393388
 30
0.0
 10
10.7623183383
 20
4.8436312993
 30
0.0
 10
10.763236039
 20
4.8260824292
 30
0.0
 10
10.7673516669
 20
4.8000301705
 30
0.0
 10
10.7741661466
 20
4.7744813098
 30
0.0
 10
10.7836133868
 20
4.7496862868
 30
0.0
 10
10.7956012676
 20
4.725883408
 30
0.0
 10
10.8100134049
 20
4.7033022948
 30
0.0
 10
10.8267100085
 20
4.6821601703
 30
0.0
 10
10.8455294206
 20
4.6626602058
 30
0.0
 10
10.8662897135
 20
4.6449894992
 30
0.0
 10
10.8887905256
 20
4.6293174136
 30
0.0
 10
10.9128149868
 20
4.6157939968
 30
0.0
 10
10.9381318117
 20
4.6045486313
 30
0.0
 10
10.9644974932
 20
4.595688838
 30
0.0
 10
10.9916586098
 20
4.5892992926
 30
0.0
 10
11.019354218
 20
4.5854410008
 30
0.0
 10
11.0473183383
 20
4.5841508003
 30
0.0
 10
11.0752824585
 20
4.5854410008
 30
0.0
 10
11.1029780668
 20
4.5892992926
 30
0.0
 10
11.1301391834
 20
4.595688838
 30
0.0
 10
11.1565048649
 20
4.6045486313
 30
0.0
 10
11.1818216897
 20
4.6157939968
 30
0.0
 10
11.2058461509
 20
4.6293174136
 30
0.0
 10
11.2283469631
 20
4.6449894992
 30
0.0
 10
11.249107256
 20
4.6626602058
 30
0.0
 10
11.2679266681
 20
4.6821601703
 30
0.0
 10
11.2846232716
 20
4.7033022948
 30
0.0
 10
11.299035409
 20
4.725883408
 30
0.0
 10
11.3110232898
 20
4.7496862868
 30
0.0
 10
11.32047053
 20
4.7744813098
 30
0.0
 10
11.3272850096
 20
4.8000301705
 30
0.0
 10
11.3314006376
 20
4.8260824292
 30
0.0
 10
11.3323183383
 20
4.8436312993
 30
0.0
 10
11.3323183383
 20
4.852393388
 30
0.0
  0
SPLINE
  5
273
100
AcDbEntity
  8
0
100
AcDbSpline
 62
7
  6
CONTINUOUS
 70
0
 71
3
 72
39
 73
35
 74
0
 42
0.0000001
 43
0.0000001
 44
0.0000000001
 40
0.0
 40
0.0
 40
0.0
 40
0.0
 40
0.0302761579
 40
0.0605900432
 40
0.0909793914
 40
0.1214771592
 40
0.1521125916
 40
0.1829090557
 40
0.2138834862
 40
0.2450457233
 40
0.2763982894
 40
0.3079364136
 40
0.3396483303
 40
0.3715158574
 40
0.4035151133
 40
0.4356175002
 40
0.4677907221
 40
0.5
 40
0.5322092779
 40
0.5643824998
 40
0.5964848867
 40
0.6284841426
 40
0.6603516697
 40
0.6920635864
 40
0.7236017106
 40
0.7549542767
 40
0.7861165138
 40
0.8170909443
 40
0.8478874084
 40
0.8785228408
 40
0.9090206086
 40
0.9394099568
 40
0.9697238421
 40
1.0
 40
1.0
 40
1.0
 40
1.0
 10
10.7548183383
 20
4.8181913736
 30
0.0
 10
10.7548183383
 20
4.8091987036
 30
0.0
 10
10.7557601891
 20
4.7911880211
 30
0.0
 10
10.7599841227
 20
4.7644501761
 30
0.0
 10
10.7669779316
 20
4.7382289781
 30
0.0
 10
10.7766737822
 20
4.7127814533
 30
0.0
 10
10.7889771345
 20
4.6883521845
 30
0.0
 10
10.8037685382
 20
4.6651768302
 30
0.0
 10
10.8209045263
 20
4.6434783346
 30
0.0
 10
10.8402191856
 20
4.6234652122
 30
0.0
 10
10.8615258032
 20
4.6053294884
 30
0.0
 10
10.8846187403
 20
4.5892449782
 30
0.0
 10
10.9092754253
 20
4.5753656831
 30
0.0
 10
10.9352584814
 20
4.5638243866
 30
0.0
 10
10.9623179977
 20
4.5547314407
 30
0.0
 10
10.99019388
 20
4.5481737491
 30
0.0
 10
11.0186183206
 20
4.5442139241
 30
0.0
 10
11.0473183383
 20
4.5428897701
 30
0.0
 10
11.076018356
 20
4.5442139241
 30
0.0
 10
11.1044427966
 20
4.5481737491
 30
0.0
 10
11.1323186788
 20
4.5547314407
 30
0.0
 10
11.1593781951
 20
4.5638243866
 30
0.0
 10
11.1853612513
 20
4.5753656831
 30
0.0
 10
11.2100179363
 20
4.5892449782
 30
0.0
 10
11.2331108733
 20
4.6053294884
 30
0.0
 10
11.2544174909
 20
4.6234652122
 30
0.0
 10
11.2737321503
 20
4.6434783346
 30
0.0
 10
11.2908681384
 20
4.6651768302
 30
0.0
 10
11.3056595421
 20
4.6883521845
 30
0.0
 10
11.3179628944
 20
4.7127814533
 30
0.0
 10
11.327658745
 20
4.7382289781
 30
0.0
 10
11.3346525538
 20
4.7644501761
 30
0.0
 10
11.3388764874
 20
4.7911880211
 30
0.0
 10
11.3398183383
 20
4.8091987036
 30
0.0
 10
11.3398183383
 20
4.8181913736
 30
0.0
  0
SPLINE
  5
274
100
AcDbEntity
  8
0
100
AcDbSpline
 62
7
  6
CONTINUOUS
 70
0
 71
3
 72
23
 73
19
 74
0
 42
0.0000001
 43
0.0000001
 44
0.0000000001
 40
0.0
 40
0.0
 40
0.0
 40
0.0
 40
0.0605518242
 40
0.1211802696
 40
0.1819587325
 40
0.2429543309
 40
0.3042251782
 40
0.3658181118
 40
0.4277669656
 40
0.4900914393
 40
0.5527965748
 40
0.6158728244
 40
0.6792966635
 40
0.7430317272
 40
0.8070301721
 40
0.8712351882
 40
0.935580959
 40
1.0
 40
1.0
 40
1.0
 40
1.0
 10
11.2973183383
 20
4.852393388
 30
0.0
 10
11.2973183383
 20
4.8447074076
 30
0.0
 10
11.2965133011
 20
4.8293136434
 30
0.0
 10
11.2929031924
 20
4.8064607753
 30
0.0
 10
11.2869254985
 20
4.7840494484
 30
0.0
 10
11.2786384746
 20
4.7622994443
 30
0.0
 10
11.2681227668
 20
4.7414197301
 30
0.0
 10
11.255480542
 20
4.7216117391
 30
0.0
 10
11.2408344125
 20
4.7030660064
 30
0.0
 10
11.2243261762
 20
4.6859607554
 30
0.0
 10
11.2061153948
 20
4.6704601323
 30
0.0
 10
11.1863778297
 20
4.6567126994
 30
0.0
 10
11.165303737
 20
4.6448500692
 30
0.0
 10
11.1430959579
 20
4.6349857479
 30
0.0
 10
11.1199682736
 20
4.6272139663
 30
0.0
 10
11.0961423339
 20
4.6216091473
 30
0.0
 10
11.0718496546
 20
4.6182245716
 30
0.0
 10
11.0554951932
 20
4.6174702328
 30
0.0
 10
11.0473183383
 20
4.6174702328
 30
0.0
  0
SPLINE
  5
275
100
AcDbEntity
  8
0
100
AcDbSpline
 62
7
  6
CONTINUOUS
 70
0
 71
3
 72
23
 73
19
 74
0
 42
0.0000001
 43
0.0000001
 44
0.0000000001
 40
0.0
 40
0.0
 40
0.0
 40
0.0
 40
0.064419041
 40
0.1287648118
 40
0.1929698279
 40
0.2569682728
 40
0.3207033365
 40
0.3841271756
 40
0.4472034252
 40
0.5099085607
 40
0.5722330344
 40
0.6341818882
 40
0.6957748218
 40
0.7570456691
 40
0.8180412675
 40
0.8788197304
 40
0.9394481758
 40
1.0
 40
1.0
 40
1.0
 40
1.0
 10
11.0473183383
 20
4.6174702328
 30
0.0
 10
11.0391414833
 20
4.6174702328
 30
0.0
 10
11.022787022
 20
4.6182245716
 30
0.0
 10
10.9984943426
 20
4.6216091473
 30
0.0
 10
10.974668403
 20
4.6272139663
 30
0.0
 10
10.9515407186
 20
4.6349857479
 30
0.0
 10
10.9293329396
 20
4.6448500692
 30
0.0
 10
10.9082588469
 20
4.6567126994
 30
0.0
 10
10.8885212818
 20
4.6704601323
 30
0.0
 10
10.8703105004
 20
4.6859607554
 30
0.0
 10
10.8538022641
 20
4.7030660064
 30
0.0
 10
10.8391561346
 20
4.7216117391
 30
0.0
 10
10.8265139097
 20
4.7414197301
 30
0.0
 10
10.815998202
 20
4.7622994443
 30
0.0
 10
10.8077111781
 20
4.7840494484
 30
0.0
 10
10.8017334842
 20
4.8064607753
 30
0.0
 10
10.7981233754
 20
4.8293136434
 30
0.0
 10
10.7973183383
 20
4.8447074076
 30
0.0
 10
10.7973183383
 20
4.852393388
 30
0.0
  0
SPLINE
  5
276
100
AcDbEntity
  8
0
100
AcDbSpline
 62
9
  6
CONTINUOUS
 70
0
 71
3
 72
23
 73
19
 74
0
 42
0.0000001
 43
0.0000001
 44
0.0000000001
 40
0.0
 40
0.0
 40
0.0
 40
0.0
 40
0.064419041
 40
0.1287648118
 40
0.1929698279
 40
0.2569682728
 40
0.3207033365
 40
0.3841271756
 40
0.4472034252
 40
0.5099085607
 40
0.5722330344
 40
0.6341818882
 40
0.6957748218
 40
0.7570456691
 40
0.8180412675
 40
0.8788197304
 40
0.9394481758
 40
1.0
 40
1.0
 40
1.0
 40
1.0
 10
11.0473183383
 20
4.8739853403
 30
0.0
 10
11.0391414833
 20
4.8739853403
 30
0.0
 10
11.022787022
 20
4.8747396791
 30
0.0
 10
10.9984943426
 20
4.8781242548
 30
0.0
 10
10.974668403
 20
4.8837290738
 30
0.0
 10
10.9515407186
 20
4.8915008554
 30
0.0
 10
10.9293329396
 20
4.9013651767
 30
0.0
 10
10.9082588469
 20
4.9132278069
 30
0.0
 10
10.8885212818
 20
4.9269752397
 30
0.0
 10
10.8703105004
 20
4.9424758629
 30
0.0
 10
10.8538022641
 20
4.9595811139
 30
0.0
 10
10.8391561346
 20
4.9781268466
 30
0.0
 10
10.8265139097
 20
4.9979348375
 30
0.0
 10
10.815998202
 20
5.0188145518
 30
0.0
 10
10.8077111781
 20
5.0405645559
 30
0.0
 10
10.8017334842
 20
5.0629758828
 30
0.0
 10
10.7981233754
 20
5.0858287509
 30
0.0
 10
10.7973183383
 20
5.1012225151
 30
0.0
 10
10.7973183383
 20
5.1089084955
 30
0.0
  0
SPLINE
  5
277
100
AcDbEntity
  8
0
100
AcDbSpline
 62
9
  6
CONTINUOUS
 70
0
 71
3
 72
23
 73
19
 74
0
 42
0.0000001
 43
0.0000001
 44
0.0000000001
 40
0.0
 40
0.0
 40
0.0
 40
0.0
 40
0.0605518242
 40
0.1211802696
 40
0.1819587325
 40
0.2429543309
 40
0.3042251782
 40
0.3658181118
 40
0.4277669656
 40
0.4900914393
 40
0.5527965748
 40
0.6158728244
 40
0.6792966635
 40
0.7430317272
 40
0.8070301721
 40
0.8712351882
 40
0.935580959
 40
1.0
 40
1.0
 40
1.0
 40
1.0
 10
11.2973183383
 20
5.1089084955
 30
0.0
 10
11.2973183383
 20
5.1012225151
 30
0.0
 10
11.2965133011
 20
5.0858287509
 30
0.0
 10
11.2929031924
 20
5.0629758828
 30
0.0
 10
11.2869254985
 20
5.0405645559
 30
0.0
 10
11.2786384746
 20
5.0188145518
 30
0.0
 10
11.2681227668
 20
4.9979348375
 30
0.0
 10
11.255480542
 20
4.9781268466
 30
0.0
 10
11.2408344125
 20
4.9595811139
 30
0.0
 10
11.2243261762
 20
4.9424758629
 30
0.0
 10
11.2061153948
 20
4.9269752397
 30
0.0
 10
11.1863778297
 20
4.9132278069
 30
0.0
 10
11.165303737
 20
4.9013651767
 30
0.0
 10
11.1430959579
 20
4.8915008554
 30
0.0
 10
11.1199682736
 20
4.8837290738
 30
0.0
 10
11.0961423339
 20
4.8781242548
 30
0.0
 10
11.0718496546
 20
4.8747396791
 30
0.0
 10
11.0554951932
 20
4.8739853403
 30
0.0
 10
11.0473183383
 20
4.8739853403
 30
0.0
  0
SPLINE
  5
278
100
AcDbEntity
  8
0
100
AcDbSpline
 62
7
  6
CONTINUOUS
 70
0
 71
3
 72
39
 73
35
 74
0
 42
0.0000001
 43
0.0000001
 44
0.0000000001
 40
0.0
 40
0.0
 40
0.0
 40
0.0
 40
0.030276167
 40
0.0605900482
 40
0.0909793859
 40
0.1214771614
 40
0.1521125908
 40
0.1829090566
 40
0.2138834887
 40
0.2450457223
 40
0.2763982899
 40
0.3079364089
 40
0.3396483333
 40
0.3715158562
 40
0.4035151167
 40
0.4356174979
 40
0.4677907227
 40
0.5
 40
0.5322092773
 40
0.5643825021
 40
0.5964848833
 40
0.6284841438
 40
0.6603516667
 40
0.6920635911
 40
0.7236017101
 40
0.7549542777
 40
0.7861165113
 40
0.8170909434
 40
0.8478874092
 40
0.8785228386
 40
0.9090206141
 40
0.9394099518
 40
0.969723833
 40
1.0
 40
1.0
 40
1.0
 40
1.0
 10
10.7348183383
 20
4.8181913736
 30
0.0
 10
10.7348183383
 20
4.8085838172
 30
0.0
 10
10.7358245915
 20
4.7893416334
 30
0.0
 10
10.7403373414
 20
4.7607755614
 30
0.0
 10
10.7478093556
 20
4.7327614624
 30
0.0
 10
10.7581681538
 20
4.7055739315
 30
0.0
 10
10.7713127586
 20
4.6794742805
 30
0.0
 10
10.7871155651
 20
4.6547143012
 30
0.0
 10
10.8054232615
 20
4.6315321621
 30
0.0
 10
10.8260585725
 20
4.6101506137
 30
0.0
 10
10.8488220332
 20
4.5907748209
 30
0.0
 10
10.8734939608
 20
4.5735904919
 30
0.0
 10
10.8998365774
 20
4.5587621906
 30
0.0
 10
10.9275962746
 20
4.546431787
 30
0.0
 10
10.9565060201
 20
4.5367171275
 30
0.0
 10
10.9862879398
 20
4.5297110242
 30
0.0
 10
11.0166559255
 20
4.5254804023
 30
0.0
 10
11.0473183383
 20
4.5240656793
 30
0.0
 10
11.0779807511
 20
4.5254804023
 30
0.0
 10
11.1083487367
 20
4.5297110242
 30
0.0
 10
11.1381306565
 20
4.5367171275
 30
0.0
 10
11.1670404019
 20
4.546431787
 30
0.0
 10
11.1948000992
 20
4.5587621906
 30
0.0
 10
11.2211427158
 20
4.5735904919
 30
0.0
 10
11.2458146434
 20
4.5907748209
 30
0.0
 10
11.2685781041
 20
4.6101506137
 30
0.0
 10
11.289213415
 20
4.6315321621
 30
0.0
 10
11.3075211115
 20
4.6547143012
 30
0.0
 10
11.323323918
 20
4.6794742805
 30
0.0
 10
11.3364685228
 20
4.7055739315
 30
0.0
 10
11.3468273209
 20
4.7327614624
 30
0.0
 10
11.3542993351
 20
4.7607755614
 30
0.0
 10
11.3588120851
 20
4.7893416334
 30
0.0
 10
11.3598183383
 20
4.8085838172
 30
0.0
 10
11.3598183383
 20
4.8181913736
 30
0.0
  0
SPLINE
  5
279
100
AcDbEntity
  8
0
100
AcDbSpline
 62
9
  6
CONTINUOUS
 70
0
 71
3
 72
39
 73
35
 74
0
 42
0.0000001
 43
0.0000001
 44
0.0000000001
 40
0.0
 40
0.0
 40
0.0
 40
0.0
 40
0.0302761666
 40
0.0605900489
 40
0.0909793851
 40
0.1214771623
 40
0.1521125896
 40
0.1829090582
 40
0.2138834871
 40
0.2450457236
 40
0.2763982887
 40
0.3079364106
 40
0.3396483316
 40
0.3715158571
 40
0.4035151163
 40
0.4356174986
 40
0.4677907218
 40
0.5
 40
0.5322092782
 40
0.5643825014
 40
0.5964848837
 40
0.6284841429
 40
0.6603516684
 40
0.6920635894
 40
0.7236017113
 40
0.7549542764
 40
0.7861165129
 40
0.8170909418
 40
0.8478874104
 40
0.8785228377
 40
0.9090206149
 40
0.9394099511
 40
0.9697238334
 40
1.0
 40
1.0
 40
1.0
 40
1.0
 10
10.7348183383
 20
4.7976523438
 30
0.0
 10
10.7348183383
 20
4.7880447874
 30
0.0
 10
10.7358245917
 20
4.7688026035
 30
0.0
 10
10.740337341
 20
4.7402365315
 30
0.0
 10
10.747809356
 20
4.7122224324
 30
0.0
 10
10.7581681536
 20
4.6850349019
 30
0.0
 10
10.7713127588
 20
4.6589352503
 30
0.0
 10
10.7871155647
 20
4.6341752716
 30
0.0
 10
10.805423262
 20
4.6109931321
 30
0.0
 10
10.8260585721
 20
4.5896115841
 30
0.0
 10
10.8488220335
 20
4.5702357905
 30
0.0
 10
10.8734939606
 20
4.5530514624
 30
0.0
 10
10.8998365777
 20
4.5382231605
 30
0.0
 10
10.9275962743
 20
4.5258927573
 30
0.0
 10
10.9565060204
 20
4.5161780972
 30
0.0
 10
10.9862879397
 20
4.5091719948
 30
0.0
 10
11.0166559254
 20
4.5049413721
 30
0.0
 10
11.0473183383
 20
4.5035266495
 30
0.0
 10
11.0779807512
 20
4.5049413721
 30
0.0
 10
11.1083487368
 20
4.5091719948
 30
0.0
 10
11.1381306562
 20
4.5161780972
 30
0.0
 10
11.1670404022
 20
4.5258927573
 30
0.0
 10
11.1948000989
 20
4.5382231605
 30
0.0
 10
11.221142716
 20
4.5530514624
 30
0.0
 10
11.245814643
 20
4.5702357905
 30
0.0
 10
11.2685781045
 20
4.5896115841
 30
0.0
 10
11.2892134146
 20
4.6109931321
 30
0.0
 10
11.3075211119
 20
4.6341752716
 30
0.0
 10
11.3233239177
 20
4.6589352503
 30
0.0
 10
11.336468523
 20
4.6850349019
 30
0.0
 10
11.3468273205
 20
4.7122224324
 30
0.0
 10
11.3542993356
 20
4.7402365315
 30
0.0
 10
11.3588120849
 20
4.7688026035
 30
0.0
 10
11.3598183383
 20
4.7880447874
 30
0.0
 10
11.3598183383
 20
4.7976523438
 30
0.0
  0
SPLINE
  5
27A
100
AcDbEntity
  8
0
100
AcDbSpline
 62
9
  6
CONTINUOUS
 70
0
 71
3
 72
11
 73
7
 74
0
 42
0.0000001
 43
0.0000001
 44
0.0000000001
 40
0.0
 40
0.0
 40
0.0
 40
0.0
 40
0.2491079609
 40
0.4985791764
 40
0.7487728158
 40
1.0
 40
1.0
 40
1.0
 40
1.0
 10
10.7252350049
 20
4.7942351125
 30
0.0
 10
10.7252350049
 20
4.8049499212
 30
0.0
 10
10.7264498234
 20
4.8264147022
 30
0.0
 10
10.7318953256
 20
4.858224534
 30
0.0
 10
10.7408995253
 20
4.8893100184
 30
0.0
 10
10.7491919579
 20
4.9092762284
 30
0.0
 10
10.753880381
 20
4.9190121159
 30
0.0
  0
SPLINE
  5
27B
100
AcDbEntity
  8
0
100
AcDbSpline
 62
9
  6
CONTINUOUS
 70
0
 71
3
 72
11
 73
7
 74
0
 42
0.0000001
 43
0.0000001
 44
0.0000000001
 40
0.0
 40
0.0
 40
0.0
 40
0.0
 40
0.2512271842
 40
0.5014208236
 40
0.7508920391
 40
1.0
 40
1.0
 40
1.0
 40
1.0
 10
11.3407562956
 20
4.9190121159
 30
0.0
 10
11.3454447187
 20
4.9092762284
 30
0.0
 10
11.3537371513
 20
4.8893100184
 30
0.0
 10
11.362741351
 20
4.858224534
 30
0.0
 10
11.3681868531
 20
4.8264147022
 30
0.0
 10
11.3694016716
 20
4.8049499212
 30
0.0
 10
11.3694016716
 20
4.7942351125
 30
0.0
  0
ENDSEC
  0
SECTION
  2
OBJECTS
  0
DICTIONARY
  5
C
100
AcDbDictionary
280
0
281
1
  3
ACAD_GROUP
350
D
  3
ACAD_MLINESTYLE
350
17
  3
ACAD_LAYOUT
350
1A
  3
ACAD_PLOTSETTINGS
350
19
  3
ACAD_PLOTSTYLENAME
350
E
  0
DICTIONARY
  5
D
102
{ACAD_REACTORS
330
C
102
}
100
AcDbDictionary
280
0
281
1
  0
ACDBDICTIONARYWDFLT
  5
E
102
{ACAD_REACTORS
330
C
102
}
100
AcDbDictionary
281
1
  3
Normal
350
F
100
AcDbDictionaryWithDefault
340
F
  0
DICTIONARY
  5
17
102
{ACAD_REACTORS
330
C
102
}
100
AcDbDictionary
280
0
281
1
  3
Standard
350
18
  0
DICTIONARY
  5
19
102
{ACAD_REACTORS
330
C
102
}
100
AcDbDictionary
281
1
  0
DICTIONARY
  5
1A
102
{ACAD_REACTORS
330
C
102
}
100
AcDbDictionary
281
1
  3
Model
350
27C
  3
Layout1
350
27D
  0
ACDBPLACEHOLDER
  5
F
102
{ACAD_REACTORS
330
E
102
}
  0
MLINESTYLE
  5
18
102
{ACAD_REACTORS
330
17
102
}
100
AcDbMlineStyle
  2
STANDARD
 70
0
  3

 62
256
 51
90.0
 52
90.0
 71
2
 49
0.5
 62
256
  6
BYLAYER
 49
-0.5
 62
256
  6
BYLAYER
  0
LAYOUT
  5
27C
102
{ACAD_REACTORS
330
1A
102
}
100
AcDbPlotSettings
  1

  2
none_device
  4
ANSI_C_(22.00_x_17.00_Inches)
  6

 40
0.0
 41
0.0
 42
0.0
 43
0.0
 44
558.8
 45
431.8
 46
0.0
 47
0.0
 48
0.0
 49
0.0
140
0.0
141
0.0
142
1.0
143
1.0
 70
1024
 72
0
 73
0
 74
0
  7

 75
0
147
1.0
148
0.0
149
0.0
100
AcDbLayout
  1
Model
 70
0
 71
0
 10
0.0
 20
0.0
 11
22.0
 21
17.0
 12
0.0
 22
0.0
 32
0.0
 14
0.0
 24
0.0
 34
0.0
 15
0.0
 25
0.0
 35
0.0
146
0.0
 13
0.0
 23
0.0
 33
0.0
 16
1.0
 26
0.0
 36
0.0
 17
0.0
 27
1.0
 37
0.0
 76
0
330
205
345
0
346
0
  0
LAYOUT
  5
27D
102
{ACAD_REACTORS
330
1A
102
}
100
AcDbPlotSettings
  1

  2
none_device
  4
ANSI_C_(22.00_x_17.00_Inches)
  6

 40
0.0
 41
0.0
 42
0.0
 43
0.0
 44
558.8
 45
431.8
 46
0.0
 47
0.0
 48
0.0
 49
0.0
140
0.0
141
0.0
142
1.0
143
1.0
 70
0
 72
0
 73
0
 74
0
  7

 75
0
147
1.0
148
0.0
149
0.0
100
AcDbLayout
  1
Layout1
 70
0
 71
1
 10
0.0
 20
0.0
 11
22.0
 21
17.0
 12
0.0
 22
0.0
 32
0.0
 14
0.0
 24
0.0
 34
0.0
 15
0.0
 25
0.0
 35
0.0
146
0.0
 13
0.0
 23
0.0
 33
0.0
 16
1.0
 26
0.0
 36
0.0
 17
0.0
 27
1.0
 37
0.0
 76
0
330
206
345
0
346
0
  0
ENDSEC
  0
EOF
