999
DXF file: E:\BT Custom\CADOUTPUT\_FRONT.dxf
999
Pro/ENGINEER 2018400 by Parametric Technology Corporation
  0
SECTION
  2
HEADER
  9
$ACADVER
  1
AC1018
  9
$DWGCODEPAGE
  3
ANSI_1252
  9
$EXTMAX
 10
22.0
 20
17.0
 30
0.0
  9
$EXTMIN
 10
0.0
 20
0.0
 30
0.0
  9
$LIMMIN
 10
0.0
 20
0.0
  9
$LIMMAX
 10
22.0
 20
17.0
  9
$VIEWCTR
 10
11.0
 20
8.5
  9
$VIEWSIZE
 40
17.0
  9
$CLAYER
  8
0
  9
$LTSCALE
 40
1.21
  9
$CELTYPE
  6
BYLAYER
  9
$DIMSCALE
 40
1.0
  9
$DIMASZ
 40
0.1
  9
$DIMEXO
 40
0.0625
  9
$DIMDLI
 40
0.836
  9
$DIMEXE
 40
0.125
  9
$DIMCEN
 40
0.198
  9
$DIMLFAC
 40
1.0
  9
$DIMBLK
  1
_FILLED
  9
$DIMALT
 70
1
  9
$DIMALTD
 70
2
  9
$DIMALTTD
 70
2
  9
$DIMALTF
 40
25.4
  9
$DIMTXT
 40
0.08
  9
$DIMTOL
 70
1
  9
$DIMLIM
 70
0
  9
$DIMTFAC
 40
1.0
  9
$DIMTP
 40
0.001
  9
$DIMTM
 40
0.001
  9
$DIMGAP
 40
0.09
  9
$DIMDSEP
 70
46
  9
$AUNITS
 70
0
  9
$PDMODE
 70
3
  9
$PDSIZE
 40
0.06
  9
$HANDSEED
  5
27F
  9
$TILEMODE
 70
1
  9
$MEASUREMENT
 70
0
  9
$INSUNITS
 70
1
  0
ENDSEC
  0
SECTION
  2
CLASSES
  0
CLASS
  1
ACDBDICTIONARYWDFLT
  2
AcDbDictionaryWithDefault
  3
AutoCAD 2000
 90
0
 91
1
280
0
281
0
  0
CLASS
  1
ACDBPLACEHOLDER
  2
AcDbPlaceHolder
  3
AutoCAD 2000
 90
0
 91
1
280
0
281
0
  0
CLASS
  1
LAYOUT
  2
AcDbLayout
  3
AutoCAD 2000
 90
0
 91
0
280
0
281
0
  0
ENDSEC
  0
SECTION
  2
TABLES
  0
TABLE
  2
VPORT
  5
8
100
AcDbSymbolTable
 70
2
  0
VPORT
  5
1F4
100
AcDbSymbolTableRecord
100
AcDbViewportTableRecord
  2
*ACTIVE
 70
0
 10
0.0
 20
0.0
 11
1.0
 21
1.0
 12
11.0
 22
8.5
 13
0.0
 23
0.0
 14
1.0
 24
1.0
 15
0.0
 25
0.0
 16
0.0
 26
0.0
 36
1.0
 17
0.0
 27
0.0
 37
0.0
 40
17.0
 41
1.2941176471
 42
50.0
 43
0.0
 44
0.0
 50
0.0
 51
0.0
 71
0
 72
100
 73
1
 74
1
 75
0
 76
0
 77
0
 78
0
  0
ENDTAB
  0
TABLE
  2
LTYPE
  5
5
100
AcDbSymbolTable
 70
6
  0
LTYPE
  5
14
100
AcDbSymbolTableRecord
100
AcDbLinetypeTableRecord
  2
BYBLOCK
 70
0
  3

 72
65
 73
0
 40
0.0
  0
LTYPE
  5
15
100
AcDbSymbolTableRecord
100
AcDbLinetypeTableRecord
  2
BYLAYER
 70
0
  3

 72
65
 73
0
 40
0.0
  0
LTYPE
  5
16
100
AcDbSymbolTableRecord
100
AcDbLinetypeTableRecord
  2
CONTINUOUS
 70
64
  3
Solid line
 72
65
 73
0
 40
0.0
  0
LTYPE
  5
1F5
100
AcDbSymbolTableRecord
100
AcDbLinetypeTableRecord
  2
CENTER
 70
64
  3
____ _ ____ _ ____ _ ____ _ ____ _ ____ _ ____
 72
65
 73
4
 40
0.6
 49
0.375
 74
0
 49
-0.075
 74
0
 49
0.075
 74
0
 49
-0.075
 74
0
  0
LTYPE
  5
1F6
100
AcDbSymbolTableRecord
100
AcDbLinetypeTableRecord
  2
HIDDEN
 70
64
  3
- - - - - - - - - - - - - - - - - - - -
 72
65
 73
2
 40
0.2
 49
0.1
 74
0
 49
-0.1
 74
0
  0
LTYPE
  5
1F7
100
AcDbSymbolTableRecord
100
AcDbLinetypeTableRecord
  2
PHANTOM
 70
64
  3
_____ _ _ _____ _ _ _____ _ _ _____
 72
65
 73
6
 40
0.8
 49
0.45
 74
0
 49
-0.05
 74
0
 49
0.1
 74
0
 49
-0.05
 74
0
 49
0.1
 74
0
 49
-0.05
 74
0
  0
LTYPE
  5
1F8
100
AcDbSymbolTableRecord
100
AcDbLinetypeTableRecord
  2
DOT
 70
64
  3
. . . . . . . . . . . . . . . . . . . .
 72
65
 73
2
 40
0.2
 49
0.1
 74
0
 49
-0.1
 74
0
  0
LTYPE
  5
1F9
100
AcDbSymbolTableRecord
100
AcDbLinetypeTableRecord
  2
DASHED
 70
64
  3
- - - - - - - - - - - - - - - - - - - -
 72
65
 73
2
 40
0.2
 49
0.1
 74
0
 49
-0.1
 74
0
  0
ENDTAB
  0
TABLE
  2
LAYER
  5
2
100
AcDbSymbolTable
 70
36
  0
LAYER
  5
10
100
AcDbSymbolTableRecord
100
AcDbLayerTableRecord
  2
0
 70
0
 62
7
  6
CONTINUOUS
370
-3
390
F
  0
LAYER
  5
1FA
100
AcDbSymbolTableRecord
100
AcDbLayerTableRecord
  2
DEFAULT_1
 70
0
 62
7
  6
CENTER
370
-3
390
F
  0
LAYER
  5
1FB
100
AcDbSymbolTableRecord
100
AcDbLayerTableRecord
  2
DEFAULT_2
 70
0
 62
8
  6
HIDDEN
370
-3
390
F
  0
LAYER
  5
1FC
100
AcDbSymbolTableRecord
100
AcDbLayerTableRecord
  2
DEFAULT_3
 70
0
 62
7
  6
PHANTOM
370
-3
390
F
  0
LAYER
  5
1FD
100
AcDbSymbolTableRecord
100
AcDbLayerTableRecord
  2
ALL_FEATURES
 70
0
 62
7
  6
CONTINUOUS
370
-3
390
F
  0
LAYER
  5
1FE
100
AcDbSymbolTableRecord
100
AcDbLayerTableRecord
  2
AXES_FEATURES
 70
0
 62
7
  6
CONTINUOUS
370
-3
390
F
  0
LAYER
  5
1FF
100
AcDbSymbolTableRecord
100
AcDbLayerTableRecord
  2
DEFAULT_COORDINATE_SYSTEM
 70
0
 62
7
  6
CONTINUOUS
370
-3
390
F
  0
LAYER
  5
200
100
AcDbSymbolTableRecord
100
AcDbLayerTableRecord
  2
DEFAULT_DATUM_AXES
 70
0
 62
7
  6
CONTINUOUS
370
-3
390
F
  0
LAYER
  5
201
100
AcDbSymbolTableRecord
100
AcDbLayerTableRecord
  2
DEFAULT_DATUM_PLANES
 70
0
 62
7
  6
CONTINUOUS
370
-3
390
F
  0
LAYER
  5
202
100
AcDbSymbolTableRecord
100
AcDbLayerTableRecord
  2
DIMENSIONS
 70
0
 62
7
  6
CONTINUOUS
370
-3
390
F
  0
ENDTAB
  0
TABLE
  2
STYLE
  5
3
100
AcDbSymbolTable
 70
1
  0
STYLE
  5
11
100
AcDbSymbolTableRecord
100
AcDbTextStyleTableRecord
  2
STANDARD
 70
0
 40
0.0
 41
0.8
 50
0.0
 71
0
 42
0.2
  3
txt
  4

  0
STYLE
  5
203
100
AcDbSymbolTableRecord
100
AcDbTextStyleTableRecord
  2
TEXTSTYLE_1
 70
0
 40
0.0
 41
0.8
 50
0.0
 71
0
 42
0.2
  3
gdt
  4

  0
ENDTAB
  0
TABLE
  2
VIEW
  5
6
100
AcDbSymbolTable
 70
0
  0
ENDTAB
  0
TABLE
  2
UCS
  5
7
100
AcDbSymbolTable
 70
0
  0
ENDTAB
  0
TABLE
  2
APPID
  5
9
100
AcDbSymbolTable
 70
1
  0
APPID
  5
204
100
AcDbSymbolTableRecord
100
AcDbRegAppTableRecord
  2
ACAD
 70
0
  0
ENDTAB
  0
TABLE
  2
BLOCK_RECORD
  5
1
100
AcDbSymbolTable
 70
0
  0
BLOCK_RECORD
  5
205
100
AcDbSymbolTableRecord
100
AcDbBlockTableRecord
  2
*Model_Space
  0
BLOCK_RECORD
  5
206
100
AcDbSymbolTableRecord
100
AcDbBlockTableRecord
  2
*Paper_Space
  0
BLOCK_RECORD
  5
207
100
AcDbSymbolTableRecord
100
AcDbBlockTableRecord
  2
_FILLED
  0
ENDTAB
  0
TABLE
  2
DIMSTYLE
  5
A
100
AcDbSymbolTable
 70
1
100
AcDbDimStyleTable
 71
0
  0
DIMSTYLE
105
208
100
AcDbSymbolTableRecord
100
AcDbDimStyleTableRecord
  2
STANDARD
 70
0
  3

  4

 40
1.0
 41
0.1
 42
0.0625
 43
0.38
 44
0.125
 45
0.0
 46
0.0
 47
0.001
 48
0.001
140
0.08
141
0.09
142
0.0
143
25.4
144
1.0
145
0.0
146
1.0
147
0.09
 71
1.0
 72
0.0
 73
1
 74
1
 75
0
 76
0
 77
0
 78
4
 79
1
170
1
171
2
172
0
173
0
174
0
175
0
176
0
177
0
178
0
270
2
179
3
271
3
272
3
273
2
274
2
275
0
280
0
281
0
282
0
283
1
284
4
285
0
286
0
287
3
288
0
340
11
278
46
341
207
342
207
343
207
344
207
  0
ENDTAB
  0
ENDSEC
  0
SECTION
  2
BLOCKS
  0
BLOCK
  5
20
100
AcDbEntity
  8
0
100
AcDbBlockBegin
  2
*Model_Space
 70
0
 10
0.0
 20
0.0
 30
0.0
  3
*Model_Space
  1

  0
ENDBLK
  5
21
100
AcDbEntity
  8
0
100
AcDbBlockEnd
  0
BLOCK
  5
1C
100
AcDbEntity
  8
0
100
AcDbBlockBegin
  2
*Paper_Space
 70
0
 10
0.0
 20
0.0
 30
0.0
  3
*Paper_Space
  1

  0
ENDBLK
  5
1D
100
AcDbEntity
  8
0
100
AcDbBlockEnd
  0
BLOCK
  5
209
100
AcDbEntity
  8
0
100
AcDbBlockBegin
  2
_FILLED
 70
64
 10
0.0
 20
0.0
  3
_FILLED
  1

  0
SOLID
  5
20A
100
AcDbEntity
  8
0
  6
BYBLOCK
 62
0
100
AcDbTrace
 10
0.0
 20
0.0
 11
-1.0
 21
0.2
 12
-1.0
 22
-0.2
 13
-1.0
 23
-0.2
  0
ENDBLK
  5
20B
100
AcDbEntity
  8
0
  6
BYBLOCK
 62
0
100
AcDbBlockEnd
  0
ENDSEC
  0
SECTION
  2
ENTITIES
  0
LINE
  5
20C
100
AcDbEntity
  8
0
100
AcDbLine
 62
7
  6
CONTINUOUS
 10
9.028672397
 20
4.5405580246
 11
11.228672397
 21
4.5405580246
  0
LINE
  5
20D
100
AcDbEntity
  8
0
100
AcDbLine
 62
7
  6
CONTINUOUS
 10
9.178672397
 20
4.734207192
 11
11.078672397
 21
4.734207192
  0
LINE
  5
20E
100
AcDbEntity
  8
0
100
AcDbLine
 62
7
  6
CONTINUOUS
 10
9.318672397
 20
4.9655580246
 11
10.938672397
 21
4.9655580246
  0
LINE
  5
20F
100
AcDbEntity
  8
0
100
AcDbLine
 62
9
  6
CONTINUOUS
 10
10.933672397
 20
4.9916632612
 11
9.323672397
 21
4.9916632612
  0
LINE
  5
210
100
AcDbEntity
  8
0
100
AcDbLine
 62
9
  6
CONTINUOUS
 10
10.8970561179
 20
5.1031395772
 11
9.360288676
 21
5.1031395772
  0
LINE
  5
211
100
AcDbEntity
  8
0
100
AcDbLine
 62
9
  6
CONTINUOUS
 10
10.8188152541
 20
5.5366461756
 11
9.4385295398
 21
5.5366461756
  0
LINE
  5
212
100
AcDbEntity
  8
0
100
AcDbLine
 62
7
  6
CONTINUOUS
 10
10.8797929118
 20
5.8838083821
 11
10.9037122885
 21
5.8838083821
  0
LINE
  5
213
100
AcDbEntity
  8
0
100
AcDbLine
 62
7
  6
CONTINUOUS
 10
11.7537122885
 20
6.0588083821
 11
11.9920124086
 21
6.0588083821
  0
LINE
  5
214
100
AcDbEntity
  8
0
100
AcDbLine
 62
7
  6
CONTINUOUS
 10
11.7537122885
 20
6.2088083821
 11
11.7337122885
 21
6.2088083821
  0
LINE
  5
215
100
AcDbEntity
  8
0
100
AcDbLine
 62
7
  6
CONTINUOUS
 10
11.7537122885
 20
6.5088083821
 11
11.7337122885
 21
6.5088083821
  0
LINE
  5
216
100
AcDbEntity
  8
0
100
AcDbLine
 62
7
  6
CONTINUOUS
 10
11.7537122885
 20
6.6588083821
 11
11.9920124086
 21
6.6588083821
  0
LINE
  5
217
100
AcDbEntity
  8
0
100
AcDbLine
 62
7
  6
CONTINUOUS
 10
12.1867122885
 20
6.8037802914
 11
12.5467122885
 21
6.8037802914
  0
LINE
  5
218
100
AcDbEntity
  8
0
100
AcDbLine
 62
7
  6
CONTINUOUS
 10
12.1867122885
 20
6.8238083821
 11
12.5467122885
 21
6.8238083821
  0
LINE
  5
219
100
AcDbEntity
  8
0
100
AcDbLine
 62
7
  6
CONTINUOUS
 10
10.8797929119
 20
6.8338083821
 11
10.9037122885
 21
6.8338083821
  0
LINE
  5
21A
100
AcDbEntity
  8
0
100
AcDbLine
 62
7
  6
CONTINUOUS
 10
12.1267122885
 20
7.0238083821
 11
12.6067122885
 21
7.0238083821
  0
LINE
  5
21B
100
AcDbEntity
  8
0
100
AcDbLine
 62
7
  6
CONTINUOUS
 10
12.1267122885
 20
7.1038083821
 11
12.6067122885
 21
7.1038083821
  0
LINE
  5
21C
100
AcDbEntity
  8
0
100
AcDbLine
 62
7
  6
CONTINUOUS
 10
10.828672397
 20
7.1455580246
 11
9.428672397
 21
7.1455580246
  0
LINE
  5
21D
100
AcDbEntity
  8
0
100
AcDbLine
 62
7
  6
CONTINUOUS
 10
9.603172397
 20
7.2825580246
 11
10.654172397
 21
7.2825580246
  0
LINE
  5
21E
100
AcDbEntity
  8
0
100
AcDbLine
 62
7
  6
CONTINUOUS
 10
10.466172397
 20
7.4705580246
 11
9.791172397
 21
7.4705580246
  0
LINE
  5
21F
100
AcDbEntity
  8
0
100
AcDbLine
 62
7
  6
CONTINUOUS
 10
10.466172397
 20
7.5455580246
 11
9.791172397
 21
7.5455580246
  0
LINE
  5
220
100
AcDbEntity
  8
0
100
AcDbLine
 62
7
  6
CONTINUOUS
 10
9.323672397
 20
4.9655580246
 11
9.323672397
 21
4.9916632612
  0
LINE
  5
221
100
AcDbEntity
  8
0
100
AcDbLine
 62
7
  6
CONTINUOUS
 10
10.453672397
 20
7.7955580246
 11
9.803672397
 21
7.7955580246
  0
LINE
  5
222
100
AcDbEntity
  8
0
100
AcDbLine
 62
9
  6
CONTINUOUS
 10
9.816172397
 20
11.2982452905
 11
9.8163993741
 21
11.2941723896
  0
LINE
  5
223
100
AcDbEntity
  8
0
100
AcDbLine
 62
7
  6
CONTINUOUS
 10
9.847172397
 20
11.0200106246
 11
9.8473773417
 21
11.0163417617
  0
LINE
  5
224
100
AcDbEntity
  8
0
100
AcDbLine
 62
7
  6
CONTINUOUS
 10
9.791172397
 20
7.5455580246
 11
9.791172397
 21
7.4705580246
  0
LINE
  5
225
100
AcDbEntity
  8
0
100
AcDbLine
 62
7
  6
CONTINUOUS
 10
9.816172397
 20
11.4448182507
 11
9.816172397
 21
11.4663646195
  0
LINE
  5
226
100
AcDbEntity
  8
0
100
AcDbLine
 62
7
  6
CONTINUOUS
 10
9.878672397
 20
13.745547477
 11
9.878672397
 21
11.6070644673
  0
LINE
  5
227
100
AcDbEntity
  8
0
100
AcDbLine
 62
7
  6
CONTINUOUS
 10
9.878672397
 20
7.7955580246
 11
9.878672397
 21
10.9759365821
  0
LINE
  5
228
100
AcDbEntity
  8
0
100
AcDbLine
 62
7
  6
CONTINUOUS
 10
9.8437786032
 20
11.5629947517
 11
9.8392654207
 21
11.5064691004
  0
LINE
  5
229
100
AcDbEntity
  8
0
100
AcDbLine
 62
7
  6
CONTINUOUS
 10
10.4409454199
 20
11.2941723896
 11
10.409967936
 21
11.0163417554
  0
LINE
  5
22A
100
AcDbEntity
  8
0
100
AcDbLine
 62
9
  6
CONTINUOUS
 10
12.0667122885
 20
8.5038083821
 11
12.6667122885
 21
8.5038083821
  0
LINE
  5
22B
100
AcDbEntity
  8
0
100
AcDbLine
 62
7
  6
CONTINUOUS
 10
9.8163993741
 20
11.2941723896
 11
9.8473768579
 21
11.0163417554
  0
LINE
  5
22C
100
AcDbEntity
  8
0
100
AcDbLine
 62
7
  6
CONTINUOUS
 10
10.4135661907
 20
11.5629947517
 11
10.4180793732
 21
11.5064691004
  0
LINE
  5
22D
100
AcDbEntity
  8
0
100
AcDbLine
 62
7
  6
CONTINUOUS
 10
10.378672397
 20
13.745547477
 11
10.378672397
 21
11.6070644673
  0
LINE
  5
22E
100
AcDbEntity
  8
0
100
AcDbLine
 62
7
  6
CONTINUOUS
 10
10.378672397
 20
7.7955580246
 11
10.378672397
 21
10.9759365821
  0
LINE
  5
22F
100
AcDbEntity
  8
0
100
AcDbLine
 62
7
  6
CONTINUOUS
 10
10.441172397
 20
11.4448704115
 11
10.441172397
 21
11.4663646195
  0
LINE
  5
230
100
AcDbEntity
  8
0
100
AcDbLine
 62
7
  6
CONTINUOUS
 10
10.466172397
 20
7.5455580246
 11
10.466172397
 21
7.4705580246
  0
LINE
  5
231
100
AcDbEntity
  8
0
100
AcDbLine
 62
9
  6
CONTINUOUS
 10
10.4409454199
 20
11.2941723896
 11
10.441172397
 21
11.2982452905
  0
LINE
  5
232
100
AcDbEntity
  8
0
100
AcDbLine
 62
7
  6
CONTINUOUS
 10
10.4099674522
 20
11.0163417617
 11
10.410172397
 21
11.0200106246
  0
LINE
  5
233
100
AcDbEntity
  8
0
100
AcDbLine
 62
7
  6
CONTINUOUS
 10
12.2167122885
 20
8.9538083821
 11
12.5167122885
 21
8.9538083821
  0
LINE
  5
234
100
AcDbEntity
  8
0
100
AcDbLine
 62
9
  6
CONTINUOUS
 10
10.9037122885
 20
6.8338083821
 11
10.9037122885
 21
5.8838083821
  0
LINE
  5
235
100
AcDbEntity
  8
0
100
AcDbLine
 62
7
  6
CONTINUOUS
 10
10.933672397
 20
4.9655580246
 11
10.933672397
 21
4.9916632612
  0
LINE
  5
236
100
AcDbEntity
  8
0
100
AcDbLine
 62
9
  6
CONTINUOUS
 10
10.9465932343
 20
6.8580940964
 11
10.9465932343
 21
5.8595226678
  0
LINE
  5
237
100
AcDbEntity
  8
0
100
AcDbLine
 62
7
  6
CONTINUOUS
 10
12.2167122885
 20
9.0038083821
 11
12.5167122885
 21
9.0038083821
  0
LINE
  5
238
100
AcDbEntity
  8
0
100
AcDbLine
 62
7
  6
CONTINUOUS
 10
12.2267122885
 20
9.0138083821
 11
12.5067122885
 21
9.0138083821
  0
LINE
  5
239
100
AcDbEntity
  8
0
100
AcDbLine
 62
7
  6
CONTINUOUS
 10
12.3708600915
 20
9.0938866112
 11
12.3625644856
 21
9.0938866112
  0
LINE
  5
23A
100
AcDbEntity
  8
0
100
AcDbLine
 62
9
  6
CONTINUOUS
 10
11.1609979631
 20
6.8580940964
 11
11.1609979631
 21
5.8595226678
  0
LINE
  5
23B
100
AcDbEntity
  8
0
100
AcDbLine
 62
9
  6
CONTINUOUS
 10
11.2315174488
 20
6.8421417155
 11
11.2315174488
 21
5.8754750488
  0
LINE
  5
23C
100
AcDbEntity
  8
0
100
AcDbLine
 62
9
  6
CONTINUOUS
 10
11.3561181646
 20
6.8308794131
 11
11.3561181646
 21
5.8867373512
  0
LINE
  5
23D
100
AcDbEntity
  8
0
100
AcDbLine
 62
7
  6
CONTINUOUS
 10
12.1867122885
 20
6.8238083821
 11
12.1267122885
 21
7.0238083821
  0
LINE
  5
23E
100
AcDbEntity
  8
0
100
AcDbLine
 62
7
  6
CONTINUOUS
 10
11.7337122885
 20
6.6588083821
 11
11.7337122885
 21
6.0588083821
  0
LINE
  5
23F
100
AcDbEntity
  8
0
100
AcDbLine
 62
7
  6
CONTINUOUS
 10
11.7537122885
 20
6.6588083821
 11
11.7537122885
 21
6.0588083821
  0
LINE
  5
240
100
AcDbEntity
  8
0
100
AcDbLine
 62
7
  6
CONTINUOUS
 10
11.9920124086
 20
6.6588083821
 11
11.9920124086
 21
6.0588083821
  0
LINE
  5
241
100
AcDbEntity
  8
0
100
AcDbLine
 62
7
  6
CONTINUOUS
 10
12.5067122884
 20
9.0138083822
 11
12.5167122884
 21
9.0038083823
  0
LINE
  5
242
100
AcDbEntity
  8
0
100
AcDbLine
 62
7
  6
CONTINUOUS
 10
12.1267122885
 20
7.0238083821
 11
12.1267122885
 21
7.1038083821
  0
LINE
  5
243
100
AcDbEntity
  8
0
100
AcDbLine
 62
7
  6
CONTINUOUS
 10
12.1867122885
 20
6.8037802914
 11
12.1867122885
 21
6.8238083821
  0
LINE
  5
244
100
AcDbEntity
  8
0
100
AcDbLine
 62
7
  6
CONTINUOUS
 10
12.2167122885
 20
8.9538083821
 11
12.2167122885
 21
9.0038083821
  0
LINE
  5
245
100
AcDbEntity
  8
0
100
AcDbLine
 62
7
  6
CONTINUOUS
 10
12.2267122886
 20
9.0138083822
 11
12.2167122886
 21
9.0038083823
  0
LINE
  5
246
100
AcDbEntity
  8
0
100
AcDbLine
 62
7
  6
CONTINUOUS
 10
12.5167122885
 20
8.9538083821
 11
12.5167122885
 21
9.0038083821
  0
LINE
  5
247
100
AcDbEntity
  8
0
100
AcDbLine
 62
7
  6
CONTINUOUS
 10
12.5467122885
 20
6.8238083821
 11
12.5467122885
 21
6.8037802914
  0
LINE
  5
248
100
AcDbEntity
  8
0
100
AcDbLine
 62
7
  6
CONTINUOUS
 10
12.6067122885
 20
7.0238083821
 11
12.6067122885
 21
7.1038083821
  0
LINE
  5
249
100
AcDbEntity
  8
0
100
AcDbLine
 62
7
  6
CONTINUOUS
 10
12.5467122885
 20
6.8238083821
 11
12.6067122885
 21
7.0238083821
  0
ARC
  5
24A
100
AcDbEntity
  8
0
100
AcDbCircle
 62
7
  6
CONTINUOUS
 10
4.1347612403
 20
7.4625819086
 40
8.0
100
AcDbArc
 50
357.4296117947
 51
7.4784515544
  0
ARC
  5
24B
100
AcDbEntity
  8
0
100
AcDbCircle
 62
7
  6
CONTINUOUS
 10
12.323672397
 20
6.3588083821
 40
3.0
100
AcDbArc
 50
164.7963959067
 51
195.9056507815
  0
ARC
  5
24C
100
AcDbEntity
  8
0
100
AcDbCircle
 62
7
  6
CONTINUOUS
 10
7.933672397
 20
6.3588083821
 40
3.0
100
AcDbArc
 50
344.0943492185
 51
350.4059317731
  0
ARC
  5
24D
100
AcDbEntity
  8
0
100
AcDbCircle
 62
7
  6
CONTINUOUS
 10
7.933672397
 20
6.3588083821
 40
3.0
100
AcDbArc
 50
9.5940682269
 51
15.2036040933
  0
ARC
  5
24E
100
AcDbEntity
  8
0
100
AcDbCircle
 62
7
  6
CONTINUOUS
 10
11.789390889
 20
5.4362934077
 40
0.625
100
AcDbArc
 50
95.111013774
 51
133.8868439077
  0
ARC
  5
24F
100
AcDbEntity
  8
0
100
AcDbCircle
 62
7
  6
CONTINUOUS
 10
11.789390889
 20
7.2813233566
 40
0.625
100
AcDbArc
 50
226.1131560923
 51
264.888986226
  0
ARC
  5
250
100
AcDbEntity
  8
0
100
AcDbCircle
 62
7
  6
CONTINUOUS
 10
12.128618753
 20
8.5744438703
 40
0.5427098904
100
AcDbArc
 50
352.5215484456
 51
44.3483492002
  0
ARC
  5
251
100
AcDbEntity
  8
0
100
AcDbCircle
 62
7
  6
CONTINUOUS
 10
11.299672397
 20
5.3996191412
 40
0.5
100
AcDbArc
 50
164.0943492185
 51
216.3672792948
  0
ARC
  5
252
100
AcDbEntity
  8
0
100
AcDbCircle
 62
7
  6
CONTINUOUS
 10
8.957672397
 20
5.3996191412
 40
0.5
100
AcDbArc
 50
323.6327207052
 51
15.9056507815
  0
ARC
  5
253
100
AcDbEntity
  8
0
100
AcDbCircle
 62
7
  6
CONTINUOUS
 10
9.4285797362
 20
4.7410132033
 40
0.25
100
AcDbArc
 50
116.0802350496
 51
181.5600156492
  0
ARC
  5
254
100
AcDbEntity
  8
0
100
AcDbCircle
 62
7
  6
CONTINUOUS
 10
10.8287650577
 20
4.7410132033
 40
0.25
100
AcDbArc
 50
358.4399843508
 51
63.9197649504
  0
ARC
  5
255
100
AcDbEntity
  8
0
100
AcDbCircle
 62
7
  6
CONTINUOUS
 10
10.302067593
 20
7.6626652844
 40
0.201604804
100
AcDbArc
 50
324.4878667705
 51
41.2369436817
  0
ARC
  5
256
100
AcDbEntity
  8
0
100
AcDbCircle
 62
7
  6
CONTINUOUS
 10
9.9552772009
 20
7.6626652844
 40
0.201604804
100
AcDbArc
 50
138.7630563183
 51
215.5121332295
  0
ARC
  5
257
100
AcDbEntity
  8
0
100
AcDbCircle
 62
7
  6
CONTINUOUS
 10
9.228672397
 20
4.5405580246
 40
0.2
100
AcDbArc
 50
104.4775121859
 51
180.0
  0
ARC
  5
258
100
AcDbEntity
  8
0
100
AcDbCircle
 62
7
  6
CONTINUOUS
 10
11.028672397
 20
4.5405580246
 40
0.2
100
AcDbArc
 50
0.0
 51
75.5224878141
  0
ARC
  5
259
100
AcDbEntity
  8
0
100
AcDbCircle
 62
7
  6
CONTINUOUS
 10
10.745672397
 20
4.9916632612
 40
0.188
100
AcDbArc
 50
0.0
 51
36.3672792948
  0
ARC
  5
25A
100
AcDbEntity
  8
0
100
AcDbCircle
 62
7
  6
CONTINUOUS
 10
9.511672397
 20
4.9916632612
 40
0.188
100
AcDbArc
 50
143.6327207052
 51
180.0
  0
ARC
  5
25B
100
AcDbEntity
  8
0
100
AcDbCircle
 62
7
  6
CONTINUOUS
 10
9.6096541309
 20
7.0946697942
 40
0.188
100
AcDbArc
 50
91.9757958016
 51
164.2951415933
  0
ARC
  5
25C
100
AcDbEntity
  8
0
100
AcDbCircle
 62
7
  6
CONTINUOUS
 10
10.6476906631
 20
7.0946697942
 40
0.188
100
AcDbArc
 50
15.7048584067
 51
88.0242041984
  0
ARC
  5
25D
100
AcDbEntity
  8
0
100
AcDbCircle
 62
7
  6
CONTINUOUS
 10
10.466172397
 20
7.2825580246
 40
0.188
100
AcDbArc
 50
0.0
 51
90.0
  0
ARC
  5
25E
100
AcDbEntity
  8
0
100
AcDbCircle
 62
7
  6
CONTINUOUS
 10
9.791172397
 20
7.2825580246
 40
0.188
100
AcDbArc
 50
90.0
 51
180.0
  0
ARC
  5
25F
100
AcDbEntity
  8
0
100
AcDbCircle
 62
7
  6
CONTINUOUS
 10
11.0537955987
 20
6.7938083821
 40
0.125
100
AcDbArc
 50
30.9497230789
 51
149.0502769211
  0
ARC
  5
260
100
AcDbEntity
  8
0
100
AcDbCircle
 62
7
  6
CONTINUOUS
 10
11.0537955987
 20
5.9238083821
 40
0.125
100
AcDbArc
 50
210.9497230789
 51
329.0502769211
  0
ARC
  5
261
100
AcDbEntity
  8
0
100
AcDbCircle
 62
7
  6
CONTINUOUS
 10
12.3625644856
 20
8.9838866112
 40
0.11
100
AcDbArc
 50
90.0
 51
164.2157281868
  0
ARC
  5
262
100
AcDbEntity
  8
0
100
AcDbCircle
 62
7
  6
CONTINUOUS
 10
11.2867945287
 20
6.7588083821
 40
0.1
100
AcDbArc
 50
46.1131560923
 51
123.5573097619
  0
ARC
  5
263
100
AcDbEntity
  8
0
100
AcDbCircle
 62
7
  6
CONTINUOUS
 10
11.2867945287
 20
5.9588083821
 40
0.1
100
AcDbArc
 50
236.4426902381
 51
313.8868439077
  0
ARC
  5
264
100
AcDbEntity
  8
0
100
AcDbCircle
 62
7
  6
CONTINUOUS
 10
10.9037122885
 20
6.8838083821
 40
0.05
100
AcDbArc
 50
270.0
 51
329.0502769211
  0
ARC
  5
265
100
AcDbEntity
  8
0
100
AcDbCircle
 62
7
  6
CONTINUOUS
 10
10.9037122885
 20
5.8338083821
 40
0.05
100
AcDbArc
 50
30.9497230789
 51
90.0
  0
ARC
  5
266
100
AcDbEntity
  8
0
100
AcDbCircle
 62
7
  6
CONTINUOUS
 10
11.2038789089
 20
6.8838083821
 40
0.05
100
AcDbArc
 50
210.9497230789
 51
303.5573097619
  0
ARC
  5
267
100
AcDbEntity
  8
0
100
AcDbCircle
 62
7
  6
CONTINUOUS
 10
11.2038789089
 20
5.8338083821
 40
0.05
100
AcDbArc
 50
56.4426902381
 51
149.0502769211
  0
ARC
  5
268
100
AcDbEntity
  8
0
100
AcDbCircle
 62
7
  6
CONTINUOUS
 10
10.128672397
 20
13.7455580246
 40
0.25
100
AcDbArc
 50
0.0
 51
180.0
  0
ARC
  5
269
100
AcDbEntity
  8
0
100
AcDbCircle
 62
7
  6
CONTINUOUS
 10
20.5986633367
 20
7.4625819086
 40
8.0
100
AcDbArc
 50
172.5215484456
 51
182.5703882053
  0
ARC
  5
26A
100
AcDbEntity
  8
0
100
AcDbCircle
 62
7
  6
CONTINUOUS
 10
12.604805824
 20
8.5744438703
 40
0.5427098904
100
AcDbArc
 50
135.6516507998
 51
187.4784515544
  0
ARC
  5
26B
100
AcDbEntity
  8
0
100
AcDbCircle
 62
7
  6
CONTINUOUS
 10
12.3667122885
 20
6.3588083821
 40
0.48
100
AcDbArc
 50
218.6821874535
 51
67.975687163
  0
ARC
  5
26C
100
AcDbEntity
  8
0
100
AcDbCircle
 62
7
  6
CONTINUOUS
 10
12.3667122885
 20
6.3588083821
 40
0.48
100
AcDbArc
 50
112.024312837
 51
141.3178125465
  0
ARC
  5
26D
100
AcDbEntity
  8
0
100
AcDbCircle
 62
7
  6
CONTINUOUS
 10
12.3708600915
 20
8.9838866112
 40
0.11
100
AcDbArc
 50
15.7842718132
 51
90.0
  0
SPLINE
  5
26E
100
AcDbEntity
  8
0
100
AcDbSpline
 62
7
  6
CONTINUOUS
 70
0
 71
3
 72
31
 73
27
 74
0
 42
0.0000001
 43
0.0000001
 44
0.0000000001
 40
0.0
 40
0.0
 40
0.0
 40
0.0
 40
0.0105476098
 40
0.0412735133
 40
0.0898281352
 40
0.1532638758
 40
0.1896505489
 40
0.2286941805
 40
0.2700720087
 40
0.3134635209
 40
0.3585352005
 40
0.4049242131
 40
0.4522271674
 40
0.500000003
 40
0.5477728366
 40
0.5950757935
 40
0.6414648048
 40
0.6865364842
 40
0.7299279975
 40
0.7713058246
 40
0.8103494544
 40
0.846736125
 40
0.9101718648
 40
0.9587264867
 40
0.9894523903
 40
1.0
 40
1.0
 40
1.0
 40
1.0
 10
10.8917122885
 20
5.8588083821
 30
0.0
 10
10.8901081437
 20
5.8621074221
 30
0.0
 10
10.8838666274
 20
5.8750342004
 30
0.0
 10
10.8705946045
 20
5.9033182397
 30
0.0
 10
10.8505390944
 20
5.9487287967
 30
0.0
 10
10.8314029433
 20
5.9966744863
 30
0.0
 10
10.815182138
 20
6.0421717777
 30
0.0
 10
10.8027124686
 20
6.0808436062
 30
0.0
 10
10.7909522131
 20
6.1222785271
 30
0.0
 10
10.7803854504
 20
6.1661969595
 30
0.0
 10
10.7714980825
 20
6.2122662269
 30
0.0
 10
10.7647484227
 20
6.2600753369
 30
0.0
 10
10.7605228096
 20
6.3091197827
 30
0.0
 10
10.7590831608
 20
6.3588083845
 30
0.0
 10
10.76052281
 20
6.4084969873
 30
0.0
 10
10.7647484231
 20
6.4575414329
 30
0.0
 10
10.7714980834
 20
6.5053505433
 30
0.0
 10
10.7803854517
 20
6.5514198104
 30
0.0
 10
10.7909522145
 20
6.5953382427
 30
0.0
 10
10.8027124701
 20
6.636773163
 30
0.0
 10
10.8151821391
 20
6.6754449896
 30
0.0
 10
10.8314029438
 20
6.7209422793
 30
0.0
 10
10.8505390945
 20
6.7688879678
 30
0.0
 10
10.8705946046
 20
6.8142985246
 30
0.0
 10
10.8838666274
 20
6.8425825639
 30
0.0
 10
10.8901081438
 20
6.8555093422
 30
0.0
 10
10.8917122885
 20
6.8588083821
 30
0.0
  0
SPLINE
  5
26F
100
AcDbEntity
  8
0
100
AcDbSpline
 62
7
  6
CONTINUOUS
 70
0
 71
3
 72
59
 73
55
 74
0
 42
0.0000001
 43
0.0000001
 44
0.0000000001
 40
0.0
 40
0.0
 40
0.0
 40
0.0
 40
0.0075120044
 40
0.015222875
 40
0.0232467872
 40
0.0316834194
 40
0.0406143641
 40
0.050104388
 40
0.060202789
 40
0.0709453499
 40
0.0823563743
 40
0.0944502936
 40
0.1072336336
 40
0.1207057262
 40
0.134860307
 40
0.1496858863
 40
0.1651667155
 40
0.1812832642
 40
0.1980125166
 40
0.2153286907
 40
0.2332031282
 40
0.2516050327
 40
0.2898548429
 40
0.3297947716
 40
0.3711146467
 40
0.4134855049
 40
0.4565645744
 40
0.5
 40
0.5434354256
 40
0.5865144951
 40
0.6288853533
 40
0.6702052284
 40
0.7101451571
 40
0.7483949673
 40
0.7667968718
 40
0.7846713093
 40
0.8019874834
 40
0.8187167358
 40
0.8348332845
 40
0.8503141137
 40
0.865139693
 40
0.8792942738
 40
0.8927663664
 40
0.9055497064
 40
0.9176436257
 40
0.9290546501
 40
0.939797211
 40
0.949895612
 40
0.9593856359
 40
0.9683165806
 40
0.9767532128
 40
0.984777125
 40
0.9924879956
 40
1.0
 40
1.0
 40
1.0
 40
1.0
 10
9.8437786657
 20
11.5629947511
 30
0.0
 10
9.8439046763
 20
11.5645724494
 30
0.0
 10
9.8443875928
 20
11.5677555723
 30
0.0
 10
9.8457764264
 20
11.5724664732
 30
0.0
 10
9.8478282535
 20
11.5771414629
 30
0.0
 10
9.8505347287
 20
11.581768468
 30
0.0
 10
9.8538867875
 20
11.5863386133
 30
0.0
 10
9.8578753601
 20
11.5908426907
 30
0.0
 10
9.8624904077
 20
11.5952720025
 30
0.0
 10
9.8677211369
 20
11.5996176318
 30
0.0
 10
9.8735556773
 20
11.6038703899
 30
0.0
 10
9.8799807175
 20
11.608021286
 30
0.0
 10
9.8869818076
 20
11.6120609573
 30
0.0
 10
9.8945429375
 20
11.6159805451
 30
0.0
 10
9.902646917
 20
11.6197709751
 30
0.0
 10
9.9112751414
 20
11.6234236621
 30
0.0
 10
9.9204077919
 20
11.6269301657
 30
0.0
 10
9.9300238382
 20
11.6302823108
 30
0.0
 10
9.9401010569
 20
11.633472442
 30
0.0
 10
9.9506161668
 20
11.6364929649
 30
0.0
 10
9.9615448368
 20
11.6393370733
 30
0.0
 10
9.9768313381
 20
11.6429310892
 30
0.0
 10
9.9967955469
 20
11.6469157364
 30
0.0
 10
10.021673579
 20
11.650841416
 30
0.0
 10
10.0475432821
 20
11.6539337076
 30
0.0
 10
10.0741648114
 20
11.6561635371
 30
0.0
 10
10.1012916757
 20
11.6575098892
 30
0.0
 10
10.128672397
 20
11.6579600863
 30
0.0
 10
10.1560531183
 20
11.6575098892
 30
0.0
 10
10.1831799825
 20
11.6561635371
 30
0.0
 10
10.2098015118
 20
11.6539337076
 30
0.0
 10
10.2356712149
 20
11.650841416
 30
0.0
 10
10.260549247
 20
11.6469157364
 30
0.0
 10
10.2805134558
 20
11.6429310892
 30
0.0
 10
10.2957999571
 20
11.6393370733
 30
0.0
 10
10.3067286272
 20
11.6364929649
 30
0.0
 10
10.317243737
 20
11.633472442
 30
0.0
 10
10.3273209557
 20
11.6302823108
 30
0.0
 10
10.336937002
 20
11.6269301657
 30
0.0
 10
10.3460696525
 20
11.6234236621
 30
0.0
 10
10.3546978769
 20
11.6197709751
 30
0.0
 10
10.3628018565
 20
11.6159805451
 30
0.0
 10
10.3703629864
 20
11.6120609573
 30
0.0
 10
10.3773640765
 20
11.608021286
 30
0.0
 10
10.3837891167
 20
11.6038703899
 30
0.0
 10
10.389623657
 20
11.5996176318
 30
0.0
 10
10.3948543862
 20
11.5952720025
 30
0.0
 10
10.3994694339
 20
11.5908426907
 30
0.0
 10
10.4034580064
 20
11.5863386133
 30
0.0
 10
10.4068100653
 20
11.581768468
 30
0.0
 10
10.4095165404
 20
11.5771414629
 30
0.0
 10
10.4115683675
 20
11.5724664732
 30
0.0
 10
10.4129572012
 20
11.5677555723
 30
0.0
 10
10.4134401176
 20
11.5645724494
 30
0.0
 10
10.4135661282
 20
11.5629947511
 30
0.0
  0
SPLINE
  5
270
100
AcDbEntity
  8
0
100
AcDbSpline
 62
7
  6
CONTINUOUS
 70
0
 71
3
 72
70
 73
66
 74
0
 42
0.0000001
 43
0.0000001
 44
0.0000000001
 40
0.0
 40
0.0
 40
0.0
 40
0.0
 40
0.006414328
 40
0.0128006447
 40
0.019174754
 40
0.0255352412
 40
0.0318702534
 40
0.03817351
 40
0.0444456822
 40
0.0506869922
 40
0.063088386
 40
0.0754197128
 40
0.0877437797
 40
0.1001349459
 40
0.1126684559
 40
0.1254185818
 40
0.1384496876
 40
0.1518167163
 40
0.1655631971
 40
0.1797219694
 40
0.1943158034
 40
0.2093585796
 40
0.2248557352
 40
0.2408061998
 40
0.2572019641
 40
0.2740302822
 40
0.2912731364
 40
0.3089087206
 40
0.3452508204
 40
0.3828197907
 40
0.4213392611
 40
0.4605064389
 40
0.5000016175
 40
0.5394967718
 40
0.5786638677
 40
0.6171831874
 40
0.6547519774
 40
0.6910938807
 40
0.7087293006
 40
0.7259721096
 40
0.7428001725
 40
0.7591958644
 40
0.7751461012
 40
0.7906431224
 40
0.8056857997
 40
0.8202793516
 40
0.8344380892
 40
0.8481841963
 40
0.8615512014
 40
0.8745820557
 40
0.8809889792
 40
0.8873334515
 40
0.8998667332
 40
0.91225771
 40
0.9245813039
 40
0.936912688
 40
0.9493136363
 40
0.9555549654
 40
0.9618269646
 40
0.9681300534
 40
0.9744646555
 40
0.9808250841
 40
0.9871996909
 40
0.9935864994
 40
1.0
 40
1.0
 40
1.0
 40
1.0
 10
10.498672397
 20
11.353601505
 30
0.0
 10
10.498672397
 20
11.3554675539
 30
0.0
 10
10.4985534219
 20
11.3591926065
 30
0.0
 10
10.4980195626
 20
11.3647489111
 30
0.0
 10
10.4971370624
 20
11.3702448449
 30
0.0
 10
10.4959193476
 20
11.3756608145
 30
0.0
 10
10.4943797563
 20
11.3809726835
 30
0.0
 10
10.4925339156
 20
11.3861585183
 30
0.0
 10
10.4904029778
 20
11.3912041791
 30
0.0
 10
10.4872132668
 20
11.3977162588
 30
0.0
 10
10.4826047993
 20
11.4054800332
 30
0.0
 10
10.4762086134
 20
11.4141769063
 30
0.0
 10
10.4690701786
 20
11.4222686184
 30
0.0
 10
10.4612673903
 20
11.4298028671
 30
0.0
 10
10.4528547597
 20
11.4368411814
 30
0.0
 10
10.4438602285
 20
11.4434361005
 30
0.0
 10
10.4343025976
 20
11.4496398005
 30
0.0
 10
10.4241888939
 20
11.4554891953
 30
0.0
 10
10.4135257442
 20
11.4610168303
 30
0.0
 10
10.4023175499
 20
11.4662437446
 30
0.0
 10
10.3905713784
 20
11.4711863732
 30
0.0
 10
10.3782963539
 20
11.4758545454
 30
0.0
 10
10.3655048094
 20
11.4802543483
 30
0.0
 10
10.3522124529
 20
11.4843886148
 30
0.0
 10
10.3384379952
 20
11.4882576377
 30
0.0
 10
10.3242034775
 20
11.4918601916
 30
0.0
 10
10.3095335346
 20
11.495193747
 30
0.0
 10
10.2892268755
 20
11.4993164189
 30
0.0
 10
10.2629561896
 20
11.503745279
 30
0.0
 10
10.2305022231
 20
11.507878683
 30
0.0
 10
10.1970967192
 20
11.5108539435
 30
0.0
 10
10.1630463968
 20
11.5126486425
 30
0.0
 10
10.1286703635
 20
11.5132484659
 30
0.0
 10
10.0942943561
 20
11.5126485133
 30
0.0
 10
10.0602441161
 20
11.5108536675
 30
0.0
 10
10.0268387457
 20
11.5078782633
 30
0.0
 10
9.9943849501
 20
11.5037447315
 30
0.0
 10
9.9681144401
 20
11.4993157753
 30
0.0
 10
9.947807916
 20
11.4951930321
 30
0.0
 10
9.9331381245
 20
11.4918594201
 30
0.0
 10
9.9189037296
 20
11.488256824
 30
0.0
 10
9.9051294495
 20
11.4843877635
 30
0.0
 10
9.8918372489
 20
11.4802534276
 30
0.0
 10
9.879045827
 20
11.4758536691
 30
0.0
 10
9.8667710513
 20
11.4711852825
 30
0.0
 10
9.8550248846
 20
11.466242924
 30
0.0
 10
9.8438171629
 20
11.4610155302
 30
0.0
 10
9.8331537631
 20
11.4554885118
 30
0.0
 10
9.823040965
 20
11.4496383168
 30
0.0
 10
9.8150309239
 20
11.4444405558
 30
0.0
 10
9.8089204626
 20
11.4400890435
 30
0.0
 10
9.8030588061
 20
11.4356435927
 30
0.0
 10
9.7960759872
 20
11.4298020532
 30
0.0
 10
9.7882739488
 20
11.4222676059
 30
0.0
 10
9.7811355427
 20
11.4141760751
 30
0.0
 10
9.7747395087
 20
11.4054793999
 30
0.0
 10
9.7701312235
 20
11.3977156419
 30
0.0
 10
9.7669416119
 20
11.3912037096
 30
0.0
 10
9.7648107299
 20
11.3861581248
 30
0.0
 10
9.7629650318
 20
11.3809724748
 30
0.0
 10
9.7614253136
 20
11.375660836
 30
0.0
 10
9.7602076674
 20
11.3702448375
 30
0.0
 10
9.7593252288
 20
11.3647486203
 30
0.0
 10
9.7587914145
 20
11.3591922661
 30
0.0
 10
9.758672397
 20
11.3554673132
 30
0.0
 10
9.758672397
 20
11.353601505
 30
0.0
  0
SPLINE
  5
271
100
AcDbEntity
  8
0
100
AcDbSpline
 62
7
  6
CONTINUOUS
 70
0
 71
3
 72
22
 73
18
 74
0
 42
0.0000001
 43
0.0000001
 44
0.0000000001
 40
0.0
 40
0.0
 40
0.0
 40
0.0
 40
0.0637234919
 40
0.1271515377
 40
0.1904189564
 40
0.2219449203
 40
0.253364788
 40
0.3158802881
 40
0.3779850923
 40
0.4397334878
 40
0.5011885694
 40
0.5624765017
 40
0.6237391836
 40
0.7468090974
 40
0.871796889
 40
0.935429318
 40
1.0
 40
1.0
 40
1.0
 40
1.0
 10
9.758672397
 20
11.353601505
 30
0.0
 10
9.758672397
 20
11.3511104573
 30
0.0
 10
9.7588844444
 20
11.3461372064
 30
0.0
 10
9.7598354809
 20
11.338746116
 30
0.0
 10
9.76113561
 20
11.3326913307
 30
0.0
 10
9.7624638112
 20
11.3279384299
 30
0.0
 10
9.7639737852
 20
11.3232709666
 30
0.0
 10
9.7661926265
 20
11.3175818856
 30
0.0
 10
9.769346846
 20
11.3110075588
 30
0.0
 10
9.772942665
 20
11.3047122594
 30
0.0
 10
9.7769370814
 20
11.2987012434
 30
0.0
 10
9.7812936986
 20
11.2929718006
 30
0.0
 10
9.7875500217
 20
11.2856820461
 30
0.0
 10
9.796175974
 20
11.2771748554
 30
0.0
 10
9.8056372769
 20
11.2694719051
 30
0.0
 10
9.8136819531
 20
11.2637028059
 30
0.0
 10
9.8178636373
 20
11.2609379517
 30
0.0
 10
9.8199934215
 20
11.2595831708
 30
0.0
  0
SPLINE
  5
272
100
AcDbEntity
  8
0
100
AcDbSpline
 62
7
  6
CONTINUOUS
 70
0
 71
3
 72
21
 73
17
 74
0
 42
0.0000001
 43
0.0000001
 44
0.0000000001
 40
0.0
 40
0.0
 40
0.0
 40
0.0
 40
0.1281932354
 40
0.1910312191
 40
0.2532202289
 40
0.3762934168
 40
0.43755197
 40
0.4988398164
 40
0.5602907392
 40
0.6220371306
 40
0.6841400787
 40
0.7466529756
 40
0.8095813863
 40
0.8728485553
 40
0.9362823066
 40
1.0
 40
1.0
 40
1.0
 40
1.0
 10
10.4372910858
 20
11.2595449302
 30
0.0
 10
10.441522948
 20
11.2622346227
 30
0.0
 10
10.4476932088
 20
11.2664659833
 30
0.0
 10
10.4555032976
 20
11.2725618032
 30
0.0
 10
10.4628829379
 20
11.2788674079
 30
0.0
 10
10.4697652054
 20
11.2856502912
 30
0.0
 10
10.4760272956
 20
11.2929423517
 30
0.0
 10
10.4803880772
 20
11.2986737242
 30
0.0
 10
10.4843867181
 20
11.3046868694
 30
0.0
 10
10.4879860538
 20
11.3109847992
 30
0.0
 10
10.4911436951
 20
11.3175622627
 30
0.0
 10
10.493813572
 20
11.324402833
 30
0.0
 10
10.495948514
 20
11.3314769786
 30
0.0
 10
10.4975078554
 20
11.338737331
 30
0.0
 10
10.4984600568
 20
11.3461329717
 30
0.0
 10
10.498672397
 20
11.3511091817
 30
0.0
 10
10.498672397
 20
11.353601505
 30
0.0
  0
SPLINE
  5
273
100
AcDbEntity
  8
0
100
AcDbSpline
 62
7
  6
CONTINUOUS
 70
0
 71
3
 72
57
 73
53
 74
0
 42
0.0000001
 43
0.0000001
 44
0.0000000001
 40
0.0
 40
0.0
 40
0.0
 40
0.0
 40
0.0075179032
 40
0.0152579809
 40
0.0233298943
 40
0.0318279884
 40
0.0408289988
 40
0.0503934548
 40
0.0605672511
 40
0.0713832875
 40
0.0828637469
 40
0.0950213527
 40
0.1078613688
 40
0.1213822417
 40
0.1355770063
 40
0.1504338189
 40
0.1659366311
 40
0.1820658832
 40
0.1987985706
 40
0.2161090828
 40
0.2523454224
 40
0.2905254318
 40
0.3303672064
 40
0.3715653551
 40
0.4137963014
 40
0.4567230979
 40
0.5
 40
0.5432769021
 40
0.5862036986
 40
0.6284346449
 40
0.6696327936
 40
0.7094745682
 40
0.7476545776
 40
0.7838909172
 40
0.8012014294
 40
0.8179341168
 40
0.8340633689
 40
0.8495661811
 40
0.8644229937
 40
0.8786177583
 40
0.8921386312
 40
0.9049786473
 40
0.9171362531
 40
0.9286167125
 40
0.9394327489
 40
0.9496065452
 40
0.9591710012
 40
0.9681720116
 40
0.9766701057
 40
0.9847420191
 40
0.9924820968
 40
1.0
 40
1.0
 40
1.0
 40
1.0
 10
9.8473769407
 20
11.0163417565
 30
0.0
 10
9.8475497444
 20
11.0147920889
 30
0.0
 10
9.8481219975
 20
11.0116677673
 30
0.0
 10
9.8496234921
 20
11.0070544876
 30
0.0
 10
9.8517689651
 20
11.0024784481
 30
0.0
 10
9.8545502211
 20
10.9979509044
 30
0.0
 10
9.8579586029
 20
10.9934804324
 30
0.0
 10
9.861985091
 20
10.9890757876
 30
0.0
 10
9.8666199882
 20
10.9847455457
 30
0.0
 10
9.8718525679
 20
10.9804982507
 30
0.0
 10
9.8776712157
 20
10.9763429221
 30
0.0
 10
9.8840628048
 20
10.9722882129
 30
0.0
 10
9.8910131524
 20
10.9683431788
 30
0.0
 10
9.8985065909
 20
10.9645164157
 30
0.0
 10
9.9065262796
 20
10.9608166006
 30
0.0
 10
9.9150540814
 20
10.9572520946
 30
0.0
 10
9.9240706492
 20
10.9538309353
 30
0.0
 10
9.9335555111
 20
10.9505610796
 30
0.0
 10
9.9434870679
 20
10.9474497782
 30
0.0
 10
9.9575089522
 20
10.943461878
 30
0.0
 10
9.9759986265
 20
10.9389482881
 30
0.0
 10
9.9992521736
 20
10.9343457506
 30
0.0
 10
10.0236879191
 20
10.930520352
 30
0.0
 10
10.0490826968
 20
10.9275075551
 30
0.0
 10
10.0752049081
 20
10.925335352
 30
0.0
 10
10.1018158817
 20
10.9240239083
 30
0.0
 10
10.128672397
 20
10.9235854041
 30
0.0
 10
10.1555289123
 20
10.9240239083
 30
0.0
 10
10.1821398858
 20
10.925335352
 30
0.0
 10
10.2082620971
 20
10.9275075551
 30
0.0
 10
10.2336568748
 20
10.930520352
 30
0.0
 10
10.2580926203
 20
10.9343457506
 30
0.0
 10
10.2813461674
 20
10.9389482881
 30
0.0
 10
10.2998358417
 20
10.943461878
 30
0.0
 10
10.3138577261
 20
10.9474497782
 30
0.0
 10
10.3237892828
 20
10.9505610796
 30
0.0
 10
10.3332741447
 20
10.9538309353
 30
0.0
 10
10.3422907125
 20
10.9572520946
 30
0.0
 10
10.3508185143
 20
10.9608166006
 30
0.0
 10
10.358838203
 20
10.9645164157
 30
0.0
 10
10.3663316416
 20
10.9683431788
 30
0.0
 10
10.3732819891
 20
10.9722882129
 30
0.0
 10
10.3796735782
 20
10.9763429221
 30
0.0
 10
10.3854922261
 20
10.9804982507
 30
0.0
 10
10.3907248057
 20
10.9847455457
 30
0.0
 10
10.3953597029
 20
10.9890757876
 30
0.0
 10
10.3993861911
 20
10.9934804324
 30
0.0
 10
10.4027945728
 20
10.9979509044
 30
0.0
 10
10.4055758289
 20
11.0024784481
 30
0.0
 10
10.4077213019
 20
11.0070544876
 30
0.0
 10
10.4092227964
 20
11.0116677673
 30
0.0
 10
10.4097950495
 20
11.0147920889
 30
0.0
 10
10.4099678532
 20
11.0163417565
 30
0.0
  0
SPLINE
  5
274
100
AcDbEntity
  8
0
100
AcDbSpline
 62
7
  6
CONTINUOUS
 70
0
 71
3
 72
61
 73
57
 74
0
 42
0.0000001
 43
0.0000001
 44
0.0000000001
 40
0.0
 40
0.0
 40
0.0
 40
0.0
 40
0.0075225928
 40
0.0151810054
 40
0.0231001288
 40
0.0313928663
 40
0.0401539856
 40
0.0494596207
 40
0.0593685693
 40
0.0699244581
 40
0.0811575706
 40
0.093087085
 40
0.105722986
 40
0.1190672171
 40
0.1331153336
 40
0.1478570657
 40
0.1632773507
 40
0.1793569784
 40
0.1960728636
 40
0.2133988628
 40
0.2313057462
 40
0.2497617973
 40
0.2687330064
 40
0.2881831824
 40
0.3283650902
 40
0.3699874512
 40
0.4127074991
 40
0.4561675329
 40
0.5
 40
0.5438324671
 40
0.5872925009
 40
0.6300125488
 40
0.6716349098
 40
0.7118168176
 40
0.7312669936
 40
0.7502382027
 40
0.7686942538
 40
0.7866011372
 40
0.8039271364
 40
0.8206430216
 40
0.8367226493
 40
0.8521429343
 40
0.8668846664
 40
0.8809327829
 40
0.894277014
 40
0.906912915
 40
0.9188424294
 40
0.9300755419
 40
0.9406314307
 40
0.9505403793
 40
0.9598460144
 40
0.9686071337
 40
0.9768998712
 40
0.9848189946
 40
0.9924774072
 40
1.0
 40
1.0
 40
1.0
 40
1.0
 10
9.816172397
 20
11.4663646195
 30
0.0
 10
9.816172397
 20
11.4681171423
 30
0.0
 10
9.8164289445
 20
11.4716588941
 30
0.0
 10
9.8175766096
 20
11.4769334583
 30
0.0
 10
9.8194822802
 20
11.4821745145
 30
0.0
 10
9.8221364249
 20
11.4873667133
 30
0.0
 10
9.8255287532
 20
11.4924991773
 30
0.0
 10
9.8296489781
 20
11.4975611256
 30
0.0
 10
9.8344857312
 20
11.5025426472
 30
0.0
 10
9.8400271636
 20
11.5074334188
 30
0.0
 10
9.8462600211
 20
11.5122231196
 30
0.0
 10
9.8531696567
 20
11.5169012664
 30
0.0
 10
9.860739952
 20
11.5214571533
 30
0.0
 10
9.8689530407
 20
11.525880448
 30
0.0
 10
9.8777896208
 20
11.5301606336
 30
0.0
 10
9.8872287236
 20
11.5342876745
 30
0.0
 10
9.8972479169
 20
11.5382517427
 30
0.0
 10
9.9078233422
 20
11.5420432549
 30
0.0
 10
9.9189297013
 20
11.5456532487
 30
0.0
 10
9.9305404423
 20
11.5490728876
 30
0.0
 10
9.9426277227
 20
11.5522940295
 30
0.0
 10
9.9551625376
 20
11.5553088648
 30
0.0
 10
9.9681148446
 20
11.5581101125
 30
0.0
 10
9.9860946466
 20
11.5615889116
 30
0.0
 10
10.009390898
 20
11.5653381265
 30
0.0
 10
10.0381946043
 20
11.5688465343
 30
0.0
 10
10.0678669993
 20
11.5713772495
 30
0.0
 10
10.0981230285
 20
11.5729056448
 30
0.0
 10
10.128672397
 20
11.5734167748
 30
0.0
 10
10.1592217654
 20
11.5729056448
 30
0.0
 10
10.1894777946
 20
11.5713772495
 30
0.0
 10
10.2191501896
 20
11.5688465343
 30
0.0
 10
10.247953896
 20
11.5653381265
 30
0.0
 10
10.2712501473
 20
11.5615889116
 30
0.0
 10
10.2892299493
 20
11.5581101125
 30
0.0
 10
10.3021822563
 20
11.5553088648
 30
0.0
 10
10.3147170712
 20
11.5522940295
 30
0.0
 10
10.3268043516
 20
11.5490728876
 30
0.0
 10
10.3384150927
 20
11.5456532487
 30
0.0
 10
10.3495214518
 20
11.5420432549
 30
0.0
 10
10.360096877
 20
11.5382517427
 30
0.0
 10
10.3701160703
 20
11.5342876745
 30
0.0
 10
10.3795551731
 20
11.5301606336
 30
0.0
 10
10.3883917532
 20
11.525880448
 30
0.0
 10
10.3966048419
 20
11.5214571533
 30
0.0
 10
10.4041751373
 20
11.5169012664
 30
0.0
 10
10.4110847728
 20
11.5122231196
 30
0.0
 10
10.4173176303
 20
11.5074334188
 30
0.0
 10
10.4228590627
 20
11.5025426472
 30
0.0
 10
10.4276958158
 20
11.4975611256
 30
0.0
 10
10.4318160407
 20
11.4924991773
 30
0.0
 10
10.435208369
 20
11.4873667133
 30
0.0
 10
10.4378625137
 20
11.4821745145
 30
0.0
 10
10.4397681843
 20
11.4769334583
 30
0.0
 10
10.4409158494
 20
11.4716588941
 30
0.0
 10
10.441172397
 20
11.4681171423
 30
0.0
 10
10.441172397
 20
11.4663646195
 30
0.0
  0
SPLINE
  5
275
100
AcDbEntity
  8
0
100
AcDbSpline
 62
9
  6
CONTINUOUS
 70
0
 71
3
 72
33
 73
29
 74
0
 42
0.0000001
 43
0.0000001
 44
0.0000000001
 40
0.0
 40
0.0
 40
0.0
 40
0.0
 40
0.0150462344
 40
0.0303619157
 40
0.0462003625
 40
0.0627860885
 40
0.0803083698
 40
0.0989196859
 40
0.1187376765
 40
0.1398496069
 40
0.162315833
 40
0.1861750983
 40
0.2114469046
 40
0.2381355713
 40
0.2662319033
 40
0.2957154575
 40
0.3265562741
 40
0.3587155455
 40
0.3921476027
 40
0.4267996532
 40
0.4626136402
 40
0.4995259208
 40
0.5763644463
 40
0.6567286451
 40
0.7399736265
 40
0.8254144629
 40
0.9123339987
 40
1.0
 40
1.0
 40
1.0
 40
1.0
 10
10.378672397
 20
12.2651033471
 30
0.0
 10
10.378672397
 20
12.2665054567
 30
0.0
 10
10.3784672072
 20
12.2693388429
 30
0.0
 10
10.3775489766
 20
12.2735584648
 30
0.0
 10
10.376024462
 20
12.2777512195
 30
0.0
 10
10.373901214
 20
12.2819050437
 30
0.0
 10
10.3711872851
 20
12.2860109849
 30
0.0
 10
10.3678911268
 20
12.2900605471
 30
0.0
 10
10.3640217397
 20
12.2940457852
 30
0.0
 10
10.3595885624
 20
12.2979583585
 30
0.0
 10
10.3546023173
 20
12.3017901851
 30
0.0
 10
10.3490745647
 20
12.3055326237
 30
0.0
 10
10.3430183629
 20
12.3091774048
 30
0.0
 10
10.3364478711
 20
12.3127159933
 30
0.0
 10
10.3293786139
 20
12.3161401534
 30
0.0
 10
10.3218273396
 20
12.3194418135
 30
0.0
 10
10.3138119694
 20
12.3226130084
 30
0.0
 10
10.3053516471
 20
12.3256462955
 30
0.0
 10
10.2964665436
 20
12.3285342156
 30
0.0
 10
10.2871779661
 20
12.3312699767
 30
0.0
 10
10.2775081176
 20
12.3338468948
 30
0.0
 10
10.2639559509
 20
12.3371062614
 30
0.0
 10
10.2462252446
 20
12.3407207351
 30
0.0
 10
10.2240978111
 20
12.3442821804
 30
0.0
 10
10.2010545593
 20
12.347088878
 30
0.0
 10
10.1773167276
 20
12.3491134396
 30
0.0
 10
10.1531121031
 20
12.3503361811
 30
0.0
 10
10.1368417058
 20
12.350608383
 30
0.0
 10
10.128672397
 20
12.350608383
 30
0.0
  0
SPLINE
  5
276
100
AcDbEntity
  8
0
100
AcDbSpline
 62
9
  6
CONTINUOUS
 70
0
 71
3
 72
33
 73
29
 74
0
 42
0.0000001
 43
0.0000001
 44
0.0000000001
 40
0.0
 40
0.0
 40
0.0
 40
0.0
 40
0.0876660013
 40
0.1745855371
 40
0.2600263735
 40
0.3432713549
 40
0.4236355537
 40
0.5004740792
 40
0.5373863598
 40
0.5732003468
 40
0.6078523973
 40
0.6412844545
 40
0.6734437259
 40
0.7042845425
 40
0.7337680967
 40
0.7618644287
 40
0.7885530954
 40
0.8138249017
 40
0.837684167
 40
0.8601503931
 40
0.8812623235
 40
0.9010803141
 40
0.9196916302
 40
0.9372139115
 40
0.9537996375
 40
0.9696380843
 40
0.9849537656
 40
1.0
 40
1.0
 40
1.0
 40
1.0
 10
10.128672397
 20
12.350608383
 30
0.0
 10
10.1205030881
 20
12.350608383
 30
0.0
 10
10.1042326908
 20
12.3503361811
 30
0.0
 10
10.0800280664
 20
12.3491134396
 30
0.0
 10
10.0562902346
 20
12.347088878
 30
0.0
 10
10.0332469828
 20
12.3442821804
 30
0.0
 10
10.0111195494
 20
12.3407207351
 30
0.0
 10
9.993388843
 20
12.3371062614
 30
0.0
 10
9.9798366763
 20
12.3338468948
 30
0.0
 10
9.9701668278
 20
12.3312699767
 30
0.0
 10
9.9608782503
 20
12.3285342156
 30
0.0
 10
9.9519931469
 20
12.3256462955
 30
0.0
 10
9.9435328245
 20
12.3226130084
 30
0.0
 10
9.9355174543
 20
12.3194418135
 30
0.0
 10
9.92796618
 20
12.3161401534
 30
0.0
 10
9.9208969228
 20
12.3127159933
 30
0.0
 10
9.9143264311
 20
12.3091774048
 30
0.0
 10
9.9082702292
 20
12.3055326237
 30
0.0
 10
9.9027424766
 20
12.3017901851
 30
0.0
 10
9.8977562315
 20
12.2979583585
 30
0.0
 10
9.8933230542
 20
12.2940457852
 30
0.0
 10
9.8894536671
 20
12.2900605471
 30
0.0
 10
9.8861575088
 20
12.2860109849
 30
0.0
 10
9.8834435799
 20
12.2819050437
 30
0.0
 10
9.8813203319
 20
12.2777512195
 30
0.0
 10
9.8797958173
 20
12.2735584648
 30
0.0
 10
9.8788775867
 20
12.2693388429
 30
0.0
 10
9.878672397
 20
12.2665054567
 30
0.0
 10
9.878672397
 20
12.2651033471
 30
0.0
  0
SPLINE
  5
277
100
AcDbEntity
  8
0
100
AcDbSpline
 62
9
  6
CONTINUOUS
 70
0
 71
3
 72
14
 73
10
 74
0
 42
0.0000001
 43
0.0000001
 44
0.0000000001
 40
0.0
 40
0.0
 40
0.0
 40
0.0
 40
0.1156219623
 40
0.2322326096
 40
0.3507478579
 40
0.4720462992
 40
0.5969477752
 40
0.7261894503
 40
1.0
 40
1.0
 40
1.0
 40
1.0
 10
9.8066343647
 20
11.306655921
 30
0.0
 10
9.8066343647
 20
11.3054287616
 30
0.0
 10
9.8067553737
 20
11.3029622846
 30
0.0
 10
9.8072982154
 20
11.2992738972
 30
0.0
 10
9.8082019122
 20
11.2955947837
 30
0.0
 10
9.809464807
 20
11.2919303759
 30
0.0
 10
9.8110847672
 20
11.2882844473
 30
0.0
 10
9.8137684239
 20
11.2833602324
 30
0.0
 10
9.8162429027
 20
11.2798479507
 30
0.0
 10
9.8180586917
 20
11.2775789559
 30
0.0
  0
SPLINE
  5
278
100
AcDbEntity
  8
0
100
AcDbSpline
 62
9
  6
CONTINUOUS
 70
0
 71
3
 72
14
 73
10
 74
0
 42
0.0000001
 43
0.0000001
 44
0.0000000001
 40
0.0
 40
0.0
 40
0.0
 40
0.0
 40
0.2738105497
 40
0.4030522248
 40
0.5279537008
 40
0.6492521421
 40
0.7677673904
 40
0.8843780377
 40
1.0
 40
1.0
 40
1.0
 40
1.0
 10
10.4392861022
 20
11.2775789559
 30
0.0
 10
10.4411018913
 20
11.2798479507
 30
0.0
 10
10.44357637
 20
11.2833602324
 30
0.0
 10
10.4462600267
 20
11.2882844473
 30
0.0
 10
10.447879987
 20
11.2919303759
 30
0.0
 10
10.4491428817
 20
11.2955947837
 30
0.0
 10
10.4500465785
 20
11.2992738972
 30
0.0
 10
10.4505894202
 20
11.3029622846
 30
0.0
 10
10.4507104292
 20
11.3054287616
 30
0.0
 10
10.4507104292
 20
11.306655921
 30
0.0
  0
SPLINE
  5
279
100
AcDbEntity
  8
0
100
AcDbSpline
 62
7
  6
CONTINUOUS
 70
0
 71
3
 72
59
 73
55
 74
0
 42
0.0000001
 43
0.0000001
 44
0.0000000001
 40
0.0
 40
0.0
 40
0.0
 40
0.0
 40
0.0075225704
 40
0.015181068
 40
0.0231002589
 40
0.0313930055
 40
0.0401541676
 40
0.0494598507
 40
0.0593688328
 40
0.0699247927
 40
0.0811579306
 40
0.0930875273
 40
0.1057234676
 40
0.1190677614
 40
0.1331159599
 40
0.1478577226
 40
0.1632781243
 40
0.1793577898
 40
0.1960737772
 40
0.2133998496
 40
0.2313067898
 40
0.2497629719
 40
0.2881822182
 40
0.3283642957
 40
0.3699868375
 40
0.4127070893
 40
0.4561673301
 40
0.5
 40
0.5438326699
 40
0.5872929107
 40
0.6300131625
 40
0.6716357043
 40
0.7118177818
 40
0.7502370281
 40
0.7686932102
 40
0.7866001504
 40
0.8039262228
 40
0.8206422102
 40
0.8367218757
 40
0.8521422774
 40
0.8668840401
 40
0.8809322386
 40
0.8942765324
 40
0.9069124727
 40
0.9188420694
 40
0.9300752073
 40
0.9406311672
 40
0.9505401493
 40
0.9598458324
 40
0.9686069945
 40
0.9768997411
 40
0.984818932
 40
0.9924774296
 40
1.0
 40
1.0
 40
1.0
 40
1.0
 10
9.847172397
 20
11.0200106246
 30
0.0
 10
9.847172397
 20
11.0215892852
 30
0.0
 10
9.8474035113
 20
11.0247796915
 30
0.0
 10
9.8484373011
 20
11.0295310295
 30
0.0
 10
9.8501539451
 20
11.0342521797
 30
0.0
 10
9.8525447913
 20
11.0389293166
 30
0.0
 10
9.8556006117
 20
11.0435526281
 30
0.0
 10
9.859312104
 20
11.0481124332
 30
0.0
 10
9.8636690386
 20
11.0525998065
 30
0.0
 10
9.8686607865
 20
11.0570053784
 30
0.0
 10
9.8742753179
 20
11.0613199831
 30
0.0
 10
9.880499541
 20
11.065534018
 30
0.0
 10
9.8873188495
 20
11.0696379847
 30
0.0
 10
9.8947172
 20
11.0736224904
 30
0.0
 10
9.9026771991
 20
11.0774780545
 30
0.0
 10
9.9111799284
 20
11.08119574
 30
0.0
 10
9.9202052339
 20
11.0847665163
 30
0.0
 10
9.9297315664
 20
11.088181958
 30
0.0
 10
9.9397361815
 20
11.0914338162
 30
0.0
 10
9.9501951295
 20
11.0945142154
 30
0.0
 10
9.961083369
 20
11.09741589
 30
0.0
 10
9.9763431176
 20
11.1010858773
 30
0.0
 10
9.9963078847
 20
11.1051558153
 30
0.0
 10
10.0212233739
 20
11.1091660063
 30
0.0
 10
10.0471700645
 20
11.112326336
 30
0.0
 10
10.0738988708
 20
11.1146060108
 30
0.0
 10
10.1011535292
 20
11.1159827725
 30
0.0
 10
10.128672397
 20
11.1164431903
 30
0.0
 10
10.1561912647
 20
11.1159827725
 30
0.0
 10
10.1834459232
 20
11.1146060108
 30
0.0
 10
10.2101747294
 20
11.112326336
 30
0.0
 10
10.23612142
 20
11.1091660063
 30
0.0
 10
10.2610369092
 20
11.1051558153
 30
0.0
 10
10.2810016764
 20
11.1010858773
 30
0.0
 10
10.2962614249
 20
11.09741589
 30
0.0
 10
10.3071496645
 20
11.0945142154
 30
0.0
 10
10.3176086124
 20
11.0914338162
 30
0.0
 10
10.3276132275
 20
11.088181958
 30
0.0
 10
10.33713956
 20
11.0847665163
 30
0.0
 10
10.3461648655
 20
11.08119574
 30
0.0
 10
10.3546675948
 20
11.0774780545
 30
0.0
 10
10.3626275939
 20
11.0736224904
 30
0.0
 10
10.3700259444
 20
11.0696379847
 30
0.0
 10
10.376845253
 20
11.065534018
 30
0.0
 10
10.383069476
 20
11.0613199831
 30
0.0
 10
10.3886840074
 20
11.0570053784
 30
0.0
 10
10.3936757554
 20
11.0525998065
 30
0.0
 10
10.3980326899
 20
11.0481124332
 30
0.0
 10
10.4017441822
 20
11.0435526281
 30
0.0
 10
10.4048000026
 20
11.0389293166
 30
0.0
 10
10.4071908488
 20
11.0342521797
 30
0.0
 10
10.4089074928
 20
11.0295310295
 30
0.0
 10
10.4099412826
 20
11.0247796915
 30
0.0
 10
10.410172397
 20
11.0215892852
 30
0.0
 10
10.410172397
 20
11.0200106246
 30
0.0
  0
SPLINE
  5
27A
100
AcDbEntity
  8
0
100
AcDbSpline
 62
9
  6
CONTINUOUS
 70
0
 71
3
 72
61
 73
57
 74
0
 42
0.0000001
 43
0.0000001
 44
0.0000000001
 40
0.0
 40
0.0
 40
0.0
 40
0.0
 40
0.0075225924
 40
0.0151810052
 40
0.0231001298
 40
0.0313928665
 40
0.0401539846
 40
0.0494596204
 40
0.0593685699
 40
0.0699244588
 40
0.0811575702
 40
0.093087084
 40
0.1057229868
 40
0.1190672185
 40
0.1331153327
 40
0.1478570642
 40
0.163277351
 40
0.1793569798
 40
0.1960728643
 40
0.2133988614
 40
0.2313057456
 40
0.2497617994
 40
0.2687330069
 40
0.2881831802
 40
0.3283650915
 40
0.3699874507
 40
0.4127075
 40
0.4561675317
 40
0.5
 40
0.5438324683
 40
0.5872925
 40
0.6300125493
 40
0.6716349085
 40
0.7118168198
 40
0.7312669931
 40
0.7502382006
 40
0.7686942544
 40
0.7866011386
 40
0.8039271357
 40
0.8206430202
 40
0.836722649
 40
0.8521429358
 40
0.8668846673
 40
0.8809327815
 40
0.8942770132
 40
0.906912916
 40
0.9188424298
 40
0.9300755412
 40
0.9406314301
 40
0.9505403796
 40
0.9598460154
 40
0.9686071335
 40
0.9768998702
 40
0.9848189948
 40
0.9924774076
 40
1.0
 40
1.0
 40
1.0
 40
1.0
 10
9.816172397
 20
11.2982452905
 30
0.0
 10
9.816172397
 20
11.2999978133
 30
0.0
 10
9.8164289443
 20
11.303539565
 30
0.0
 10
9.8175766097
 20
11.3088141294
 30
0.0
 10
9.8194822805
 20
11.3140551857
 30
0.0
 10
9.8221364247
 20
11.3192473845
 30
0.0
 10
9.8255287531
 20
11.3243798481
 30
0.0
 10
9.8296489781
 20
11.3294417964
 30
0.0
 10
9.8344857313
 20
11.3344233185
 30
0.0
 10
9.8400271638
 20
11.33931409
 30
0.0
 10
9.8462600209
 20
11.3441037907
 30
0.0
 10
9.8531696565
 20
11.3487819375
 30
0.0
 10
9.8607399523
 20
11.3533378243
 30
0.0
 10
9.8689530409
 20
11.3577611192
 30
0.0
 10
9.8777896206
 20
11.3620413047
 30
0.0
 10
9.8872287232
 20
11.3661683453
 30
0.0
 10
9.8972479169
 20
11.3701324138
 30
0.0
 10
9.9078233427
 20
11.3739239262
 30
0.0
 10
9.9189297014
 20
11.3775339198
 30
0.0
 10
9.930540442
 20
11.3809535587
 30
0.0
 10
9.9426277227
 20
11.3841747005
 30
0.0
 10
9.955162538
 20
11.3871895359
 30
0.0
 10
9.9681148446
 20
11.3899907837
 30
0.0
 10
9.9860946465
 20
11.3934695826
 30
0.0
 10
10.0093908976
 20
11.3972187975
 30
0.0
 10
10.0381946047
 20
11.4007272056
 30
0.0
 10
10.0678669992
 20
11.4032579205
 30
0.0
 10
10.0981230284
 20
11.404786316
 30
0.0
 10
10.128672397
 20
11.4052974459
 30
0.0
 10
10.1592217655
 20
11.404786316
 30
0.0
 10
10.1894777948
 20
11.4032579205
 30
0.0
 10
10.2191501892
 20
11.4007272056
 30
0.0
 10
10.2479538963
 20
11.3972187975
 30
0.0
 10
10.2712501474
 20
11.3934695826
 30
0.0
 10
10.2892299493
 20
11.3899907837
 30
0.0
 10
10.3021822559
 20
11.3871895359
 30
0.0
 10
10.3147170712
 20
11.3841747005
 30
0.0
 10
10.3268043519
 20
11.3809535587
 30
0.0
 10
10.3384150925
 20
11.3775339198
 30
0.0
 10
10.3495214512
 20
11.3739239262
 30
0.0
 10
10.360096877
 20
11.3701324138
 30
0.0
 10
10.3701160707
 20
11.3661683453
 30
0.0
 10
10.3795551733
 20
11.3620413047
 30
0.0
 10
10.388391753
 20
11.3577611192
 30
0.0
 10
10.3966048416
 20
11.3533378243
 30
0.0
 10
10.4041751374
 20
11.3487819375
 30
0.0
 10
10.411084773
 20
11.3441037907
 30
0.0
 10
10.4173176301
 20
11.33931409
 30
0.0
 10
10.4228590626
 20
11.3344233185
 30
0.0
 10
10.4276958158
 20
11.3294417964
 30
0.0
 10
10.4318160408
 20
11.3243798481
 30
0.0
 10
10.4352083692
 20
11.3192473845
 30
0.0
 10
10.4378625135
 20
11.3140551857
 30
0.0
 10
10.4397681842
 20
11.3088141294
 30
0.0
 10
10.4409158496
 20
11.303539565
 30
0.0
 10
10.441172397
 20
11.2999978133
 30
0.0
 10
10.441172397
 20
11.2982452905
 30
0.0
  0
SPLINE
  5
27B
100
AcDbEntity
  8
0
100
AcDbSpline
 62
9
  6
CONTINUOUS
 70
0
 71
3
 72
61
 73
57
 74
0
 42
0.0000001
 43
0.0000001
 44
0.0000000001
 40
0.0
 40
0.0
 40
0.0
 40
0.0
 40
0.0075225924
 40
0.0151810052
 40
0.0231001298
 40
0.0313928665
 40
0.0401539846
 40
0.0494596204
 40
0.0593685699
 40
0.0699244588
 40
0.0811575702
 40
0.093087084
 40
0.1057229868
 40
0.1190672185
 40
0.1331153327
 40
0.1478570642
 40
0.163277351
 40
0.1793569798
 40
0.1960728643
 40
0.2133988614
 40
0.2313057456
 40
0.2497617994
 40
0.2687330069
 40
0.2881831802
 40
0.3283650915
 40
0.3699874507
 40
0.4127075
 40
0.4561675317
 40
0.5
 40
0.5438324683
 40
0.5872925
 40
0.6300125493
 40
0.6716349085
 40
0.7118168198
 40
0.7312669931
 40
0.7502382006
 40
0.7686942544
 40
0.7866011386
 40
0.8039271357
 40
0.8206430202
 40
0.836722649
 40
0.8521429358
 40
0.8668846673
 40
0.8809327815
 40
0.8942770132
 40
0.906912916
 40
0.9188424298
 40
0.9300755412
 40
0.9406314301
 40
0.9505403796
 40
0.9598460154
 40
0.9686071335
 40
0.9768998702
 40
0.9848189948
 40
0.9924774076
 40
1.0
 40
1.0
 40
1.0
 40
1.0
 10
9.8066343647
 20
11.306655921
 30
0.0
 10
9.8066343647
 20
11.3084619337
 30
0.0
 10
9.8068987423
 20
11.3121117858
 30
0.0
 10
9.8080814364
 20
11.3175473389
 30
0.0
 10
9.8100452715
 20
11.3229483611
 30
0.0
 10
9.8127804247
 20
11.3282990347
 30
0.0
 10
9.8162762928
 20
11.3335881498
 30
0.0
 10
9.8205222741
 20
11.3388045974
 30
0.0
 10
9.8255066532
 20
11.343938164
 30
0.0
 10
9.8312172197
 20
11.3489782101
 30
0.0
 10
9.8376403142
 20
11.3539141006
 30
0.0
 10
9.8447608436
 20
11.3587350325
 30
0.0
 10
9.8525621978
 20
11.3634299727
 30
0.0
 10
9.8610259638
 20
11.3679882742
 30
0.0
 10
9.8701322509
 20
11.3723990981
 30
0.0
 10
9.8798594511
 20
11.3766521031
 30
0.0
 10
9.8901844476
 20
11.3807371617
 30
0.0
 10
9.9010826534
 20
11.3846443975
 30
0.0
 10
9.9125279971
 20
11.3883645742
 30
0.0
 10
9.9244931173
 20
11.3918885863
 30
0.0
 10
9.9369493224
 20
11.3952080429
 30
0.0
 10
9.9498667216
 20
11.3983148962
 30
0.0
 10
9.9632143547
 20
11.4012016429
 30
0.0
 10
9.9817429307
 20
11.4047866206
 30
0.0
 10
10.0057502231
 20
11.408650268
 30
0.0
 10
10.0354330684
 20
11.4122657586
 30
0.0
 10
10.0660111149
 20
11.4148737152
 30
0.0
 10
10.0971906097
 20
11.41644876
 30
0.0
 10
10.128672397
 20
11.4169754904
 30
0.0
 10
10.1601541843
 20
11.41644876
 30
0.0
 10
10.1913336791
 20
11.4148737152
 30
0.0
 10
10.2219117256
 20
11.4122657586
 30
0.0
 10
10.2515945708
 20
11.408650268
 30
0.0
 10
10.2756018632
 20
11.4047866206
 30
0.0
 10
10.2941304392
 20
11.4012016429
 30
0.0
 10
10.3074780723
 20
11.3983148962
 30
0.0
 10
10.3203954715
 20
11.3952080429
 30
0.0
 10
10.3328516767
 20
11.3918885863
 30
0.0
 10
10.3448167968
 20
11.3883645742
 30
0.0
 10
10.3562621405
 20
11.3846443975
 30
0.0
 10
10.3671603463
 20
11.3807371617
 30
0.0
 10
10.3774853429
 20
11.3766521031
 30
0.0
 10
10.387212543
 20
11.3723990981
 30
0.0
 10
10.3963188301
 20
11.3679882742
 30
0.0
 10
10.4047825962
 20
11.3634299727
 30
0.0
 10
10.4125839503
 20
11.3587350325
 30
0.0
 10
10.4197044797
 20
11.3539141006
 30
0.0
 10
10.4261275743
 20
11.3489782101
 30
0.0
 10
10.4318381407
 20
11.343938164
 30
0.0
 10
10.4368225198
 20
11.3388045974
 30
0.0
 10
10.4410685012
 20
11.3335881498
 30
0.0
 10
10.4445643692
 20
11.3282990347
 30
0.0
 10
10.4472995224
 20
11.3229483611
 30
0.0
 10
10.4492633575
 20
11.3175473389
 30
0.0
 10
10.4504460516
 20
11.3121117858
 30
0.0
 10
10.4507104292
 20
11.3084619337
 30
0.0
 10
10.4507104292
 20
11.306655921
 30
0.0
  0
SPLINE
  5
27C
100
AcDbEntity
  8
0
100
AcDbSpline
 62
9
  6
CONTINUOUS
 70
0
 71
3
 72
31
 73
27
 74
0
 42
0.0000001
 43
0.0000001
 44
0.0000000001
 40
0.0
 40
0.0
 40
0.0
 40
0.0
 40
0.0254306863
 40
0.0519168448
 40
0.0794115726
 40
0.1078625571
 40
0.1372127118
 40
0.1674009827
 40
0.1983624026
 40
0.2300288134
 40
0.2951867064
 40
0.3622814154
 40
0.4306863556
 40
0.4997554449
 40
0.5688328428
 40
0.6372625855
 40
0.7043982256
 40
0.7696125678
 40
0.8013127458
 40
0.8323114669
 40
0.8625403981
 40
0.8919344141
 40
0.9204322596
 40
0.9479766081
 40
0.9745149238
 40
1.0
 40
1.0
 40
1.0
 40
1.0
 10
9.8977152122
 20
11.48193322
 30
0.0
 10
9.9014360371
 20
11.4833294242
 30
0.0
 10
9.9090824073
 20
11.486047185
 30
0.0
 10
9.9209021474
 20
11.4898346346
 30
0.0
 10
9.9332804111
 20
11.4934078572
 30
0.0
 10
9.9461838556
 20
11.4967571607
 30
0.0
 10
9.9595779333
 20
11.4998736043
 30
0.0
 10
9.9734266917
 20
11.5027486457
 30
0.0
 10
9.9876929926
 20
11.5053746489
 30
0.0
 10
10.0074074783
 20
11.5085645028
 30
0.0
 10
10.0328180453
 20
11.5118635713
 30
0.0
 10
10.0640541575
 20
11.5147004959
 30
0.0
 10
10.0959836637
 20
11.5164209408
 30
0.0
 10
10.1282637436
 20
11.5170061826
 30
0.0
 10
10.1605482076
 20
11.5164497677
 30
0.0
 10
10.1924908165
 20
11.5147578312
 30
0.0
 10
10.2237486071
 20
11.5119487875
 30
0.0
 10
10.2491827785
 20
11.508672605
 30
0.0
 10
10.2689203275
 20
11.5055006289
 30
0.0
 10
10.2832067228
 20
11.5028874166
 30
0.0
 10
10.297077485
 20
11.5000247798
 30
0.0
 10
10.3104954183
 20
11.4969203392
 30
0.0
 10
10.323424504
 20
11.4935826009
 30
0.0
 10
10.3358301205
 20
11.4900204607
 30
0.0
 10
10.3476788575
 20
11.4862436071
 30
0.0
 10
10.3553453883
 20
11.4835329178
 30
0.0
 10
10.3590765861
 20
11.4821401803
 30
0.0
  0
ENDSEC
  0
SECTION
  2
OBJECTS
  0
DICTIONARY
  5
C
100
AcDbDictionary
280
0
281
1
  3
ACAD_GROUP
350
D
  3
ACAD_MLINESTYLE
350
17
  3
ACAD_LAYOUT
350
1A
  3
ACAD_PLOTSETTINGS
350
19
  3
ACAD_PLOTSTYLENAME
350
E
  0
DICTIONARY
  5
D
102
{ACAD_REACTORS
330
C
102
}
100
AcDbDictionary
280
0
281
1
  0
ACDBDICTIONARYWDFLT
  5
E
102
{ACAD_REACTORS
330
C
102
}
100
AcDbDictionary
281
1
  3
Normal
350
F
100
AcDbDictionaryWithDefault
340
F
  0
DICTIONARY
  5
17
102
{ACAD_REACTORS
330
C
102
}
100
AcDbDictionary
280
0
281
1
  3
Standard
350
18
  0
DICTIONARY
  5
19
102
{ACAD_REACTORS
330
C
102
}
100
AcDbDictionary
281
1
  0
DICTIONARY
  5
1A
102
{ACAD_REACTORS
330
C
102
}
100
AcDbDictionary
281
1
  3
Model
350
27D
  3
Layout1
350
27E
  0
ACDBPLACEHOLDER
  5
F
102
{ACAD_REACTORS
330
E
102
}
  0
MLINESTYLE
  5
18
102
{ACAD_REACTORS
330
17
102
}
100
AcDbMlineStyle
  2
STANDARD
 70
0
  3

 62
256
 51
90.0
 52
90.0
 71
2
 49
0.5
 62
256
  6
BYLAYER
 49
-0.5
 62
256
  6
BYLAYER
  0
LAYOUT
  5
27D
102
{ACAD_REACTORS
330
1A
102
}
100
AcDbPlotSettings
  1

  2
none_device
  4
ANSI_C_(22.00_x_17.00_Inches)
  6

 40
0.0
 41
0.0
 42
0.0
 43
0.0
 44
558.8
 45
431.8
 46
0.0
 47
0.0
 48
0.0
 49
0.0
140
0.0
141
0.0
142
1.0
143
1.0
 70
1024
 72
0
 73
0
 74
0
  7

 75
0
147
1.0
148
0.0
149
0.0
100
AcDbLayout
  1
Model
 70
0
 71
0
 10
0.0
 20
0.0
 11
22.0
 21
17.0
 12
0.0
 22
0.0
 32
0.0
 14
0.0
 24
0.0
 34
0.0
 15
0.0
 25
0.0
 35
0.0
146
0.0
 13
0.0
 23
0.0
 33
0.0
 16
1.0
 26
0.0
 36
0.0
 17
0.0
 27
1.0
 37
0.0
 76
0
330
205
345
0
346
0
  0
LAYOUT
  5
27E
102
{ACAD_REACTORS
330
1A
102
}
100
AcDbPlotSettings
  1

  2
none_device
  4
ANSI_C_(22.00_x_17.00_Inches)
  6

 40
0.0
 41
0.0
 42
0.0
 43
0.0
 44
558.8
 45
431.8
 46
0.0
 47
0.0
 48
0.0
 49
0.0
140
0.0
141
0.0
142
1.0
143
1.0
 70
0
 72
0
 73
0
 74
0
  7

 75
0
147
1.0
148
0.0
149
0.0
100
AcDbLayout
  1
Layout1
 70
0
 71
1
 10
0.0
 20
0.0
 11
22.0
 21
17.0
 12
0.0
 22
0.0
 32
0.0
 14
0.0
 24
0.0
 34
0.0
 15
0.0
 25
0.0
 35
0.0
146
0.0
 13
0.0
 23
0.0
 33
0.0
 16
1.0
 26
0.0
 36
0.0
 17
0.0
 27
1.0
 37
0.0
 76
0
330
206
345
0
346
0
  0
ENDSEC
  0
EOF
