999
DXF file: 1030b_FRONT.dxf
999
Pro/ENGINEER 2018400 by Parametric Technology Corporation
  0
SECTION
  2
HEADER
  9
$ACADVER
  1
AC1027
  9
$DWGCODEPAGE
  3
ANSI_1252
  9
$EXTMAX
 10
11.0
 20
8.5
 30
0.0
  9
$EXTMIN
 10
0.0
 20
0.0
 30
0.0
  9
$LIMMIN
 10
0.0
 20
0.0
  9
$LIMMAX
 10
11.0
 20
8.5
  9
$VIEWCTR
 10
5.5
 20
4.25
  9
$VIEWSIZE
 40
8.5
  9
$CLAYER
  8
0
  9
$LTSCALE
 40
0.605
  9
$CELTYPE
  6
BYLAYER
  9
$DIMSCALE
 40
1.0
  9
$DIMASZ
 40
0.1
  9
$DIMEXO
 40
0.0625
  9
$DIMDLI
 40
0.418
  9
$DIMEXE
 40
0.125
  9
$DIMCEN
 40
0.099
  9
$DIMLFAC
 40
1.0
  9
$DIMBLK
  1
_FILLED
  9
$DIMALT
 70
1
  9
$DIMALTD
 70
2
  9
$DIMALTTD
 70
2
  9
$DIMALTF
 40
25.4
  9
$DIMTXT
 40
0.08
  9
$DIMTOL
 70
1
  9
$DIMLIM
 70
0
  9
$DIMTFAC
 40
1.0
  9
$DIMTP
 40
0.001
  9
$DIMTM
 40
0.001
  9
$DIMGAP
 40
0.09
  9
$DIMDSEP
 70
46
  9
$AUNITS
 70
0
  9
$PDMODE
 70
3
  9
$PDSIZE
 40
0.3125
  9
$HANDSEED
  5
489
  9
$TILEMODE
 70
1
  9
$MEASUREMENT
 70
0
  9
$INSUNITS
 70
1
  0
ENDSEC
  0
SECTION
  2
CLASSES
  0
CLASS
  1
ACDBDICTIONARYWDFLT
  2
AcDbDictionaryWithDefault
  3
AutoCAD 2000
 90
0
 91
1
280
0
281
0
  0
CLASS
  1
ACDBPLACEHOLDER
  2
AcDbPlaceHolder
  3
AutoCAD 2000
 90
0
 91
1
280
0
281
0
  0
CLASS
  1
LAYOUT
  2
AcDbLayout
  3
AutoCAD 2000
 90
0
 91
0
280
0
281
0
  0
ENDSEC
  0
SECTION
  2
TABLES
  0
TABLE
  2
VPORT
  5
8
100
AcDbSymbolTable
 70
2
  0
VPORT
  5
1F4
100
AcDbSymbolTableRecord
100
AcDbViewportTableRecord
  2
*ACTIVE
 70
0
 10
0.0
 20
0.0
 11
1.0
 21
1.0
 12
5.5
 22
4.25
 13
0.0
 23
0.0
 14
1.0
 24
1.0
 15
0.0
 25
0.0
 16
0.0
 26
0.0
 36
1.0
 17
0.0
 27
0.0
 37
0.0
 40
8.5
 41
1.2941176471
 42
50.0
 43
0.0
 44
0.0
 50
0.0
 51
0.0
 71
0
 72
100
 73
1
 74
1
 75
0
 76
0
 77
0
 78
0
  0
ENDTAB
  0
TABLE
  2
LTYPE
  5
5
100
AcDbSymbolTable
 70
6
  0
LTYPE
  5
14
100
AcDbSymbolTableRecord
100
AcDbLinetypeTableRecord
  2
BYBLOCK
 70
0
  3

 72
65
 73
0
 40
0.0
  0
LTYPE
  5
15
100
AcDbSymbolTableRecord
100
AcDbLinetypeTableRecord
  2
BYLAYER
 70
0
  3

 72
65
 73
0
 40
0.0
  0
LTYPE
  5
16
100
AcDbSymbolTableRecord
100
AcDbLinetypeTableRecord
  2
CONTINUOUS
 70
64
  3
Solid line
 72
65
 73
0
 40
0.0
  0
LTYPE
  5
1F5
100
AcDbSymbolTableRecord
100
AcDbLinetypeTableRecord
  2
CENTER
 70
64
  3
____ _ ____ _ ____ _ ____ _ ____ _ ____ _ ____
 72
65
 73
4
 40
0.6
 49
0.375
 74
0
 49
-0.075
 74
0
 49
0.075
 74
0
 49
-0.075
 74
0
  0
LTYPE
  5
1F6
100
AcDbSymbolTableRecord
100
AcDbLinetypeTableRecord
  2
HIDDEN
 70
64
  3
- - - - - - - - - - - - - - - - - - - -
 72
65
 73
2
 40
0.2
 49
0.1
 74
0
 49
-0.1
 74
0
  0
LTYPE
  5
1F7
100
AcDbSymbolTableRecord
100
AcDbLinetypeTableRecord
  2
PHANTOM
 70
64
  3
_____ _ _ _____ _ _ _____ _ _ _____
 72
65
 73
6
 40
0.8
 49
0.45
 74
0
 49
-0.05
 74
0
 49
0.1
 74
0
 49
-0.05
 74
0
 49
0.1
 74
0
 49
-0.05
 74
0
  0
LTYPE
  5
1F8
100
AcDbSymbolTableRecord
100
AcDbLinetypeTableRecord
  2
DOT
 70
64
  3
. . . . . . . . . . . . . . . . . . . .
 72
65
 73
2
 40
0.2
 49
0.1
 74
0
 49
-0.1
 74
0
  0
LTYPE
  5
1F9
100
AcDbSymbolTableRecord
100
AcDbLinetypeTableRecord
  2
DASHED
 70
64
  3
- - - - - - - - - - - - - - - - - - - -
 72
65
 73
2
 40
0.2
 49
0.1
 74
0
 49
-0.1
 74
0
  0
ENDTAB
  0
TABLE
  2
LAYER
  5
2
100
AcDbSymbolTable
 70
36
  0
LAYER
  5
10
100
AcDbSymbolTableRecord
100
AcDbLayerTableRecord
  2
0
 70
0
 62
7
  6
CONTINUOUS
370
-3
390
F
  0
LAYER
  5
1FA
100
AcDbSymbolTableRecord
100
AcDbLayerTableRecord
  2
DEFAULT_1
 70
0
 62
7
  6
CENTER
370
-3
390
F
  0
LAYER
  5
1FB
100
AcDbSymbolTableRecord
100
AcDbLayerTableRecord
  2
DEFAULT_2
 70
0
 62
8
  6
HIDDEN
370
-3
390
F
  0
LAYER
  5
1FC
100
AcDbSymbolTableRecord
100
AcDbLayerTableRecord
  2
DEFAULT_3
 70
0
 62
7
  6
PHANTOM
370
-3
390
F
  0
LAYER
  5
1FD
100
AcDbSymbolTableRecord
100
AcDbLayerTableRecord
  2
DEFAULT_COORDINATE_SYSTEM
 70
0
 62
7
  6
CONTINUOUS
370
-3
390
F
  0
LAYER
  5
1FE
100
AcDbSymbolTableRecord
100
AcDbLayerTableRecord
  2
DEFAULT_DATUM_AXES
 70
0
 62
7
  6
CONTINUOUS
370
-3
390
F
  0
LAYER
  5
1FF
100
AcDbSymbolTableRecord
100
AcDbLayerTableRecord
  2
DEFAULT_DATUM_PLANES
 70
0
 62
7
  6
CONTINUOUS
370
-3
390
F
  0
ENDTAB
  0
TABLE
  2
STYLE
  5
3
100
AcDbSymbolTable
 70
1
  0
STYLE
  5
11
100
AcDbSymbolTableRecord
100
AcDbTextStyleTableRecord
  2
STANDARD
 70
0
 40
0.0
 41
0.8
 50
0.0
 71
0
 42
0.2
  3
txt
  4

  0
STYLE
  5
200
100
AcDbSymbolTableRecord
100
AcDbTextStyleTableRecord
  2
TEXTSTYLE_1
 70
0
 40
0.0
 41
0.8
 50
0.0
 71
0
 42
0.2
  3
gdt
  4

  0
ENDTAB
  0
TABLE
  2
VIEW
  5
6
100
AcDbSymbolTable
 70
0
  0
ENDTAB
  0
TABLE
  2
UCS
  5
7
100
AcDbSymbolTable
 70
0
  0
ENDTAB
  0
TABLE
  2
APPID
  5
9
100
AcDbSymbolTable
 70
1
  0
APPID
  5
201
100
AcDbSymbolTableRecord
100
AcDbRegAppTableRecord
  2
ACAD
 70
0
  0
ENDTAB
  0
TABLE
  2
BLOCK_RECORD
  5
1
100
AcDbSymbolTable
 70
0
  0
BLOCK_RECORD
  5
202
100
AcDbSymbolTableRecord
100
AcDbBlockTableRecord
  2
*Model_Space
  0
BLOCK_RECORD
  5
203
100
AcDbSymbolTableRecord
100
AcDbBlockTableRecord
  2
*Paper_Space
  0
BLOCK_RECORD
  5
204
100
AcDbSymbolTableRecord
100
AcDbBlockTableRecord
  2
_FILLED
  0
ENDTAB
  0
TABLE
  2
DIMSTYLE
  5
A
100
AcDbSymbolTable
 70
1
100
AcDbDimStyleTable
 71
0
  0
DIMSTYLE
105
205
100
AcDbSymbolTableRecord
100
AcDbDimStyleTableRecord
  2
STANDARD
 70
0
  3

  4

 40
1.0
 41
0.1
 42
0.0625
 43
0.38
 44
0.125
 45
0.0
 46
0.0
 47
0.001
 48
0.001
140
0.08
141
0.09
142
0.0
143
25.4
144
1.0
145
0.0
146
1.0
147
0.09
 71
1.0
 72
0.0
 73
1
 74
1
 75
0
 76
0
 77
0
 78
4
 79
1
170
1
171
2
172
0
173
0
174
0
175
0
176
0
177
0
178
0
270
2
179
3
271
3
272
3
273
2
274
2
275
0
280
0
281
0
282
0
283
1
284
4
285
0
286
0
287
3
288
0
340
11
278
46
341
204
342
204
343
204
344
204
  0
ENDTAB
  0
ENDSEC
  0
SECTION
  2
BLOCKS
  0
BLOCK
  5
20
100
AcDbEntity
  8
0
100
AcDbBlockBegin
  2
*Model_Space
 70
0
 10
0.0
 20
0.0
 30
0.0
  3
*Model_Space
  1

  0
ENDBLK
  5
21
100
AcDbEntity
  8
0
100
AcDbBlockEnd
  0
BLOCK
  5
1C
100
AcDbEntity
  8
0
100
AcDbBlockBegin
  2
*Paper_Space
 70
0
 10
0.0
 20
0.0
 30
0.0
  3
*Paper_Space
  1

  0
ENDBLK
  5
1D
100
AcDbEntity
  8
0
100
AcDbBlockEnd
  0
BLOCK
  5
206
100
AcDbEntity
  8
0
100
AcDbBlockBegin
  2
_FILLED
 70
64
 10
0.0
 20
0.0
  3
_FILLED
  1

  0
SOLID
  5
207
100
AcDbEntity
  8
0
  6
BYBLOCK
 62
0
100
AcDbTrace
 10
0.0
 20
0.0
 11
-1.0
 21
0.2
 12
-1.0
 22
-0.2
 13
-1.0
 23
-0.2
  0
ENDBLK
  5
208
100
AcDbEntity
  8
0
  6
BYBLOCK
 62
0
100
AcDbBlockEnd
  0
ENDSEC
  0
SECTION
  2
ENTITIES
  0
MTEXT
  5
209
100
AcDbEntity
  8
0
100
AcDbMText
 62
2
  6
CONTINUOUS
  7
STANDARD
 71
3
 72
1
 10
5.7882375776
 20
1.0449495342
 30
0.0
 11
1.0
 21
0.0
 31
0.0
 73
2
 44
0.9
  1
SCALE  .500
 40
0.08
 41
0.704
  0
LINE
  5
20A
100
AcDbEntity
  8
0
100
AcDbLine
 62
7
  6
CONTINUOUS
 10
0.0
 20
0.0
 11
0.0
 21
8.5
  0
LINE
  5
20B
100
AcDbEntity
  8
0
100
AcDbLine
 62
7
  6
CONTINUOUS
 10
0.0
 20
0.0
 11
11.0
 21
0.0
  0
LINE
  5
20C
100
AcDbEntity
  8
0
100
AcDbLine
 62
7
  6
CONTINUOUS
 10
0.0
 20
8.5
 11
11.0
 21
8.5
  0
LINE
  5
20D
100
AcDbEntity
  8
0
100
AcDbLine
 62
7
  6
CONTINUOUS
 10
11.0
 20
0.0
 11
11.0
 21
8.5
  0
LINE
  5
20E
100
AcDbEntity
  8
0
100
AcDbLine
 62
7
  6
CONTINUOUS
 10
1.5619829193
 20
4.1023392857
 11
1.5619829193
 21
4.3638392857
  0
LINE
  5
20F
100
AcDbEntity
  8
0
100
AcDbLine
 62
7
  6
CONTINUOUS
 10
1.5719829193
 20
4.3738392857
 11
1.5719829193
 21
4.0923392857
  0
LINE
  5
210
100
AcDbEntity
  8
0
100
AcDbLine
 62
7
  6
CONTINUOUS
 10
1.6119829193
 20
4.0923392857
 11
1.6119829193
 21
4.3738392857
  0
LINE
  5
211
100
AcDbEntity
  8
0
100
AcDbLine
 62
7
  6
CONTINUOUS
 10
1.5719829193
 20
4.0923392857
 11
1.5619829193
 21
4.1023392857
  0
LINE
  5
212
100
AcDbEntity
  8
0
100
AcDbLine
 62
7
  6
CONTINUOUS
 10
2.8359029454
 20
2.7209454539
 11
2.9167103198
 21
2.4169139768
  0
LINE
  5
213
100
AcDbEntity
  8
0
100
AcDbLine
 62
7
  6
CONTINUOUS
 10
2.7209829193
 20
2.0870816996
 11
2.7209829193
 21
2.0595892857
  0
LINE
  5
214
100
AcDbEntity
  8
0
100
AcDbLine
 62
7
  6
CONTINUOUS
 10
2.7564829193
 20
4.0923392857
 11
2.7564829193
 21
4.3738392857
  0
LINE
  5
215
100
AcDbEntity
  8
0
100
AcDbLine
 62
7
  6
CONTINUOUS
 10
2.8089829193
 20
4.0923392857
 11
2.8089829193
 21
4.3738392857
  0
LINE
  5
216
100
AcDbEntity
  8
0
100
AcDbLine
 62
7
  6
CONTINUOUS
 10
2.9089829193
 20
4.1345892857
 11
2.9089829193
 21
4.3315892857
  0
LINE
  5
217
100
AcDbEntity
  8
0
100
AcDbLine
 62
7
  6
CONTINUOUS
 10
1.5719829193
 20
4.3738392857
 11
1.5619829193
 21
4.3638392857
  0
LINE
  5
218
100
AcDbEntity
  8
0
100
AcDbLine
 62
7
  6
CONTINUOUS
 10
5.6352329193
 20
2.0400892857
 11
4.7652329193
 21
2.0400892857
  0
LINE
  5
219
100
AcDbEntity
  8
0
100
AcDbLine
 62
7
  6
CONTINUOUS
 10
2.7404832259
 20
2.0400892857
 11
3.6599826126
 21
2.0400892857
  0
LINE
  5
21A
100
AcDbEntity
  8
0
100
AcDbLine
 62
7
  6
CONTINUOUS
 10
6.7404830421
 20
2.0400892857
 11
7.6599827964
 21
2.0400892857
  0
LINE
  5
21B
100
AcDbEntity
  8
0
100
AcDbLine
 62
7
  6
CONTINUOUS
 10
2.7209829193
 20
2.0595892857
 11
3.6794829193
 21
2.0595892857
  0
LINE
  5
21C
100
AcDbEntity
  8
0
100
AcDbLine
 62
7
  6
CONTINUOUS
 10
6.7209829193
 20
2.0595892857
 11
7.6794829193
 21
2.0595892857
  0
LINE
  5
21D
100
AcDbEntity
  8
0
100
AcDbLine
 62
7
  6
CONTINUOUS
 10
2.7209829193
 20
2.0870816996
 11
3.6794829193
 21
2.0870816996
  0
LINE
  5
21E
100
AcDbEntity
  8
0
100
AcDbLine
 62
7
  6
CONTINUOUS
 10
6.7209829193
 20
2.0870816996
 11
7.6794829193
 21
2.0870816996
  0
LINE
  5
21F
100
AcDbEntity
  8
0
100
AcDbLine
 62
7
  6
CONTINUOUS
 10
2.9246429193
 20
3.2210892857
 11
2.9246429193
 21
3.1036630129
  0
LINE
  5
220
100
AcDbEntity
  8
0
100
AcDbLine
 62
7
  6
CONTINUOUS
 10
2.9364829193
 20
4.4267313343
 11
2.9364829193
 21
4.3910892857
  0
LINE
  5
221
100
AcDbEntity
  8
0
100
AcDbLine
 62
7
  6
CONTINUOUS
 10
2.9389829193
 20
4.2005892857
 11
2.9389829193
 21
4.2655892857
  0
LINE
  5
222
100
AcDbEntity
  8
0
100
AcDbLine
 62
7
  6
CONTINUOUS
 10
3.0284829193
 20
4.0655892857
 11
3.0284829193
 21
3.8860892857
  0
LINE
  5
223
100
AcDbEntity
  8
0
100
AcDbLine
 62
7
  6
CONTINUOUS
 10
3.0677329193
 20
4.471000577
 11
3.0677329193
 21
4.4715746005
  0
LINE
  5
224
100
AcDbEntity
  8
0
100
AcDbLine
 62
7
  6
CONTINUOUS
 10
3.0759829193
 20
4.4728237082
 11
3.0759829193
 21
4.4735658442
  0
LINE
  5
225
100
AcDbEntity
  8
0
100
AcDbLine
 62
7
  6
CONTINUOUS
 10
3.0959829193
 20
4.4758064935
 11
3.0959829193
 21
4.4765324409
  0
LINE
  5
226
100
AcDbEntity
  8
0
100
AcDbLine
 62
7
  6
CONTINUOUS
 10
3.1042329193
 20
4.4770183162
 11
3.1042329193
 21
4.4764483604
  0
LINE
  5
227
100
AcDbEntity
  8
0
100
AcDbLine
 62
7
  6
CONTINUOUS
 10
3.1127329193
 20
4.477462894
 11
3.1127329193
 21
4.4780320985
  0
LINE
  5
228
100
AcDbEntity
  8
0
100
AcDbLine
 62
7
  6
CONTINUOUS
 10
3.1209829193
 20
4.4787890881
 11
3.1209829193
 21
4.479512228
  0
LINE
  5
229
100
AcDbEntity
  8
0
100
AcDbLine
 62
7
  6
CONTINUOUS
 10
3.1409829193
 20
4.4805844454
 11
3.1409829193
 21
4.4813220754
  0
LINE
  5
22A
100
AcDbEntity
  8
0
100
AcDbLine
 62
7
  6
CONTINUOUS
 10
3.1492329193
 20
4.4813086952
 11
3.1492329193
 21
4.480741905
  0
LINE
  5
22B
100
AcDbEntity
  8
0
100
AcDbLine
 62
7
  6
CONTINUOUS
 10
3.1783829193
 20
4.482781145
 11
3.1783829193
 21
4.4832813438
  0
LINE
  5
22C
100
AcDbEntity
  8
0
100
AcDbLine
 62
7
  6
CONTINUOUS
 10
2.9916652932
 20
3.8541034916
 11
2.9380415209
 21
3.4125892857
  0
LINE
  5
22D
100
AcDbEntity
  8
0
100
AcDbLine
 62
7
  6
CONTINUOUS
 10
5.5470215254
 20
2.1025892857
 11
4.8534443131
 21
2.1025892857
  0
LINE
  5
22E
100
AcDbEntity
  8
0
100
AcDbLine
 62
7
  6
CONTINUOUS
 10
2.7355455335
 20
2.1059462754
 11
3.664920305
 21
2.1059462754
  0
LINE
  5
22F
100
AcDbEntity
  8
0
100
AcDbLine
 62
7
  6
CONTINUOUS
 10
6.7355455335
 20
2.1059462754
 11
7.664920305
 21
2.1059462754
  0
LINE
  5
230
100
AcDbEntity
  8
0
100
AcDbLine
 62
7
  6
CONTINUOUS
 10
5.4579829193
 20
2.1650892857
 11
4.9424829193
 21
2.1650892857
  0
LINE
  5
231
100
AcDbEntity
  8
0
100
AcDbLine
 62
7
  6
CONTINUOUS
 10
5.3698167093
 20
2.1830333852
 11
5.0306491292
 21
2.1830333852
  0
LINE
  5
232
100
AcDbEntity
  8
0
100
AcDbLine
 62
7
  6
CONTINUOUS
 10
3.2208829193
 20
4.4828140676
 11
3.2208829193
 21
4.4833142451
  0
LINE
  5
233
100
AcDbEntity
  8
0
100
AcDbLine
 62
7
  6
CONTINUOUS
 10
3.2692329193
 20
4.4793425599
 11
3.2692329193
 21
4.479910378
  0
LINE
  5
234
100
AcDbEntity
  8
0
100
AcDbLine
 62
7
  6
CONTINUOUS
 10
3.2784829193
 20
4.4789864571
 11
3.2784829193
 21
4.4796287604
  0
LINE
  5
235
100
AcDbEntity
  8
0
100
AcDbLine
 62
7
  6
CONTINUOUS
 10
3.2964829193
 20
4.4769460881
 11
3.2964829193
 21
4.477591871
  0
LINE
  5
236
100
AcDbEntity
  8
0
100
AcDbLine
 62
7
  6
CONTINUOUS
 10
3.3057329193
 20
4.4757722912
 11
3.3057329193
 21
4.4752014095
  0
LINE
  5
237
100
AcDbEntity
  8
0
100
AcDbLine
 62
7
  6
CONTINUOUS
 10
3.3719829193
 20
4.0655892857
 11
3.3719829193
 21
3.8860892857
  0
LINE
  5
238
100
AcDbEntity
  8
0
100
AcDbLine
 62
7
  6
CONTINUOUS
 10
3.4614829193
 20
4.2005892857
 11
3.4614829193
 21
4.2655892857
  0
LINE
  5
239
100
AcDbEntity
  8
0
100
AcDbLine
 62
7
  6
CONTINUOUS
 10
3.4639829193
 20
4.4267313343
 11
3.4639829193
 21
4.3910892857
  0
LINE
  5
23A
100
AcDbEntity
  8
0
100
AcDbLine
 62
7
  6
CONTINUOUS
 10
3.4685777921
 20
4.3024681674
 11
3.4685777921
 21
4.1637104044
  0
LINE
  5
23B
100
AcDbEntity
  8
0
100
AcDbLine
 62
7
  6
CONTINUOUS
 10
3.4758229193
 20
3.2210892857
 11
3.4758229193
 21
3.1036630129
  0
LINE
  5
23C
100
AcDbEntity
  8
0
100
AcDbLine
 62
7
  6
CONTINUOUS
 10
3.4788905047
 20
4.3271607143
 11
3.4788905047
 21
4.1390178571
  0
LINE
  5
23D
100
AcDbEntity
  8
0
100
AcDbLine
 62
7
  6
CONTINUOUS
 10
5.4902329193
 20
2.4000892857
 11
4.9102329193
 21
2.4000892857
  0
LINE
  5
23E
100
AcDbEntity
  8
0
100
AcDbLine
 62
7
  6
CONTINUOUS
 10
2.9167103198
 20
2.4169139768
 11
3.4837555188
 21
2.4169139768
  0
LINE
  5
23F
100
AcDbEntity
  8
0
100
AcDbLine
 62
7
  6
CONTINUOUS
 10
6.9167103198
 20
2.4169139768
 11
7.4837555188
 21
2.4169139768
  0
LINE
  5
240
100
AcDbEntity
  8
0
100
AcDbLine
 62
7
  6
CONTINUOUS
 10
5.4902329193
 20
2.5050892857
 11
4.9102329193
 21
2.5050892857
  0
LINE
  5
241
100
AcDbEntity
  8
0
100
AcDbLine
 62
7
  6
CONTINUOUS
 10
5.2040304984
 20
2.5951037075
 11
5.1964353401
 21
2.5951037075
  0
LINE
  5
242
100
AcDbEntity
  8
0
100
AcDbLine
 62
7
  6
CONTINUOUS
 10
6.8673496883
 20
2.6026295232
 11
6.6416886105
 21
2.6026295232
  0
LINE
  5
243
100
AcDbEntity
  8
0
100
AcDbLine
 62
7
  6
CONTINUOUS
 10
3.5331161502
 20
2.6026295232
 11
3.758777228
 21
2.6026295232
  0
LWPOLYLINE
  5
244
100
AcDbEntity
  8
0
100
AcDbPolyline
 62
7
  6
CONTINUOUS
 90
25
 70
0
 10
3.840086088
 20
3.2358032968
 10
3.840485486
 20
3.2351951299
 10
3.841477156
 20
3.2336144133
 10
3.8424220445
 20
3.2320030495
 10
3.8433191325
 20
3.2303624496
 10
3.8441674854
 20
3.2286939787
 10
3.8449659034
 20
3.2269996959
 10
3.8457135609
 20
3.2252811086
 10
3.8464096925
 20
3.2235397155
 10
3.8470533634
 20
3.2217776484
 10
3.8476439164
 20
3.2199965778
 10
3.8481808036
 20
3.2181980171
 10
3.848663408
 20
3.2163839194
 10
3.8490912561
 20
3.2145560156
 10
3.8494639686
 20
3.2127158718
 10
3.8497811804
 20
3.2108652217
 10
3.8500425929
 20
3.2090057486
 10
3.8502479601
 20
3.2071391312
 10
3.8503970825
 20
3.2052671103
 10
3.8504898192
 20
3.2033913851
 10
3.8505260805
 20
3.2015136547
 10
3.8505058293
 20
3.1996356659
 10
3.850429083
 20
3.1977591365
 10
3.8502959099
 20
3.195885754
 10
3.8502080115
 20
3.1949489302
  0
LINE
  5
245
100
AcDbEntity
  8
0
100
AcDbLine
 62
7
  6
CONTINUOUS
 10
3.7674829193
 20
3.2980892857
 11
3.7554829193
 21
3.3188738954
  0
LINE
  5
246
100
AcDbEntity
  8
0
100
AcDbLine
 62
7
  6
CONTINUOUS
 10
3.4088005453
 20
3.8541034916
 11
3.4624243177
 21
3.4125892857
  0
LINE
  5
247
100
AcDbEntity
  8
0
100
AcDbLine
 62
7
  6
CONTINUOUS
 10
3.6045528197
 20
4.1372675035
 11
3.6045528197
 21
4.3289110679
  0
LINE
  5
248
100
AcDbEntity
  8
0
100
AcDbLine
 62
7
  6
CONTINUOUS
 10
3.6180397908
 20
4.1430892857
 11
3.6180397908
 21
4.3230892857
  0
LINE
  5
249
100
AcDbEntity
  8
0
100
AcDbLine
 62
7
  6
CONTINUOUS
 10
3.6303807554
 20
4.147720607
 11
3.6303807554
 21
4.3184579644
  0
LINE
  5
24A
100
AcDbEntity
  8
0
100
AcDbLine
 62
7
  6
CONTINUOUS
 10
3.6549637904
 20
4.1305709253
 11
3.6549637904
 21
4.3356076461
  0
LINE
  5
24B
100
AcDbEntity
  8
0
100
AcDbLine
 62
7
  6
CONTINUOUS
 10
3.6794829193
 20
2.0870816996
 11
3.6794829193
 21
2.0595892857
  0
LINE
  5
24C
100
AcDbEntity
  8
0
100
AcDbLine
 62
7
  6
CONTINUOUS
 10
3.7554829193
 20
3.3188738954
 11
3.7554829193
 21
3.567304676
  0
LINE
  5
24D
100
AcDbEntity
  8
0
100
AcDbLine
 62
7
  6
CONTINUOUS
 10
2.9475927087
 20
4.4378411237
 11
2.9364829193
 21
4.4267313343
  0
LINE
  5
24E
100
AcDbEntity
  8
0
100
AcDbLine
 62
7
  6
CONTINUOUS
 10
2.8359029454
 20
2.7209454539
 11
3.5645628931
 21
2.7209454539
  0
LINE
  5
24F
100
AcDbEntity
  8
0
100
AcDbLine
 62
7
  6
CONTINUOUS
 10
6.8359029454
 20
2.7209454539
 11
7.5645628931
 21
2.7209454539
  0
LINE
  5
250
100
AcDbEntity
  8
0
100
AcDbLine
 62
7
  6
CONTINUOUS
 10
3.803761056
 20
3.529632571
 11
3.803761056
 21
3.3565460005
  0
LINE
  5
251
100
AcDbEntity
  8
0
100
AcDbLine
 62
7
  6
CONTINUOUS
 10
3.8339794193
 20
3.8015892857
 11
3.8339794193
 21
3.6080892857
  0
LINE
  5
252
100
AcDbEntity
  8
0
100
AcDbLine
 62
7
  6
CONTINUOUS
 10
4.0042047825
 20
3.529632571
 11
4.0042047825
 21
3.3565460005
  0
LINE
  5
253
100
AcDbEntity
  8
0
100
AcDbLine
 62
7
  6
CONTINUOUS
 10
3.5645628931
 20
2.7209454539
 11
3.4837555188
 21
2.4169139768
  0
LINE
  5
254
100
AcDbEntity
  8
0
100
AcDbLine
 62
7
  6
CONTINUOUS
 10
2.8901848548
 20
3.2965995951
 11
2.8901621447
 21
3.2965710814
  0
LINE
  5
255
100
AcDbEntity
  8
0
100
AcDbLine
 62
7
  6
CONTINUOUS
 10
2.9494829193
 20
4.3835892857
 11
2.9356367616
 21
4.3755892857
  0
LINE
  5
256
100
AcDbEntity
  8
0
100
AcDbLine
 62
7
  6
CONTINUOUS
 10
7.5126960647
 20
2.9920037066
 11
6.8877697739
 21
2.9920037066
  0
LINE
  5
257
100
AcDbEntity
  8
0
100
AcDbLine
 62
7
  6
CONTINUOUS
 10
3.5126960647
 20
2.9920037066
 11
2.8877697739
 21
2.9920037066
  0
LINE
  5
258
100
AcDbEntity
  8
0
100
AcDbLine
 62
7
  6
CONTINUOUS
 10
6.8950847285
 20
3.0026295232
 11
6.6416886105
 21
3.0026295232
  0
LINE
  5
259
100
AcDbEntity
  8
0
100
AcDbLine
 62
7
  6
CONTINUOUS
 10
3.5053811127
 20
3.0026295232
 11
3.758777228
 21
3.0026295232
  0
LINE
  5
25A
100
AcDbEntity
  8
0
100
AcDbLine
 62
7
  6
CONTINUOUS
 10
7.4758229193
 20
3.1036630129
 11
6.9246429193
 21
3.1036630129
  0
LINE
  5
25B
100
AcDbEntity
  8
0
100
AcDbLine
 62
7
  6
CONTINUOUS
 10
3.4758229193
 20
3.1036630129
 11
2.9246429193
 21
3.1036630129
  0
LINE
  5
25C
100
AcDbEntity
  8
0
100
AcDbLine
 62
7
  6
CONTINUOUS
 10
2.9246429095
 20
3.2210892857
 11
3.475822929
 21
3.2210892857
  0
LINE
  5
25D
100
AcDbEntity
  8
0
100
AcDbLine
 62
7
  6
CONTINUOUS
 10
6.9246428462
 20
3.2210892857
 11
7.4758229923
 21
3.2210892857
  0
LINE
  5
25E
100
AcDbEntity
  8
0
100
AcDbLine
 62
7
  6
CONTINUOUS
 10
3.4528731299
 20
4.4378411237
 11
3.4639829193
 21
4.4267313343
  0
LINE
  5
25F
100
AcDbEntity
  8
0
100
AcDbLine
 62
7
  6
CONTINUOUS
 10
4.3494829193
 20
3.567304676
 11
4.3374829193
 21
3.5880892857
  0
LINE
  5
260
100
AcDbEntity
  8
0
100
AcDbLine
 62
7
  6
CONTINUOUS
 10
4.100761056
 20
3.529632571
 11
4.100761056
 21
3.3565460005
  0
LINE
  5
261
100
AcDbEntity
  8
0
100
AcDbLine
 62
7
  6
CONTINUOUS
 10
4.2709864193
 20
3.8015892857
 11
4.2709864193
 21
3.6080892857
  0
LINE
  5
262
100
AcDbEntity
  8
0
100
AcDbLine
 62
7
  6
CONTINUOUS
 10
4.3012047825
 20
3.529632571
 11
4.3012047825
 21
3.3565460005
  0
LINE
  5
263
100
AcDbEntity
  8
0
100
AcDbLine
 62
7
  6
CONTINUOUS
 10
4.3494829193
 20
3.3188738954
 11
4.3494829193
 21
3.567304676
  0
LWPOLYLINE
  5
264
100
AcDbEntity
  8
0
100
AcDbPolyline
 62
7
  6
CONTINUOUS
 90
21
 70
0
 10
4.2515271558
 20
3.1998160538
 10
4.2515784694
 20
3.200750057
 10
4.2517230351
 20
3.202615568
 10
4.2519233824
 20
3.204475896
 10
4.2521793298
 20
3.206329373
 10
4.2524906462
 20
3.2081743378
 10
4.2528570512
 20
3.2100091372
 10
4.2532782145
 20
3.2118321272
 10
4.2537537571
 20
3.2136416732
 10
4.2542832508
 20
3.2154361527
 10
4.2548662196
 20
3.2172139587
 10
4.2555021389
 20
3.2189734966
 10
4.2561904349
 20
3.2207131847
 10
4.256930498
 20
3.2224314852
 10
4.2577216544
 20
3.2241268368
 10
4.2585631583
 20
3.2257976545
 10
4.2594542588
 20
3.227442465
 10
4.2603941388
 20
3.2290597767
 10
4.2613818692
 20
3.2306480217
 10
4.262416548
 20
3.2322057911
 10
4.2627869535
 20
3.232739776
  0
LINE
  5
265
100
AcDbEntity
  8
0
100
AcDbLine
 62
7
  6
CONTINUOUS
 10
3.7554829193
 20
3.567304676
 11
3.7674829193
 21
3.5880892857
  0
LINE
  5
266
100
AcDbEntity
  8
0
100
AcDbLine
 62
7
  6
CONTINUOUS
 10
2.8901848548
 20
3.2965995951
 11
2.890162031
 21
3.2965720866
  0
LINE
  5
267
100
AcDbEntity
  8
0
100
AcDbLine
 62
7
  6
CONTINUOUS
 10
3.6549637904
 20
4.3356076461
 11
3.6303807554
 21
4.3184579644
  0
LINE
  5
268
100
AcDbEntity
  8
0
100
AcDbLine
 62
7
  6
CONTINUOUS
 10
3.4639829193
 20
4.3910892857
 11
3.4509829193
 21
4.3835892857
  0
LINE
  5
269
100
AcDbEntity
  8
0
100
AcDbLine
 62
7
  6
CONTINUOUS
 10
7.4556532547
 20
3.2965995951
 11
7.3500402389
 21
3.2965995951
  0
LINE
  5
26A
100
AcDbEntity
  8
0
100
AcDbLine
 62
7
  6
CONTINUOUS
 10
7.175644351
 20
3.2965995951
 11
7.0399921745
 21
3.2965995951
  0
LINE
  5
26B
100
AcDbEntity
  8
0
100
AcDbLine
 62
7
  6
CONTINUOUS
 10
3.360473664
 20
3.2965995951
 11
3.2248214875
 21
3.2965995951
  0
LINE
  5
26C
100
AcDbEntity
  8
0
100
AcDbLine
 62
7
  6
CONTINUOUS
 10
3.0504255996
 20
3.2965995951
 11
2.9448125838
 21
3.2965995951
  0
LINE
  5
26D
100
AcDbEntity
  8
0
100
AcDbLine
 62
7
  6
CONTINUOUS
 10
3.480241823
 20
3.2965995951
 11
3.5103394941
 21
3.2965995951
  0
LINE
  5
26E
100
AcDbEntity
  8
0
100
AcDbLine
 62
7
  6
CONTINUOUS
 10
6.8901263445
 20
3.2965995951
 11
6.9202240156
 21
3.2965995951
  0
LINE
  5
26F
100
AcDbEntity
  8
0
100
AcDbLine
 62
7
  6
CONTINUOUS
 10
6.6329829193
 20
3.2980892857
 11
6.0629829193
 21
3.2980892857
  0
LINE
  5
270
100
AcDbEntity
  8
0
100
AcDbLine
 62
7
  6
CONTINUOUS
 10
4.3374829193
 20
3.2980892857
 11
3.7674829193
 21
3.2980892857
  0
LINE
  5
271
100
AcDbEntity
  8
0
100
AcDbLine
 62
7
  6
CONTINUOUS
 10
6.6449829193
 20
3.3565460005
 11
6.5967047825
 21
3.3565460005
  0
LINE
  5
272
100
AcDbEntity
  8
0
100
AcDbLine
 62
7
  6
CONTINUOUS
 10
6.396261056
 20
3.3565460005
 11
6.2997047825
 21
3.3565460005
  0
LINE
  5
273
100
AcDbEntity
  8
0
100
AcDbLine
 62
7
  6
CONTINUOUS
 10
6.099261056
 20
3.3565460005
 11
6.0509829193
 21
3.3565460005
  0
LINE
  5
274
100
AcDbEntity
  8
0
100
AcDbLine
 62
7
  6
CONTINUOUS
 10
4.3494829193
 20
3.3565460005
 11
4.3012047825
 21
3.3565460005
  0
LINE
  5
275
100
AcDbEntity
  8
0
100
AcDbLine
 62
7
  6
CONTINUOUS
 10
4.100761056
 20
3.3565460005
 11
4.0042047825
 21
3.3565460005
  0
LINE
  5
276
100
AcDbEntity
  8
0
100
AcDbLine
 62
7
  6
CONTINUOUS
 10
3.803761056
 20
3.3565460005
 11
3.7554829193
 21
3.3565460005
  0
LINE
  5
277
100
AcDbEntity
  8
0
100
AcDbLine
 62
7
  6
CONTINUOUS
 10
2.9380415209
 20
3.4125892857
 11
3.4624243177
 21
3.4125892857
  0
LINE
  5
278
100
AcDbEntity
  8
0
100
AcDbLine
 62
7
  6
CONTINUOUS
 10
6.9380415209
 20
3.4125892857
 11
7.4624243177
 21
3.4125892857
  0
LINE
  5
279
100
AcDbEntity
  8
0
100
AcDbLine
 62
7
  6
CONTINUOUS
 10
6.6449829193
 20
3.529632571
 11
6.5967047825
 21
3.529632571
  0
LINE
  5
27A
100
AcDbEntity
  8
0
100
AcDbLine
 62
7
  6
CONTINUOUS
 10
6.396261056
 20
3.529632571
 11
6.2997047825
 21
3.529632571
  0
LINE
  5
27B
100
AcDbEntity
  8
0
100
AcDbLine
 62
7
  6
CONTINUOUS
 10
6.099261056
 20
3.529632571
 11
6.0509829193
 21
3.529632571
  0
LINE
  5
27C
100
AcDbEntity
  8
0
100
AcDbLine
 62
7
  6
CONTINUOUS
 10
4.3494829193
 20
3.529632571
 11
4.3012047825
 21
3.529632571
  0
LINE
  5
27D
100
AcDbEntity
  8
0
100
AcDbLine
 62
7
  6
CONTINUOUS
 10
4.100761056
 20
3.529632571
 11
4.0042047825
 21
3.529632571
  0
LINE
  5
27E
100
AcDbEntity
  8
0
100
AcDbLine
 62
7
  6
CONTINUOUS
 10
3.803761056
 20
3.529632571
 11
3.7554829193
 21
3.529632571
  0
LINE
  5
27F
100
AcDbEntity
  8
0
100
AcDbLine
 62
7
  6
CONTINUOUS
 10
2.9364829193
 20
4.0910892857
 11
3.0149829193
 21
4.0655892857
  0
LINE
  5
280
100
AcDbEntity
  8
0
100
AcDbLine
 62
7
  6
CONTINUOUS
 10
2.8089829193
 20
4.3738392857
 11
2.9089829193
 21
4.3315892857
  0
LINE
  5
281
100
AcDbEntity
  8
0
100
AcDbLine
 62
7
  6
CONTINUOUS
 10
2.9364829193
 20
4.3910892857
 11
2.9494829193
 21
4.3835892857
  0
LINE
  5
282
100
AcDbEntity
  8
0
100
AcDbLine
 62
7
  6
CONTINUOUS
 10
3.4509829193
 20
4.3835892857
 11
3.4648290769
 21
4.3755892857
  0
LINE
  5
283
100
AcDbEntity
  8
0
100
AcDbLine
 62
7
  6
CONTINUOUS
 10
3.6549637904
 20
4.1305709253
 11
3.6303807554
 21
4.147720607
  0
LINE
  5
284
100
AcDbEntity
  8
0
100
AcDbLine
 62
7
  6
CONTINUOUS
 10
4.6149829193
 20
4.1455857857
 11
4.6149829193
 21
4.5825927857
  0
LINE
  5
285
100
AcDbEntity
  8
0
100
AcDbLine
 62
7
  6
CONTINUOUS
 10
2.8089829193
 20
4.0923392857
 11
2.9089829193
 21
4.1345892857
  0
LINE
  5
286
100
AcDbEntity
  8
0
100
AcDbLine
 62
7
  6
CONTINUOUS
 10
2.9729779412
 20
4.4460892857
 11
2.9475927087
 21
4.4378411237
  0
LINE
  5
287
100
AcDbEntity
  8
0
100
AcDbLine
 62
7
  6
CONTINUOUS
 10
6.6329829193
 20
3.5880892857
 11
6.0629829193
 21
3.5880892857
  0
LINE
  5
288
100
AcDbEntity
  8
0
100
AcDbLine
 62
7
  6
CONTINUOUS
 10
4.3374829193
 20
3.5880892857
 11
3.7674829193
 21
3.5880892857
  0
LINE
  5
289
100
AcDbEntity
  8
0
100
AcDbLine
 62
7
  6
CONTINUOUS
 10
4.2709864193
 20
3.6080892857
 11
3.8339794193
 21
3.6080892857
  0
LINE
  5
28A
100
AcDbEntity
  8
0
100
AcDbLine
 62
7
  6
CONTINUOUS
 10
6.1294794193
 20
3.6080892857
 11
6.5664864193
 21
3.6080892857
  0
LINE
  5
28B
100
AcDbEntity
  8
0
100
AcDbLine
 62
7
  6
CONTINUOUS
 10
4.2709864193
 20
3.8015892857
 11
3.8339794193
 21
3.8015892857
  0
LINE
  5
28C
100
AcDbEntity
  8
0
100
AcDbLine
 62
7
  6
CONTINUOUS
 10
6.1294794193
 20
3.8015892857
 11
6.5664864193
 21
3.8015892857
  0
LINE
  5
28D
100
AcDbEntity
  8
0
100
AcDbLine
 62
7
  6
CONTINUOUS
 10
4.8284364093
 20
4.1455857857
 11
4.8284364093
 21
4.5825927857
  0
LINE
  5
28E
100
AcDbEntity
  8
0
100
AcDbLine
 62
7
  6
CONTINUOUS
 10
4.8782972737
 20
4.1207705865
 11
4.8782972737
 21
4.607407985
  0
LINE
  5
28F
100
AcDbEntity
  8
0
100
AcDbLine
 62
7
  6
CONTINUOUS
 10
4.8952329193
 20
4.9050892857
 11
4.8952329193
 21
4.6506889399
  0
LINE
  5
290
100
AcDbEntity
  8
0
100
AcDbLine
 62
7
  6
CONTINUOUS
 10
4.9102329193
 20
2.4000892857
 11
4.9102329193
 21
2.5050892857
  0
LINE
  5
291
100
AcDbEntity
  8
0
100
AcDbLine
 62
7
  6
CONTINUOUS
 10
3.4639829193
 20
4.0910892857
 11
3.3854829193
 21
4.0655892857
  0
LINE
  5
292
100
AcDbEntity
  8
0
100
AcDbLine
 62
7
  6
CONTINUOUS
 10
2.9916652932
 20
3.8541034916
 11
3.4088005453
 21
3.8541034916
  0
LINE
  5
293
100
AcDbEntity
  8
0
100
AcDbLine
 62
7
  6
CONTINUOUS
 10
6.9916652932
 20
3.8541034916
 11
7.4088005453
 21
3.8541034916
  0
LINE
  5
294
100
AcDbEntity
  8
0
100
AcDbLine
 62
7
  6
CONTINUOUS
 10
3.0164830262
 20
3.8760892857
 11
3.3839828123
 21
3.8760892857
  0
LINE
  5
295
100
AcDbEntity
  8
0
100
AcDbLine
 62
7
  6
CONTINUOUS
 10
7.0164830495
 20
3.8760892857
 11
7.383982789
 21
3.8760892857
  0
LINE
  5
296
100
AcDbEntity
  8
0
100
AcDbLine
 62
7
  6
CONTINUOUS
 10
3.0284829193
 20
3.8860892857
 11
3.3719829193
 21
3.8860892857
  0
LINE
  5
297
100
AcDbEntity
  8
0
100
AcDbLine
 62
7
  6
CONTINUOUS
 10
7.0284828933
 20
3.8860892857
 11
7.3719829452
 21
3.8860892857
  0
LINE
  5
298
100
AcDbEntity
  8
0
100
AcDbLine
 62
7
  6
CONTINUOUS
 10
3.0149828804
 20
4.0655892857
 11
3.3854829581
 21
4.0655892857
  0
LINE
  5
299
100
AcDbEntity
  8
0
100
AcDbLine
 62
7
  6
CONTINUOUS
 10
7.0149829193
 20
4.0655892857
 11
7.3854829193
 21
4.0655892857
  0
LINE
  5
29A
100
AcDbEntity
  8
0
100
AcDbLine
 62
7
  6
CONTINUOUS
 10
2.9364829193
 20
4.0910892857
 11
3.4639829193
 21
4.0910892857
  0
LINE
  5
29B
100
AcDbEntity
  8
0
100
AcDbLine
 62
7
  6
CONTINUOUS
 10
6.9364829193
 20
4.0910892857
 11
7.4639829193
 21
4.0910892857
  0
LINE
  5
29C
100
AcDbEntity
  8
0
100
AcDbLine
 62
7
  6
CONTINUOUS
 10
8.8284829193
 20
4.0923392857
 11
8.7884829193
 21
4.0923392857
  0
LINE
  5
29D
100
AcDbEntity
  8
0
100
AcDbLine
 62
7
  6
CONTINUOUS
 10
7.6439829193
 20
4.0923392857
 11
7.5914829193
 21
4.0923392857
  0
LINE
  5
29E
100
AcDbEntity
  8
0
100
AcDbLine
 62
7
  6
CONTINUOUS
 10
1.5719829193
 20
4.0923392857
 11
1.6119829193
 21
4.0923392857
  0
LINE
  5
29F
100
AcDbEntity
  8
0
100
AcDbLine
 62
7
  6
CONTINUOUS
 10
2.7564829193
 20
4.0923392857
 11
2.8089829193
 21
4.0923392857
  0
LINE
  5
2A0
100
AcDbEntity
  8
0
100
AcDbLine
 62
7
  6
CONTINUOUS
 10
3.4274878973
 20
4.4460892857
 11
3.4528731299
 21
4.4378411237
  0
LINE
  5
2A1
100
AcDbEntity
  8
0
100
AcDbLine
 62
7
  6
CONTINUOUS
 10
4.9804829193
 20
5.4615892857
 11
4.998269044
 21
5.2015316647
  0
LINE
  5
2A2
100
AcDbEntity
  8
0
100
AcDbLine
 62
7
  6
CONTINUOUS
 10
5.0127329193
 20
6.4958051452
 11
5.0127329193
 21
5.5555892857
  0
LINE
  5
2A3
100
AcDbEntity
  8
0
100
AcDbLine
 62
7
  6
CONTINUOUS
 10
5.0152329193
 20
6.5262853669
 11
5.0152329193
 21
6.5685892857
  0
LINE
  5
2A4
100
AcDbEntity
  8
0
100
AcDbLine
 62
7
  6
CONTINUOUS
 10
5.0152919432
 20
6.5266276985
 11
5.0152919432
 21
6.5685892857
  0
LINE
  5
2A5
100
AcDbEntity
  8
0
100
AcDbLine
 62
7
  6
CONTINUOUS
 10
4.3374829193
 20
3.2980892857
 11
4.3494829193
 21
3.3188738954
  0
LINE
  5
2A6
100
AcDbEntity
  8
0
100
AcDbLine
 62
7
  6
CONTINUOUS
 10
7.0370442565
 20
4.4656637871
 11
7.0252329193
 21
4.4635816072
  0
LINE
  5
2A7
100
AcDbEntity
  8
0
100
AcDbLine
 62
7
  6
CONTINUOUS
 10
7.082413399
 20
4.4735200089
 11
7.0658768019
 21
4.4707686977
  0
LINE
  5
2A8
100
AcDbEntity
  8
0
100
AcDbLine
 62
7
  6
CONTINUOUS
 10
7.0737809107
 20
4.4720850779
 11
7.072642631
 21
4.4718957357
  0
LINE
  5
2A9
100
AcDbEntity
  8
0
100
AcDbLine
 62
7
  6
CONTINUOUS
 10
7.0692415032
 20
4.4713294189
 11
7.0681138046
 21
4.4711418901
  0
LINE
  5
2AA
100
AcDbEntity
  8
0
100
AcDbLine
 62
7
  6
CONTINUOUS
 10
7.0760560685
 20
4.4724636246
 11
7.0749190078
 21
4.4722745948
  0
LINE
  5
2AB
100
AcDbEntity
  8
0
100
AcDbLine
 62
7
  6
CONTINUOUS
 10
7.0658768019
 20
4.4712767713
 11
7.1014578635
 21
4.477178112
  0
LWPOLYLINE
  5
2AC
100
AcDbEntity
  8
0
100
AcDbPolyline
 62
7
  6
CONTINUOUS
 90
5
 70
0
 10
7.0847425929
 20
4.4744126145
 10
7.0857469557
 20
4.4745791525
 10
7.08672177
 20
4.4747406824
 10
7.0876675878
 20
4.4748974727
 10
7.0885821689
 20
4.4750490256
  0
LINE
  5
2AD
100
AcDbEntity
  8
0
100
AcDbLine
 62
7
  6
CONTINUOUS
 10
7.0826566796
 20
4.4740666226
 11
7.0837104403
 21
4.4742413368
  0
LINE
  5
2AE
100
AcDbEntity
  8
0
100
AcDbLine
 62
7
  6
CONTINUOUS
 10
7.0462340522
 20
4.4681415875
 11
7.0467843385
 21
4.4682250043
  0
LINE
  5
2AF
100
AcDbEntity
  8
0
100
AcDbLine
 62
7
  6
CONTINUOUS
 10
7.0467843424
 20
4.4682249883
 11
7.049217428
 21
4.4685854777
  0
LINE
  5
2B0
100
AcDbEntity
  8
0
100
AcDbLine
 62
7
  6
CONTINUOUS
 10
7.0462340529
 20
4.4676314164
 11
7.049217428
 21
4.4680756045
  0
LINE
  5
2B1
100
AcDbEntity
  8
0
100
AcDbLine
 62
7
  6
CONTINUOUS
 10
7.1808767317
 20
4.4833469187
 11
7.1808829193
 21
4.4833477896
  0
LINE
  5
2B2
100
AcDbEntity
  8
0
100
AcDbLine
 62
7
  6
CONTINUOUS
 10
7.1986499663
 20
4.4835816121
 11
7.198637965
 21
4.4835804302
  0
LINE
  5
2B3
100
AcDbEntity
  8
0
100
AcDbLine
 62
7
  6
CONTINUOUS
 10
7.1985996326
 20
4.4835778628
 11
7.1985827086
 21
4.4835764836
  0
LINE
  5
2B4
100
AcDbEntity
  8
0
100
AcDbLine
 62
7
  6
CONTINUOUS
 10
7.1987329193
 20
4.4835878347
 11
7.1976365657
 21
4.4835079425
  0
LINE
  5
2B5
100
AcDbEntity
  8
0
100
AcDbLine
 62
7
  6
CONTINUOUS
 10
7.1808670043
 20
4.483346676
 11
7.1808829193
 21
4.4833477896
  0
LINE
  5
2B6
100
AcDbEntity
  8
0
100
AcDbLine
 62
7
  6
CONTINUOUS
 10
7.1800163054
 20
4.4824567736
 11
7.138437554
 21
4.4802594398
  0
LINE
  5
2B7
100
AcDbEntity
  8
0
100
AcDbLine
 62
7
  6
CONTINUOUS
 10
7.1584721361
 20
4.4813106841
 11
7.1570592536
 21
4.4812361562
  0
LINE
  5
2B8
100
AcDbEntity
  8
0
100
AcDbLine
 62
7
  6
CONTINUOUS
 10
7.1432952638
 20
4.4805128038
 11
7.1420251475
 21
4.4804463122
  0
LINE
  5
2B9
100
AcDbEntity
  8
0
100
AcDbLine
 62
7
  6
CONTINUOUS
 10
7.1420251475
 20
4.4804463122
 11
7.138437554
 21
4.4802594398
  0
LINE
  5
2BA
100
AcDbEntity
  8
0
100
AcDbLine
 62
7
  6
CONTINUOUS
 10
2.9214829193
 20
4.1305892857
 11
3.4789829193
 21
4.1305892857
  0
LINE
  5
2BB
100
AcDbEntity
  8
0
100
AcDbLine
 62
7
  6
CONTINUOUS
 10
6.9214829193
 20
4.1305892857
 11
7.4789829193
 21
4.1305892857
  0
LINE
  5
2BC
100
AcDbEntity
  8
0
100
AcDbLine
 62
7
  6
CONTINUOUS
 10
7.4914829193
 20
4.1345892857
 11
7.4775370232
 21
4.1345892857
  0
LINE
  5
2BD
100
AcDbEntity
  8
0
100
AcDbLine
 62
7
  6
CONTINUOUS
 10
2.9089829193
 20
4.1345892857
 11
2.9229288152
 21
4.1345892857
  0
LINE
  5
2BE
100
AcDbEntity
  8
0
100
AcDbLine
 62
7
  6
CONTINUOUS
 10
5.7854829193
 20
4.1455857857
 11
5.5720294292
 21
4.1455857857
  0
LINE
  5
2BF
100
AcDbEntity
  8
0
100
AcDbLine
 62
7
  6
CONTINUOUS
 10
4.8284364093
 20
4.1455857857
 11
4.6149829193
 21
4.1455857857
  0
LINE
  5
2C0
100
AcDbEntity
  8
0
100
AcDbLine
 62
7
  6
CONTINUOUS
 10
7.4914829193
 20
4.3315892857
 11
7.4775370233
 21
4.3315892857
  0
LINE
  5
2C1
100
AcDbEntity
  8
0
100
AcDbLine
 62
7
  6
CONTINUOUS
 10
2.9089829193
 20
4.3315892857
 11
2.9229288153
 21
4.3315892857
  0
LINE
  5
2C2
100
AcDbEntity
  8
0
100
AcDbLine
 62
7
  6
CONTINUOUS
 10
2.9214829193
 20
4.3355892857
 11
3.4789829193
 21
4.3355892857
  0
LINE
  5
2C3
100
AcDbEntity
  8
0
100
AcDbLine
 62
7
  6
CONTINUOUS
 10
6.9214829193
 20
4.3355892857
 11
7.4789829193
 21
4.3355892857
  0
LINE
  5
2C4
100
AcDbEntity
  8
0
100
AcDbLine
 62
7
  6
CONTINUOUS
 10
8.8284829193
 20
4.3738392857
 11
8.7884829193
 21
4.3738392857
  0
LINE
  5
2C5
100
AcDbEntity
  8
0
100
AcDbLine
 62
7
  6
CONTINUOUS
 10
7.6439829193
 20
4.3738392857
 11
7.5914829193
 21
4.3738392857
  0
LINE
  5
2C6
100
AcDbEntity
  8
0
100
AcDbLine
 62
7
  6
CONTINUOUS
 10
1.5719829193
 20
4.3738392857
 11
1.6119829193
 21
4.3738392857
  0
LINE
  5
2C7
100
AcDbEntity
  8
0
100
AcDbLine
 62
7
  6
CONTINUOUS
 10
2.7564829193
 20
4.3738392857
 11
2.8089829193
 21
4.3738392857
  0
LINE
  5
2C8
100
AcDbEntity
  8
0
100
AcDbLine
 62
7
  6
CONTINUOUS
 10
2.9356367616
 20
4.3755892857
 11
3.4648290769
 21
4.3755892857
  0
LINE
  5
2C9
100
AcDbEntity
  8
0
100
AcDbLine
 62
7
  6
CONTINUOUS
 10
6.9356367616
 20
4.3755892857
 11
7.4648290769
 21
4.3755892857
  0
LINE
  5
2CA
100
AcDbEntity
  8
0
100
AcDbLine
 62
7
  6
CONTINUOUS
 10
2.9494829193
 20
4.3835892857
 11
3.4509829193
 21
4.3835892857
  0
LINE
  5
2CB
100
AcDbEntity
  8
0
100
AcDbLine
 62
7
  6
CONTINUOUS
 10
6.9494829193
 20
4.3835892857
 11
7.4509829193
 21
4.3835892857
  0
LINE
  5
2CC
100
AcDbEntity
  8
0
100
AcDbLine
 62
7
  6
CONTINUOUS
 10
2.9364829193
 20
4.3910892857
 11
3.4639829193
 21
4.3910892857
  0
LINE
  5
2CD
100
AcDbEntity
  8
0
100
AcDbLine
 62
7
  6
CONTINUOUS
 10
6.9364829193
 20
4.3910892857
 11
7.4639829193
 21
4.3910892857
  0
LINE
  5
2CE
100
AcDbEntity
  8
0
100
AcDbLine
 62
7
  6
CONTINUOUS
 10
5.3851738953
 20
6.5266276985
 11
5.3851738953
 21
6.5685892857
  0
LINE
  5
2CF
100
AcDbEntity
  8
0
100
AcDbLine
 62
7
  6
CONTINUOUS
 10
5.3852329193
 20
6.5262853669
 11
5.3852329193
 21
6.5685892857
  0
LINE
  5
2D0
100
AcDbEntity
  8
0
100
AcDbLine
 62
7
  6
CONTINUOUS
 10
5.3877329193
 20
6.4958051452
 11
5.3877329193
 21
5.5555892857
  0
LINE
  5
2D1
100
AcDbEntity
  8
0
100
AcDbLine
 62
7
  6
CONTINUOUS
 10
5.4902329193
 20
2.4000892857
 11
5.4902329193
 21
2.5050892857
  0
LINE
  5
2D2
100
AcDbEntity
  8
0
100
AcDbLine
 62
7
  6
CONTINUOUS
 10
5.5052329193
 20
4.9050892857
 11
5.5052329193
 21
4.6506889399
  0
LINE
  5
2D3
100
AcDbEntity
  8
0
100
AcDbLine
 62
7
  6
CONTINUOUS
 10
5.5221685648
 20
4.607407985
 11
5.5221685648
 21
4.1207705864
  0
LINE
  5
2D4
100
AcDbEntity
  8
0
100
AcDbLine
 62
7
  6
CONTINUOUS
 10
5.4199829193
 20
5.4615892857
 11
5.4021967945
 21
5.2015316647
  0
LINE
  5
2D5
100
AcDbEntity
  8
0
100
AcDbLine
 62
7
  6
CONTINUOUS
 10
3.2208750427
 20
4.4833134033
 11
3.2208829193
 21
4.4833142451
  0
LINE
  5
2D6
100
AcDbEntity
  8
0
100
AcDbLine
 62
7
  6
CONTINUOUS
 10
3.2208737731
 20
4.483313437
 11
3.2208829193
 21
4.4833142451
  0
LINE
  5
2D7
100
AcDbEntity
  8
0
100
AcDbLine
 62
7
  6
CONTINUOUS
 10
7.1212064782
 20
4.4794802317
 11
7.1202329192
 21
4.4794509936
  0
LINE
  5
2D8
100
AcDbEntity
  8
0
100
AcDbLine
 62
7
  6
CONTINUOUS
 10
3.2387329193
 20
4.4826328207
 11
3.2378002566
 21
4.4826127132
  0
LWPOLYLINE
  5
2D9
100
AcDbEntity
  8
0
100
AcDbPolyline
 62
7
  6
CONTINUOUS
 90
6
 70
0
 10
7.1987329193
 20
4.4835878347
 10
7.1986926432
 20
4.4835876522
 10
7.1986966084
 20
4.4835873692
 10
7.1987214085
 20
4.483586965
 10
7.198725929
 20
4.4835863777
 10
7.1987030117
 20
4.4835855995
  0
LINE
  5
2DA
100
AcDbEntity
  8
0
100
AcDbLine
 62
7
  6
CONTINUOUS
 10
2.9364829193
 20
4.4267313343
 11
3.4639829193
 21
4.4267313343
  0
LINE
  5
2DB
100
AcDbEntity
  8
0
100
AcDbLine
 62
7
  6
CONTINUOUS
 10
6.9364829193
 20
4.4267313343
 11
7.4639829193
 21
4.4267313343
  0
LINE
  5
2DC
100
AcDbEntity
  8
0
100
AcDbLine
 62
7
  6
CONTINUOUS
 10
2.9475927087
 20
4.4378411237
 11
3.4528731299
 21
4.4378411237
  0
LINE
  5
2DD
100
AcDbEntity
  8
0
100
AcDbLine
 62
7
  6
CONTINUOUS
 10
6.9475927087
 20
4.4378411237
 11
7.4528731299
 21
4.4378411237
  0
LINE
  5
2DE
100
AcDbEntity
  8
0
100
AcDbLine
 62
7
  6
CONTINUOUS
 10
2.9729781912
 20
4.4460892857
 11
3.4274876473
 21
4.4460892857
  0
LINE
  5
2DF
100
AcDbEntity
  8
0
100
AcDbLine
 62
7
  6
CONTINUOUS
 10
6.9729779412
 20
4.4460892857
 11
7.4274878973
 21
4.4460892857
  0
LINE
  5
2E0
100
AcDbEntity
  8
0
100
AcDbLine
 62
7
  6
CONTINUOUS
 10
7.3978052475
 20
4.4579939323
 11
7.002660591
 21
4.4579939323
  0
LINE
  5
2E1
100
AcDbEntity
  8
0
100
AcDbLine
 62
7
  6
CONTINUOUS
 10
3.397805239
 20
4.4579939922
 11
3.0026605995
 21
4.4579939922
  0
LINE
  5
2E2
100
AcDbEntity
  8
0
100
AcDbLine
 62
7
  6
CONTINUOUS
 10
5.7854829193
 20
4.5825927857
 11
5.5720294292
 21
4.5825927857
  0
LINE
  5
2E3
100
AcDbEntity
  8
0
100
AcDbLine
 62
7
  6
CONTINUOUS
 10
4.8284364093
 20
4.5825927857
 11
4.6149829193
 21
4.5825927857
  0
LINE
  5
2E4
100
AcDbEntity
  8
0
100
AcDbLine
 62
7
  6
CONTINUOUS
 10
4.8820175875
 20
4.6122536505
 11
5.518448251
 21
4.6122536505
  0
LINE
  5
2E5
100
AcDbEntity
  8
0
100
AcDbLine
 62
7
  6
CONTINUOUS
 10
4.8952329193
 20
4.6506889399
 11
5.5052329193
 21
4.6506889399
  0
LINE
  5
2E6
100
AcDbEntity
  8
0
100
AcDbLine
 62
7
  6
CONTINUOUS
 10
7.1386753286
 20
4.4811063223
 11
7.1388143812
 21
4.4811037056
  0
LINE
  5
2E7
100
AcDbEntity
  8
0
100
AcDbLine
 62
7
  6
CONTINUOUS
 10
3.1611735619
 20
4.4825362718
 11
3.1602329193
 21
4.4825567884
  0
LINE
  5
2E8
100
AcDbEntity
  8
0
100
AcDbLine
 62
7
  6
CONTINUOUS
 10
7.1383829193
 20
4.4811184004
 11
7.1388143812
 21
4.4811037056
  0
LINE
  5
2E9
100
AcDbEntity
  8
0
100
AcDbLine
 62
7
  6
CONTINUOUS
 10
7.2789830699
 20
4.4789242956
 11
7.2804553876
 21
4.4788170268
  0
LINE
  5
2EA
100
AcDbEntity
  8
0
100
AcDbLine
 62
7
  6
CONTINUOUS
 10
6.9364829193
 20
4.0910892857
 11
7.0149829193
 21
4.0655892857
  0
LWPOLYLINE
  5
2EB
100
AcDbEntity
  8
0
100
AcDbPolyline
 62
7
  6
CONTINUOUS
 90
21
 70
0
 10
6.13767892
 20
3.2327397593
 10
6.1380493351
 20
3.2322057606
 10
6.1390840099
 20
3.2306479966
 10
6.1400717364
 20
3.2290597578
 10
6.1410116125
 20
3.227442453
 10
6.1419027094
 20
3.2257976498
 10
6.1427442101
 20
3.2241268398
 10
6.1435353637
 20
3.2224314963
 10
6.1442754243
 20
3.2207132042
 10
6.1449637184
 20
3.2189735247
 10
6.1455996361
 20
3.2172139957
 10
6.1461826038
 20
3.2154361988
 10
6.1467120969
 20
3.2136417285
 10
6.1471876394
 20
3.2118321919
 10
6.1476088032
 20
3.2100092115
 10
6.1479752091
 20
3.2081744217
 10
6.148286527
 20
3.2063294666
 10
6.1485424764
 20
3.2044759994
 10
6.1487428262
 20
3.2026156812
 10
6.148887395
 20
3.20075018
 10
6.1489387163
 20
3.1998160559
  0
LINE
  5
2EC
100
AcDbEntity
  8
0
100
AcDbLine
 62
7
  6
CONTINUOUS
 10
6.0629829193
 20
3.2980892857
 11
6.0509829193
 21
3.3188738954
  0
LINE
  5
2ED
100
AcDbEntity
  8
0
100
AcDbLine
 62
7
  6
CONTINUOUS
 10
5.5720294292
 20
4.5825927857
 11
5.5720294292
 21
4.1455857857
  0
LINE
  5
2EE
100
AcDbEntity
  8
0
100
AcDbLine
 62
7
  6
CONTINUOUS
 10
5.7854829193
 20
4.1455857857
 11
5.7854829193
 21
4.5825927857
  0
LINE
  5
2EF
100
AcDbEntity
  8
0
100
AcDbLine
 62
7
  6
CONTINUOUS
 10
6.9729779412
 20
4.4460892857
 11
6.9475927087
 21
4.4378411237
  0
LINE
  5
2F0
100
AcDbEntity
  8
0
100
AcDbLine
 62
7
  6
CONTINUOUS
 10
4.8952329193
 20
4.9050892857
 11
5.5052329193
 21
4.9050892857
  0
LINE
  5
2F1
100
AcDbEntity
  8
0
100
AcDbLine
 62
7
  6
CONTINUOUS
 10
4.9052329193
 20
4.9150892857
 11
5.4952329193
 21
4.9150892857
  0
LINE
  5
2F2
100
AcDbEntity
  8
0
100
AcDbLine
 62
7
  6
CONTINUOUS
 10
4.9214827231
 20
4.9780882921
 11
5.4789831154
 21
4.9780882921
  0
LINE
  5
2F3
100
AcDbEntity
  8
0
100
AcDbLine
 62
7
  6
CONTINUOUS
 10
7.2804553876
 20
4.4788170268
 11
7.2809146635
 21
4.4787643826
  0
LINE
  5
2F4
100
AcDbEntity
  8
0
100
AcDbLine
 62
7
  6
CONTINUOUS
 10
7.2804553876
 20
4.4788170268
 11
7.2809146621
 21
4.4787643659
  0
LINE
  5
2F5
100
AcDbEntity
  8
0
100
AcDbLine
 62
7
  6
CONTINUOUS
 10
7.3797329193
 20
4.462524835
 11
7.3374829193
 21
4.4701601526
  0
LINE
  5
2F6
100
AcDbEntity
  8
0
100
AcDbLine
 62
7
  6
CONTINUOUS
 10
6.0509829193
 20
3.3188738954
 11
6.0509829193
 21
3.567304676
  0
LINE
  5
2F7
100
AcDbEntity
  8
0
100
AcDbLine
 62
7
  6
CONTINUOUS
 10
6.099261056
 20
3.529632571
 11
6.099261056
 21
3.3565460005
  0
LINE
  5
2F8
100
AcDbEntity
  8
0
100
AcDbLine
 62
7
  6
CONTINUOUS
 10
6.9494829193
 20
4.3835892857
 11
6.9356367616
 21
4.3755892857
  0
LWPOLYLINE
  5
2F9
100
AcDbEntity
  8
0
100
AcDbPolyline
 62
7
  6
CONTINUOUS
 90
4
 70
0
 10
7.1986915186
 20
4.4835847197
 10
7.1986891536
 20
4.4835837758
 10
7.1986680831
 20
4.4835827319
 10
7.1986182941
 20
4.4835791804
  0
LINE
  5
2FA
100
AcDbEntity
  8
0
100
AcDbLine
 62
7
  6
CONTINUOUS
 10
5.3867329193
 20
5.1870892857
 11
5.0137329193
 21
5.1870892857
  0
LINE
  5
2FB
100
AcDbEntity
  8
0
100
AcDbLine
 62
7
  6
CONTINUOUS
 10
4.998269044
 20
5.2015316647
 11
5.4021967945
 21
5.2015316647
  0
LINE
  5
2FC
100
AcDbEntity
  8
0
100
AcDbLine
 62
7
  6
CONTINUOUS
 10
7.4274878973
 20
4.4460892857
 11
7.4528731299
 21
4.4378411237
  0
LINE
  5
2FD
100
AcDbEntity
  8
0
100
AcDbLine
 62
7
  6
CONTINUOUS
 10
7.5914829193
 20
4.0923392857
 11
7.4914829193
 21
4.1345892857
  0
LINE
  5
2FE
100
AcDbEntity
  8
0
100
AcDbLine
 62
7
  6
CONTINUOUS
 10
6.9364829193
 20
4.3910892857
 11
6.9494829193
 21
4.3835892857
  0
LINE
  5
2FF
100
AcDbEntity
  8
0
100
AcDbLine
 62
7
  6
CONTINUOUS
 10
6.7455020481
 20
4.3356076461
 11
6.7700850831
 21
4.3184579644
  0
LINE
  5
300
100
AcDbEntity
  8
0
100
AcDbLine
 62
7
  6
CONTINUOUS
 10
6.6449829193
 20
3.567304676
 11
6.6329829193
 21
3.5880892857
  0
LINE
  5
301
100
AcDbEntity
  8
0
100
AcDbLine
 62
7
  6
CONTINUOUS
 10
6.1294794193
 20
3.6080892857
 11
6.1294794193
 21
3.8015892857
  0
LINE
  5
302
100
AcDbEntity
  8
0
100
AcDbLine
 62
7
  6
CONTINUOUS
 10
6.2997047825
 20
3.529632571
 11
6.2997047825
 21
3.3565460005
  0
LINE
  5
303
100
AcDbEntity
  8
0
100
AcDbLine
 62
7
  6
CONTINUOUS
 10
6.396261056
 20
3.529632571
 11
6.396261056
 21
3.3565460005
  0
LINE
  5
304
100
AcDbEntity
  8
0
100
AcDbLine
 62
7
  6
CONTINUOUS
 10
6.0509829193
 20
3.567304676
 11
6.0629829193
 21
3.5880892857
  0
LINE
  5
305
100
AcDbEntity
  8
0
100
AcDbLine
 62
7
  6
CONTINUOUS
 10
6.9475927087
 20
4.4378411237
 11
6.9364829193
 21
4.4267313343
  0
LINE
  5
306
100
AcDbEntity
  8
0
100
AcDbLine
 62
7
  6
CONTINUOUS
 10
6.7455020481
 20
4.1305709253
 11
6.7700850831
 21
4.147720607
  0
LINE
  5
307
100
AcDbEntity
  8
0
100
AcDbLine
 62
7
  6
CONTINUOUS
 10
7.4639829193
 20
4.3910892857
 11
7.4509829193
 21
4.3835892857
  0
LINE
  5
308
100
AcDbEntity
  8
0
100
AcDbLine
 62
7
  6
CONTINUOUS
 10
7.5914829193
 20
4.3738392857
 11
7.4914829193
 21
4.3315892857
  0
LINE
  5
309
100
AcDbEntity
  8
0
100
AcDbLine
 62
7
  6
CONTINUOUS
 10
7.4639829193
 20
4.0910892857
 11
7.3854829193
 21
4.0655892857
  0
LINE
  5
30A
100
AcDbEntity
  8
0
100
AcDbLine
 62
7
  6
CONTINUOUS
 10
5.4199829193
 20
5.4615892857
 11
4.9804829193
 21
5.4615892857
  0
LINE
  5
30B
100
AcDbEntity
  8
0
100
AcDbLine
 62
7
  6
CONTINUOUS
 10
5.4199829193
 20
5.5555892857
 11
4.9804829193
 21
5.5555892857
  0
LINE
  5
30C
100
AcDbEntity
  8
0
100
AcDbLine
 62
7
  6
CONTINUOUS
 10
7.4509829193
 20
4.3835892857
 11
7.4648290769
 21
4.3755892857
  0
LINE
  5
30D
100
AcDbEntity
  8
0
100
AcDbLine
 62
7
  6
CONTINUOUS
 10
7.5103038446
 20
3.2965720418
 11
7.5102809837
 21
3.2965995951
  0
LINE
  5
30E
100
AcDbEntity
  8
0
100
AcDbLine
 62
7
  6
CONTINUOUS
 10
7.5103037349
 20
3.296571072
 11
7.5102809837
 21
3.2965995951
  0
LINE
  5
30F
100
AcDbEntity
  8
0
100
AcDbLine
 62
7
  6
CONTINUOUS
 10
6.8359029454
 20
2.7209454539
 11
6.9167103198
 21
2.4169139768
  0
LWPOLYLINE
  5
310
100
AcDbEntity
  8
0
100
AcDbPolyline
 62
7
  6
CONTINUOUS
 90
25
 70
0
 10
6.5502577832
 20
3.1949489171
 10
6.5501699099
 20
3.1958854409
 10
6.5500367252
 20
3.1977588376
 10
6.5499599683
 20
3.1996353814
 10
6.5499397073
 20
3.2015133847
 10
6.5499759598
 20
3.2033911296
 10
6.5500686886
 20
3.2052668693
 10
6.5502178039
 20
3.2071389047
 10
6.550423165
 20
3.2090055366
 10
6.5506845722
 20
3.210865024
 10
6.5510017795
 20
3.2127156883
 10
6.5513744883
 20
3.2145558462
 10
6.5518023336
 20
3.2163837637
 10
6.5522849359
 20
3.218197875
 10
6.5528218217
 20
3.2199964489
 10
6.5534123741
 20
3.2217775322
 10
6.554056045
 20
3.2235396117
 10
6.5547521772
 20
3.2252810166
 10
6.5554998357
 20
3.2269996148
 10
6.5562982552
 20
3.2286939079
 10
6.5571466098
 20
3.2303623883
 10
6.5580436998
 20
3.2320029967
 10
6.5589885902
 20
3.2336143679
 10
6.5599802622
 20
3.235195091
 10
6.5603797108
 20
3.2358033352
  0
LINE
  5
311
100
AcDbEntity
  8
0
100
AcDbLine
 62
7
  6
CONTINUOUS
 10
6.5664864193
 20
3.6080892857
 11
6.5664864193
 21
3.8015892857
  0
LINE
  5
312
100
AcDbEntity
  8
0
100
AcDbLine
 62
7
  6
CONTINUOUS
 10
6.5967047825
 20
3.529632571
 11
6.5967047825
 21
3.3565460005
  0
LINE
  5
313
100
AcDbEntity
  8
0
100
AcDbLine
 62
7
  6
CONTINUOUS
 10
6.6449829193
 20
3.3188738954
 11
6.6449829193
 21
3.567304676
  0
LINE
  5
314
100
AcDbEntity
  8
0
100
AcDbLine
 62
7
  6
CONTINUOUS
 10
5.0127329193
 20
5.6025892857
 11
4.9214827231
 21
5.6025892857
  0
LINE
  5
315
100
AcDbEntity
  8
0
100
AcDbLine
 62
7
  6
CONTINUOUS
 10
5.3877329193
 20
5.6025892857
 11
5.4789831154
 21
5.6025892857
  0
LINE
  5
316
100
AcDbEntity
  8
0
100
AcDbLine
 62
7
  6
CONTINUOUS
 10
5.0127329193
 20
5.6650892857
 11
4.9214830502
 21
5.6650892857
  0
LINE
  5
317
100
AcDbEntity
  8
0
100
AcDbLine
 62
7
  6
CONTINUOUS
 10
5.3877329193
 20
5.6650892857
 11
5.4789829193
 21
5.6650892857
  0
LINE
  5
318
100
AcDbEntity
  8
0
100
AcDbLine
 62
7
  6
CONTINUOUS
 10
5.4730242477
 20
5.6715892857
 11
5.3877329193
 21
5.6715892857
  0
LINE
  5
319
100
AcDbEntity
  8
0
100
AcDbLine
 62
7
  6
CONTINUOUS
 10
4.9274415908
 20
5.6715892857
 11
5.0127329193
 21
5.6715892857
  0
LINE
  5
31A
100
AcDbEntity
  8
0
100
AcDbLine
 62
7
  6
CONTINUOUS
 10
5.3877329193
 20
5.8708114038
 11
5.0127329193
 21
5.8708114038
  0
LINE
  5
31B
100
AcDbEntity
  8
0
100
AcDbLine
 62
7
  6
CONTINUOUS
 10
6.7209829193
 20
2.0870816996
 11
6.7209829193
 21
2.0595892857
  0
LINE
  5
31C
100
AcDbEntity
  8
0
100
AcDbLine
 62
7
  6
CONTINUOUS
 10
6.7455020481
 20
4.1305709253
 11
6.7455020481
 21
4.3356076461
  0
LINE
  5
31D
100
AcDbEntity
  8
0
100
AcDbLine
 62
7
  6
CONTINUOUS
 10
6.7700850831
 20
4.147720607
 11
6.7700850831
 21
4.3184579644
  0
LINE
  5
31E
100
AcDbEntity
  8
0
100
AcDbLine
 62
7
  6
CONTINUOUS
 10
6.7824260477
 20
4.3230892857
 11
6.7824260477
 21
4.1430892857
  0
LINE
  5
31F
100
AcDbEntity
  8
0
100
AcDbLine
 62
7
  6
CONTINUOUS
 10
6.7959130188
 20
4.1372675035
 11
6.7959130188
 21
4.3289110679
  0
LINE
  5
320
100
AcDbEntity
  8
0
100
AcDbLine
 62
7
  6
CONTINUOUS
 10
6.9215753338
 20
4.1390178571
 11
6.9215753338
 21
4.3271607143
  0
LINE
  5
321
100
AcDbEntity
  8
0
100
AcDbLine
 62
7
  6
CONTINUOUS
 10
6.9246429193
 20
3.2210892857
 11
6.9246429193
 21
3.1036630129
  0
LINE
  5
322
100
AcDbEntity
  8
0
100
AcDbLine
 62
7
  6
CONTINUOUS
 10
6.9318880464
 20
4.1637104036
 11
6.9318880464
 21
4.3024681679
  0
LINE
  5
323
100
AcDbEntity
  8
0
100
AcDbLine
 62
7
  6
CONTINUOUS
 10
6.9364829193
 20
4.4267313343
 11
6.9364829193
 21
4.3910892857
  0
LINE
  5
324
100
AcDbEntity
  8
0
100
AcDbLine
 62
7
  6
CONTINUOUS
 10
6.9389829193
 20
4.2005892857
 11
6.9389829193
 21
4.2655892857
  0
LINE
  5
325
100
AcDbEntity
  8
0
100
AcDbLine
 62
7
  6
CONTINUOUS
 10
6.6329829193
 20
3.2980892857
 11
6.6449829193
 21
3.3188738954
  0
LINE
  5
326
100
AcDbEntity
  8
0
100
AcDbLine
 62
7
  6
CONTINUOUS
 10
7.4528731299
 20
4.4378411237
 11
7.4639829193
 21
4.4267313343
  0
LINE
  5
327
100
AcDbEntity
  8
0
100
AcDbLine
 62
7
  6
CONTINUOUS
 10
7.0284829193
 20
4.0655892857
 11
7.0284829193
 21
3.8860892857
  0
LINE
  5
328
100
AcDbEntity
  8
0
100
AcDbLine
 62
7
  6
CONTINUOUS
 10
7.0462329193
 20
4.4676311231
 11
7.0462329193
 21
4.4681412945
  0
LINE
  5
329
100
AcDbEntity
  8
0
100
AcDbLine
 62
7
  6
CONTINUOUS
 10
7.049217428
 20
4.4680756045
 11
7.049217428
 21
4.4685854777
  0
LINE
  5
32A
100
AcDbEntity
  8
0
100
AcDbLine
 62
7
  6
CONTINUOUS
 10
7.0658768019
 20
4.4707686977
 11
7.0658768019
 21
4.4712767713
  0
LINE
  5
32B
100
AcDbEntity
  8
0
100
AcDbLine
 62
7
  6
CONTINUOUS
 10
7.1014578635
 20
4.4767515248
 11
7.1014578635
 21
4.477178112
  0
LINE
  5
32C
100
AcDbEntity
  8
0
100
AcDbLine
 62
7
  6
CONTINUOUS
 10
7.1383829193
 20
4.4806168008
 11
7.1383829193
 21
4.4811184004
  0
LINE
  5
32D
100
AcDbEntity
  8
0
100
AcDbLine
 62
7
  6
CONTINUOUS
 10
7.1808829193
 20
4.4828476337
 11
7.1808829193
 21
4.4833477896
  0
LINE
  5
32E
100
AcDbEntity
  8
0
100
AcDbLine
 62
7
  6
CONTINUOUS
 10
7.2052329193
 20
4.4824074438
 11
7.2052329193
 21
4.4829730168
  0
LINE
  5
32F
100
AcDbEntity
  8
0
100
AcDbLine
 62
7
  6
CONTINUOUS
 10
7.2159829193
 20
4.482761569
 11
7.2159829193
 21
4.4834289967
  0
LINE
  5
330
100
AcDbEntity
  8
0
100
AcDbLine
 62
7
  6
CONTINUOUS
 10
7.2339829193
 20
4.4821861509
 11
7.2339829193
 21
4.4828543759
  0
LINE
  5
331
100
AcDbEntity
  8
0
100
AcDbLine
 62
7
  6
CONTINUOUS
 10
7.2489829193
 20
4.4809279501
 11
7.2489829193
 21
4.4814293478
  0
LINE
  5
332
100
AcDbEntity
  8
0
100
AcDbLine
 62
7
  6
CONTINUOUS
 10
7.2609829193
 20
4.4800771874
 11
7.2609829193
 21
4.4805791374
  0
LINE
  5
333
100
AcDbEntity
  8
0
100
AcDbLine
 62
7
  6
CONTINUOUS
 10
7.2738155142
 20
4.4792176765
 11
7.2738155142
 21
4.4797201858
  0
LINE
  5
334
100
AcDbEntity
  8
0
100
AcDbLine
 62
7
  6
CONTINUOUS
 10
6.9916652932
 20
3.8541034916
 11
6.9380415209
 21
3.4125892857
  0
LWPOLYLINE
  5
335
100
AcDbEntity
  8
0
100
AcDbPolyline
 62
7
  6
CONTINUOUS
 90
3
 70
0
 10
7.1383829193
 20
4.4811184004
 10
7.1383833657
 20
4.4811167969
 10
7.138417746
 20
4.4811148557
  0
LINE
  5
336
100
AcDbEntity
  8
0
100
AcDbLine
 62
7
  6
CONTINUOUS
 10
7.2804553876
 20
4.4788170268
 11
7.2804553876
 21
4.4793197972
  0
LINE
  5
337
100
AcDbEntity
  8
0
100
AcDbLine
 62
7
  6
CONTINUOUS
 10
7.2952329193
 20
4.4765726522
 11
7.2952329193
 21
4.4771425171
  0
LINE
  5
338
100
AcDbEntity
  8
0
100
AcDbLine
 62
7
  6
CONTINUOUS
 10
7.3002329193
 20
4.4762815151
 11
7.3002329193
 21
4.4771092963
  0
LINE
  5
339
100
AcDbEntity
  8
0
100
AcDbLine
 62
7
  6
CONTINUOUS
 10
7.3183738594
 20
4.473535767
 11
7.3183738594
 21
4.4745356076
  0
LINE
  5
33A
100
AcDbEntity
  8
0
100
AcDbLine
 62
7
  6
CONTINUOUS
 10
7.3213738594
 20
4.4729528538
 11
7.3213738594
 21
4.4734594771
  0
LINE
  5
33B
100
AcDbEntity
  8
0
100
AcDbLine
 62
7
  6
CONTINUOUS
 10
7.3353053133
 20
4.4706154047
 11
7.3353053133
 21
4.4711235804
  0
LINE
  5
33C
100
AcDbEntity
  8
0
100
AcDbLine
 62
7
  6
CONTINUOUS
 10
7.3580729222
 20
4.4667114243
 11
7.3580729222
 21
4.4672222139
  0
LINE
  5
33D
100
AcDbEntity
  8
0
100
AcDbLine
 62
7
  6
CONTINUOUS
 10
7.3605633792
 20
4.4663188335
 11
7.3605633792
 21
4.4668298875
  0
LINE
  5
33E
100
AcDbEntity
  8
0
100
AcDbLine
 62
7
  6
CONTINUOUS
 10
7.3719829193
 20
4.0655892857
 11
7.3719829193
 21
3.8860892857
  0
LINE
  5
33F
100
AcDbEntity
  8
0
100
AcDbLine
 62
7
  6
CONTINUOUS
 10
7.4614829193
 20
4.2005892857
 11
7.4614829193
 21
4.2655892857
  0
LINE
  5
340
100
AcDbEntity
  8
0
100
AcDbLine
 62
7
  6
CONTINUOUS
 10
7.4639829193
 20
4.4267313343
 11
7.4639829193
 21
4.3910892857
  0
LINE
  5
341
100
AcDbEntity
  8
0
100
AcDbLine
 62
7
  6
CONTINUOUS
 10
7.4758229193
 20
3.2210892857
 11
7.4758229193
 21
3.1036630129
  0
LINE
  5
342
100
AcDbEntity
  8
0
100
AcDbLine
 62
7
  6
CONTINUOUS
 10
7.4914829193
 20
4.1345892857
 11
7.4914829193
 21
4.3315892857
  0
LINE
  5
343
100
AcDbEntity
  8
0
100
AcDbLine
 62
7
  6
CONTINUOUS
 10
5.0152329193
 20
6.5685892857
 11
5.0152919432
 21
6.5685892857
  0
LINE
  5
344
100
AcDbEntity
  8
0
100
AcDbLine
 62
7
  6
CONTINUOUS
 10
5.3851738953
 20
6.5685892857
 11
5.3852329193
 21
6.5685892857
  0
LINE
  5
345
100
AcDbEntity
  8
0
100
AcDbLine
 62
7
  6
CONTINUOUS
 10
5.332881913
 20
6.6370876681
 11
5.3234916526
 21
6.6370876681
  0
LINE
  5
346
100
AcDbEntity
  8
0
100
AcDbLine
 62
7
  6
CONTINUOUS
 10
5.0769741859
 20
6.6370876681
 11
5.0675839255
 21
6.6370876681
  0
LINE
  5
347
100
AcDbEntity
  8
0
100
AcDbLine
 62
7
  6
CONTINUOUS
 10
5.1869829193
 20
6.7250892857
 11
5.2134829193
 21
6.7250892857
  0
LINE
  5
348
100
AcDbEntity
  8
0
100
AcDbLine
 62
7
  6
CONTINUOUS
 10
7.4088005453
 20
3.8541034916
 11
7.4624243177
 21
3.4125892857
  0
LINE
  5
349
100
AcDbEntity
  8
0
100
AcDbLine
 62
7
  6
CONTINUOUS
 10
7.5914829193
 20
4.0923392857
 11
7.5914829193
 21
4.3738392857
  0
LINE
  5
34A
100
AcDbEntity
  8
0
100
AcDbLine
 62
7
  6
CONTINUOUS
 10
7.6439829193
 20
4.0923392857
 11
7.6439829193
 21
4.3738392857
  0
LINE
  5
34B
100
AcDbEntity
  8
0
100
AcDbLine
 62
7
  6
CONTINUOUS
 10
7.6794829193
 20
2.0870816996
 11
7.6794829193
 21
2.0595892857
  0
LINE
  5
34C
100
AcDbEntity
  8
0
100
AcDbLine
 62
7
  6
CONTINUOUS
 10
8.8284829193
 20
4.3738392857
 11
8.8384829193
 21
4.3638392857
  0
LINE
  5
34D
100
AcDbEntity
  8
0
100
AcDbLine
 62
7
  6
CONTINUOUS
 10
7.5645628931
 20
2.7209454539
 11
7.4837555188
 21
2.4169139768
  0
LINE
  5
34E
100
AcDbEntity
  8
0
100
AcDbLine
 62
7
  6
CONTINUOUS
 10
8.8284829193
 20
4.0923392857
 11
8.8384829193
 21
4.1023392857
  0
LINE
  5
34F
100
AcDbEntity
  8
0
100
AcDbLine
 62
7
  6
CONTINUOUS
 10
8.7884829193
 20
4.0923392857
 11
8.7884829193
 21
4.3738392857
  0
LINE
  5
350
100
AcDbEntity
  8
0
100
AcDbLine
 62
7
  6
CONTINUOUS
 10
8.8284829193
 20
4.0923392857
 11
8.8284829193
 21
4.3738392857
  0
LINE
  5
351
100
AcDbEntity
  8
0
100
AcDbLine
 62
7
  6
CONTINUOUS
 10
8.8384829193
 20
4.3638393752
 11
8.8384829193
 21
4.1023391962
  0
ARC
  5
352
100
AcDbEntity
  8
0
100
AcDbCircle
 62
7
  6
CONTINUOUS
 10
3.2572329193
 20
2.8026295232
 40
0.318
100
AcDbArc
 50
345.1156903923
 51
36.549446714
  0
ARC
  5
353
100
AcDbEntity
  8
0
100
AcDbCircle
 62
7
  6
CONTINUOUS
 10
3.1432329193
 20
2.8026295232
 40
0.318
100
AcDbArc
 50
143.450553286
 51
194.8843096077
  0
ARC
  5
354
100
AcDbEntity
  8
0
100
AcDbCircle
 62
7
  6
CONTINUOUS
 10
2.6712329193
 20
2.3516694686
 40
0.254
100
AcDbArc
 50
284.6669095294
 51
14.8843096077
  0
ARC
  5
355
100
AcDbEntity
  8
0
100
AcDbCircle
 62
7
  6
CONTINUOUS
 10
2.7371429193
 20
3.1036630129
 40
0.1875
100
AcDbArc
 50
323.450553286
 51
360.0
  0
ARC
  5
356
100
AcDbEntity
  8
0
100
AcDbCircle
 62
7
  6
CONTINUOUS
 10
2.7404829193
 20
2.0595892857
 40
0.0195
100
AcDbArc
 50
180.0
 51
270.0
  0
ARC
  5
357
100
AcDbEntity
  8
0
100
AcDbCircle
 62
7
  6
CONTINUOUS
 10
2.7404829193
 20
2.0870816996
 40
0.0195
100
AcDbArc
 50
104.6669095294
 51
180.0
  0
ARC
  5
358
100
AcDbEntity
  8
0
100
AcDbCircle
 62
7
  6
CONTINUOUS
 10
3.2002329193
 20
3.7082525897
 40
0.775336696
100
AcDbArc
 50
88.473827208
 51
91.6148836456
  0
ARC
  5
359
100
AcDbEntity
  8
0
100
AcDbCircle
 62
7
  6
CONTINUOUS
 10
3.2002329193
 20
3.7082525897
 40
0.775336696
100
AcDbArc
 50
75.2370022574
 51
82.8689275621
  0
ARC
  5
35A
100
AcDbEntity
  8
0
100
AcDbCircle
 62
7
  6
CONTINUOUS
 10
3.2002329193
 20
3.7082525897
 40
0.775336696
100
AcDbArc
 50
99.221579184
 51
104.7629977426
  0
ARC
  5
35B
100
AcDbEntity
  8
0
100
AcDbCircle
 62
7
  6
CONTINUOUS
 10
3.2002329193
 20
3.7082525897
 40
0.775336696
100
AcDbArc
 50
92.9572301428
 51
94.3827253199
  0
ARC
  5
35C
100
AcDbEntity
  8
0
100
AcDbCircle
 62
7
  6
CONTINUOUS
 10
3.2002329193
 20
3.7082525897
 40
0.775336696
100
AcDbArc
 50
84.2076250178
 51
87.1537590823
  0
ARC
  5
35D
100
AcDbEntity
  8
0
100
AcDbCircle
 62
7
  6
CONTINUOUS
 10
3.2002329193
 20
3.7082525897
 40
0.7753341165
100
AcDbArc
 50
96.0895835634
 51
97.5036217175
  0
ARC
  5
35E
100
AcDbEntity
  8
0
100
AcDbCircle
 62
7
  6
CONTINUOUS
 10
3.2002329193
 20
3.7082525897
 40
0.774836696
100
AcDbArc
 50
82.8687745639
 51
84.2038744154
  0
ARC
  5
35F
100
AcDbEntity
  8
0
100
AcDbCircle
 62
7
  6
CONTINUOUS
 10
3.2002329193
 20
3.7082525897
 40
0.774836696
100
AcDbArc
 50
94.3855590149
 51
95.870581614
  0
ARC
  5
360
100
AcDbEntity
  8
0
100
AcDbCircle
 62
7
  6
CONTINUOUS
 10
3.2002329193
 20
3.7082525897
 40
0.774836696
100
AcDbArc
 50
97.7347338023
 51
99.2216419429
  0
ARC
  5
361
100
AcDbEntity
  8
0
100
AcDbCircle
 62
7
  6
CONTINUOUS
 10
3.2002329193
 20
3.7082525897
 40
0.774836696
100
AcDbArc
 50
91.6159260019
 51
92.3356241696
  0
ARC
  5
362
100
AcDbEntity
  8
0
100
AcDbCircle
 62
7
  6
CONTINUOUS
 10
3.2002329193
 20
3.7082525897
 40
0.774836696
100
AcDbArc
 50
87.7881099265
 51
88.4728421397
  0
ARC
  5
363
100
AcDbEntity
  8
0
100
AcDbCircle
 62
7
  6
CONTINUOUS
 10
3.2002329193
 20
3.7082525897
 40
0.7741710032
100
AcDbArc
 50
93.7772047905
 51
96.4896726718
  0
ARC
  5
364
100
AcDbEntity
  8
0
100
AcDbCircle
 62
7
  6
CONTINUOUS
 10
3.2002329193
 20
3.7082525897
 40
0.7741710032
100
AcDbArc
 50
97.1232192299
 51
99.8547367444
  0
ARC
  5
365
100
AcDbEntity
  8
0
100
AcDbCircle
 62
7
  6
CONTINUOUS
 10
3.2002329193
 20
3.7082525897
 40
0.7741710032
100
AcDbArc
 50
82.1676580455
 51
84.8865797045
  0
ARC
  5
366
100
AcDbEntity
  8
0
100
AcDbCircle
 62
7
  6
CONTINUOUS
 10
2.8311668969
 20
4.1288662799
 40
0.68
100
AcDbArc
 50
17.6982774827
 51
21.2739720086
  0
ARC
  5
367
100
AcDbEntity
  8
0
100
AcDbCircle
 62
7
  6
CONTINUOUS
 10
2.7052521885
 20
3.4408625372
 40
0.2345
100
AcDbArc
 50
322.0339977482
 51
353.0751017558
  0
ARC
  5
368
100
AcDbEntity
  8
0
100
AcDbCircle
 62
7
  6
CONTINUOUS
 10
1.7007433359
 20
4.2330892857
 40
0.1867604167
100
AcDbArc
 50
137.9864211385
 51
222.0135788615
  0
ARC
  5
369
100
AcDbEntity
  8
0
100
AcDbCircle
 62
7
  6
CONTINUOUS
 10
2.9269829193
 20
3.2678392857
 40
0.04675
100
AcDbArc
 50
214.0479749091
 51
267.1344302052
  0
ARC
  5
36A
100
AcDbEntity
  8
0
100
AcDbCircle
 62
7
  6
CONTINUOUS
 10
2.915139542
 20
3.2758809002
 40
0.0324345688
100
AcDbArc
 50
140.3618994672
 51
146.0086917549
  0
ARC
  5
36B
100
AcDbEntity
  8
0
100
AcDbCircle
 62
7
  6
CONTINUOUS
 10
2.9198752442
 20
3.2759004181
 40
0.0324087463
100
AcDbArc
 50
35.5452784139
 51
39.694285231
  0
ARC
  5
36C
100
AcDbEntity
  8
0
100
AcDbCircle
 62
7
  6
CONTINUOUS
 10
3.3839829193
 20
3.8510892857
 40
0.025
100
AcDbArc
 50
6.9248982442
 51
90.0
  0
ARC
  5
36D
100
AcDbEntity
  8
0
100
AcDbCircle
 62
7
  6
CONTINUOUS
 10
3.0164829193
 20
3.8510892857
 40
0.025
100
AcDbArc
 50
90.0
 51
173.0751017558
  0
ARC
  5
36E
100
AcDbEntity
  8
0
100
AcDbCircle
 62
7
  6
CONTINUOUS
 10
5.1964353401
 20
2.0951037075
 40
0.5
100
AcDbArc
 50
90.0
 51
124.9180935011
  0
ARC
  5
36F
100
AcDbEntity
  8
0
100
AcDbCircle
 62
7
  6
CONTINUOUS
 10
4.574944978
 20
2.0721517971
 40
0.469
100
AcDbArc
 50
13.675418161
 51
44.365023331
  0
ARC
  5
370
100
AcDbEntity
  8
0
100
AcDbCircle
 62
7
  6
CONTINUOUS
 10
3.7292329193
 20
2.3516694686
 40
0.254
100
AcDbArc
 50
165.1156903923
 51
255.3330904706
  0
ARC
  5
371
100
AcDbEntity
  8
0
100
AcDbCircle
 62
7
  6
CONTINUOUS
 10
3.6633229193
 20
3.1036630129
 40
0.1875
100
AcDbArc
 50
180.0
 51
216.549446714
  0
ARC
  5
372
100
AcDbEntity
  8
0
100
AcDbCircle
 62
7
  6
CONTINUOUS
 10
4.8534443131
 20
2.0090892857
 40
0.0935
100
AcDbArc
 50
90.0
 51
160.6370700781
  0
ARC
  5
373
100
AcDbEntity
  8
0
100
AcDbCircle
 62
7
  6
CONTINUOUS
 10
4.9424829193
 20
2.0715892857
 40
0.0935
100
AcDbArc
 50
90.0
 51
160.6370700781
  0
ARC
  5
374
100
AcDbEntity
  8
0
100
AcDbCircle
 62
7
  6
CONTINUOUS
 10
5.0534829193
 20
2.1885892857
 40
0.0235
100
AcDbArc
 50
193.675418161
 51
270.0
  0
ARC
  5
375
100
AcDbEntity
  8
0
100
AcDbCircle
 62
7
  6
CONTINUOUS
 10
3.6599829193
 20
2.0595892857
 40
0.0195
100
AcDbArc
 50
270.0
 51
360.0
  0
ARC
  5
376
100
AcDbEntity
  8
0
100
AcDbCircle
 62
7
  6
CONTINUOUS
 10
3.6599829193
 20
2.0870816996
 40
0.0195
100
AcDbArc
 50
0.0
 51
75.3330904706
  0
ARC
  5
377
100
AcDbEntity
  8
0
100
AcDbCircle
 62
7
  6
CONTINUOUS
 10
4.6149829193
 20
3.8015892857
 40
0.7810035
100
AcDbArc
 50
90.0
 51
180.0
  0
ARC
  5
378
100
AcDbEntity
  8
0
100
AcDbCircle
 62
7
  6
CONTINUOUS
 10
3.5692989416
 20
4.1288662799
 40
0.68
100
AcDbArc
 50
158.7260279914
 51
162.3017225173
  0
ARC
  5
379
100
AcDbEntity
  8
0
100
AcDbCircle
 62
7
  6
CONTINUOUS
 10
4.6149829193
 20
3.8015892857
 40
0.3439965
100
AcDbArc
 50
90.0
 51
180.0
  0
ARC
  5
37A
100
AcDbEntity
  8
0
100
AcDbCircle
 62
7
  6
CONTINUOUS
 10
3.69521365
 20
3.4408625372
 40
0.2345
100
AcDbArc
 50
186.9248982442
 51
217.9660022518
  0
ARC
  5
37B
100
AcDbEntity
  8
0
100
AcDbCircle
 62
7
  6
CONTINUOUS
 10
3.9649829193
 20
3.3188736115
 40
0.15
100
AcDbArc
 50
187.9646538916
 51
213.6282289586
  0
ARC
  5
37C
100
AcDbEntity
  8
0
100
AcDbCircle
 62
7
  6
CONTINUOUS
 10
4.1399829193
 20
3.3188736115
 40
0.15
100
AcDbArc
 50
324.9544544405
 51
352.0353461084
  0
ARC
  5
37D
100
AcDbEntity
  8
0
100
AcDbCircle
 62
7
  6
CONTINUOUS
 10
3.7264829193
 20
4.2330892857
 40
0.125
100
AcDbArc
 50
235.0995
 51
124.9005
  0
ARC
  5
37E
100
AcDbEntity
  8
0
100
AcDbCircle
 62
7
  6
CONTINUOUS
 10
3.5407667802
 20
4.0695892857
 40
0.093
100
AcDbArc
 50
46.6958241996
 51
131.7081302521
  0
ARC
  5
37F
100
AcDbEntity
  8
0
100
AcDbCircle
 62
7
  6
CONTINUOUS
 10
4.8284364093
 20
4.0830857857
 40
0.0625
100
AcDbArc
 50
37.0819585082
 51
90.0
  0
ARC
  5
380
100
AcDbEntity
  8
0
100
AcDbCircle
 62
7
  6
CONTINUOUS
 10
3.4734829193
 20
3.2678392857
 40
0.04675
100
AcDbArc
 50
272.8655697948
 51
325.9520250909
  0
ARC
  5
381
100
AcDbEntity
  8
0
100
AcDbCircle
 62
7
  6
CONTINUOUS
 10
3.4734829193
 20
3.2678392857
 40
0.04675
100
AcDbArc
 50
34.0479749091
 51
37.9660022518
  0
ARC
  5
382
100
AcDbEntity
  8
0
100
AcDbCircle
 62
7
  6
CONTINUOUS
 10
3.4685777921
 20
4.3155892857
 40
0.0155
100
AcDbArc
 50
48.2918697479
 51
58.9116320732
  0
ARC
  5
383
100
AcDbEntity
  8
0
100
AcDbCircle
 62
7
  6
CONTINUOUS
 10
3.4685777921
 20
4.1505892857
 40
0.0155
100
AcDbArc
 50
301.0883676305
 51
311.7081302521
  0
ARC
  5
384
100
AcDbEntity
  8
0
100
AcDbCircle
 62
7
  6
CONTINUOUS
 10
3.6258035312
 20
4.141159432
 40
0.008
100
AcDbArc
 50
55.0995
 51
166.0407512246
  0
ARC
  5
385
100
AcDbEntity
  8
0
100
AcDbCircle
 62
7
  6
CONTINUOUS
 10
3.6100397908
 20
4.1430892857
 40
0.008
100
AcDbArc
 50
226.6958241996
 51
360.0
  0
ARC
  5
386
100
AcDbEntity
  8
0
100
AcDbCircle
 62
7
  6
CONTINUOUS
 10
3.6258035312
 20
4.3250191395
 40
0.008
100
AcDbArc
 50
193.9592487754
 51
304.9005
  0
ARC
  5
387
100
AcDbEntity
  8
0
100
AcDbCircle
 62
7
  6
CONTINUOUS
 10
3.6100397908
 20
4.3230892857
 40
0.008
100
AcDbArc
 50
0.0
 51
133.3041758004
  0
ARC
  5
388
100
AcDbEntity
  8
0
100
AcDbCircle
 62
7
  6
CONTINUOUS
 10
3.9714829193
 20
5.2903387889
 40
1.0
100
AcDbArc
 50
14.1272425001
 51
18.1949083385
  0
ARC
  5
389
100
AcDbEntity
  8
0
100
AcDbCircle
 62
7
  6
CONTINUOUS
 10
3.9714829193
 20
5.2903387889
 40
1.0
100
AcDbArc
 50
341.8050916615
 51
10.2826603614
  0
ARC
  5
38A
100
AcDbEntity
  8
0
100
AcDbCircle
 62
7
  6
CONTINUOUS
 10
3.5643823097
 20
4.3521301935
 40
0.68
100
AcDbArc
 50
199.0137742001
 51
202.5744557109
  0
ARC
  5
38B
100
AcDbEntity
  8
0
100
AcDbCircle
 62
7
  6
CONTINUOUS
 10
2.8360835288
 20
4.3521301935
 40
0.68
100
AcDbArc
 50
337.4255442891
 51
340.9862257999
  0
ARC
  5
38C
100
AcDbEntity
  8
0
100
AcDbCircle
 62
7
  6
CONTINUOUS
 10
2.9898850618
 20
4.8884995948
 40
0.4241305693
100
AcDbArc
 50
280.576426139
 51
280.7128726237
  0
ARC
  5
38D
100
AcDbEntity
  8
0
100
AcDbCircle
 62
7
  6
CONTINUOUS
 10
2.9914163628
 20
4.8795788034
 40
0.4155795139
100
AcDbArc
 50
280.5947987425
 51
280.7210448827
  0
ARC
  5
38E
100
AcDbEntity
  8
0
100
AcDbCircle
 62
7
  6
CONTINUOUS
 10
3.0610026729
 20
4.8863404912
 40
0.4115723046
100
AcDbArc
 50
277.2205653273
 51
277.3625933424
  0
ARC
  5
38F
100
AcDbEntity
  8
0
100
AcDbCircle
 62
7
  6
CONTINUOUS
 10
3.0619783088
 20
4.8779560903
 40
0.4036313847
100
AcDbArc
 50
277.2328994891
 51
277.3685996189
  0
ARC
  5
390
100
AcDbEntity
  8
0
100
AcDbCircle
 62
7
  6
CONTINUOUS
 10
3.0594765801
 20
4.8771630253
 40
0.4026399361
100
AcDbArc
 50
276.2471779586
 51
276.3820289832
  0
ARC
  5
391
100
AcDbEntity
  8
0
100
AcDbCircle
 62
7
  6
CONTINUOUS
 10
3.1281968995
 20
4.8780746293
 40
0.3973231941
100
AcDbArc
 50
272.8993035535
 51
273.0349070029
  0
ARC
  5
392
100
AcDbEntity
  8
0
100
AcDbCircle
 62
7
  6
CONTINUOUS
 10
5.1869829193
 20
6.6000892857
 40
0.125
100
AcDbArc
 50
90.0
 51
162.7832648064
  0
ARC
  5
393
100
AcDbEntity
  8
0
100
AcDbCircle
 62
7
  6
CONTINUOUS
 10
4.9481849318
 20
6.6740860505
 40
0.125
100
AcDbArc
 50
335.6383593054
 51
342.7832648064
  0
ARC
  5
394
100
AcDbEntity
  8
0
100
AcDbCircle
 62
7
  6
CONTINUOUS
 10
4.9481849318
 20
6.6740860505
 40
0.125
100
AcDbArc
 50
302.4378128226
 51
313.822338441
  0
ARC
  5
395
100
AcDbEntity
  8
0
100
AcDbCircle
 62
7
  6
CONTINUOUS
 10
3.5407667802
 20
4.3965892857
 40
0.093
100
AcDbArc
 50
228.2918697479
 51
313.3041758004
  0
ARC
  5
396
100
AcDbEntity
  8
0
100
AcDbCircle
 62
7
  6
CONTINUOUS
 10
4.8284364093
 20
4.6450927857
 40
0.0625
100
AcDbArc
 50
270.0
 51
322.9180414918
  0
ARC
  5
397
100
AcDbEntity
  8
0
100
AcDbCircle
 62
7
  6
CONTINUOUS
 10
4.8327329193
 20
4.6506889399
 40
0.0625
100
AcDbArc
 50
322.0506496105
 51
360.0
  0
ARC
  5
398
100
AcDbEntity
  8
0
100
AcDbCircle
 62
7
  6
CONTINUOUS
 10
4.9804829193
 20
5.5085892857
 40
0.047
100
AcDbArc
 50
90.0
 51
270.0
  0
ARC
  5
399
100
AcDbEntity
  8
0
100
AcDbCircle
 62
7
  6
CONTINUOUS
 10
4.9217329193
 20
4.9465892857
 40
0.0315
100
AcDbArc
 50
90.4550900491
 51
270.0
  0
ARC
  5
39A
100
AcDbEntity
  8
0
100
AcDbCircle
 62
7
  6
CONTINUOUS
 10
4.9214829193
 20
5.6338392857
 40
0.03125
100
AcDbArc
 50
90.0
 51
269.99964029
  0
ARC
  5
39B
100
AcDbEntity
  8
0
100
AcDbCircle
 62
7
  6
CONTINUOUS
 10
5.0137329193
 20
5.2025892857
 40
0.0155
100
AcDbArc
 50
183.9125382572
 51
270.0
  0
ARC
  5
39C
100
AcDbEntity
  8
0
100
AcDbCircle
 62
7
  6
CONTINUOUS
 10
3.3939829193
 20
4.4434891699
 40
0.015
100
AcDbArc
 50
9.9821323119
 51
75.2370022574
  0
ARC
  5
39D
100
AcDbEntity
  8
0
100
AcDbCircle
 62
7
  6
CONTINUOUS
 10
3.0064829193
 20
4.4434891699
 40
0.015
100
AcDbArc
 50
104.7629977426
 51
170.0178676881
  0
ARC
  5
39E
100
AcDbEntity
  8
0
100
AcDbCircle
 62
7
  6
CONTINUOUS
 10
4.9052329193
 20
4.9050892857
 40
0.01
100
AcDbArc
 50
90.0
 51
180.0
  0
ARC
  5
39F
100
AcDbEntity
  8
0
100
AcDbCircle
 62
7
  6
CONTINUOUS
 10
5.2040304984
 20
2.0951037075
 40
0.5
100
AcDbArc
 50
55.0819064989
 51
90.0
  0
ARC
  5
3A0
100
AcDbEntity
  8
0
100
AcDbCircle
 62
7
  6
CONTINUOUS
 10
5.8255208605
 20
2.0721517971
 40
0.469
100
AcDbArc
 50
135.634976669
 51
166.324581839
  0
ARC
  5
3A1
100
AcDbEntity
  8
0
100
AcDbCircle
 62
7
  6
CONTINUOUS
 10
6.6712329193
 20
2.3516694686
 40
0.254
100
AcDbArc
 50
284.6669095294
 51
14.8843096077
  0
ARC
  5
3A2
100
AcDbEntity
  8
0
100
AcDbCircle
 62
7
  6
CONTINUOUS
 10
6.7371429193
 20
3.1036630129
 40
0.1875
100
AcDbArc
 50
323.450553286
 51
360.0
  0
ARC
  5
3A3
100
AcDbEntity
  8
0
100
AcDbCircle
 62
7
  6
CONTINUOUS
 10
5.5470215254
 20
2.0090892857
 40
0.0935
100
AcDbArc
 50
19.3629299219
 51
90.0
  0
ARC
  5
3A4
100
AcDbEntity
  8
0
100
AcDbCircle
 62
7
  6
CONTINUOUS
 10
5.4579829193
 20
2.0715892857
 40
0.0935
100
AcDbArc
 50
19.3629299219
 51
90.0
  0
ARC
  5
3A5
100
AcDbEntity
  8
0
100
AcDbCircle
 62
7
  6
CONTINUOUS
 10
5.3469829193
 20
2.1885892857
 40
0.0235
100
AcDbArc
 50
270.0
 51
346.324581839
  0
ARC
  5
3A6
100
AcDbEntity
  8
0
100
AcDbCircle
 62
7
  6
CONTINUOUS
 10
6.7404829193
 20
2.0595892857
 40
0.0195
100
AcDbArc
 50
180.0
 51
270.0
  0
ARC
  5
3A7
100
AcDbEntity
  8
0
100
AcDbCircle
 62
7
  6
CONTINUOUS
 10
6.7404829193
 20
2.0870816996
 40
0.0195
100
AcDbArc
 50
104.6669095294
 51
180.0
  0
ARC
  5
3A8
100
AcDbEntity
  8
0
100
AcDbCircle
 62
7
  6
CONTINUOUS
 10
5.7854829193
 20
3.8015892857
 40
0.7810035
100
AcDbArc
 50
0.0
 51
90.0
  0
ARC
  5
3A9
100
AcDbEntity
  8
0
100
AcDbCircle
 62
7
  6
CONTINUOUS
 10
6.8311668969
 20
4.1288662799
 40
0.68
100
AcDbArc
 50
17.6982774827
 51
21.2739720086
  0
ARC
  5
3AA
100
AcDbEntity
  8
0
100
AcDbCircle
 62
7
  6
CONTINUOUS
 10
5.7854829193
 20
3.8015892857
 40
0.3439965
100
AcDbArc
 50
0.0
 51
90.0
  0
ARC
  5
3AB
100
AcDbEntity
  8
0
100
AcDbCircle
 62
7
  6
CONTINUOUS
 10
6.7052521885
 20
3.4408625372
 40
0.2345
100
AcDbArc
 50
322.0339977482
 51
353.0751017558
  0
ARC
  5
3AC
100
AcDbEntity
  8
0
100
AcDbCircle
 62
7
  6
CONTINUOUS
 10
6.2604829193
 20
3.3188736115
 40
0.15
100
AcDbArc
 50
187.9646538916
 51
215.045553016
  0
ARC
  5
3AD
100
AcDbEntity
  8
0
100
AcDbCircle
 62
7
  6
CONTINUOUS
 10
6.4354829193
 20
3.3188736115
 40
0.15
100
AcDbArc
 50
326.3717521126
 51
352.0353461084
  0
ARC
  5
3AE
100
AcDbEntity
  8
0
100
AcDbCircle
 62
7
  6
CONTINUOUS
 10
6.6739829193
 20
4.2330892857
 40
0.125
100
AcDbArc
 50
55.0995
 51
304.9005
  0
ARC
  5
3AF
100
AcDbEntity
  8
0
100
AcDbCircle
 62
7
  6
CONTINUOUS
 10
6.8596990583
 20
4.0695892857
 40
0.093
100
AcDbArc
 50
48.2918697479
 51
133.3041758004
  0
ARC
  5
3B0
100
AcDbEntity
  8
0
100
AcDbCircle
 62
7
  6
CONTINUOUS
 10
5.5720294292
 20
4.0830857857
 40
0.0625
100
AcDbArc
 50
90.0
 51
142.9180414918
  0
ARC
  5
3B1
100
AcDbEntity
  8
0
100
AcDbCircle
 62
7
  6
CONTINUOUS
 10
6.9269829193
 20
3.2678392857
 40
0.04675
100
AcDbArc
 50
214.0479749091
 51
267.1344302052
  0
ARC
  5
3B2
100
AcDbEntity
  8
0
100
AcDbCircle
 62
7
  6
CONTINUOUS
 10
6.9269829193
 20
3.2678392857
 40
0.04675
100
AcDbArc
 50
142.0339977482
 51
145.9520250909
  0
ARC
  5
3B3
100
AcDbEntity
  8
0
100
AcDbCircle
 62
7
  6
CONTINUOUS
 10
6.9318880464
 20
4.3155892857
 40
0.0155
100
AcDbArc
 50
121.0883676986
 51
131.7081302521
  0
ARC
  5
3B4
100
AcDbEntity
  8
0
100
AcDbCircle
 62
7
  6
CONTINUOUS
 10
6.9318880464
 20
4.1505892857
 40
0.0155
100
AcDbArc
 50
228.2918697479
 51
238.9116320769
  0
ARC
  5
3B5
100
AcDbEntity
  8
0
100
AcDbCircle
 62
7
  6
CONTINUOUS
 10
6.7746623073
 20
4.141159432
 40
0.008
100
AcDbArc
 50
13.9592487754
 51
124.9005
  0
ARC
  5
3B6
100
AcDbEntity
  8
0
100
AcDbCircle
 62
7
  6
CONTINUOUS
 10
6.7904260477
 20
4.1430892857
 40
0.008
100
AcDbArc
 50
180.0
 51
313.3041758004
  0
ARC
  5
3B7
100
AcDbEntity
  8
0
100
AcDbCircle
 62
7
  6
CONTINUOUS
 10
6.7746623073
 20
4.3250191395
 40
0.008
100
AcDbArc
 50
235.0995
 51
346.0407512246
  0
ARC
  5
3B8
100
AcDbEntity
  8
0
100
AcDbCircle
 62
7
  6
CONTINUOUS
 10
6.7904260477
 20
4.3230892857
 40
0.008
100
AcDbArc
 50
46.6958241996
 51
180.0
  0
ARC
  5
3B9
100
AcDbEntity
  8
0
100
AcDbCircle
 62
7
  6
CONTINUOUS
 10
7.2572329193
 20
2.8026295232
 40
0.318
100
AcDbArc
 50
345.1156903923
 51
36.549446714
  0
ARC
  5
3BA
100
AcDbEntity
  8
0
100
AcDbCircle
 62
7
  6
CONTINUOUS
 10
7.1432329193
 20
2.8026295232
 40
0.318
100
AcDbArc
 50
143.450553286
 51
194.8843096077
  0
ARC
  5
3BB
100
AcDbEntity
  8
0
100
AcDbCircle
 62
7
  6
CONTINUOUS
 10
7.7292329193
 20
2.3516694686
 40
0.254
100
AcDbArc
 50
165.1156903923
 51
255.3330904706
  0
ARC
  5
3BC
100
AcDbEntity
  8
0
100
AcDbCircle
 62
7
  6
CONTINUOUS
 10
7.6633229193
 20
3.1036630129
 40
0.1875
100
AcDbArc
 50
180.0
 51
216.549446714
  0
ARC
  5
3BD
100
AcDbEntity
  8
0
100
AcDbCircle
 62
7
  6
CONTINUOUS
 10
7.6599829193
 20
2.0595892857
 40
0.0195
100
AcDbArc
 50
270.0
 51
360.0
  0
ARC
  5
3BE
100
AcDbEntity
  8
0
100
AcDbCircle
 62
7
  6
CONTINUOUS
 10
7.6599829193
 20
2.0870816996
 40
0.0195
100
AcDbArc
 50
0.0
 51
75.3330904706
  0
ARC
  5
3BF
100
AcDbEntity
  8
0
100
AcDbCircle
 62
7
  6
CONTINUOUS
 10
7.2002329193
 20
3.708254278
 40
0.7753350077
100
AcDbArc
 50
78.0669933483
 51
81.2354682492
  0
ARC
  5
3C0
100
AcDbEntity
  8
0
100
AcDbCircle
 62
7
  6
CONTINUOUS
 10
7.2002329193
 20
3.708254278
 40
0.7753350077
100
AcDbArc
 50
91.4300766046
 51
94.5754586167
  0
ARC
  5
3C1
100
AcDbEntity
  8
0
100
AcDbCircle
 62
7
  6
CONTINUOUS
 10
7.2002329193
 20
3.708254278
 40
0.7753350077
100
AcDbArc
 50
103.0445666344
 51
104.7630312681
  0
ARC
  5
3C2
100
AcDbEntity
  8
0
100
AcDbCircle
 62
7
  6
CONTINUOUS
 10
7.2002329193
 20
3.708254278
 40
0.7753350077
100
AcDbArc
 50
75.2369687319
 51
76.6139015814
  0
ARC
  5
3C3
100
AcDbEntity
  8
0
100
AcDbCircle
 62
7
  6
CONTINUOUS
 10
7.2002329193
 20
3.708254278
 40
0.7753350077
100
AcDbArc
 50
82.589547494
 51
87.505151011
  0
ARC
  5
3C4
100
AcDbEntity
  8
0
100
AcDbCircle
 62
7
  6
CONTINUOUS
 10
7.2002329193
 20
3.708254278
 40
0.7753350077
100
AcDbArc
 50
88.836024953
 51
90.1108472106
  0
ARC
  5
3C5
100
AcDbEntity
  8
0
100
AcDbCircle
 62
7
  6
CONTINUOUS
 10
7.2002329193
 20
3.708254278
 40
0.7753350077
100
AcDbArc
 50
95.9223880643
 51
101.456409806
  0
ARC
  5
3C6
100
AcDbEntity
  8
0
100
AcDbCircle
 62
7
  6
CONTINUOUS
 10
7.2002329193
 20
3.708254278
 40
0.7748350077
100
AcDbArc
 50
101.4639028364
 51
102.1588597597
  0
ARC
  5
3C7
100
AcDbEntity
  8
0
100
AcDbCircle
 62
7
  6
CONTINUOUS
 10
7.2002329193
 20
3.708254278
 40
0.7748350077
100
AcDbArc
 50
94.5784174525
 51
95.2987911023
  0
ARC
  5
3C8
100
AcDbEntity
  8
0
100
AcDbCircle
 62
7
  6
CONTINUOUS
 10
7.2002329193
 20
3.708254278
 40
0.7748350077
100
AcDbArc
 50
90.7468683537
 51
91.430999623
  0
ARC
  5
3C9
100
AcDbEntity
  8
0
100
AcDbCircle
 62
7
  6
CONTINUOUS
 10
7.2002329193
 20
3.708254278
 40
0.7748350077
100
AcDbArc
 50
77.3977395923
 51
78.0591795779
  0
ARC
  5
3CA
100
AcDbEntity
  8
0
100
AcDbCircle
 62
7
  6
CONTINUOUS
 10
7.2002329193
 20
3.708254278
 40
0.7748350077
100
AcDbArc
 50
81.2352442895
 51
82.5847386687
  0
ARC
  5
3CB
100
AcDbEntity
  8
0
100
AcDbCircle
 62
7
  6
CONTINUOUS
 10
7.2002329193
 20
3.708254278
 40
0.7748350077
100
AcDbArc
 50
87.503540069
 51
88.835273738
  0
ARC
  5
3CC
100
AcDbEntity
  8
0
100
AcDbCircle
 62
7
  6
CONTINUOUS
 10
7.2002329193
 20
3.708254278
 40
0.7747348735
100
AcDbArc
 50
79.9593632588
 51
81.0040654587
  0
ARC
  5
3CD
100
AcDbEntity
  8
0
100
AcDbCircle
 62
7
  6
CONTINUOUS
 10
7.2002329193
 20
3.708254278
 40
0.7747104305
100
AcDbArc
 50
85.5024540677
 51
86.3921798126
  0
ARC
  5
3CE
100
AcDbEntity
  8
0
100
AcDbCircle
 62
7
  6
CONTINUOUS
 10
7.2002329193
 20
3.708254278
 40
0.7742344859
100
AcDbArc
 50
79.9528066769
 51
80.9982030894
  0
ARC
  5
3CF
100
AcDbEntity
  8
0
100
AcDbCircle
 62
7
  6
CONTINUOUS
 10
7.2002329193
 20
3.708254278
 40
0.7742100271
100
AcDbArc
 50
85.49954113
 51
86.3898448421
  0
ARC
  5
3D0
100
AcDbEntity
  8
0
100
AcDbCircle
 62
7
  6
CONTINUOUS
 10
7.2002329193
 20
3.708254278
 40
0.7741693124
100
AcDbArc
 50
84.0880697177
 51
89.6299506004
  0
ARC
  5
3D1
100
AcDbEntity
  8
0
100
AcDbCircle
 62
7
  6
CONTINUOUS
 10
7.2002329193
 20
3.708254278
 40
0.7741693124
100
AcDbArc
 50
79.7882367111
 51
82.9513441199
  0
ARC
  5
3D2
100
AcDbEntity
  8
0
100
AcDbCircle
 62
7
  6
CONTINUOUS
 10
7.69521365
 20
3.4408625372
 40
0.2345
100
AcDbArc
 50
186.9248982442
 51
217.9660022518
  0
ARC
  5
3D3
100
AcDbEntity
  8
0
100
AcDbCircle
 62
7
  6
CONTINUOUS
 10
7.4734829193
 20
3.2678392857
 40
0.04675
100
AcDbArc
 50
272.8655697948
 51
325.9520250909
  0
ARC
  5
3D4
100
AcDbEntity
  8
0
100
AcDbCircle
 62
7
  6
CONTINUOUS
 10
7.484998965
 20
3.2756359404
 40
0.0328429182
100
AcDbArc
 50
34.0263697057
 51
39.6028019426
  0
ARC
  5
3D5
100
AcDbEntity
  8
0
100
AcDbCircle
 62
7
  6
CONTINUOUS
 10
7.4852502922
 20
3.2598538681
 40
0.0325290073
100
AcDbArc
 50
320.7502010167
 51
326.0014581703
  0
ARC
  5
3D6
100
AcDbEntity
  8
0
100
AcDbCircle
 62
7
  6
CONTINUOUS
 10
7.5692989416
 20
4.1288662799
 40
0.68
100
AcDbArc
 50
158.7260279914
 51
162.3017225173
  0
ARC
  5
3D7
100
AcDbEntity
  8
0
100
AcDbCircle
 62
7
  6
CONTINUOUS
 10
7.1807796165
 20
3.8258528013
 40
0.6561376387
100
AcDbArc
 50
96.2161845715
 51
96.9435818355
  0
ARC
  5
3D8
100
AcDbEntity
  8
0
100
AcDbCircle
 62
7
  6
CONTINUOUS
 10
7.2157757452
 20
3.9128291851
 40
0.5701710881
100
AcDbArc
 50
83.0535751546
 51
83.4864024216
  0
ARC
  5
3D9
100
AcDbEntity
  8
0
100
AcDbCircle
 62
7
  6
CONTINUOUS
 10
7.2729979297
 20
3.9079196732
 40
0.5652309045
100
AcDbArc
 50
81.1862287023
 51
81.3433028418
  0
ARC
  5
3DA
100
AcDbEntity
  8
0
100
AcDbCircle
 62
7
  6
CONTINUOUS
 10
7.2646379906
 20
4.2722674563
 40
0.207655633
100
AcDbArc
 50
85.631475316
 51
87.4669374743
  0
ARC
  5
3DB
100
AcDbEntity
  8
0
100
AcDbCircle
 62
7
  6
CONTINUOUS
 10
7.2646419282
 20
4.2719790368
 40
0.2074415785
100
AcDbArc
 50
86.0357858794
 51
87.465410597
  0
ARC
  5
3DC
100
AcDbEntity
  8
0
100
AcDbCircle
 62
7
  6
CONTINUOUS
 10
7.0164829193
 20
3.8510892857
 40
0.025
100
AcDbArc
 50
90.0
 51
173.0751017558
  0
ARC
  5
3DD
100
AcDbEntity
  8
0
100
AcDbCircle
 62
7
  6
CONTINUOUS
 10
7.3839829193
 20
3.8510892857
 40
0.025
100
AcDbArc
 50
6.9248982442
 51
90.0
  0
ARC
  5
3DE
100
AcDbEntity
  8
0
100
AcDbCircle
 62
7
  6
CONTINUOUS
 10
8.6997225026
 20
4.2330892857
 40
0.1867604167
100
AcDbArc
 50
317.9864211385
 51
42.0135788615
  0
ARC
  5
3DF
100
AcDbEntity
  8
0
100
AcDbCircle
 62
7
  6
CONTINUOUS
 10
6.4289829193
 20
5.2903387889
 40
1.0
100
AcDbArc
 50
161.8050916615
 51
165.8727574999
  0
ARC
  5
3E0
100
AcDbEntity
  8
0
100
AcDbCircle
 62
7
  6
CONTINUOUS
 10
6.4289829193
 20
5.2903387889
 40
1.0
100
AcDbArc
 50
169.7173396386
 51
198.1949083385
  0
ARC
  5
3E1
100
AcDbEntity
  8
0
100
AcDbCircle
 62
7
  6
CONTINUOUS
 10
6.8360835288
 20
4.3521301935
 40
0.68
100
AcDbArc
 50
337.4255442891
 51
340.9862257999
  0
ARC
  5
3E2
100
AcDbEntity
  8
0
100
AcDbCircle
 62
7
  6
CONTINUOUS
 10
7.5643823097
 20
4.3521301935
 40
0.68
100
AcDbArc
 50
199.0137742001
 51
202.5744557109
  0
ARC
  5
3E3
100
AcDbEntity
  8
0
100
AcDbCircle
 62
7
  6
CONTINUOUS
 10
5.2002329193
 20
6.0419740737
 40
0.46
100
AcDbArc
 50
114.0556731809
 51
233.6280600203
  0
ARC
  5
3E4
100
AcDbEntity
  8
0
100
AcDbCircle
 62
7
  6
CONTINUOUS
 10
5.2002329193
 20
6.0419740737
 40
0.46
100
AcDbArc
 50
306.3719399797
 51
65.9443268191
  0
ARC
  5
3E5
100
AcDbEntity
  8
0
100
AcDbCircle
 62
7
  6
CONTINUOUS
 10
5.2002329193
 20
4.3640892857
 40
0.4035425
100
AcDbArc
 50
37.0819585082
 51
37.9493503895
  0
ARC
  5
3E6
100
AcDbEntity
  8
0
100
AcDbCircle
 62
7
  6
CONTINUOUS
 10
5.2002329193
 20
4.3640892857
 40
0.4035425
100
AcDbArc
 50
142.0506496105
 51
142.9180414918
  0
ARC
  5
3E7
100
AcDbEntity
  8
0
100
AcDbCircle
 62
7
  6
CONTINUOUS
 10
5.2002329193
 20
4.3640892857
 40
0.4035425
100
AcDbArc
 50
217.0819585082
 51
322.9180414918
  0
ARC
  5
3E8
100
AcDbEntity
  8
0
100
AcDbCircle
 62
7
  6
CONTINUOUS
 10
5.2002329193
 20
6.0420892857
 40
0.2595
100
AcDbArc
 50
136.2671658782
 51
223.7328341219
  0
ARC
  5
3E9
100
AcDbEntity
  8
0
100
AcDbCircle
 62
7
  6
CONTINUOUS
 10
5.2002329193
 20
6.0420892857
 40
0.2595
100
AcDbArc
 50
316.2671658782
 51
43.7328341219
  0
ARC
  5
3EA
100
AcDbEntity
  8
0
100
AcDbCircle
 62
7
  6
CONTINUOUS
 10
5.2002329193
 20
6.0420892857
 40
0.2195
100
AcDbArc
 50
148.6741619909
 51
211.3258380091
  0
ARC
  5
3EB
100
AcDbEntity
  8
0
100
AcDbCircle
 62
7
  6
CONTINUOUS
 10
5.2002329193
 20
6.0420892857
 40
0.2195
100
AcDbArc
 50
328.6741619909
 51
31.3258380091
  0
ARC
  5
3EC
100
AcDbEntity
  8
0
100
AcDbCircle
 62
7
  6
CONTINUOUS
 10
7.3164774321
 20
4.6815658417
 40
0.2055242686
100
AcDbArc
 50
264.0668853803
 51
264.3695528179
  0
ARC
  5
3ED
100
AcDbEntity
  8
0
100
AcDbCircle
 62
7
  6
CONTINUOUS
 10
7.3156441136
 20
4.672703012
 40
0.1971242742
100
AcDbArc
 50
264.0566670352
 51
264.372245457
  0
ARC
  5
3EE
100
AcDbEntity
  8
0
100
AcDbCircle
 62
7
  6
CONTINUOUS
 10
5.2002329193
 20
6.4958114038
 40
0.1875
100
AcDbArc
 50
0.0
 51
180.0
  0
ARC
  5
3EF
100
AcDbEntity
  8
0
100
AcDbCircle
 62
7
  6
CONTINUOUS
 10
5.2134829193
 20
6.6000892857
 40
0.125
100
AcDbArc
 50
17.2167351936
 51
90.0
  0
ARC
  5
3F0
100
AcDbEntity
  8
0
100
AcDbCircle
 62
7
  6
CONTINUOUS
 10
5.4522809067
 20
6.6740860505
 40
0.125
100
AcDbArc
 50
197.2167351936
 51
204.3616406946
  0
ARC
  5
3F1
100
AcDbEntity
  8
0
100
AcDbCircle
 62
7
  6
CONTINUOUS
 10
5.4522809067
 20
6.6740860505
 40
0.125
100
AcDbArc
 50
226.177661559
 51
237.5621871774
  0
ARC
  5
3F2
100
AcDbEntity
  8
0
100
AcDbCircle
 62
7
  6
CONTINUOUS
 10
6.8596990583
 20
4.3965892857
 40
0.093
100
AcDbArc
 50
226.6958241996
 51
311.7081302521
  0
ARC
  5
3F3
100
AcDbEntity
  8
0
100
AcDbCircle
 62
7
  6
CONTINUOUS
 10
5.5720294292
 20
4.6450927857
 40
0.0625
100
AcDbArc
 50
217.0819585082
 51
270.0
  0
ARC
  5
3F4
100
AcDbEntity
  8
0
100
AcDbCircle
 62
7
  6
CONTINUOUS
 10
5.5677329193
 20
4.6506889399
 40
0.0625
100
AcDbArc
 50
180.0
 51
217.9493503895
  0
ARC
  5
3F5
100
AcDbEntity
  8
0
100
AcDbCircle
 62
7
  6
CONTINUOUS
 10
5.4199829193
 20
5.5085892857
 40
0.047
100
AcDbArc
 50
270.0
 51
90.0
  0
ARC
  5
3F6
100
AcDbEntity
  8
0
100
AcDbCircle
 62
7
  6
CONTINUOUS
 10
5.4787329193
 20
4.9465892857
 40
0.0315
100
AcDbArc
 50
270.0
 51
89.5449099509
  0
ARC
  5
3F7
100
AcDbEntity
  8
0
100
AcDbCircle
 62
7
  6
CONTINUOUS
 10
5.4789829193
 20
5.6338392857
 40
0.03125
100
AcDbArc
 50
270.00035971
 51
90.0
  0
ARC
  5
3F8
100
AcDbEntity
  8
0
100
AcDbCircle
 62
7
  6
CONTINUOUS
 10
7.2848567822
 20
4.455134731
 40
0.023680624
100
AcDbArc
 50
90.2996903336
 51
101.9040740022
  0
ARC
  5
3F9
100
AcDbEntity
  8
0
100
AcDbCircle
 62
7
  6
CONTINUOUS
 10
5.3867329193
 20
5.2025892857
 40
0.0155
100
AcDbArc
 50
270.0
 51
356.0874617428
  0
ARC
  5
3FA
100
AcDbEntity
  8
0
100
AcDbCircle
 62
7
  6
CONTINUOUS
 10
7.3939829193
 20
4.4434891122
 40
0.015
100
AcDbArc
 50
9.982355849
 51
75.2369687319
  0
ARC
  5
3FB
100
AcDbEntity
  8
0
100
AcDbCircle
 62
7
  6
CONTINUOUS
 10
7.0064829193
 20
4.4434891122
 40
0.015
100
AcDbArc
 50
104.7630312681
 51
170.017644151
  0
ARC
  5
3FC
100
AcDbEntity
  8
0
100
AcDbCircle
 62
7
  6
CONTINUOUS
 10
5.4952329193
 20
4.9050892857
 40
0.01
100
AcDbArc
 50
0.0
 51
90.0
  0
SPLINE
  5
3FD
100
AcDbEntity
  8
0
100
AcDbSpline
 62
7
  6
CONTINUOUS
 70
0
 71
3
 72
51
 73
47
 74
0
 42
0.0000001
 43
0.0000001
 44
0.0000000001
 40
0.0
 40
0.0
 40
0.0
 40
0.0
 40
0.0000045897
 40
0.0000183554
 40
0.0000412956
 40
0.0000734086
 40
0.0001146929
 40
0.0001651467
 40
0.0002935568
 40
0.0004586258
 40
0.0006603409
 40
0.0008986891
 40
0.0011736576
 40
0.0018334032
 40
0.0026394744
 40
0.0035917677
 40
0.0046901784
 40
0.0059345314
 40
0.0073245393
 40
0.0088599053
 40
0.0105403324
 40
0.0143351824
 40
0.0187067084
 40
0.0236520125
 40
0.029167351
 40
0.0352489055
 40
0.0418928433
 40
0.0490947829
 40
0.0568497046
 40
0.0739982742
 40
0.0932955524
 40
0.1146937378
 40
0.1381425292
 40
0.1635881739
 40
0.1909752809
 40
0.2202461876
 40
0.251342343
 40
0.2842038646
 40
0.3549809795
 40
0.432091136
 40
0.5150452223
 40
0.603352335
 40
0.6965169076
 40
0.7940330325
 40
0.8953769319
 40
1.0
 40
1.0
 40
1.0
 40
1.0
 10
3.4789829193
 20
4.1305892857
 30
0.0
 10
3.4789828086
 20
4.1305892857
 30
0.0
 10
3.4789828316
 20
4.1305899535
 30
0.0
 10
3.4789823177
 20
4.1305906435
 30
0.0
 10
3.4789818415
 20
4.1305923393
 30
0.0
 10
3.4789809966
 20
4.130594457
 30
0.0
 10
3.4789799821
 20
4.1305972824
 30
0.0
 10
3.4789781418
 20
4.1306022511
 30
0.0
 10
3.4789752849
 20
4.1306100389
 30
0.0
 10
3.4789711627
 20
4.1306212382
 30
0.0
 10
3.47896613
 20
4.1306349294
 30
0.0
 10
3.4789601834
 20
4.1306511058
 30
0.0
 10
3.4789504302
 20
4.1306776459
 30
0.0
 10
3.4789359615
 20
4.130717032
 30
0.0
 10
3.4789158718
 20
4.1307717463
 30
0.0
 10
3.4788921477
 20
4.1308363898
 30
0.0
 10
3.4788647951
 20
4.1309109549
 30
0.0
 10
3.4788338238
 20
4.1309954307
 30
0.0
 10
3.4787992502
 20
4.1310898037
 30
0.0
 10
3.4787610906
 20
4.1311940571
 30
0.0
 10
3.4787030568
 20
4.1313527632
 30
0.0
 10
3.4786216651
 20
4.1315757176
 30
0.0
 10
3.4785135079
 20
4.131872677
 30
0.0
 10
3.4783914403
 20
4.1322087054
 30
0.0
 10
3.4782556757
 20
4.1325836117
 30
0.0
 10
3.4781064286
 20
4.132997181
 30
0.0
 10
3.477943917
 20
4.1334491829
 30
0.0
 10
3.4777683921
 20
4.1339393681
 30
0.0
 10
3.4775085552
 20
4.1346683081
 30
0.0
 10
3.4771532146
 20
4.135672717
 30
0.0
 10
3.4766927728
 20
4.1369887645
 30
0.0
 10
3.4761879615
 20
4.1384501631
 30
0.0
 10
3.4756417699
 20
4.1400540444
 30
0.0
 10
3.4750574853
 20
4.1417974298
 30
0.0
 10
3.4744385075
 20
4.1436771686
 30
0.0
 10
3.4737884848
 20
4.1456900437
 30
0.0
 10
3.4731111435
 20
4.1478327205
 30
0.0
 10
3.4721528747
 20
4.1509357791
 30
0.0
 10
3.4709128407
 20
4.1551125174
 30
0.0
 10
3.4694150092
 20
4.1604715735
 30
0.0
 10
3.4679070396
 20
4.1662656284
 30
0.0
 10
3.4664240178
 20
4.1724648548
 30
0.0
 10
3.4650012878
 20
4.1790379038
 30
0.0
 10
3.4636738851
 20
4.1859512604
 30
0.0
 10
3.4624758169
 20
4.193168398
 30
0.0
 10
3.4617942392
 20
4.1980867525
 30
0.0
 10
3.4614829193
 20
4.2005892857
 30
0.0
  0
SPLINE
  5
3FE
100
AcDbEntity
  8
0
100
AcDbSpline
 62
7
  6
CONTINUOUS
 70
0
 71
3
 72
51
 73
47
 74
0
 42
0.0000001
 43
0.0000001
 44
0.0000000001
 40
0.0
 40
0.0
 40
0.0
 40
0.0
 40
0.0000045897
 40
0.0000183555
 40
0.0000412958
 40
0.000073409
 40
0.0001146934
 40
0.0001651474
 40
0.0002935579
 40
0.0004586274
 40
0.000660343
 40
0.0008986919
 40
0.0011736609
 40
0.001833408
 40
0.0026394806
 40
0.0035917753
 40
0.0046901874
 40
0.0059345416
 40
0.0073245506
 40
0.0088599176
 40
0.0105403456
 40
0.0143351973
 40
0.0187067249
 40
0.0236520306
 40
0.0291673708
 40
0.0352489268
 40
0.041892866
 40
0.0490948069
 40
0.0568497298
 40
0.0739983017
 40
0.0932955818
 40
0.1146937687
 40
0.1381425612
 40
0.1635882069
 40
0.1909753146
 40
0.2202462215
 40
0.2513423767
 40
0.2842038979
 40
0.3549810117
 40
0.4320911655
 40
0.5150452486
 40
0.6033523568
 40
0.6965169251
 40
0.7940330437
 40
0.8953769387
 40
1.0
 40
1.0
 40
1.0
 40
1.0
 10
7.4789829193
 20
4.1305892857
 30
0.0
 10
7.4789828086
 20
4.1305892857
 30
0.0
 10
7.4789828316
 20
4.1305899535
 30
0.0
 10
7.4789823177
 20
4.1305906435
 30
0.0
 10
7.4789818415
 20
4.1305923393
 30
0.0
 10
7.4789809965
 20
4.130594457
 30
0.0
 10
7.4789799821
 20
4.1305972825
 30
0.0
 10
7.4789781418
 20
4.1306022511
 30
0.0
 10
7.4789752848
 20
4.130610039
 30
0.0
 10
7.4789711626
 20
4.1306212383
 30
0.0
 10
7.4789661299
 20
4.1306349295
 30
0.0
 10
7.4789601833
 20
4.1306511059
 30
0.0
 10
7.4789504301
 20
4.1306776461
 30
0.0
 10
7.4789359614
 20
4.1307170324
 30
0.0
 10
7.4789158716
 20
4.1307717467
 30
0.0
 10
7.4788921475
 20
4.1308363903
 30
0.0
 10
7.4788647948
 20
4.1309109555
 30
0.0
 10
7.4788338236
 20
4.1309954314
 30
0.0
 10
7.4787992499
 20
4.1310898044
 30
0.0
 10
7.4787610903
 20
4.131194058
 30
0.0
 10
7.4787030565
 20
4.1313527641
 30
0.0
 10
7.4786216648
 20
4.1315757186
 30
0.0
 10
7.4785135075
 20
4.1318726781
 30
0.0
 10
7.4783914399
 20
4.1322087067
 30
0.0
 10
7.4782556752
 20
4.1325836131
 30
0.0
 10
7.478106428
 20
4.1329971824
 30
0.0
 10
7.4779439164
 20
4.1334491845
 30
0.0
 10
7.4777683915
 20
4.1339393697
 30
0.0
 10
7.4775085546
 20
4.1346683099
 30
0.0
 10
7.4771532139
 20
4.1356727189
 30
0.0
 10
7.4766927721
 20
4.1369887665
 30
0.0
 10
7.4761879607
 20
4.1384501652
 30
0.0
 10
7.4756417691
 20
4.1400540466
 30
0.0
 10
7.4750574845
 20
4.1417974321
 30
0.0
 10
7.4744385068
 20
4.1436771709
 30
0.0
 10
7.4737884841
 20
4.145690046
 30
0.0
 10
7.4731111427
 20
4.1478327228
 30
0.0
 10
7.472152874
 20
4.1509357814
 30
0.0
 10
7.4709128401
 20
4.1551125196
 30
0.0
 10
7.4694150087
 20
4.1604715756
 30
0.0
 10
7.4679070391
 20
4.1662656303
 30
0.0
 10
7.4664240175
 20
4.1724648563
 30
0.0
 10
7.4650012876
 20
4.179037905
 30
0.0
 10
7.4636738849
 20
4.1859512612
 30
0.0
 10
7.4624758168
 20
4.1931683984
 30
0.0
 10
7.4617942392
 20
4.1980867526
 30
0.0
 10
7.4614829193
 20
4.2005892857
 30
0.0
  0
SPLINE
  5
3FF
100
AcDbEntity
  8
0
100
AcDbSpline
 62
7
  6
CONTINUOUS
 70
0
 71
3
 72
89
 73
85
 74
0
 42
0.0000001
 43
0.0000001
 44
0.0000000001
 40
0.0
 40
0.0
 40
0.0
 40
0.0
 40
0.062501603
 40
0.1250032089
 40
0.1875048107
 40
0.2500064164
 40
0.3125080242
 40
0.3437593717
 40
0.3750107186
 40
0.4062620661
 40
0.437513414
 40
0.4687647615
 40
0.5000161089
 40
0.5312674566
 40
0.5625188043
 40
0.5781445463
 40
0.5937702882
 40
0.6093960299
 40
0.6250217715
 40
0.6406475134
 40
0.6562732559
 40
0.6640861356
 40
0.6718990147
 40
0.6797118931
 40
0.6875247719
 40
0.6953376525
 40
0.7031505342
 40
0.7109634083
 40
0.7148698462
 40
0.7187762912
 40
0.7226827422
 40
0.7265891617
 40
0.7285423674
 40
0.7304956019
 40
0.7324488835
 40
0.7344021549
 40
0.7353787575
 40
0.7363553242
 40
0.7373318488
 40
0.7383083795
 40
0.7392850254
 40
0.7397734374
 40
0.7402619233
 40
0.7407504217
 40
0.7412388546
 40
0.7417271645
 40
0.7422153388
 40
0.7427034338
 40
0.7431915829
 40
0.7441682517
 40
0.7446566546
 40
0.7451450034
 40
0.7461216043
 40
0.7470981925
 40
0.7480747971
 40
0.7490514071
 40
0.7500280148
 40
0.7519812168
 40
0.7539344248
 40
0.7558876474
 40
0.7578408816
 40
0.7617472965
 40
0.7656536713
 40
0.7695600469
 40
0.7734664416
 40
0.7773728389
 40
0.7812792305
 40
0.7890916901
 40
0.7969041513
 40
0.8047166215
 40
0.8125290887
 40
0.8203415552
 40
0.8281540227
 40
0.8437764663
 40
0.8593989406
 40
0.8750212939
 40
0.8906436767
 40
0.9062662111
 40
0.9218888219
 40
0.9375110522
 40
0.9531331248
 40
0.968755491
 40
0.9843778139
 40
1.0
 40
1.0
 40
1.0
 40
1.0
 10
2.7564829193
 20
4.0923392857
 30
0.0
 10
2.7319128667
 20
4.0934638861
 30
0.0
 10
2.6827442144
 20
4.0951327322
 30
0.0
 10
2.6089543106
 20
4.0958942608
 30
0.0
 10
2.5351665014
 20
4.0949137756
 30
0.0
 10
2.4614227508
 20
4.0921910078
 30
0.0
 10
2.4000394274
 20
4.0884716851
 30
0.0
 10
2.3509969484
 20
4.0846274271
 30
0.0
 10
2.3142511706
 20
4.0813101699
 30
0.0
 10
2.2775471752
 20
4.0775592824
 30
0.0
 10
2.2408900031
 20
4.0733753522
 30
0.0
 10
2.2042847857
 20
4.0687589477
 30
0.0
 10
2.1677366181
 20
4.063710665
 30
0.0
 10
2.1312506194
 20
4.0582312832
 30
0.0
 10
2.1009015364
 20
4.0533064868
 30
0.0
 10
2.076658578
 20
4.049151887
 30
0.0
 10
2.0584950058
 20
4.0459286479
 30
0.0
 10
2.0403507848
 20
4.0425982409
 30
0.0
 10
2.0222265374
 20
4.0391607826
 30
0.0
 10
2.0041228996
 20
4.0356164025
 30
0.0
 10
1.9890542169
 20
4.0325737577
 30
0.0
 10
1.9770102244
 20
4.0300863034
 30
0.0
 10
1.9679827706
 20
4.0281940472
 30
0.0
 10
1.9589609472
 20
4.0262751321
 30
0.0
 10
1.9499448238
 20
4.0243296073
 30
0.0
 10
1.9409344746
 20
4.0223575072
 30
0.0
 10
1.9319299605
 20
4.0203589432
 30
0.0
 10
1.9244312086
 20
4.0186710589
 30
0.0
 10
1.9184352209
 20
4.017307464
 30
0.0
 10
1.9139397034
 20
4.0162782821
 30
0.0
 10
1.9094455741
 20
4.0152430856
 30
0.0
 10
1.9057020335
 20
4.0143736782
 30
0.0
 10
1.9027080597
 20
4.0136744748
 30
0.0
 10
1.9004627186
 20
4.0131493433
 30
0.0
 10
1.8982172323
 20
4.0126247207
 30
0.0
 10
1.8963463243
 20
4.0121861183
 30
0.0
 10
1.894850272
 20
4.0118325185
 30
0.0
 10
1.8937286748
 20
4.0115656853
 30
0.0
 10
1.8926077106
 20
4.0112963275
 30
0.0
 10
1.891486886
 20
4.0110262599
 30
0.0
 10
1.8905519847
 20
4.0108045742
 30
0.0
 10
1.8898029951
 20
4.0106313245
 30
0.0
 10
1.8892405724
 20
4.0105039449
 30
0.0
 10
1.8886780811
 20
4.0103768357
 30
0.0
 10
1.8881161064
 20
4.0102477581
 30
0.0
 10
1.8875552445
 20
4.0101144527
 30
0.0
 10
1.8869960845
 20
4.0099746932
 30
0.0
 10
1.8864392457
 20
4.0098261372
 30
0.0
 10
1.88570061
 20
4.0096137914
 30
0.0
 10
1.884965905
 20
4.0093878531
 30
0.0
 10
1.884230941
 20
4.0091625809
 30
0.0
 10
1.8834943694
 20
4.0089426804
 30
0.0
 10
1.8825712316
 20
4.008676261
 30
0.0
 10
1.8814617368
 20
4.008362747
 30
0.0
 10
1.8803515176
 20
4.0080517898
 30
0.0
 10
1.8792402
 20
4.0077447485
 30
0.0
 10
1.8777568899
 20
4.0073410401
 30
0.0
 10
1.8758993127
 20
4.0068491217
 30
0.0
 10
1.8736646652
 20
4.0062802096
 30
0.0
 10
1.8714248528
 20
4.0057319289
 30
0.0
 10
1.8684319438
 20
4.0050280152
 30
0.0
 10
1.8646793846
 20
4.0041975068
 30
0.0
 10
1.8601594952
 20
4.0032804174
 30
0.0
 10
1.8556238963
 20
4.0024444468
 30
0.0
 10
1.8510740433
 20
4.0016898963
 30
0.0
 10
1.8465114242
 20
4.001016688
 30
0.0
 10
1.8404130924
 20
4.0002277658
 30
0.0
 10
1.8327651763
 20
3.9994457804
 30
0.0
 10
1.8235603142
 20
3.9988358329
 30
0.0
 10
1.8143394735
 20
3.9985548869
 30
0.0
 10
1.8051145274
 20
3.9986033914
 30
0.0
 10
1.7958970693
 20
3.9989811636
 30
0.0
 10
1.7836345127
 20
3.9999230561
 30
0.0
 10
1.7683805788
 20
4.0019210761
 30
0.0
 10
1.7502961074
 20
4.0056186044
 30
0.0
 10
1.7325207951
 20
4.0105962184
 30
0.0
 10
1.7151467205
 20
4.0168312146
 30
0.0
 10
1.6982608993
 20
4.0242882182
 30
0.0
 10
1.6819505567
 20
4.0329316461
 30
0.0
 10
1.6662989066
 20
4.0427173432
 30
0.0
 10
1.6513891656
 20
4.0535996883
 30
0.0
 10
1.6372912757
 20
4.0655151606
 30
0.0
 10
1.6240760768
 20
4.0784013942
 30
0.0
 10
1.6158992471
 20
4.0876004743
 30
0.0
 10
1.6119829193
 20
4.0923392857
 30
0.0
  0
SPLINE
  5
400
100
AcDbEntity
  8
0
100
AcDbSpline
 62
7
  6
CONTINUOUS
 70
0
 71
3
 72
89
 73
85
 74
0
 42
0.0000001
 43
0.0000001
 44
0.0000000001
 40
0.0
 40
0.0
 40
0.0
 40
0.0
 40
0.062501603
 40
0.1250032089
 40
0.1875048107
 40
0.2500064164
 40
0.3125080242
 40
0.3437593717
 40
0.3750107186
 40
0.4062620661
 40
0.437513414
 40
0.4687647615
 40
0.5000161089
 40
0.5312674566
 40
0.5625188043
 40
0.5781445463
 40
0.5937702882
 40
0.6093960299
 40
0.6250217715
 40
0.6406475134
 40
0.6562732559
 40
0.6640861356
 40
0.6718990147
 40
0.6797118931
 40
0.6875247719
 40
0.6953376525
 40
0.7031505342
 40
0.7109634083
 40
0.7148698462
 40
0.7187762912
 40
0.7226827422
 40
0.7265891617
 40
0.7285423674
 40
0.7304956019
 40
0.7324488835
 40
0.7344021549
 40
0.7353787575
 40
0.7363553242
 40
0.7373318488
 40
0.7383083795
 40
0.7392850254
 40
0.7397734374
 40
0.7402619233
 40
0.7407504217
 40
0.7412388546
 40
0.7417271645
 40
0.7422153388
 40
0.7427034338
 40
0.7431915829
 40
0.7441682517
 40
0.7446566546
 40
0.7451450034
 40
0.7461216043
 40
0.7470981925
 40
0.7480747971
 40
0.7490514071
 40
0.7500280148
 40
0.7519812168
 40
0.7539344248
 40
0.7558876474
 40
0.7578408816
 40
0.7617472965
 40
0.7656536713
 40
0.7695600469
 40
0.7734664416
 40
0.7773728389
 40
0.7812792305
 40
0.7890916901
 40
0.7969041513
 40
0.8047166215
 40
0.8125290887
 40
0.8203415552
 40
0.8281540227
 40
0.8437764663
 40
0.8593989406
 40
0.8750212939
 40
0.8906436767
 40
0.9062662111
 40
0.9218888219
 40
0.9375110522
 40
0.9531331248
 40
0.968755491
 40
0.9843778139
 40
1.0
 40
1.0
 40
1.0
 40
1.0
 10
2.7564829193
 20
4.3738392857
 30
0.0
 10
2.7319128667
 20
4.3727146853
 30
0.0
 10
2.6827442144
 20
4.3710458392
 30
0.0
 10
2.6089543106
 20
4.3702843107
 30
0.0
 10
2.5351665014
 20
4.3712647958
 30
0.0
 10
2.4614227508
 20
4.3739875636
 30
0.0
 10
2.4000394274
 20
4.3777068864
 30
0.0
 10
2.3509969484
 20
4.3815511444
 30
0.0
 10
2.3142511706
 20
4.3848684015
 30
0.0
 10
2.2775471752
 20
4.388619289
 30
0.0
 10
2.2408900031
 20
4.3928032192
 30
0.0
 10
2.2042847857
 20
4.3974196238
 30
0.0
 10
2.1677366181
 20
4.4024679064
 30
0.0
 10
2.1312506194
 20
4.4079472882
 30
0.0
 10
2.1009015364
 20
4.4128720847
 30
0.0
 10
2.076658578
 20
4.4170266845
 30
0.0
 10
2.0584950058
 20
4.4202499235
 30
0.0
 10
2.0403507848
 20
4.4235803305
 30
0.0
 10
2.0222265374
 20
4.4270177888
 30
0.0
 10
2.0041228996
 20
4.430562169
 30
0.0
 10
1.9890542169
 20
4.4336048137
 30
0.0
 10
1.9770102244
 20
4.436092268
 30
0.0
 10
1.9679827706
 20
4.4379845242
 30
0.0
 10
1.9589609472
 20
4.4399034393
 30
0.0
 10
1.9499448238
 20
4.4418489642
 30
0.0
 10
1.9409344746
 20
4.4438210642
 30
0.0
 10
1.9319299605
 20
4.4458196283
 30
0.0
 10
1.9244312086
 20
4.4475075125
 30
0.0
 10
1.9184352209
 20
4.4488711074
 30
0.0
 10
1.9139397034
 20
4.4499002893
 30
0.0
 10
1.9094455741
 20
4.4509354858
 30
0.0
 10
1.9057020335
 20
4.4518048932
 30
0.0
 10
1.9027080597
 20
4.4525040966
 30
0.0
 10
1.9004627186
 20
4.4530292281
 30
0.0
 10
1.8982172323
 20
4.4535538507
 30
0.0
 10
1.8963463243
 20
4.4539924531
 30
0.0
 10
1.894850272
 20
4.454346053
 30
0.0
 10
1.8937286748
 20
4.4546128862
 30
0.0
 10
1.8926077106
 20
4.4548822439
 30
0.0
 10
1.891486886
 20
4.4551523116
 30
0.0
 10
1.8905519847
 20
4.4553739972
 30
0.0
 10
1.8898029951
 20
4.4555472469
 30
0.0
 10
1.8892405724
 20
4.4556746265
 30
0.0
 10
1.8886780811
 20
4.4558017357
 30
0.0
 10
1.8881161064
 20
4.4559308133
 30
0.0
 10
1.8875552445
 20
4.4560641188
 30
0.0
 10
1.8869960845
 20
4.4562038782
 30
0.0
 10
1.8864392457
 20
4.4563524342
 30
0.0
 10
1.88570061
 20
4.4565647801
 30
0.0
 10
1.884965905
 20
4.4567907183
 30
0.0
 10
1.884230941
 20
4.4570159905
 30
0.0
 10
1.8834943694
 20
4.457235891
 30
0.0
 10
1.8825712316
 20
4.4575023105
 30
0.0
 10
1.8814617368
 20
4.4578158244
 30
0.0
 10
1.8803515176
 20
4.4581267816
 30
0.0
 10
1.8792402
 20
4.4584338229
 30
0.0
 10
1.8777568899
 20
4.4588375313
 30
0.0
 10
1.8758993127
 20
4.4593294498
 30
0.0
 10
1.8736646652
 20
4.4598983619
 30
0.0
 10
1.8714248528
 20
4.4604466425
 30
0.0
 10
1.8684319438
 20
4.4611505562
 30
0.0
 10
1.8646793846
 20
4.4619810646
 30
0.0
 10
1.8601594952
 20
4.4628981541
 30
0.0
 10
1.8556238963
 20
4.4637341247
 30
0.0
 10
1.8510740433
 20
4.4644886751
 30
0.0
 10
1.8465114242
 20
4.4651618834
 30
0.0
 10
1.8404130924
 20
4.4659508057
 30
0.0
 10
1.8327651763
 20
4.466732791
 30
0.0
 10
1.8235603142
 20
4.4673427385
 30
0.0
 10
1.8143394735
 20
4.4676236846
 30
0.0
 10
1.8051145274
 20
4.46757518
 30
0.0
 10
1.7958970693
 20
4.4671974079
 30
0.0
 10
1.7836345127
 20
4.4662555154
 30
0.0
 10
1.7683805788
 20
4.4642574953
 30
0.0
 10
1.7502961074
 20
4.4605599671
 30
0.0
 10
1.7325207951
 20
4.455582353
 30
0.0
 10
1.7151467205
 20
4.4493473568
 30
0.0
 10
1.6982608993
 20
4.4418903532
 30
0.0
 10
1.6819505567
 20
4.4332469253
 30
0.0
 10
1.6662989066
 20
4.4234612282
 30
0.0
 10
1.6513891656
 20
4.4125788832
 30
0.0
 10
1.6372912757
 20
4.4006634108
 30
0.0
 10
1.6240760768
 20
4.3877771773
 30
0.0
 10
1.6158992471
 20
4.3785780971
 30
0.0
 10
1.6119829193
 20
4.3738392857
 30
0.0
  0
SPLINE
  5
401
100
AcDbEntity
  8
0
100
AcDbSpline
 62
7
  6
CONTINUOUS
 70
0
 71
3
 72
51
 73
47
 74
0
 42
0.0000001
 43
0.0000001
 44
0.0000000001
 40
0.0
 40
0.0
 40
0.0
 40
0.0
 40
0.0000045882
 40
0.0000183516
 40
0.0000412887
 40
0.000073398
 40
0.0001146777
 40
0.0001651263
 40
0.0002935241
 40
0.0004585787
 40
0.0006602774
 40
0.0008986076
 40
0.0011735566
 40
0.0018332605
 40
0.0026392881
 40
0.0035915382
 40
0.0046899086
 40
0.0059342252
 40
0.0073242005
 40
0.0088595367
 40
0.0105399363
 40
0.014334736
 40
0.0187062135
 40
0.0236514684
 40
0.0291667579
 40
0.0352482649
 40
0.0418921581
 40
0.0490940566
 40
0.0568489403
 40
0.0739974421
 40
0.093294662
 40
0.114692799
 40
0.138141552
 40
0.1635871684
 40
0.1909742566
 40
0.2202451536
 40
0.2513413082
 40
0.2842028377
 40
0.3549799936
 40
0.4320902211
 40
0.5150444066
 40
0.6033516431
 40
0.6965163626
 40
0.7940326527
 40
0.8953767362
 40
1.0
 40
1.0
 40
1.0
 40
1.0
 10
2.9214829193
 20
4.3355892857
 30
0.0
 10
2.9214830298
 20
4.3355892857
 30
0.0
 10
2.9214830064
 20
4.3355886179
 30
0.0
 10
2.9214835205
 20
4.3355879281
 30
0.0
 10
2.9214839963
 20
4.3355862324
 30
0.0
 10
2.9214848411
 20
4.3355841149
 30
0.0
 10
2.9214858552
 20
4.3355812898
 30
0.0
 10
2.9214876953
 20
4.3355763216
 30
0.0
 10
2.9214905518
 20
4.3355685344
 30
0.0
 10
2.9214946736
 20
4.3355573361
 30
0.0
 10
2.9214997059
 20
4.335543646
 30
0.0
 10
2.9215056521
 20
4.3355274709
 30
0.0
 10
2.9215154047
 20
4.3355009326
 30
0.0
 10
2.9215298727
 20
4.3354615489
 30
0.0
 10
2.9215499617
 20
4.3354068376
 30
0.0
 10
2.921573685
 20
4.3353421971
 30
0.0
 10
2.9216010369
 20
4.3352676348
 30
0.0
 10
2.9216320073
 20
4.3351831615
 30
0.0
 10
2.9216665802
 20
4.3350887908
 30
0.0
 10
2.9217047391
 20
4.3349845394
 30
0.0
 10
2.9217627719
 20
4.3348258358
 30
0.0
 10
2.9218441624
 20
4.3346028842
 30
0.0
 10
2.9219523183
 20
4.334305928
 30
0.0
 10
2.9220743847
 20
4.3339699029
 30
0.0
 10
2.9222101482
 20
4.333595
 30
0.0
 10
2.9223593943
 20
4.333181434
 30
0.0
 10
2.9225219048
 20
4.3327294351
 30
0.0
 10
2.9226974288
 20
4.3322392527
 30
0.0
 10
2.9229572645
 20
4.331510316
 30
0.0
 10
2.923312604
 20
4.3305059109
 30
0.0
 10
2.9237730446
 20
4.3291898675
 30
0.0
 10
2.9242778551
 20
4.3277284723
 30
0.0
 10
2.9248240461
 20
4.3261245937
 30
0.0
 10
2.9254083304
 20
4.3243812104
 30
0.0
 10
2.9260273081
 20
4.322501473
 30
0.0
 10
2.926677331
 20
4.3204885987
 30
0.0
 10
2.9273546728
 20
4.3183459222
 30
0.0
 10
2.9283129425
 20
4.3152428626
 30
0.0
 10
2.9295529783
 20
4.3110661218
 30
0.0
 10
2.9310508123
 20
4.3057070612
 30
0.0
 10
2.9325587848
 20
4.2999129997
 30
0.0
 10
2.9340418098
 20
4.2937137649
 30
0.0
 10
2.935464543
 20
4.2871407059
 30
0.0
 10
2.9367919488
 20
4.2802273377
 30
0.0
 10
2.9379900196
 20
4.2730101872
 30
0.0
 10
2.9386715987
 20
4.2680918236
 30
0.0
 10
2.9389829193
 20
4.2655892857
 30
0.0
  0
SPLINE
  5
402
100
AcDbEntity
  8
0
100
AcDbSpline
 62
7
  6
CONTINUOUS
 70
0
 71
3
 72
89
 73
85
 74
0
 42
0.0000001
 43
0.0000001
 44
0.0000000001
 40
0.0
 40
0.0
 40
0.0
 40
0.0
 40
0.062501603
 40
0.1250032089
 40
0.1875048107
 40
0.2500064164
 40
0.3125080242
 40
0.3437593717
 40
0.3750107186
 40
0.4062620661
 40
0.437513414
 40
0.4687647615
 40
0.5000161089
 40
0.5312674566
 40
0.5625188043
 40
0.5781445463
 40
0.5937702882
 40
0.6093960299
 40
0.6250217715
 40
0.6406475134
 40
0.6562732559
 40
0.6640861356
 40
0.6718990147
 40
0.6797118931
 40
0.6875247719
 40
0.6953376525
 40
0.7031505342
 40
0.7109634083
 40
0.7148698462
 40
0.7187762912
 40
0.7226827422
 40
0.7265891617
 40
0.7285423674
 40
0.7304956019
 40
0.7324488835
 40
0.7344021549
 40
0.7353787575
 40
0.7363553242
 40
0.7373318488
 40
0.7383083795
 40
0.7392850254
 40
0.7397734374
 40
0.7402619233
 40
0.7407504217
 40
0.7412388546
 40
0.7417271645
 40
0.7422153388
 40
0.7427034338
 40
0.7431915829
 40
0.7441682517
 40
0.7446566546
 40
0.7451450034
 40
0.7461216043
 40
0.7470981925
 40
0.7480747971
 40
0.7490514071
 40
0.7500280148
 40
0.7519812168
 40
0.7539344248
 40
0.7558876474
 40
0.7578408816
 40
0.7617472965
 40
0.7656536713
 40
0.7695600469
 40
0.7734664416
 40
0.7773728389
 40
0.7812792305
 40
0.7890916901
 40
0.7969041513
 40
0.8047166215
 40
0.8125290887
 40
0.8203415552
 40
0.8281540227
 40
0.8437764663
 40
0.8593989406
 40
0.8750212939
 40
0.8906436767
 40
0.9062662111
 40
0.9218888219
 40
0.9375110522
 40
0.9531331248
 40
0.968755491
 40
0.9843778139
 40
1.0
 40
1.0
 40
1.0
 40
1.0
 10
7.6439829193
 20
4.0923392857
 30
0.0
 10
7.6685529718
 20
4.0934638861
 30
0.0
 10
7.7177216241
 20
4.0951327322
 30
0.0
 10
7.7915115279
 20
4.0958942608
 30
0.0
 10
7.8652993371
 20
4.0949137756
 30
0.0
 10
7.9390430878
 20
4.0921910078
 30
0.0
 10
8.0004264111
 20
4.0884716851
 30
0.0
 10
8.0494688901
 20
4.0846274271
 30
0.0
 10
8.0862146679
 20
4.0813101699
 30
0.0
 10
8.1229186634
 20
4.0775592824
 30
0.0
 10
8.1595758354
 20
4.0733753522
 30
0.0
 10
8.1961810528
 20
4.0687589477
 30
0.0
 10
8.2327292204
 20
4.063710665
 30
0.0
 10
8.2692152191
 20
4.0582312832
 30
0.0
 10
8.2995643021
 20
4.0533064868
 30
0.0
 10
8.3238072605
 20
4.049151887
 30
0.0
 10
8.3419708327
 20
4.0459286479
 30
0.0
 10
8.3601150537
 20
4.0425982409
 30
0.0
 10
8.3782393011
 20
4.0391607826
 30
0.0
 10
8.3963429389
 20
4.0356164025
 30
0.0
 10
8.4114116216
 20
4.0325737577
 30
0.0
 10
8.4234556141
 20
4.0300863034
 30
0.0
 10
8.4324830679
 20
4.0281940472
 30
0.0
 10
8.4415048913
 20
4.0262751321
 30
0.0
 10
8.4505210147
 20
4.0243296073
 30
0.0
 10
8.4595313639
 20
4.0223575072
 30
0.0
 10
8.468535878
 20
4.0203589432
 30
0.0
 10
8.4760346299
 20
4.0186710589
 30
0.0
 10
8.4820306176
 20
4.017307464
 30
0.0
 10
8.4865261351
 20
4.0162782821
 30
0.0
 10
8.4910202644
 20
4.0152430856
 30
0.0
 10
8.4947638051
 20
4.0143736782
 30
0.0
 10
8.4977577788
 20
4.0136744748
 30
0.0
 10
8.5000031199
 20
4.0131493433
 30
0.0
 10
8.5022486063
 20
4.0126247207
 30
0.0
 10
8.5041195142
 20
4.0121861183
 30
0.0
 10
8.5056155665
 20
4.0118325185
 30
0.0
 10
8.5067371637
 20
4.0115656853
 30
0.0
 10
8.5078581279
 20
4.0112963275
 30
0.0
 10
8.5089789525
 20
4.0110262599
 30
0.0
 10
8.5099138538
 20
4.0108045742
 30
0.0
 10
8.5106628434
 20
4.0106313245
 30
0.0
 10
8.5112252661
 20
4.0105039449
 30
0.0
 10
8.5117877574
 20
4.0103768357
 30
0.0
 10
8.5123497321
 20
4.0102477581
 30
0.0
 10
8.512910594
 20
4.0101144527
 30
0.0
 10
8.513469754
 20
4.0099746932
 30
0.0
 10
8.5140265928
 20
4.0098261372
 30
0.0
 10
8.5147652285
 20
4.0096137914
 30
0.0
 10
8.5154999335
 20
4.0093878531
 30
0.0
 10
8.5162348975
 20
4.0091625809
 30
0.0
 10
8.5169714691
 20
4.0089426804
 30
0.0
 10
8.5178946069
 20
4.008676261
 30
0.0
 10
8.5190041017
 20
4.008362747
 30
0.0
 10
8.5201143209
 20
4.0080517898
 30
0.0
 10
8.5212256386
 20
4.0077447485
 30
0.0
 10
8.5227089486
 20
4.0073410401
 30
0.0
 10
8.5245665258
 20
4.0068491217
 30
0.0
 10
8.5268011733
 20
4.0062802096
 30
0.0
 10
8.5290409857
 20
4.0057319289
 30
0.0
 10
8.5320338947
 20
4.0050280152
 30
0.0
 10
8.5357864539
 20
4.0041975068
 30
0.0
 10
8.5403063433
 20
4.0032804174
 30
0.0
 10
8.5448419422
 20
4.0024444468
 30
0.0
 10
8.5493917952
 20
4.0016898963
 30
0.0
 10
8.5539544143
 20
4.001016688
 30
0.0
 10
8.5600527461
 20
4.0002277658
 30
0.0
 10
8.5677006623
 20
3.9994457804
 30
0.0
 10
8.5769055244
 20
3.9988358329
 30
0.0
 10
8.586126365
 20
3.9985548869
 30
0.0
 10
8.5953513111
 20
3.9986033914
 30
0.0
 10
8.6045687692
 20
3.9989811636
 30
0.0
 10
8.6168313258
 20
3.9999230561
 30
0.0
 10
8.6320852597
 20
4.0019210761
 30
0.0
 10
8.6501697311
 20
4.0056186044
 30
0.0
 10
8.6679450434
 20
4.0105962184
 30
0.0
 10
8.685319118
 20
4.0168312146
 30
0.0
 10
8.7022049392
 20
4.0242882182
 30
0.0
 10
8.7185152818
 20
4.0329316461
 30
0.0
 10
8.7341669319
 20
4.0427173432
 30
0.0
 10
8.7490766729
 20
4.0535996883
 30
0.0
 10
8.7631745628
 20
4.0655151606
 30
0.0
 10
8.7763897617
 20
4.0784013942
 30
0.0
 10
8.7845665914
 20
4.0876004743
 30
0.0
 10
8.7884829193
 20
4.0923392857
 30
0.0
  0
SPLINE
  5
403
100
AcDbEntity
  8
0
100
AcDbSpline
 62
7
  6
CONTINUOUS
 70
0
 71
3
 72
89
 73
85
 74
0
 42
0.0000001
 43
0.0000001
 44
0.0000000001
 40
0.0
 40
0.0
 40
0.0
 40
0.0
 40
0.062501603
 40
0.1250032089
 40
0.1875048107
 40
0.2500064164
 40
0.3125080242
 40
0.3437593717
 40
0.3750107186
 40
0.4062620661
 40
0.437513414
 40
0.4687647615
 40
0.5000161089
 40
0.5312674566
 40
0.5625188043
 40
0.5781445463
 40
0.5937702882
 40
0.6093960299
 40
0.6250217715
 40
0.6406475134
 40
0.6562732559
 40
0.6640861356
 40
0.6718990147
 40
0.6797118931
 40
0.6875247719
 40
0.6953376525
 40
0.7031505342
 40
0.7109634083
 40
0.7148698462
 40
0.7187762912
 40
0.7226827422
 40
0.7265891617
 40
0.7285423674
 40
0.7304956019
 40
0.7324488835
 40
0.7344021549
 40
0.7353787575
 40
0.7363553242
 40
0.7373318488
 40
0.7383083795
 40
0.7392850254
 40
0.7397734374
 40
0.7402619233
 40
0.7407504217
 40
0.7412388546
 40
0.7417271645
 40
0.7422153388
 40
0.7427034338
 40
0.7431915829
 40
0.7441682517
 40
0.7446566546
 40
0.7451450034
 40
0.7461216043
 40
0.7470981925
 40
0.7480747971
 40
0.7490514071
 40
0.7500280148
 40
0.7519812168
 40
0.7539344248
 40
0.7558876474
 40
0.7578408816
 40
0.7617472965
 40
0.7656536713
 40
0.7695600469
 40
0.7734664416
 40
0.7773728389
 40
0.7812792305
 40
0.7890916901
 40
0.7969041513
 40
0.8047166215
 40
0.8125290887
 40
0.8203415552
 40
0.8281540227
 40
0.8437764663
 40
0.8593989406
 40
0.8750212939
 40
0.8906436767
 40
0.9062662111
 40
0.9218888219
 40
0.9375110522
 40
0.9531331248
 40
0.968755491
 40
0.9843778139
 40
1.0
 40
1.0
 40
1.0
 40
1.0
 10
7.6439829193
 20
4.3738392857
 30
0.0
 10
7.6685529718
 20
4.3727146853
 30
0.0
 10
7.7177216241
 20
4.3710458392
 30
0.0
 10
7.7915115279
 20
4.3702843107
 30
0.0
 10
7.8652993371
 20
4.3712647958
 30
0.0
 10
7.9390430878
 20
4.3739875636
 30
0.0
 10
8.0004264111
 20
4.3777068864
 30
0.0
 10
8.0494688901
 20
4.3815511444
 30
0.0
 10
8.0862146679
 20
4.3848684015
 30
0.0
 10
8.1229186634
 20
4.388619289
 30
0.0
 10
8.1595758354
 20
4.3928032192
 30
0.0
 10
8.1961810528
 20
4.3974196238
 30
0.0
 10
8.2327292204
 20
4.4024679064
 30
0.0
 10
8.2692152191
 20
4.4079472882
 30
0.0
 10
8.2995643021
 20
4.4128720847
 30
0.0
 10
8.3238072605
 20
4.4170266845
 30
0.0
 10
8.3419708327
 20
4.4202499235
 30
0.0
 10
8.3601150537
 20
4.4235803305
 30
0.0
 10
8.3782393011
 20
4.4270177888
 30
0.0
 10
8.3963429389
 20
4.430562169
 30
0.0
 10
8.4114116216
 20
4.4336048137
 30
0.0
 10
8.4234556141
 20
4.436092268
 30
0.0
 10
8.4324830679
 20
4.4379845242
 30
0.0
 10
8.4415048913
 20
4.4399034393
 30
0.0
 10
8.4505210147
 20
4.4418489642
 30
0.0
 10
8.4595313639
 20
4.4438210642
 30
0.0
 10
8.468535878
 20
4.4458196283
 30
0.0
 10
8.4760346299
 20
4.4475075125
 30
0.0
 10
8.4820306176
 20
4.4488711074
 30
0.0
 10
8.4865261351
 20
4.4499002893
 30
0.0
 10
8.4910202644
 20
4.4509354858
 30
0.0
 10
8.4947638051
 20
4.4518048932
 30
0.0
 10
8.4977577788
 20
4.4525040966
 30
0.0
 10
8.5000031199
 20
4.4530292281
 30
0.0
 10
8.5022486063
 20
4.4535538507
 30
0.0
 10
8.5041195142
 20
4.4539924531
 30
0.0
 10
8.5056155665
 20
4.454346053
 30
0.0
 10
8.5067371637
 20
4.4546128862
 30
0.0
 10
8.5078581279
 20
4.4548822439
 30
0.0
 10
8.5089789525
 20
4.4551523116
 30
0.0
 10
8.5099138538
 20
4.4553739972
 30
0.0
 10
8.5106628434
 20
4.4555472469
 30
0.0
 10
8.5112252661
 20
4.4556746265
 30
0.0
 10
8.5117877574
 20
4.4558017357
 30
0.0
 10
8.5123497321
 20
4.4559308133
 30
0.0
 10
8.512910594
 20
4.4560641188
 30
0.0
 10
8.513469754
 20
4.4562038782
 30
0.0
 10
8.5140265928
 20
4.4563524342
 30
0.0
 10
8.5147652285
 20
4.4565647801
 30
0.0
 10
8.5154999335
 20
4.4567907183
 30
0.0
 10
8.5162348975
 20
4.4570159905
 30
0.0
 10
8.5169714691
 20
4.457235891
 30
0.0
 10
8.5178946069
 20
4.4575023105
 30
0.0
 10
8.5190041017
 20
4.4578158244
 30
0.0
 10
8.5201143209
 20
4.4581267816
 30
0.0
 10
8.5212256386
 20
4.4584338229
 30
0.0
 10
8.5227089486
 20
4.4588375313
 30
0.0
 10
8.5245665258
 20
4.4593294498
 30
0.0
 10
8.5268011733
 20
4.4598983619
 30
0.0
 10
8.5290409857
 20
4.4604466425
 30
0.0
 10
8.5320338947
 20
4.4611505562
 30
0.0
 10
8.5357864539
 20
4.4619810646
 30
0.0
 10
8.5403063433
 20
4.4628981541
 30
0.0
 10
8.5448419422
 20
4.4637341247
 30
0.0
 10
8.5493917952
 20
4.4644886751
 30
0.0
 10
8.5539544143
 20
4.4651618834
 30
0.0
 10
8.5600527461
 20
4.4659508057
 30
0.0
 10
8.5677006623
 20
4.466732791
 30
0.0
 10
8.5769055244
 20
4.4673427385
 30
0.0
 10
8.586126365
 20
4.4676236846
 30
0.0
 10
8.5953513111
 20
4.46757518
 30
0.0
 10
8.6045687692
 20
4.4671974079
 30
0.0
 10
8.6168313258
 20
4.4662555154
 30
0.0
 10
8.6320852597
 20
4.4642574953
 30
0.0
 10
8.6501697311
 20
4.4605599671
 30
0.0
 10
8.6679450434
 20
4.455582353
 30
0.0
 10
8.685319118
 20
4.4493473568
 30
0.0
 10
8.7022049392
 20
4.4418903532
 30
0.0
 10
8.7185152818
 20
4.4332469253
 30
0.0
 10
8.7341669319
 20
4.4234612282
 30
0.0
 10
8.7490766729
 20
4.4125788832
 30
0.0
 10
8.7631745628
 20
4.4006634108
 30
0.0
 10
8.7763897617
 20
4.3877771773
 30
0.0
 10
8.7845665914
 20
4.3785780971
 30
0.0
 10
8.7884829193
 20
4.3738392857
 30
0.0
  0
SPLINE
  5
404
100
AcDbEntity
  8
0
100
AcDbSpline
 62
7
  6
CONTINUOUS
 70
0
 71
3
 72
51
 73
47
 74
0
 42
0.0000001
 43
0.0000001
 44
0.0000000001
 40
0.0
 40
0.0
 40
0.0
 40
0.0
 40
0.0000045882
 40
0.0000183516
 40
0.0000412888
 40
0.000073398
 40
0.0001146777
 40
0.0001651264
 40
0.0002935242
 40
0.0004585788
 40
0.0006602775
 40
0.0008986077
 40
0.0011735567
 40
0.0018332607
 40
0.0026392883
 40
0.0035915385
 40
0.004689909
 40
0.0059342257
 40
0.007324201
 40
0.0088595372
 40
0.0105399369
 40
0.0143347366
 40
0.0187062142
 40
0.0236514691
 40
0.0291667588
 40
0.0352482659
 40
0.0418921592
 40
0.0490940578
 40
0.0568489416
 40
0.0739974435
 40
0.0932946635
 40
0.1146928006
 40
0.1381415539
 40
0.1635871703
 40
0.1909742585
 40
0.2202451556
 40
0.2513413104
 40
0.28420284
 40
0.3549799956
 40
0.4320902233
 40
0.5150444086
 40
0.6033516452
 40
0.6965163641
 40
0.7940326546
 40
0.8953767362
 40
1.0
 40
1.0
 40
1.0
 40
1.0
 10
6.9214829193
 20
4.3355892857
 30
0.0
 10
6.9214830298
 20
4.3355892857
 30
0.0
 10
6.9214830064
 20
4.3355886179
 30
0.0
 10
6.9214835205
 20
4.3355879281
 30
0.0
 10
6.9214839963
 20
4.3355862324
 30
0.0
 10
6.9214848411
 20
4.3355841149
 30
0.0
 10
6.9214858552
 20
4.3355812898
 30
0.0
 10
6.9214876953
 20
4.3355763216
 30
0.0
 10
6.9214905518
 20
4.3355685344
 30
0.0
 10
6.9214946736
 20
4.3355573361
 30
0.0
 10
6.9214997059
 20
4.335543646
 30
0.0
 10
6.9215056521
 20
4.3355274709
 30
0.0
 10
6.9215154047
 20
4.3355009325
 30
0.0
 10
6.9215298727
 20
4.3354615488
 30
0.0
 10
6.9215499617
 20
4.3354068376
 30
0.0
 10
6.921573685
 20
4.3353421971
 30
0.0
 10
6.9216010369
 20
4.3352676347
 30
0.0
 10
6.9216320073
 20
4.3351831615
 30
0.0
 10
6.9216665802
 20
4.3350887908
 30
0.0
 10
6.9217047391
 20
4.3349845394
 30
0.0
 10
6.9217627719
 20
4.3348258357
 30
0.0
 10
6.9218441624
 20
4.3346028841
 30
0.0
 10
6.9219523184
 20
4.334305928
 30
0.0
 10
6.9220743847
 20
4.3339699029
 30
0.0
 10
6.9222101482
 20
4.3335949999
 30
0.0
 10
6.9223593943
 20
4.3331814339
 30
0.0
 10
6.9225219048
 20
4.332729435
 30
0.0
 10
6.9226974288
 20
4.3322392526
 30
0.0
 10
6.9229572646
 20
4.331510316
 30
0.0
 10
6.923312604
 20
4.3305059108
 30
0.0
 10
6.9237730446
 20
4.3291898674
 30
0.0
 10
6.9242778552
 20
4.3277284722
 30
0.0
 10
6.9248240462
 20
4.3261245936
 30
0.0
 10
6.9254083304
 20
4.3243812103
 30
0.0
 10
6.9260273082
 20
4.3225014729
 30
0.0
 10
6.926677331
 20
4.3204885986
 30
0.0
 10
6.9273546729
 20
4.318345922
 30
0.0
 10
6.9283129426
 20
4.3152428625
 30
0.0
 10
6.9295529783
 20
4.3110661217
 30
0.0
 10
6.9310508123
 20
4.305707061
 30
0.0
 10
6.9325587849
 20
4.2999129995
 30
0.0
 10
6.9340418098
 20
4.2937137648
 30
0.0
 10
6.935464543
 20
4.2871407057
 30
0.0
 10
6.9367919488
 20
4.2802273376
 30
0.0
 10
6.9379900196
 20
4.2730101871
 30
0.0
 10
6.9386715987
 20
4.2680918236
 30
0.0
 10
6.9389829193
 20
4.2655892857
 30
0.0
  0
SPLINE
  5
405
100
AcDbEntity
  8
0
100
AcDbSpline
 62
7
  6
CONTINUOUS
 70
0
 71
3
 72
51
 73
47
 74
0
 42
0.0000001
 43
0.0000001
 44
0.0000000001
 40
0.0
 40
0.0
 40
0.0
 40
0.0
 40
0.1046232078
 40
0.2059672389
 40
0.3034834816
 40
0.3966481591
 40
0.4849553602
 40
0.5679095173
 40
0.6450197245
 40
0.7157968686
 40
0.7486583959
 40
0.7797545506
 40
0.8090254504
 40
0.836412544
 40
0.8618581685
 40
0.8853069325
 40
0.9067050833
 40
0.9260023199
 40
0.943150841
 40
0.9509057356
 40
0.9581076458
 40
0.9647515518
 40
0.9708330724
 40
0.976348376
 40
0.9812936449
 40
0.9856651363
 40
0.9894599504
 40
0.9911403579
 40
0.9926757026
 40
0.9940656872
 40
0.9953100142
 40
0.9964083962
 40
0.9973606586
 40
0.9981666987
 40
0.9988264146
 40
0.9991013691
 40
0.9993397044
 40
0.9995414078
 40
0.9997064665
 40
0.9998348678
 40
0.999885318
 40
0.999926599
 40
0.9999587093
 40
0.9999816473
 40
0.9999954114
 40
1.0
 40
1.0
 40
1.0
 40
1.0
 10
7.4614829193
 20
4.2655892857
 30
0.0
 10
7.4617942396
 20
4.2680918223
 30
0.0
 10
7.4624758183
 20
4.2730101833
 30
0.0
 10
7.4636738884
 20
4.2802273301
 30
0.0
 10
7.4650012933
 20
4.287140695
 30
0.0
 10
7.4664240256
 20
4.2937137511
 30
0.0
 10
7.4679070496
 20
4.2999129835
 30
0.0
 10
7.4694150214
 20
4.3057070431
 30
0.0
 10
7.4709128546
 20
4.3110661024
 30
0.0
 10
7.4721528899
 20
4.3152428425
 30
0.0
 10
7.4731111593
 20
4.3183459018
 30
0.0
 10
7.473788501
 20
4.3204885784
 30
0.0
 10
7.4744385239
 20
4.322501453
 30
0.0
 10
7.4750575016
 20
4.3243811907
 30
0.0
 10
7.475641786
 20
4.3261245746
 30
0.0
 10
7.4761879771
 20
4.327728454
 30
0.0
 10
7.4766927879
 20
4.3291898501
 30
0.0
 10
7.4771532288
 20
4.3305058948
 30
0.0
 10
7.4775085686
 20
4.3315103009
 30
0.0
 10
7.4777684047
 20
4.3322392386
 30
0.0
 10
7.4779439289
 20
4.3327294217
 30
0.0
 10
7.4781064398
 20
4.3331814215
 30
0.0
 10
7.4782556861
 20
4.3335949885
 30
0.0
 10
7.4783914499
 20
4.3339698924
 30
0.0
 10
7.4785135166
 20
4.3343059184
 30
0.0
 10
7.478621673
 20
4.3346028755
 30
0.0
 10
7.4787030638
 20
4.3348258279
 30
0.0
 10
7.4787610969
 20
4.3349845322
 30
0.0
 10
7.478799256
 20
4.3350887842
 30
0.0
 10
7.4788338291
 20
4.3351831555
 30
0.0
 10
7.4788647998
 20
4.3352676295
 30
0.0
 10
7.4788921518
 20
4.3353421927
 30
0.0
 10
7.4789158754
 20
4.3354068341
 30
0.0
 10
7.4789359646
 20
4.3354615462
 30
0.0
 10
7.4789504328
 20
4.3355009305
 30
0.0
 10
7.4789601856
 20
4.3355274694
 30
0.0
 10
7.4789661319
 20
4.3355436449
 30
0.0
 10
7.4789711642
 20
4.3355573353
 30
0.0
 10
7.4789752862
 20
4.3355685339
 30
0.0
 10
7.4789781428
 20
4.3355763212
 30
0.0
 10
7.4789799829
 20
4.3355812895
 30
0.0
 10
7.4789809972
 20
4.3355841148
 30
0.0
 10
7.478981842
 20
4.3355862323
 30
0.0
 10
7.4789823179
 20
4.335587928
 30
0.0
 10
7.478982832
 20
4.3355886179
 30
0.0
 10
7.4789828087
 20
4.3355892857
 30
0.0
 10
7.4789829193
 20
4.3355892857
 30
0.0
  0
SPLINE
  5
406
100
AcDbEntity
  8
0
100
AcDbSpline
 62
7
  6
CONTINUOUS
 70
0
 71
3
 72
51
 73
47
 74
0
 42
0.0000001
 43
0.0000001
 44
0.0000000001
 40
0.0
 40
0.0
 40
0.0
 40
0.0
 40
0.1046232589
 40
0.2059673359
 40
0.3034836222
 40
0.3966483374
 40
0.4849555709
 40
0.5679097537
 40
0.6450199796
 40
0.7157971342
 40
0.7486586636
 40
0.7797548184
 40
0.8090257157
 40
0.8364128044
 40
0.8618584215
 40
0.8853071757
 40
0.9067053141
 40
0.9260025356
 40
0.9431510392
 40
0.950905924
 40
0.9581078235
 40
0.964751718
 40
0.9708332263
 40
0.9763485171
 40
0.9812937733
 40
0.9856652522
 40
0.9894600532
 40
0.9911404535
 40
0.9926757905
 40
0.9940657666
 40
0.9953100842
 40
0.9964084557
 40
0.997360707
 40
0.9981667357
 40
0.9988264408
 40
0.9991013903
 40
0.9993397209
 40
0.99954142
 40
0.999706475
 40
0.9998348731
 40
0.9998853219
 40
0.9999266018
 40
0.9999587111
 40
0.9999816483
 40
0.9999954118
 40
1.0
 40
1.0
 40
1.0
 40
1.0
 10
6.9389829193
 20
4.2005892857
 30
0.0
 10
6.9386715988
 20
4.1980867479
 30
0.0
 10
6.9379900197
 20
4.1931683846
 30
0.0
 10
6.9367919489
 20
4.1859512345
 30
0.0
 10
6.9354645432
 20
4.1790378666
 30
0.0
 10
6.9340418101
 20
4.1724648078
 30
0.0
 10
6.9325587852
 20
4.1662655733
 30
0.0
 10
6.9310508127
 20
4.160471512
 30
0.0
 10
6.9295529788
 20
4.1551124515
 30
0.0
 10
6.9283129431
 20
4.1509357107
 30
0.0
 10
6.9273546734
 20
4.1478326512
 30
0.0
 10
6.9266773316
 20
4.1456899746
 30
0.0
 10
6.9260273087
 20
4.1436771003
 30
0.0
 10
6.925408331
 20
4.1417973629
 30
0.0
 10
6.9248240467
 20
4.1400539795
 30
0.0
 10
6.9242778557
 20
4.1384501009
 30
0.0
 10
6.9237730452
 20
4.1369887056
 30
0.0
 10
6.9233126045
 20
4.135672662
 30
0.0
 10
6.9229572651
 20
4.1346682568
 30
0.0
 10
6.9226974293
 20
4.13393932
 30
0.0
 10
6.9225219053
 20
4.1334491376
 30
0.0
 10
6.9223593947
 20
4.1329971386
 30
0.0
 10
6.9222101486
 20
4.1325835725
 30
0.0
 10
6.9220743851
 20
4.1322086695
 30
0.0
 10
6.9219523187
 20
4.1318726443
 30
0.0
 10
6.9218441627
 20
4.1315756881
 30
0.0
 10
6.9217627721
 20
4.1313527364
 30
0.0
 10
6.9217047393
 20
4.1311940327
 30
0.0
 10
6.9216665804
 20
4.1310897812
 30
0.0
 10
6.9216320075
 20
4.1309954105
 30
0.0
 10
6.921601037
 20
4.1309109371
 30
0.0
 10
6.9215736852
 20
4.1308363747
 30
0.0
 10
6.9215499618
 20
4.1307717341
 30
0.0
 10
6.9215298728
 20
4.1307170228
 30
0.0
 10
6.9215154048
 20
4.1306776391
 30
0.0
 10
6.9215056522
 20
4.1306511007
 30
0.0
 10
6.921499706
 20
4.1306349255
 30
0.0
 10
6.9214946737
 20
4.1306212354
 30
0.0
 10
6.9214905519
 20
4.1306100371
 30
0.0
 10
6.9214876953
 20
4.1306022499
 30
0.0
 10
6.9214858553
 20
4.1305972817
 30
0.0
 10
6.9214848411
 20
4.1305944565
 30
0.0
 10
6.9214839963
 20
4.1305923391
 30
0.0
 10
6.9214835205
 20
4.1305906434
 30
0.0
 10
6.9214830064
 20
4.1305899535
 30
0.0
 10
6.9214830298
 20
4.1305892857
 30
0.0
 10
6.9214829193
 20
4.1305892857
 30
0.0
  0
LINE
  5
407
100
AcDbEntity
  8
0
100
AcDbLine
 62
7
  6
CONTINUOUS
 10
7.1097329193
 20
4.4781326245
 11
7.0370442565
 21
4.4656637871
  0
LINE
  5
408
100
AcDbEntity
  8
0
100
AcDbLine
 62
7
  6
CONTINUOUS
 10
7.1976365657
 20
4.4835079425
 11
7.1811525558
 21
4.4825180291
  0
LINE
  5
409
100
AcDbEntity
  8
0
100
AcDbLine
 62
7
  6
CONTINUOUS
 10
7.1811525558
 20
4.4825180291
 11
7.1800162972
 21
4.4824567736
  0
LINE
  5
40A
100
AcDbEntity
  8
0
100
AcDbLine
 62
7
  6
CONTINUOUS
 10
7.138437554
 20
4.4802594398
 11
7.1373291771
 21
4.4802021639
  0
LINE
  5
40B
100
AcDbEntity
  8
0
100
AcDbLine
 62
7
  6
CONTINUOUS
 10
7.1373291771
 20
4.4802021639
 11
7.1212064782
 21
4.4794802317
  0
SPLINE
  5
40C
100
AcDbEntity
  8
0
100
AcDbSpline
 62
7
  6
CONTINUOUS
 70
0
 71
3
 72
22
 73
18
 74
0
 42
0.0000001
 43
0.0000001
 44
0.0000000001
 40
0.0
 40
0.0
 40
0.0
 40
0.0
 40
0.0437099531
 40
0.0912861157
 40
0.1435352187
 40
0.2013975433
 40
0.2658631871
 40
0.3376649336
 40
0.4165250061
 40
0.5000274628
 40
0.5835301347
 40
0.6623898991
 40
0.7341920674
 40
0.7986574733
 40
0.8565197046
 40
0.9087688423
 40
1.0
 40
1.0
 40
1.0
 40
1.0
 10
6.8882473142
 20
3.2416645645
 30
0.0
 10
6.8877980872
 20
3.2423294301
 30
0.0
 10
6.8869087046
 20
3.243751556
 30
0.0
 10
6.8856691607
 20
3.2460790532
 30
0.0
 10
6.8844908893
 20
3.2487258409
 30
0.0
 10
6.8834000691
 20
3.2517422517
 30
0.0
 10
6.8824364376
 20
3.2551766381
 30
0.0
 10
6.8816586501
 20
3.2590524347
 30
0.0
 10
6.8811426258
 20
3.2633245521
 30
0.0
 10
6.8809604012
 20
3.2678392905
 30
0.0
 10
6.8811426198
 20
3.2723540269
 30
0.0
 10
6.8816586538
 20
3.2766261409
 30
0.0
 10
6.8824364519
 20
3.2805019606
 30
0.0
 10
6.8834000297
 20
3.2839362712
 30
0.0
 10
6.884491012
 20
3.2869529258
 30
0.0
 10
6.885994801
 20
3.2903314448
 30
0.0
 10
6.8873096346
 20
3.2926263316
 30
0.0
 10
6.8882473157
 20
3.2940139966
 30
0.0
  0
SPLINE
  5
40D
100
AcDbEntity
  8
0
100
AcDbSpline
 62
7
  6
CONTINUOUS
 70
0
 71
3
 72
22
 73
18
 74
0
 42
0.0000001
 43
0.0000001
 44
0.0000000001
 40
0.0
 40
0.0
 40
0.0
 40
0.0
 40
0.0437099531
 40
0.0912861157
 40
0.1435352187
 40
0.2013975433
 40
0.2658631871
 40
0.3376649336
 40
0.4165250061
 40
0.5000274628
 40
0.5835301347
 40
0.6623898991
 40
0.7341920674
 40
0.7986574733
 40
0.8565197046
 40
0.9087688423
 40
1.0
 40
1.0
 40
1.0
 40
1.0
 10
7.5122185243
 20
3.2416645645
 30
0.0
 10
7.5126677513
 20
3.2423294301
 30
0.0
 10
7.5135571339
 20
3.243751556
 30
0.0
 10
7.5147966779
 20
3.2460790532
 30
0.0
 10
7.5159749492
 20
3.2487258409
 30
0.0
 10
7.5170657694
 20
3.2517422517
 30
0.0
 10
7.5180294009
 20
3.2551766381
 30
0.0
 10
7.5188071884
 20
3.2590524347
 30
0.0
 10
7.5193232127
 20
3.2633245521
 30
0.0
 10
7.5195054373
 20
3.2678392905
 30
0.0
 10
7.5193232187
 20
3.2723540269
 30
0.0
 10
7.5188071848
 20
3.2766261409
 30
0.0
 10
7.5180293867
 20
3.2805019606
 30
0.0
 10
7.5170658088
 20
3.2839362712
 30
0.0
 10
7.5159748265
 20
3.2869529258
 30
0.0
 10
7.5144710375
 20
3.2903314448
 30
0.0
 10
7.5131562039
 20
3.2926263316
 30
0.0
 10
7.5122185228
 20
3.2940139966
 30
0.0
  0
SPLINE
  5
40E
100
AcDbEntity
  8
0
100
AcDbSpline
 62
7
  6
CONTINUOUS
 70
0
 71
3
 72
33
 73
29
 74
0
 42
0.0000001
 43
0.0000001
 44
0.0000000001
 40
0.0
 40
0.0
 40
0.0
 40
0.0
 40
0.0295979401
 40
0.0592009304
 40
0.0888138926
 40
0.1184431709
 40
0.1480960142
 40
0.1777812473
 40
0.207509313
 40
0.2372924251
 40
0.2671444212
 40
0.2970807656
 40
0.3271178173
 40
0.3572729485
 40
0.387563868
 40
0.4180082269
 40
0.4486225868
 40
0.4794224243
 40
0.5104215308
 40
0.5416314459
 40
0.6047020083
 40
0.6686847952
 40
0.7335633766
 40
0.7992694579
 40
0.8656863489
 40
0.899118487
 40
0.932666276
 40
1.0
 40
1.0
 40
1.0
 40
1.0
 10
6.6416886105
 20
2.6026295232
 30
0.0
 10
6.6332675888
 20
2.6026295232
 30
0.0
 10
6.6164192003
 20
2.6031657283
 30
0.0
 10
6.5912491787
 20
2.605573139
 30
0.0
 10
6.5662719524
 20
2.6095678258
 30
0.0
 10
6.5415810978
 20
2.6151238548
 30
0.0
 10
6.5172630061
 20
2.6222064813
 30
0.0
 10
6.4933978688
 20
2.6307731981
 30
0.0
 10
6.4700580906
 20
2.6407753403
 30
0.0
 10
6.4473079012
 20
2.6521595279
 30
0.0
 10
6.4252031473
 20
2.6648693039
 30
0.0
 10
6.4037915464
 20
2.6788464132
 30
0.0
 10
6.3831131727
 20
2.6940321513
 30
0.0
 10
6.3632011784
 20
2.7103682535
 30
0.0
 10
6.344082623
 20
2.7277977549
 30
0.0
 10
6.325779557
 20
2.7462653068
 30
0.0
 10
6.3083099229
 20
2.7657174749
 30
0.0
 10
6.2916885895
 20
2.7861025159
 30
0.0
 10
6.2759276649
 20
2.807371045
 30
0.0
 10
6.2560079489
 20
2.8369411164
 30
0.0
 10
6.2333249128
 20
2.8759074411
 30
0.0
 10
6.2098079648
 20
2.9252542197
 30
0.0
 10
6.1899535976
 20
2.9769869026
 30
0.0
 10
6.1738235889
 20
3.0307167217
 30
0.0
 10
6.1635524569
 20
3.076729605
 30
0.0
 10
6.1572324309
 20
3.1141597314
 30
0.0
 10
6.15217655
 20
3.1520434484
 30
0.0
 10
6.149845793
 20
3.1806802029
 30
0.0
 10
6.1489380414
 20
3.1998160563
 30
0.0
  0
LINE
  5
40F
100
AcDbEntity
  8
0
100
AcDbLine
 62
7
  6
CONTINUOUS
 10
6.6418697126
 20
3.0026275008
 11
6.6411310738
 21
3.0028184313
  0
SPLINE
  5
410
100
AcDbEntity
  8
0
100
AcDbSpline
 62
7
  6
CONTINUOUS
 70
0
 71
3
 72
34
 73
30
 74
0
 42
0.0000001
 43
0.0000001
 44
0.0000000001
 40
0.0
 40
0.0
 40
0.0
 40
0.0
 40
0.0033714112
 40
0.0081213786
 40
0.0144215911
 40
0.0224368702
 40
0.032307213
 40
0.044155114
 40
0.0580768217
 40
0.0741465472
 40
0.0924138361
 40
0.1129026786
 40
0.1356142715
 40
0.160528814
 40
0.187607306
 40
0.2167941669
 40
0.2480206277
 40
0.2812072609
 40
0.3162663817
 40
0.3531042729
 40
0.3916232257
 40
0.4317231017
 40
0.473302587
 40
0.5162601971
 40
0.6058968811
 40
0.6998483985
 40
0.7973434346
 40
0.8976354224
 40
1.0
 40
1.0
 40
1.0
 40
1.0
 10
6.6411310738
 20
3.0028184313
 30
0.0
 10
6.6408946628
 20
3.0028901523
 30
0.0
 10
6.6403305456
 20
3.0030806849
 30
0.0
 10
6.6393468279
 20
3.0034679191
 30
0.0
 10
6.6380734279
 20
3.0040440486
 30
0.0
 10
6.6364955085
 20
3.004852518
 30
0.0
 10
6.6346057285
 20
3.0059386146
 30
0.0
 10
6.6324044935
 20
3.0073457938
 30
0.0
 10
6.6298997006
 20
3.0091156556
 30
0.0
 10
6.627105911
 20
3.0112855826
 30
0.0
 10
6.6240440637
 20
3.0138886556
 30
0.0
 10
6.62074025
 20
3.0169521918
 30
0.0
 10
6.6172247744
 20
3.0204974909
 30
0.0
 10
6.6135310433
 20
3.0245397176
 30
0.0
 10
6.6096944812
 20
3.0290879059
 30
0.0
 10
6.6057514087
 20
3.0341451687
 30
0.0
 10
6.6017382481
 20
3.0397092879
 30
0.0
 10
6.5976907466
 20
3.0457732789
 30
0.0
 10
6.5936434239
 20
3.052326007
 30
0.0
 10
6.5896290657
 20
3.0593527682
 30
0.0
 10
6.5856784435
 20
3.0668359302
 30
0.0
 10
6.5818201947
 20
3.0747554907
 30
0.0
 10
6.5780806473
 20
3.0830896696
 30
0.0
 10
6.5732160869
 20
3.0948912277
 30
0.0
 10
6.5675930621
 20
3.1105220008
 30
0.0
 10
6.5617409361
 20
3.1302813773
 30
0.0
 10
6.556809976
 20
3.1510940812
 30
0.0
 10
6.5528920981
 20
3.1727468213
 30
0.0
 10
6.5510153683
 20
3.1874860096
 30
0.0
 10
6.5502583622
 20
3.194948801
 30
0.0
  0
SPLINE
  5
411
100
AcDbEntity
  8
0
100
AcDbSpline
 62
7
  6
CONTINUOUS
 70
0
 71
3
 72
51
 73
47
 74
0
 42
0.0000001
 43
0.0000001
 44
0.0000000001
 40
0.0
 40
0.0
 40
0.0
 40
0.0
 40
0.1046232586
 40
0.2059673369
 40
0.3034836226
 40
0.396648338
 40
0.4849555713
 40
0.5679097541
 40
0.6450199797
 40
0.7157971344
 40
0.7486586637
 40
0.7797548184
 40
0.8090257157
 40
0.8364128044
 40
0.8618584215
 40
0.8853071756
 40
0.9067053139
 40
0.9260025354
 40
0.943151039
 40
0.9509059238
 40
0.9581078233
 40
0.9647517178
 40
0.9708332261
 40
0.9763485169
 40
0.9812937731
 40
0.985665252
 40
0.989460053
 40
0.9911404534
 40
0.9926757904
 40
0.9940657665
 40
0.9953100841
 40
0.9964084556
 40
0.9973607069
 40
0.9981667357
 40
0.9988264407
 40
0.9991013902
 40
0.9993397209
 40
0.99954142
 40
0.999706475
 40
0.9998348731
 40
0.9998853219
 40
0.9999266018
 40
0.9999587111
 40
0.9999816483
 40
0.9999954118
 40
1.0
 40
1.0
 40
1.0
 40
1.0
 10
2.9389829193
 20
4.2005892857
 30
0.0
 10
2.9386715988
 20
4.1980867479
 30
0.0
 10
2.9379900197
 20
4.1931683846
 30
0.0
 10
2.9367919489
 20
4.1859512345
 30
0.0
 10
2.9354645432
 20
4.1790378666
 30
0.0
 10
2.9340418101
 20
4.1724648078
 30
0.0
 10
2.9325587852
 20
4.1662655733
 30
0.0
 10
2.9310508127
 20
4.160471512
 30
0.0
 10
2.9295529788
 20
4.1551124515
 30
0.0
 10
2.9283129431
 20
4.1509357107
 30
0.0
 10
2.9273546734
 20
4.1478326512
 30
0.0
 10
2.9266773316
 20
4.1456899746
 30
0.0
 10
2.9260273087
 20
4.1436771003
 30
0.0
 10
2.925408331
 20
4.1417973629
 30
0.0
 10
2.9248240467
 20
4.1400539795
 30
0.0
 10
2.9242778557
 20
4.1384501009
 30
0.0
 10
2.9237730452
 20
4.1369887056
 30
0.0
 10
2.9233126045
 20
4.135672662
 30
0.0
 10
2.9229572651
 20
4.1346682568
 30
0.0
 10
2.9226974293
 20
4.1339393201
 30
0.0
 10
2.9225219053
 20
4.1334491376
 30
0.0
 10
2.9223593947
 20
4.1329971386
 30
0.0
 10
2.9222101486
 20
4.1325835725
 30
0.0
 10
2.9220743851
 20
4.1322086695
 30
0.0
 10
2.9219523187
 20
4.1318726443
 30
0.0
 10
2.9218441627
 20
4.1315756881
 30
0.0
 10
2.9217627721
 20
4.1313527364
 30
0.0
 10
2.9217047393
 20
4.1311940327
 30
0.0
 10
2.9216665804
 20
4.1310897813
 30
0.0
 10
2.9216320075
 20
4.1309954105
 30
0.0
 10
2.921601037
 20
4.1309109372
 30
0.0
 10
2.9215736852
 20
4.1308363747
 30
0.0
 10
2.9215499618
 20
4.1307717341
 30
0.0
 10
2.9215298728
 20
4.1307170228
 30
0.0
 10
2.9215154048
 20
4.1306776391
 30
0.0
 10
2.9215056522
 20
4.1306511007
 30
0.0
 10
2.921499706
 20
4.1306349255
 30
0.0
 10
2.9214946737
 20
4.1306212354
 30
0.0
 10
2.9214905519
 20
4.1306100371
 30
0.0
 10
2.9214876953
 20
4.1306022499
 30
0.0
 10
2.9214858553
 20
4.1305972817
 30
0.0
 10
2.9214848411
 20
4.1305944565
 30
0.0
 10
2.9214839963
 20
4.1305923391
 30
0.0
 10
2.9214835205
 20
4.1305906434
 30
0.0
 10
2.9214830064
 20
4.1305899535
 30
0.0
 10
2.9214830298
 20
4.1305892857
 30
0.0
 10
2.9214829193
 20
4.1305892857
 30
0.0
  0
SPLINE
  5
412
100
AcDbEntity
  8
0
100
AcDbSpline
 62
7
  6
CONTINUOUS
 70
0
 71
3
 72
51
 73
47
 74
0
 42
0.0000001
 43
0.0000001
 44
0.0000000001
 40
0.0
 40
0.0
 40
0.0
 40
0.0
 40
0.1046231898
 40
0.2059672025
 40
0.3034834304
 40
0.396648094
 40
0.4849552837
 40
0.5679094315
 40
0.6450196323
 40
0.7157967725
 40
0.7486582991
 40
0.7797544541
 40
0.8090253548
 40
0.8364124501
 40
0.8618580773
 40
0.8853068449
 40
0.9067050003
 40
0.9260022424
 40
0.9431507699
 40
0.950905668
 40
0.9581075821
 40
0.9647514922
 40
0.9708330172
 40
0.9763483253
 40
0.9812935989
 40
0.9856650948
 40
0.9894599135
 40
0.9911403236
 40
0.992675671
 40
0.9940656587
 40
0.9953099891
 40
0.9964083748
 40
0.9973606413
 40
0.9981666854
 40
0.9988264051
 40
0.9991013615
 40
0.9993396985
 40
0.9995414034
 40
0.9997064635
 40
0.9998348659
 40
0.9998853166
 40
0.999926598
 40
0.9999587087
 40
0.9999816469
 40
0.9999954113
 40
1.0
 40
1.0
 40
1.0
 40
1.0
 10
3.4614829193
 20
4.2655892857
 30
0.0
 10
3.4617942395
 20
4.2680918219
 30
0.0
 10
3.4624758181
 20
4.273010182
 30
0.0
 10
3.463673888
 20
4.2802273276
 30
0.0
 10
3.4650012926
 20
4.2871406913
 30
0.0
 10
3.4664240246
 20
4.2937137466
 30
0.0
 10
3.4679070483
 20
4.2999129781
 30
0.0
 10
3.4694150198
 20
4.3057070372
 30
0.0
 10
3.4709128528
 20
4.3110660961
 30
0.0
 10
3.4721528879
 20
4.3152428359
 30
0.0
 10
3.4731111573
 20
4.3183458952
 30
0.0
 10
3.4737884989
 20
4.3204885718
 30
0.0
 10
3.4744385217
 20
4.3225014464
 30
0.0
 10
3.4750574995
 20
4.3243811843
 30
0.0
 10
3.4756417838
 20
4.3261245684
 30
0.0
 10
3.4761879751
 20
4.327728448
 30
0.0
 10
3.4766927859
 20
4.3291898445
 30
0.0
 10
3.477153227
 20
4.3305058895
 30
0.0
 10
3.4775085669
 20
4.331510296
 30
0.0
 10
3.477768403
 20
4.332239234
 30
0.0
 10
3.4779439274
 20
4.3327294174
 30
0.0
 10
3.4781064383
 20
4.3331814175
 30
0.0
 10
3.4782556847
 20
4.3335949847
 30
0.0
 10
3.4783914487
 20
4.3339698889
 30
0.0
 10
3.4785135155
 20
4.3343059153
 30
0.0
 10
3.478621672
 20
4.3346028727
 30
0.0
 10
3.4787030629
 20
4.3348258253
 30
0.0
 10
3.4787610961
 20
4.3349845299
 30
0.0
 10
3.4787992552
 20
4.3350887821
 30
0.0
 10
3.4788338284
 20
4.3351831536
 30
0.0
 10
3.4788647992
 20
4.3352676278
 30
0.0
 10
3.4788921513
 20
4.3353421912
 30
0.0
 10
3.4789158749
 20
4.3354068329
 30
0.0
 10
3.4789359642
 20
4.3354615453
 30
0.0
 10
3.4789504325
 20
4.3355009299
 30
0.0
 10
3.4789601853
 20
4.3355274689
 30
0.0
 10
3.4789661316
 20
4.3355436445
 30
0.0
 10
3.478971164
 20
4.335557335
 30
0.0
 10
3.478975286
 20
4.3355685337
 30
0.0
 10
3.4789781427
 20
4.3355763211
 30
0.0
 10
3.4789799828
 20
4.3355812895
 30
0.0
 10
3.4789809971
 20
4.3355841147
 30
0.0
 10
3.478981842
 20
4.3355862323
 30
0.0
 10
3.4789823179
 20
4.335587928
 30
0.0
 10
3.4789828319
 20
4.3355886179
 30
0.0
 10
3.4789828086
 20
4.3355892857
 30
0.0
 10
3.4789829193
 20
4.3355892857
 30
0.0
  0
SPLINE
  5
413
100
AcDbEntity
  8
0
100
AcDbSpline
 62
7
  6
CONTINUOUS
 70
0
 71
3
 72
21
 73
17
 74
0
 42
0.0000001
 43
0.0000001
 44
0.0000000001
 40
0.0
 40
0.0
 40
0.0
 40
0.0
 40
0.0437082045
 40
0.0912820654
 40
0.1435297793
 40
0.2013915933
 40
0.2658604847
 40
0.3376727397
 40
0.4165443776
 40
0.5000637239
 40
0.5835843072
 40
0.6624551994
 40
0.7342654643
 40
0.7987342986
 40
0.9087732045
 40
1.0
 40
1.0
 40
1.0
 40
1.0
 10
3.5122185238
 20
3.2940140016
 30
0.0
 10
3.5126677065
 20
3.2933492125
 30
0.0
 10
3.5135570297
 20
3.2919272754
 30
0.0
 10
3.5147964315
 20
3.2896000234
 30
0.0
 10
3.5159746138
 20
3.2869535039
 30
0.0
 10
3.5170654268
 20
3.2839373036
 30
0.0
 10
3.5180291525
 20
3.2805029496
 30
0.0
 10
3.518807037
 20
3.27662698
 30
0.0
 10
3.519323209
 20
3.2723544602
 30
0.0
 10
3.5195054296
 20
3.267839188
 30
0.0
 10
3.5193231892
 20
3.2633239066
 30
0.0
 10
3.5188070406
 20
3.2590514799
 30
0.0
 10
3.5180290986
 20
3.2551753511
 30
0.0
 10
3.5168066065
 20
3.2508188853
 30
0.0
 10
3.5149994312
 20
3.2462694708
 30
0.0
 10
3.5131562121
 20
3.2430519458
 30
0.0
 10
3.5122185303
 20
3.2416645193
 30
0.0
  0
SPLINE
  5
414
100
AcDbEntity
  8
0
100
AcDbSpline
 62
7
  6
CONTINUOUS
 70
0
 71
3
 72
21
 73
17
 74
0
 42
0.0000001
 43
0.0000001
 44
0.0000000001
 40
0.0
 40
0.0
 40
0.0
 40
0.0
 40
0.0437082045
 40
0.0912820654
 40
0.1435297793
 40
0.2013915933
 40
0.2658604847
 40
0.3376727397
 40
0.4165443776
 40
0.5000637239
 40
0.5835843072
 40
0.6624551994
 40
0.7342654643
 40
0.7987342986
 40
0.9087732045
 40
1.0
 40
1.0
 40
1.0
 40
1.0
 10
2.8882473148
 20
3.2940140016
 30
0.0
 10
2.8877981321
 20
3.2933492125
 30
0.0
 10
2.8869088088
 20
3.2919272754
 30
0.0
 10
2.885669407
 20
3.2896000234
 30
0.0
 10
2.8844912247
 20
3.2869535039
 30
0.0
 10
2.8834004118
 20
3.2839373036
 30
0.0
 10
2.882436686
 20
3.2805029496
 30
0.0
 10
2.8816588016
 20
3.27662698
 30
0.0
 10
2.8811426296
 20
3.2723544602
 30
0.0
 10
2.8809604089
 20
3.267839188
 30
0.0
 10
2.8811426493
 20
3.2633239066
 30
0.0
 10
2.8816587979
 20
3.2590514799
 30
0.0
 10
2.8824367399
 20
3.2551753511
 30
0.0
 10
2.883659232
 20
3.2508188853
 30
0.0
 10
2.8854664073
 20
3.2462694708
 30
0.0
 10
2.8873096264
 20
3.2430519458
 30
0.0
 10
2.8882473082
 20
3.2416645193
 30
0.0
  0
LINE
  5
415
100
AcDbEntity
  8
0
100
AcDbLine
 62
7
  6
CONTINUOUS
 10
3.7585961259
 20
3.0026275008
 11
3.7593347647
 21
3.0028184313
  0
SPLINE
  5
416
100
AcDbEntity
  8
0
100
AcDbSpline
 62
7
  6
CONTINUOUS
 70
0
 71
3
 72
34
 73
30
 74
0
 42
0.0000001
 43
0.0000001
 44
0.0000000001
 40
0.0
 40
0.0
 40
0.0
 40
0.0
 40
0.0033714117
 40
0.0081213794
 40
0.0144215919
 40
0.0224368706
 40
0.0323072127
 40
0.0441551125
 40
0.0580768187
 40
0.0741465422
 40
0.0924138288
 40
0.1129026687
 40
0.1356142588
 40
0.1605287982
 40
0.1876072872
 40
0.2167941451
 40
0.248020603
 40
0.2812072334
 40
0.3162663518
 40
0.3531042409
 40
0.391623192
 40
0.4317230667
 40
0.4733025513
 40
0.5162601612
 40
0.6058968467
 40
0.6998483681
 40
0.7973434111
 40
0.8976354089
 40
1.0
 40
1.0
 40
1.0
 40
1.0
 10
3.7593347647
 20
3.0028184313
 30
0.0
 10
3.7595711757
 20
3.0028901522
 30
0.0
 10
3.7601352926
 20
3.0030806848
 30
0.0
 10
3.7611190098
 20
3.0034679187
 30
0.0
 10
3.7623924091
 20
3.0040440479
 30
0.0
 10
3.7639703276
 20
3.0048525167
 30
0.0
 10
3.7658601065
 20
3.0059386125
 30
0.0
 10
3.7680613402
 20
3.0073457906
 30
0.0
 10
3.7705661316
 20
3.0091156509
 30
0.0
 10
3.7733599196
 20
3.0112855762
 30
0.0
 10
3.7764217651
 20
3.013888647
 30
0.0
 10
3.779725577
 20
3.0169521807
 30
0.0
 10
3.7832410508
 20
3.0204974769
 30
0.0
 10
3.78693478
 20
3.0245397003
 30
0.0
 10
3.7907713403
 20
3.029087885
 30
0.0
 10
3.794714411
 20
3.0341451438
 30
0.0
 10
3.7987275701
 20
3.0397092586
 30
0.0
 10
3.8027750701
 20
3.0457732451
 30
0.0
 10
3.8068223916
 20
3.0523259683
 30
0.0
 10
3.8108367487
 20
3.0593527245
 30
0.0
 10
3.8147873702
 20
3.0668358812
 30
0.0
 10
3.8186456183
 20
3.0747554362
 30
0.0
 10
3.8223851654
 20
3.0830896096
 30
0.0
 10
3.8272497257
 20
3.0948911602
 30
0.0
 10
3.8328727511
 20
3.1105219237
 30
0.0
 10
3.8387248787
 20
3.1302812888
 30
0.0
 10
3.8436558416
 20
3.1510939815
 30
0.0
 10
3.8475737232
 20
3.1727467108
 30
0.0
 10
3.8494504562
 20
3.1874858922
 30
0.0
 10
3.8502074641
 20
3.1949486802
 30
0.0
  0
SPLINE
  5
417
100
AcDbEntity
  8
0
100
AcDbSpline
 62
7
  6
CONTINUOUS
 70
0
 71
3
 72
33
 73
29
 74
0
 42
0.0000001
 43
0.0000001
 44
0.0000000001
 40
0.0
 40
0.0
 40
0.0
 40
0.0
 40
0.0295979401
 40
0.0592009303
 40
0.0888138924
 40
0.1184431707
 40
0.1480960139
 40
0.177781247
 40
0.2075093127
 40
0.2372924247
 40
0.2671444208
 40
0.2970807652
 40
0.3271178168
 40
0.357272948
 40
0.3875638675
 40
0.4180082264
 40
0.4486225863
 40
0.4794224238
 40
0.5104215303
 40
0.5416314455
 40
0.604702008
 40
0.668684795
 40
0.7335633765
 40
0.7992694578
 40
0.8656863489
 40
0.899118487
 40
0.932666276
 40
1.0
 40
1.0
 40
1.0
 40
1.0
 10
3.758777228
 20
2.6026295232
 30
0.0
 10
3.7671982498
 20
2.6026295232
 30
0.0
 10
3.7840466388
 20
2.6031657283
 30
0.0
 10
3.8092166608
 20
2.6055731391
 30
0.0
 10
3.8341938876
 20
2.609567826
 30
0.0
 10
3.8588847427
 20
2.6151238553
 30
0.0
 10
3.883202835
 20
2.6222064822
 30
0.0
 10
3.9070679727
 20
2.6307731993
 30
0.0
 10
3.9304077513
 20
2.6407753419
 30
0.0
 10
3.9531579411
 20
2.6521595299
 30
0.0
 10
3.9752626953
 20
2.6648693064
 30
0.0
 10
3.9966742965
 20
2.6788464163
 30
0.0
 10
4.0173526705
 20
2.694032155
 30
0.0
 10
4.037264665
 20
2.7103682577
 30
0.0
 10
4.0563832206
 20
2.7277977598
 30
0.0
 10
4.0746862868
 20
2.7462653124
 30
0.0
 10
4.0921559209
 20
2.7657174812
 30
0.0
 10
4.1087772544
 20
2.7861025229
 30
0.0
 10
4.1245381791
 20
2.8073710528
 30
0.0
 10
4.144457895
 20
2.8369411251
 30
0.0
 10
4.1671409311
 20
2.8759074512
 30
0.0
 10
4.1906578787
 20
2.9252542314
 30
0.0
 10
4.2105122455
 20
2.9769869159
 30
0.0
 10
4.2266422535
 20
3.0307167365
 30
0.0
 10
4.2369133849
 20
3.0767296212
 30
0.0
 10
4.2432334102
 20
3.1141597486
 30
0.0
 10
4.2482892904
 20
3.1520434665
 30
0.0
 10
4.2506200468
 20
3.1806802217
 30
0.0
 10
4.251527798
 20
3.1998160756
 30
0.0
  0
LINE
  5
418
100
AcDbEntity
  8
0
100
AcDbLine
 62
7
  6
CONTINUOUS
 10
3.2378002566
 20
4.4826127132
 11
3.2220113191
 21
4.4824726412
  0
LINE
  5
419
100
AcDbEntity
  8
0
100
AcDbLine
 62
7
  6
CONTINUOUS
 10
3.2220113191
 20
4.4824726412
 11
3.2208841591
 21
4.482469891
  0
LINE
  5
41A
100
AcDbEntity
  8
0
100
AcDbLine
 62
7
  6
CONTINUOUS
 10
3.2208841591
 20
4.482469891
 11
3.177870831
 21
4.4824220039
  0
LINE
  5
41B
100
AcDbEntity
  8
0
100
AcDbLine
 62
7
  6
CONTINUOUS
 10
3.177870831
 20
4.4824220039
 11
3.1611735619
 21
4.4825362718
  0
LINE
  5
41C
100
AcDbEntity
  8
0
100
AcDbLine
 62
7
  6
CONTINUOUS
 10
3.1209829193
 20
4.479512228
 11
3.1204951189
 21
4.4794708365
  0
LINE
  5
41D
100
AcDbEntity
  8
0
100
AcDbLine
 62
7
  6
CONTINUOUS
 10
3.1204951189
 20
4.4794708365
 11
3.1179829193
 21
4.479211687
  0
LINE
  5
41E
100
AcDbEntity
  8
0
100
AcDbLine
 62
7
  6
CONTINUOUS
 10
3.0989829193
 20
4.4769472168
 11
3.0959829193
 21
4.4765324409
  0
SPLINE
  5
41F
100
AcDbEntity
  8
0
100
AcDbSpline
 62
7
  6
CONTINUOUS
 70
0
 71
3
 72
51
 73
47
 74
0
 42
0.0000001
 43
0.0000001
 44
0.0000000001
 40
0.0
 40
0.0
 40
0.0
 40
0.0
 40
0.0132330182
 40
0.0264946789
 40
0.0398068101
 40
0.0531951215
 40
0.0666841381
 40
0.0802957803
 40
0.0940504054
 40
0.1079666052
 40
0.1220607164
 40
0.1363467965
 40
0.1508364763
 40
0.1655390905
 40
0.1955982241
 40
0.2265618553
 40
0.2584212788
 40
0.2911354659
 40
0.3246348813
 40
0.3588255685
 40
0.3935933191
 40
0.4288078308
 40
0.464326808
 40
0.5
 40
0.535673192
 40
0.5711921692
 40
0.6064066809
 40
0.6411744315
 40
0.6753651187
 40
0.7088645341
 40
0.7415787212
 40
0.7734381447
 40
0.8044017759
 40
0.8344609095
 40
0.8491635237
 40
0.8636532035
 40
0.8779392836
 40
0.8920333948
 40
0.9059495946
 40
0.9197042197
 40
0.9333158619
 40
0.9468048785
 40
0.9601931899
 40
0.9735053211
 40
0.9867669818
 40
1.0
 40
1.0
 40
1.0
 40
1.0
 10
3.758777228
 20
3.0026295232
 30
0.0
 10
3.7612028066
 20
3.0026295232
 30
0.0
 10
3.766060738
 20
3.0024683495
 30
0.0
 10
3.7733263134
 20
3.001744717
 30
0.0
 10
3.7805569362
 20
3.0005402199
 30
0.0
 10
3.7877342392
 20
2.998858256
 30
0.0
 10
3.7948411639
 20
2.9967029358
 30
0.0
 10
3.8018605281
 20
2.9940795845
 30
0.0
 10
3.8087753096
 20
2.9909946768
 30
0.0
 10
3.8155687765
 20
2.987455739
 30
0.0
 10
3.8222247047
 20
2.9834716065
 30
0.0
 10
3.8287268992
 20
2.9790518181
 30
0.0
 10
3.8350600952
 20
2.9742072316
 30
0.0
 10
3.843317908
 20
2.967146139
 30
0.0
 10
3.8531335991
 20
2.9572941527
 30
0.0
 10
3.8639084096
 20
2.944079422
 30
0.0
 10
3.8736685824
 20
2.9295103254
 30
0.0
 10
3.8823214784
 20
2.9137278341
 30
0.0
 10
3.8897861164
 20
2.89688296
 30
0.0
 10
3.8959921263
 20
2.8791369508
 30
0.0
 10
3.9008809795
 20
2.8606594741
 30
0.0
 10
3.9044064594
 20
2.8416271797
 30
0.0
 10
3.9065351979
 20
2.8222220186
 30
0.0
 10
3.9072470264
 20
2.8026295232
 30
0.0
 10
3.9065351979
 20
2.7830370278
 30
0.0
 10
3.9044064594
 20
2.7636318667
 30
0.0
 10
3.9008809795
 20
2.7445995723
 30
0.0
 10
3.8959921263
 20
2.7261220956
 30
0.0
 10
3.8897861164
 20
2.7083760865
 30
0.0
 10
3.8823214784
 20
2.6915312123
 30
0.0
 10
3.8736685824
 20
2.675748721
 30
0.0
 10
3.8639084096
 20
2.6611796244
 30
0.0
 10
3.8531335991
 20
2.6479648937
 30
0.0
 10
3.843317908
 20
2.6381129074
 30
0.0
 10
3.8350600952
 20
2.6310518148
 30
0.0
 10
3.8287268992
 20
2.6262072283
 30
0.0
 10
3.8222247047
 20
2.6217874399
 30
0.0
 10
3.8155687765
 20
2.6178033075
 30
0.0
 10
3.8087753096
 20
2.6142643696
 30
0.0
 10
3.8018605281
 20
2.6111794619
 30
0.0
 10
3.7948411639
 20
2.6085561106
 30
0.0
 10
3.7877342392
 20
2.6064007904
 30
0.0
 10
3.7805569362
 20
2.6047188265
 30
0.0
 10
3.7733263134
 20
2.6035143294
 30
0.0
 10
3.766060738
 20
2.6027906969
 30
0.0
 10
3.7612028066
 20
2.6026295232
 30
0.0
 10
3.758777228
 20
2.6026295232
 30
0.0
  0
SPLINE
  5
420
100
AcDbEntity
  8
0
100
AcDbSpline
 62
7
  6
CONTINUOUS
 70
0
 71
3
 72
23
 73
19
 74
0
 42
0.0000001
 43
0.0000001
 44
0.0000000001
 40
0.0
 40
0.0
 40
0.0
 40
0.0
 40
0.0622981899
 40
0.0935790542
 40
0.1249377001
 40
0.18785839
 40
0.251024731
 40
0.282688048
 40
0.3143899632
 40
0.3778635445
 40
0.4413816522
 40
0.5048632301
 40
0.5682225106
 40
0.6313693797
 40
0.7565726254
 40
0.8184946283
 40
0.8797963637
 40
1.0
 40
1.0
 40
1.0
 40
1.0
 10
6.7925080089
 20
2.7350443586
 30
0.0
 10
6.7910859727
 20
2.7400531259
 30
0.0
 10
6.7892639284
 20
2.7476711307
 30
0.0
 10
6.7874638886
 20
2.7579588147
 30
0.0
 10
6.7860764604
 20
2.7683633802
 30
0.0
 10
6.7851268928
 20
2.7815028108
 30
0.0
 10
6.7852125943
 20
2.794700898
 30
0.0
 10
6.7858885131
 20
2.8052566633
 30
0.0
 10
6.7869661271
 20
2.8158048128
 30
0.0
 10
6.7890538507
 20
2.8289159885
 30
0.0
 10
6.7926995419
 20
2.844426036
 30
0.0
 10
6.7974372911
 20
2.8596276323
 30
0.0
 10
6.8032120395
 20
2.8744333641
 30
0.0
 10
6.8121832403
 20
2.8934754202
 30
0.0
 10
6.8229893095
 20
2.9114708232
 30
0.0
 10
6.8353959484
 20
2.9281348938
 30
0.0
 10
6.8485989339
 20
2.9436274799
 30
0.0
 10
6.8595679364
 20
2.9541919615
 30
0.0
 10
6.8672664145
 20
2.96064655
 30
0.0
  0
SPLINE
  5
421
100
AcDbEntity
  8
0
100
AcDbSpline
 62
7
  6
CONTINUOUS
 70
0
 71
3
 72
29
 73
25
 74
0
 42
0.0000001
 43
0.0000001
 44
0.0000000001
 40
0.0
 40
0.0
 40
0.0
 40
0.0
 40
0.0639478252
 40
0.1274729189
 40
0.1905493662
 40
0.2531671799
 40
0.3153421573
 40
0.3462861252
 40
0.3771430417
 40
0.4079260369
 40
0.438650872
 40
0.4693356853
 40
0.5000000001
 40
0.5306643149
 40
0.5613491281
 40
0.5920739633
 40
0.6228569584
 40
0.6537138749
 40
0.6846578428
 40
0.7468328202
 40
0.8094506338
 40
0.8725270811
 40
0.9360521749
 40
1.0
 40
1.0
 40
1.0
 40
1.0
 10
6.2997047825
 20
3.3565460005
 30
0.0
 10
6.2959489231
 20
3.3538187754
 30
0.0
 10
6.2883345102
 20
3.3485546354
 30
0.0
 10
6.2765475489
 20
3.3413048401
 30
0.0
 10
6.2644203086
 20
3.3348367217
 30
0.0
 10
6.2519562382
 20
3.3292753658
 30
0.0
 10
6.2412852905
 20
3.3255007793
 30
0.0
 10
6.2326180413
 20
3.3230712193
 30
0.0
 10
6.2260676027
 20
3.3215591601
 30
0.0
 10
6.2194673591
 20
3.3203680427
 30
0.0
 10
6.2128282026
 20
3.3195086919
 30
0.0
 10
6.2061623526
 20
3.3189896499
 30
0.0
 10
6.1994829192
 20
3.3188161034
 30
0.0
 10
6.1928034859
 20
3.3189896499
 30
0.0
 10
6.1861376359
 20
3.3195086919
 30
0.0
 10
6.1794984794
 20
3.3203680427
 30
0.0
 10
6.1728982358
 20
3.3215591601
 30
0.0
 10
6.1663477972
 20
3.3230712193
 30
0.0
 10
6.157680548
 20
3.3255007793
 30
0.0
 10
6.1470096003
 20
3.3292753658
 30
0.0
 10
6.1345455299
 20
3.3348367217
 30
0.0
 10
6.1224182896
 20
3.3413048401
 30
0.0
 10
6.1106313283
 20
3.3485546354
 30
0.0
 10
6.1030169155
 20
3.3538187754
 30
0.0
 10
6.099261056
 20
3.3565460005
 30
0.0
  0
SPLINE
  5
422
100
AcDbEntity
  8
0
100
AcDbSpline
 62
7
  6
CONTINUOUS
 70
0
 71
3
 72
29
 73
25
 74
0
 42
0.0000001
 43
0.0000001
 44
0.0000000001
 40
0.0
 40
0.0
 40
0.0
 40
0.0
 40
0.0639478252
 40
0.1274729189
 40
0.1905493662
 40
0.2531671799
 40
0.3153421573
 40
0.3462861252
 40
0.3771430417
 40
0.4079260369
 40
0.438650872
 40
0.4693356853
 40
0.5000000001
 40
0.5306643149
 40
0.5613491281
 40
0.5920739633
 40
0.6228569584
 40
0.6537138749
 40
0.6846578428
 40
0.7468328202
 40
0.8094506338
 40
0.8725270811
 40
0.9360521749
 40
1.0
 40
1.0
 40
1.0
 40
1.0
 10
6.2997047825
 20
3.529632571
 30
0.0
 10
6.2959489231
 20
3.532359796
 30
0.0
 10
6.2883345102
 20
3.537623936
 30
0.0
 10
6.2765475489
 20
3.5448737313
 30
0.0
 10
6.2644203086
 20
3.5513418497
 30
0.0
 10
6.2519562382
 20
3.5569032056
 30
0.0
 10
6.2412852905
 20
3.5606777921
 30
0.0
 10
6.2326180413
 20
3.5631073522
 30
0.0
 10
6.2260676027
 20
3.5646194113
 30
0.0
 10
6.2194673591
 20
3.5658105288
 30
0.0
 10
6.2128282026
 20
3.5666698795
 30
0.0
 10
6.2061623526
 20
3.5671889216
 30
0.0
 10
6.1994829192
 20
3.5673624681
 30
0.0
 10
6.1928034859
 20
3.5671889216
 30
0.0
 10
6.1861376359
 20
3.5666698795
 30
0.0
 10
6.1794984794
 20
3.5658105288
 30
0.0
 10
6.1728982358
 20
3.5646194113
 30
0.0
 10
6.1663477972
 20
3.5631073522
 30
0.0
 10
6.157680548
 20
3.5606777921
 30
0.0
 10
6.1470096003
 20
3.5569032056
 30
0.0
 10
6.1345455299
 20
3.5513418497
 30
0.0
 10
6.1224182896
 20
3.5448737313
 30
0.0
 10
6.1106313283
 20
3.537623936
 30
0.0
 10
6.1030169155
 20
3.532359796
 30
0.0
 10
6.099261056
 20
3.529632571
 30
0.0
  0
SPLINE
  5
423
100
AcDbEntity
  8
0
100
AcDbSpline
 62
7
  6
CONTINUOUS
 70
0
 71
3
 72
29
 73
25
 74
0
 42
0.0000001
 43
0.0000001
 44
0.0000000001
 40
0.0
 40
0.0
 40
0.0
 40
0.0
 40
0.0639478252
 40
0.1274729189
 40
0.1905493662
 40
0.2531671799
 40
0.3153421573
 40
0.3462861252
 40
0.3771430417
 40
0.4079260369
 40
0.438650872
 40
0.4693356853
 40
0.5000000001
 40
0.5306643149
 40
0.5613491281
 40
0.5920739633
 40
0.6228569584
 40
0.6537138749
 40
0.6846578428
 40
0.7468328202
 40
0.8094506338
 40
0.8725270811
 40
0.9360521749
 40
1.0
 40
1.0
 40
1.0
 40
1.0
 10
6.5967047825
 20
3.3565460005
 30
0.0
 10
6.5929489231
 20
3.3538187754
 30
0.0
 10
6.5853345102
 20
3.3485546354
 30
0.0
 10
6.5735475489
 20
3.3413048401
 30
0.0
 10
6.5614203086
 20
3.3348367217
 30
0.0
 10
6.5489562382
 20
3.3292753658
 30
0.0
 10
6.5382852905
 20
3.3255007793
 30
0.0
 10
6.5296180413
 20
3.3230712193
 30
0.0
 10
6.5230676027
 20
3.3215591601
 30
0.0
 10
6.5164673591
 20
3.3203680427
 30
0.0
 10
6.5098282026
 20
3.3195086919
 30
0.0
 10
6.5031623526
 20
3.3189896499
 30
0.0
 10
6.4964829192
 20
3.3188161034
 30
0.0
 10
6.4898034859
 20
3.3189896499
 30
0.0
 10
6.4831376359
 20
3.3195086919
 30
0.0
 10
6.4764984794
 20
3.3203680427
 30
0.0
 10
6.4698982358
 20
3.3215591601
 30
0.0
 10
6.4633477972
 20
3.3230712193
 30
0.0
 10
6.454680548
 20
3.3255007793
 30
0.0
 10
6.4440096003
 20
3.3292753658
 30
0.0
 10
6.4315455299
 20
3.3348367217
 30
0.0
 10
6.4194182896
 20
3.3413048401
 30
0.0
 10
6.4076313283
 20
3.3485546354
 30
0.0
 10
6.4000169155
 20
3.3538187754
 30
0.0
 10
6.396261056
 20
3.3565460005
 30
0.0
  0
SPLINE
  5
424
100
AcDbEntity
  8
0
100
AcDbSpline
 62
7
  6
CONTINUOUS
 70
0
 71
3
 72
29
 73
25
 74
0
 42
0.0000001
 43
0.0000001
 44
0.0000000001
 40
0.0
 40
0.0
 40
0.0
 40
0.0
 40
0.0639478252
 40
0.1274729189
 40
0.1905493662
 40
0.2531671799
 40
0.3153421573
 40
0.3462861252
 40
0.3771430417
 40
0.4079260369
 40
0.438650872
 40
0.4693356853
 40
0.5000000001
 40
0.5306643149
 40
0.5613491281
 40
0.5920739633
 40
0.6228569584
 40
0.6537138749
 40
0.6846578428
 40
0.7468328202
 40
0.8094506338
 40
0.8725270811
 40
0.9360521749
 40
1.0
 40
1.0
 40
1.0
 40
1.0
 10
6.5967047825
 20
3.529632571
 30
0.0
 10
6.5929489231
 20
3.532359796
 30
0.0
 10
6.5853345102
 20
3.537623936
 30
0.0
 10
6.5735475489
 20
3.5448737313
 30
0.0
 10
6.5614203086
 20
3.5513418497
 30
0.0
 10
6.5489562382
 20
3.5569032056
 30
0.0
 10
6.5382852905
 20
3.5606777921
 30
0.0
 10
6.5296180413
 20
3.5631073522
 30
0.0
 10
6.5230676027
 20
3.5646194113
 30
0.0
 10
6.5164673591
 20
3.5658105288
 30
0.0
 10
6.5098282026
 20
3.5666698795
 30
0.0
 10
6.5031623526
 20
3.5671889216
 30
0.0
 10
6.4964829192
 20
3.5673624681
 30
0.0
 10
6.4898034859
 20
3.5671889216
 30
0.0
 10
6.4831376359
 20
3.5666698795
 30
0.0
 10
6.4764984794
 20
3.5658105288
 30
0.0
 10
6.4698982358
 20
3.5646194113
 30
0.0
 10
6.4633477972
 20
3.5631073522
 30
0.0
 10
6.454680548
 20
3.5606777921
 30
0.0
 10
6.4440096003
 20
3.5569032056
 30
0.0
 10
6.4315455299
 20
3.5513418497
 30
0.0
 10
6.4194182896
 20
3.5448737313
 30
0.0
 10
6.4076313283
 20
3.537623936
 30
0.0
 10
6.4000169155
 20
3.532359796
 30
0.0
 10
6.396261056
 20
3.529632571
 30
0.0
  0
LINE
  5
425
100
AcDbEntity
  8
0
100
AcDbLine
 62
7
  6
CONTINUOUS
 10
7.049217428
 20
4.4685854777
 11
7.0658768019
 21
4.4712767713
  0
LINE
  5
426
100
AcDbEntity
  8
0
100
AcDbLine
 62
7
  6
CONTINUOUS
 10
7.2052329193
 20
4.4829730168
 11
7.205844443
 21
4.482976481
  0
LINE
  5
427
100
AcDbEntity
  8
0
100
AcDbLine
 62
7
  6
CONTINUOUS
 10
7.205844443
 20
4.482976481
 11
7.2159829193
 21
4.4832617804
  0
LINE
  5
428
100
AcDbEntity
  8
0
100
AcDbLine
 62
7
  6
CONTINUOUS
 10
7.2609829193
 20
4.4805791374
 11
7.2738155142
 21
4.4797201858
  0
SPLINE
  5
429
100
AcDbEntity
  8
0
100
AcDbSpline
 62
7
  6
CONTINUOUS
 70
0
 71
3
 72
28
 73
24
 74
0
 42
0.0000001
 43
0.0000001
 44
0.0000000001
 40
0.0
 40
0.0
 40
0.0
 40
0.0
 40
0.0006075553
 40
0.0016719453
 40
0.0054831272
 40
0.0116369297
 40
0.0201469793
 40
0.0310034768
 40
0.0441835206
 40
0.0596581574
 40
0.0773901811
 40
0.0973381392
 40
0.1194532183
 40
0.1699681263
 40
0.2284484186
 40
0.2943312346
 40
0.3669819483
 40
0.4457010355
 40
0.5297309242
 40
0.6182646031
 40
0.7104544399
 40
0.8054109208
 40
1.0
 40
1.0
 40
1.0
 40
1.0
 10
7.2339829193
 20
4.482686734
 30
0.0
 10
7.2339829193
 20
4.4826836832
 30
0.0
 10
7.2339889073
 20
4.4826762831
 30
0.0
 10
7.2340129827
 20
4.482663856
 30
0.0
 10
7.2340666924
 20
4.4826474683
 30
0.0
 10
7.2341569711
 20
4.4826276193
 30
0.0
 10
7.234283299
 20
4.48260506
 30
0.0
 10
7.2344447872
 20
4.4825803049
 30
0.0
 10
7.2346413793
 20
4.4825533898
 30
0.0
 10
7.2348724949
 20
4.4825244662
 30
0.0
 10
7.2351376162
 20
4.4824936099
 30
0.0
 10
7.2354360815
 20
4.4824609146
 30
0.0
 10
7.2358984513
 20
4.4824128146
 30
0.0
 10
7.2365537262
 20
4.4823492265
 30
0.0
 10
7.23742826
 20
4.4822699341
 30
0.0
 10
7.2384139184
 20
4.4821854631
 30
0.0
 10
7.2395011922
 20
4.4820966417
 30
0.0
 10
7.2406796007
 20
4.4820043457
 30
0.0
 10
7.2419377992
 20
4.4819094718
 30
0.0
 10
7.2432637008
 20
4.4818129389
 30
0.0
 10
7.2446445565
 20
4.4817156786
 30
0.0
 10
7.2465569255
 20
4.4815852151
 30
0.0
 10
7.2480077631
 20
4.481490833
 30
0.0
 10
7.2489829193
 20
4.4814293478
 30
0.0
  0
SPLINE
  5
42A
100
AcDbEntity
  8
0
100
AcDbSpline
 62
7
  6
CONTINUOUS
 70
0
 71
3
 72
32
 73
28
 74
0
 42
0.0000001
 43
0.0000001
 44
0.0000000001
 40
0.0
 40
0.0
 40
0.0
 40
0.0
 40
0.2255555854
 40
0.3287858936
 40
0.4252845168
 40
0.514809597
 40
0.5971528899
 40
0.672135016
 40
0.739600854
 40
0.7994211072
 40
0.851487399
 40
0.8745848786
 40
0.895713047
 40
0.9148651281
 40
0.9320353834
 40
0.9472211624
 40
0.9604228362
 40
0.971644557
 40
0.980899271
 40
0.9847977013
 40
0.9882172654
 40
0.9911671975
 40
0.993662331
 40
0.99572758
 40
0.997407145
 40
0.9987829619
 40
1.0
 40
1.0
 40
1.0
 40
1.0
 10
6.485684289
 20
3.1910897834
 30
0.0
 10
6.4905701415
 20
3.1910898271
 30
0.0
 10
6.4976922746
 20
3.1911304335
 30
0.0
 10
6.506903322
 20
3.1912842179
 30
0.0
 10
6.5131671796
 20
3.1914370183
 30
0.0
 10
6.5189773294
 20
3.1916278331
 30
0.0
 10
6.5243198406
 20
3.191851944
 30
0.0
 10
6.5291826953
 20
3.1921040267
 30
0.0
 10
6.5335555214
 20
3.192379959
 30
0.0
 10
6.5374295033
 20
3.1926741375
 30
0.0
 10
6.540341564
 20
3.1929393134
 30
0.0
 10
6.542415745
 20
3.19315969
 30
0.0
 10
6.5437792252
 20
3.1933201124
 30
0.0
 10
6.5450131759
 20
3.1934818184
 30
0.0
 10
6.5461170801
 20
3.1936442906
 30
0.0
 10
6.5470904932
 20
3.1938069914
 30
0.0
 10
6.5479331169
 20
3.1939693165
 30
0.0
 10
6.5486446895
 20
3.1941307181
 30
0.0
 10
6.549154148
 20
3.1942707005
 30
0.0
 10
6.5494946245
 20
3.1943847862
 30
0.0
 10
6.5497021661
 20
3.1944650346
 30
0.0
 10
6.5498769608
 20
3.1945448858
 30
0.0
 10
6.5500191882
 20
3.1946243544
 30
0.0
 10
6.5501292171
 20
3.1947035852
 30
0.0
 10
6.5502075126
 20
3.1947832252
 30
0.0
 10
6.5502539865
 20
3.1948650894
 30
0.0
 10
6.5502609972
 20
3.1949227781
 30
0.0
 10
6.5502583379
 20
3.1949490064
 30
0.0
  0
LINE
  5
42B
100
AcDbEntity
  8
0
100
AcDbLine
 62
7
  6
CONTINUOUS
 10
7.2963130857
 20
4.4770331448
 11
7.3002329193
 21
4.4767859442
  0
SPLINE
  5
42C
100
AcDbEntity
  8
0
100
AcDbSpline
 62
7
  6
CONTINUOUS
 70
0
 71
3
 72
39
 73
35
 74
0
 42
0.0000001
 43
0.0000001
 44
0.0000000001
 40
0.0
 40
0.0
 40
0.0
 40
0.0
 40
0.1163607533
 40
0.2266483172
 40
0.3305326166
 40
0.4277269638
 40
0.5179672114
 40
0.6010121684
 40
0.6766401324
 40
0.7446503106
 40
0.7757454277
 40
0.804874234
 40
0.8320183301
 40
0.8571596474
 40
0.8802819229
 40
0.9013724767
 40
0.9204192418
 40
0.9374117351
 40
0.9523416842
 40
0.9652017306
 40
0.9708540943
 40
0.9759877284
 40
0.9806027067
 40
0.9846994238
 40
0.9882787855
 40
0.9913427778
 40
0.9938952223
 40
0.9959429458
 40
0.9974995553
 40
0.9981032353
 40
0.9985999127
 40
0.9993343105
 40
0.9996517529
 40
1.0
 40
1.0
 40
1.0
 40
1.0
 10
6.4914398224
 20
3.2377828115
 30
0.0
 10
6.4941203757
 20
3.2377826251
 30
0.0
 10
6.4993415789
 20
3.2377749257
 30
0.0
 10
6.5069558609
 20
3.2377430529
 30
0.0
 10
6.5141284989
 20
3.237691254
 30
0.0
 10
6.5208391063
 20
3.2376181563
 30
0.0
 10
6.5270693718
 20
3.2375265682
 30
0.0
 10
6.5328024763
 20
3.2374183516
 30
0.0
 10
6.5380230481
 20
3.2372952182
 30
0.0
 10
6.5420466256
 20
3.2371780677
 30
0.0
 10
6.5449989986
 20
3.2370776749
 30
0.0
 10
6.5470102533
 20
3.2370023556
 30
0.0
 10
6.548884162
 20
3.2369248681
 30
0.0
 10
6.5506194818
 20
3.236845329
 30
0.0
 10
6.5522150953
 20
3.2367638957
 30
0.0
 10
6.553670025
 20
3.2366809069
 30
0.0
 10
6.5549834156
 20
3.23659669
 30
0.0
 10
6.5561544999
 20
3.2365115578
 30
0.0
 10
6.5571825806
 20
3.236425735
 30
0.0
 10
6.5579493909
 20
3.2363510606
 30
0.0
 10
6.558490713
 20
3.2362901914
 30
0.0
 10
6.5588428026
 20
3.2362464586
 30
0.0
 10
6.5591587476
 20
3.2362026913
 30
0.0
 10
6.5594385052
 20
3.2361589182
 30
0.0
 10
6.5596820537
 20
3.2361151905
 30
0.0
 10
6.5598893864
 20
3.2360715465
 30
0.0
 10
6.5600606097
 20
3.2360281555
 30
0.0
 10
6.5601958102
 20
3.2359849661
 30
0.0
 10
6.5602853041
 20
3.2359470488
 30
0.0
 10
6.5603378527
 20
3.2359150756
 30
0.0
 10
6.5603705803
 20
3.2358888391
 30
0.0
 10
6.5603929993
 20
3.2358573422
 30
0.0
 10
6.5603915557
 20
3.2358240464
 30
0.0
 10
6.5603845961
 20
3.2358099697
 30
0.0
 10
6.5603801524
 20
3.2358032904
 30
0.0
  0
SPLINE
  5
42D
100
AcDbEntity
  8
0
100
AcDbSpline
 62
7
  6
CONTINUOUS
 70
0
 71
3
 72
23
 73
19
 74
0
 42
0.0000001
 43
0.0000001
 44
0.0000000001
 40
0.0
 40
0.0
 40
0.0
 40
0.0
 40
0.018755562
 40
0.0523804609
 40
0.105032674
 40
0.1776695711
 40
0.2660665288
 40
0.3658042632
 40
0.4727615222
 40
0.5807723007
 40
0.6829995336
 40
0.7750523947
 40
0.8533307112
 40
0.9138023758
 40
0.9556785688
 40
0.9815969019
 40
0.9952362018
 40
1.0
 40
1.0
 40
1.0
 40
1.0
 10
7.1388143812
 20
4.4811037056
 30
0.0
 10
7.1390777365
 20
4.481099714
 30
0.0
 10
7.1398133904
 20
4.4811007619
 30
0.0
 10
7.1412881593
 20
4.4811276247
 30
0.0
 10
7.1435187919
 20
4.4811963599
 30
0.0
 10
7.1465172996
 20
4.4813141658
 30
0.0
 10
7.1501759125
 20
4.4814725371
 30
0.0
 10
7.1543154856
 20
4.4816640672
 30
0.0
 10
7.1587294985
 20
4.4818831954
 30
0.0
 10
7.1631772688
 20
4.4821263454
 30
0.0
 10
7.167415103
 20
4.4823745808
 30
0.0
 10
7.1712354351
 20
4.4826097097
 30
0.0
 10
7.1744698805
 20
4.4828186475
 30
0.0
 10
7.1770001841
 20
4.4829968856
 30
0.0
 10
7.1787958109
 20
4.4831393663
 30
0.0
 10
7.1799348009
 20
4.4832422377
 30
0.0
 10
7.180553811
 20
4.4833072395
 30
0.0
 10
7.1808104675
 20
4.4833377295
 30
0.0
 10
7.1808767317
 20
4.4833469187
 30
0.0
  0
LINE
  5
42E
100
AcDbEntity
  8
0
100
AcDbLine
 62
7
  6
CONTINUOUS
 10
7.2809146621
 20
4.4787643659
 11
7.2819851586
 21
4.4786401553
  0
LINE
  5
42F
100
AcDbEntity
  8
0
100
AcDbLine
 62
7
  6
CONTINUOUS
 10
7.1808829193
 20
4.4828476337
 11
7.1797974486
 21
4.4827309947
  0
SPLINE
  5
430
100
AcDbEntity
  8
0
100
AcDbSpline
 62
7
  6
CONTINUOUS
 70
0
 71
3
 72
21
 73
17
 74
0
 42
0.0000001
 43
0.0000001
 44
0.0000000001
 40
0.0
 40
0.0
 40
0.0
 40
0.0
 40
0.0246588032
 40
0.0604151261
 40
0.1086953827
 40
0.169489048
 40
0.2407742916
 40
0.3203952633
 40
0.4966032735
 40
0.6743333055
 40
0.7554783772
 40
0.8285225858
 40
0.8910432502
 40
0.9403415543
 40
0.9760885903
 40
1.0
 40
1.0
 40
1.0
 40
1.0
 10
7.1797974486
 20
4.4827309947
 30
0.0
 10
7.1794663751
 20
4.4826996146
 30
0.0
 10
7.1786547298
 20
4.4826280261
 30
0.0
 10
7.1771933972
 20
4.4825121693
 30
0.0
 10
7.1752451963
 20
4.4823718654
 30
0.0
 10
7.1728181524
 20
4.4822106143
 30
0.0
 10
7.1699687802
 20
4.4820304386
 30
0.0
 10
7.1655653382
 20
4.4817626149
 30
0.0
 10
7.159727675
 20
4.4814291588
 30
0.0
 10
7.1538670553
 20
4.4811402578
 30
0.0
 10
7.1493952859
 20
4.4809370823
 30
0.0
 10
7.1464753446
 20
4.4808117301
 30
0.0
 10
7.143984165
 20
4.4807129265
 30
0.0
 10
7.1419951237
 20
4.4806465389
 30
0.0
 10
7.140526112
 20
4.4806106522
 30
0.0
 10
7.1397215707
 20
4.4806004005
 30
0.0
 10
7.1393990947
 20
4.480599355
 30
0.0
  0
LINE
  5
431
100
AcDbEntity
  8
0
100
AcDbLine
 62
7
  6
CONTINUOUS
 10
7.1393990947
 20
4.480599355
 11
7.1383829193
 21
4.4806168008
  0
LINE
  5
432
100
AcDbEntity
  8
0
100
AcDbLine
 62
7
  6
CONTINUOUS
 10
7.2159829193
 20
4.482761569
 11
7.2154914537
 21
4.482682806
  0
LINE
  5
433
100
AcDbEntity
  8
0
100
AcDbLine
 62
7
  6
CONTINUOUS
 10
7.2154914537
 20
4.482682806
 11
7.2058444453
 21
4.4824760853
  0
LINE
  5
434
100
AcDbEntity
  8
0
100
AcDbLine
 62
7
  6
CONTINUOUS
 10
7.2058444453
 20
4.4824760853
 11
7.2052329193
 21
4.4824726188
  0
SPLINE
  5
435
100
AcDbEntity
  8
0
100
AcDbSpline
 62
7
  6
CONTINUOUS
 70
0
 71
3
 72
39
 73
35
 74
0
 42
0.0000001
 43
0.0000001
 44
0.0000000001
 40
0.0
 40
0.0
 40
0.0
 40
0.0
 40
0.0553341609
 40
0.0830137259
 40
0.1107067627
 40
0.1661551007
 40
0.2217477843
 40
0.2775872258
 40
0.3338413724
 40
0.3907925069
 40
0.4196803244
 40
0.4489526537
 40
0.4787329291
 40
0.5091896657
 40
0.5405539298
 40
0.5731410642
 40
0.607365658
 40
0.6252546809
 40
0.6437306857
 40
0.6628251584
 40
0.6825215772
 40
0.7027267751
 40
0.7232543187
 40
0.7438419263
 40
0.764212102
 40
0.7841411983
 40
0.8034970901
 40
0.8222341469
 40
0.8403665541
 40
0.8579419384
 40
0.8750210595
 40
0.9079175898
 40
0.9395116391
 40
1.0
 40
1.0
 40
1.0
 40
1.0
 10
6.980108095
 20
3.2275714325
 30
0.0
 10
6.9826024655
 20
3.2275714325
 30
0.0
 10
6.9863450049
 20
3.2276322836
 30
0.0
 10
6.9913312822
 20
3.2278415073
 30
0.0
 10
6.9963183017
 20
3.2281382411
 30
0.0
 10
7.0025500504
 20
3.2286844625
 30
0.0
 10
7.0100118034
 20
3.229660331
 30
0.0
 10
7.0174512398
 20
3.2310223408
 30
0.0
 10
7.0248518623
 20
3.2328624314
 30
0.0
 10
7.0309364482
 20
3.234894362
 30
0.0
 10
7.0357230587
 20
3.2369038397
 30
0.0
 10
7.0392860481
 20
3.2386474591
 30
0.0
 10
7.0427880289
 20
3.2406584188
 30
0.0
 10
7.0462051774
 20
3.2429847528
 30
0.0
 10
7.0495010699
 20
3.2456875823
 30
0.0
 10
7.0526172713
 20
3.2488428427
 30
0.0
 10
7.0549504654
 20
3.2518816745
 30
0.0
 10
7.0566025515
 20
3.2546045023
 30
0.0
 10
7.0577245084
 20
3.2568420129
 30
0.0
 10
7.0586763838
 20
3.2592454331
 30
0.0
 10
7.0594189425
 20
3.2618035392
 30
0.0
 10
7.0599122182
 20
3.2644874959
 30
0.0
 10
7.0601237414
 20
3.2672489035
 30
0.0
 10
7.0600378261
 20
3.2700245863
 30
0.0
 10
7.0596609977
 20
3.2727483958
 30
0.0
 10
7.0590196266
 20
3.275364607
 30
0.0
 10
7.0581516441
 20
3.2778360134
 30
0.0
 10
7.0570973933
 20
3.2801444245
 30
0.0
 10
7.05589365
 20
3.2822862184
 30
0.0
 10
7.054571043
 20
3.2842669833
 30
0.0
 10
7.0527050758
 20
3.2866758771
 30
0.0
 10
7.0501799217
 20
3.2893622428
 30
0.0
 10
7.0458933002
 20
3.2930294378
 30
0.0
 10
7.0423822694
 20
3.2952871886
 30
0.0
 10
7.0399921745
 20
3.2965995951
 30
0.0
  0
SPLINE
  5
436
100
AcDbEntity
  8
0
100
AcDbSpline
 62
7
  6
CONTINUOUS
 70
0
 71
3
 72
62
 73
58
 74
0
 42
0.0000001
 43
0.0000001
 44
0.0000000001
 40
0.0
 40
0.0
 40
0.0
 40
0.0
 40
0.0156118848
 40
0.0312369587
 40
0.0468758441
 40
0.0625341777
 40
0.0703733645
 40
0.0782201099
 40
0.0860742759
 40
0.0939382158
 40
0.1096893583
 40
0.1175865562
 40
0.1254973049
 40
0.1334215083
 40
0.1413584775
 40
0.1493070296
 40
0.1572642435
 40
0.1652257199
 40
0.1731867293
 40
0.1811426447
 40
0.1890895174
 40
0.1970244158
 40
0.2049460729
 40
0.2128546502
 40
0.2207496922
 40
0.2364973094
 40
0.2522074149
 40
0.2678875244
 40
0.2835441129
 40
0.2991819369
 40
0.3148048469
 40
0.3304165696
 40
0.3460186112
 40
0.3616135296
 40
0.3772021546
 40
0.392786191
 40
0.4083659122
 40
0.4239427168
 40
0.4395165656
 40
0.4706572732
 40
0.5017920412
 40
0.5173583627
 40
0.5329236557
 40
0.5640521449
 40
0.6263019592
 40
0.6885501871
 40
0.7196758576
 40
0.7508020718
 40
0.7819298838
 40
0.813059624
 40
0.8441928991
 40
0.8597615515
 40
0.8753320185
 40
0.9064772285
 40
0.9376330943
 40
0.9688047589
 40
1.0
 40
1.0
 40
1.0
 40
1.0
 10
7.175644351
 20
3.2965995951
 30
0.0
 10
7.1743576583
 20
3.2961143812
 30
0.0
 10
7.1718022625
 20
3.2950917618
 30
0.0
 10
7.168042324
 20
3.2933815058
 30
0.0
 10
7.1643753514
 20
3.2914700875
 30
0.0
 10
7.1614220668
 20
3.2896860616
 30
0.0
 10
7.1591428249
 20
3.2881268391
 30
0.0
 10
7.1574806927
 20
3.2868861647
 30
0.0
 10
7.1558753316
 20
3.2855689755
 30
0.0
 10
7.1538232618
 20
3.28370449
 30
0.0
 10
7.1519274118
 20
3.2816650616
 30
0.0
 10
7.1502565956
 20
3.2794406548
 30
0.0
 10
7.1491340964
 20
3.2776743207
 30
0.0
 10
7.1481675713
 20
3.2758135627
 30
0.0
 10
7.147382443
 20
3.2738650282
 30
0.0
 10
7.1468044421
 20
3.2718416855
 30
0.0
 10
7.1464561194
 20
3.2697637361
 30
0.0
 10
7.1463526748
 20
3.2676579653
 30
0.0
 10
7.1464989204
 20
3.265554876
 30
0.0
 10
7.146888036
 20
3.2634845647
 30
0.0
 10
7.1475033042
 20
3.261472809
 30
0.0
 10
7.1483215304
 20
3.2595386566
 30
0.0
 10
7.1493166512
 20
3.2576938243
 30
0.0
 10
7.1504634156
 20
3.2559439988
 30
0.0
 10
7.152161747
 20
3.2537413844
 30
0.0
 10
7.1545555263
 20
3.2512207201
 30
0.0
 10
7.1577329562
 20
3.2485382345
 30
0.0
 10
7.1611294644
 20
3.2461560224
 30
0.0
 10
7.1646860784
 20
3.2440355571
 30
0.0
 10
7.1683622155
 20
3.2421426657
 30
0.0
 10
7.1721290002
 20
3.2404483307
 30
0.0
 10
7.1759659687
 20
3.2389292142
 30
0.0
 10
7.179857499
 20
3.2375641887
 30
0.0
 10
7.1837923226
 20
3.2363370022
 30
0.0
 10
7.1877614802
 20
3.2352323486
 30
0.0
 10
7.1917583359
 20
3.2342385505
 30
0.0
 10
7.1957773969
 20
3.2333439485
 30
0.0
 10
7.1998146401
 20
3.2325402359
 30
0.0
 10
7.20521667
 20
3.23157771
 30
0.0
 10
7.2119997605
 20
3.2305624806
 30
0.0
 10
7.2188097401
 20
3.2297568923
 30
0.0
 10
7.2242682313
 20
3.229221131
 30
0.0
 10
7.2297323163
 20
3.2287520873
 30
0.0
 10
7.2393067718
 20
3.2280973766
 30
0.0
 10
7.2530083374
 20
3.227577375
 30
0.0
 10
7.2667187914
 20
3.2275321693
 30
0.0
 10
7.277682864
 20
3.2277775237
 30
0.0
 10
7.285901745
 20
3.2281111299
 30
0.0
 10
7.2941130072
 20
3.2286049744
 30
0.0
 10
7.3023121925
 20
3.2292789786
 30
0.0
 10
7.3091296521
 20
3.2300101583
 30
0.0
 10
7.3145696012
 20
3.2307143346
 30
0.0
 10
7.3199988472
 20
3.2315039843
 30
0.0
 10
7.3267604332
 20
3.2326666885
 30
0.0
 10
7.334813082
 20
3.2343960936
 30
0.0
 10
7.3427731777
 20
3.2365316478
 30
0.0
 10
7.3479839531
 20
3.2382893485
 30
0.0
 10
7.3505497474
 20
3.2392726726
 30
0.0
  0
SPLINE
  5
437
100
AcDbEntity
  8
0
100
AcDbSpline
 62
7
  6
CONTINUOUS
 70
0
 71
3
 72
43
 73
39
 74
0
 42
0.0000001
 43
0.0000001
 44
0.0000000001
 40
0.0
 40
0.0
 40
0.0
 40
0.0
 40
0.0327200474
 40
0.0704784033
 40
0.1153294011
 40
0.1412204652
 40
0.1697877292
 40
0.2010341725
 40
0.2343881821
 40
0.2685184454
 40
0.3017335768
 40
0.3327614011
 40
0.3610931815
 40
0.4100238733
 40
0.4507299367
 40
0.4855391596
 40
0.5161674394
 40
0.5438243053
 40
0.5693673745
 40
0.5815490911
 40
0.5934180146
 40
0.6164035562
 40
0.6386497029
 40
0.6817460309
 40
0.7239076533
 40
0.7657803071
 40
0.8078440025
 40
0.8291303499
 40
0.8507129504
 40
0.8727357726
 40
0.8954000864
 40
0.9189853009
 40
0.9312429542
 40
0.9438881551
 40
0.9569923015
 40
0.9706422332
 40
0.9849377993
 40
1.0
 40
1.0
 40
1.0
 40
1.0
 10
7.4556532547
 20
3.2965995951
 30
0.0
 10
7.4547956656
 20
3.2955671648
 30
0.0
 10
7.4530892528
 20
3.2932229761
 30
0.0
 10
7.4507991036
 20
3.2890700732
 30
0.0
 10
7.4491630418
 20
3.2849162784
 30
0.0
 10
7.4480361727
 20
3.2809992421
 30
0.0
 10
7.4472958251
 20
3.2775594859
 30
0.0
 10
7.4467548581
 20
3.2737730842
 30
0.0
 10
7.4464714595
 20
3.2697295228
 30
0.0
 10
7.4464845188
 20
3.2655951663
 30
0.0
 10
7.4467919766
 20
3.2615681662
 30
0.0
 10
7.4473525208
 20
3.2578089832
 30
0.0
 10
7.4483135111
 20
3.2534694425
 30
0.0
 10
7.4498172833
 20
3.2488538763
 30
0.0
 10
7.4520232574
 20
3.2442353351
 30
0.0
 10
7.4543876864
 20
3.2405658939
 30
0.0
 10
7.456840459
 20
3.2376270304
 30
0.0
 10
7.4593448406
 20
3.2352600019
 30
0.0
 10
7.4614912526
 20
3.2336427894
 30
0.0
 10
7.463207998
 20
3.2325500445
 30
0.0
 10
7.4648850536
 20
3.2315947495
 30
0.0
 10
7.4669998442
 20
3.2305797185
 30
0.0
 10
7.4703912456
 20
3.2292950069
 30
0.0
 10
7.4746818504
 20
3.2282100002
 30
0.0
 10
7.4798694438
 20
3.2275777572
 30
0.0
 10
7.4850513685
 20
3.2275229697
 30
0.0
 10
7.4893567575
 20
3.2279503147
 30
0.0
 10
7.4927799343
 20
3.2286088609
 30
0.0
 10
7.4953563585
 20
3.2292864906
 30
0.0
 10
7.4979298264
 20
3.2301705089
 30
0.0
 10
7.500497877
 20
3.2312960316
 30
0.0
 10
7.5026026258
 20
3.2324574286
 30
0.0
 10
7.5042691339
 20
3.2335444195
 30
0.0
 10
7.5055293292
 20
3.2344635517
 30
0.0
 10
7.5067826959
 20
3.2354850869
 30
0.0
 10
7.5080268531
 20
3.236621058
 30
0.0
 10
7.509260128
 20
3.2378838197
 30
0.0
 10
7.5100495904
 20
3.2387943007
 30
0.0
 10
7.5104405883
 20
3.2392726803
 30
0.0
  0
LINE
  5
438
100
AcDbEntity
  8
0
100
AcDbLine
 62
7
  6
CONTINUOUS
 10
7.2738155142
 20
4.4792176765
 11
7.2609829193
 21
4.4800771874
  0
SPLINE
  5
439
100
AcDbEntity
  8
0
100
AcDbSpline
 62
7
  6
CONTINUOUS
 70
0
 71
3
 72
28
 73
24
 74
0
 42
0.0000001
 43
0.0000001
 44
0.0000000001
 40
0.0
 40
0.0
 40
0.0
 40
0.0
 40
0.19458672
 40
0.2895421687
 40
0.3817307036
 40
0.4702633433
 40
0.5542928926
 40
0.6330124512
 40
0.7056643256
 40
0.77154863
 40
0.8300304358
 40
0.8805460478
 40
0.9026612336
 40
0.9226092174
 40
0.940341257
 40
0.9558158914
 40
0.9689959124
 40
0.9798523782
 40
0.9883624272
 40
0.994516272
 40
0.998327619
 40
0.9993921613
 40
1.0
 40
1.0
 40
1.0
 40
1.0
 10
7.2489829193
 20
4.4809279501
 30
0.0
 10
7.2480077721
 20
4.4809894747
 30
0.0
 10
7.2465569477
 20
4.4810839171
 30
0.0
 10
7.2446445978
 20
4.4812144637
 30
0.0
 10
7.2432637559
 20
4.481311786
 30
0.0
 10
7.2419378651
 20
4.4814083806
 30
0.0
 10
7.240679669
 20
4.4815033155
 30
0.0
 10
7.2395012523
 20
4.4815956718
 30
0.0
 10
7.2384139618
 20
4.4816845519
 30
0.0
 10
7.2374282818
 20
4.4817690793
 30
0.0
 10
7.2365537294
 20
4.4818484247
 30
0.0
 10
7.2358984434
 20
4.4819120551
 30
0.0
 10
7.2354360701
 20
4.4819601866
 30
0.0
 10
7.2351376048
 20
4.4819929031
 30
0.0
 10
7.2348724841
 20
4.4820237795
 30
0.0
 10
7.2346413697
 20
4.4820527217
 30
0.0
 10
7.2344447791
 20
4.482079654
 30
0.0
 10
7.2342832927
 20
4.4821044252
 30
0.0
 10
7.2341569668
 20
4.4821269987
 30
0.0
 10
7.2340666889
 20
4.4821468611
 30
0.0
 10
7.2340129807
 20
4.4821632581
 30
0.0
 10
7.233988905
 20
4.4821756947
 30
0.0
 10
7.2339829193
 20
4.4821830987
 30
0.0
 10
7.2339829193
 20
4.4821861509
 30
0.0
  0
SPLINE
  5
43A
100
AcDbEntity
  8
0
100
AcDbSpline
 62
7
  6
CONTINUOUS
 70
0
 71
3
 72
65
 73
61
 74
0
 42
0.0000001
 43
0.0000001
 44
0.0000000001
 40
0.0
 40
0.0
 40
0.0
 40
0.0
 40
0.0156115621
 40
0.0312366569
 40
0.0468758784
 40
0.0625346164
 40
0.0782176535
 40
0.0939316601
 40
0.1096846923
 40
0.1254835596
 40
0.1334097063
 40
0.1413485377
 40
0.1492988399
 40
0.1572581549
 40
0.1612412429
 40
0.1652250133
 40
0.1731881372
 40
0.1811461885
 40
0.1890946173
 40
0.197031707
 40
0.2049550128
 40
0.2207498068
 40
0.2364991765
 40
0.2443621383
 40
0.2522152962
 40
0.2600613082
 40
0.2678995812
 40
0.2835565586
 40
0.2991940943
 40
0.3148173672
 40
0.3304285793
 40
0.3460305401
 40
0.3616249415
 40
0.3772133356
 40
0.4083738066
 40
0.4239497291
 40
0.4395232757
 40
0.4706626081
 40
0.501796409
 40
0.5173619208
 40
0.5329267741
 40
0.5484909078
 40
0.5640543583
 40
0.5951799321
 40
0.6263044062
 40
0.6574284298
 40
0.6885524529
 40
0.7196766285
 40
0.7508017934
 40
0.781928087
 40
0.8130568273
 40
0.8441886869
 40
0.8753255296
 40
0.9064698056
 40
0.9220463515
 40
0.9376267139
 40
0.9532108533
 40
0.9688005003
 40
0.9843961443
 40
1.0
 40
1.0
 40
1.0
 40
1.0
 10
3.0504255996
 20
3.2965995951
 30
0.0
 10
3.0491392148
 20
3.2961144973
 30
0.0
 10
3.0465843632
 20
3.2950921861
 30
0.0
 10
3.0428253041
 20
3.2933822559
 30
0.0
 10
3.0391588256
 20
3.2914714455
 30
0.0
 10
3.0356147165
 20
3.2893305448
 30
0.0
 10
3.0322349404
 20
3.2869248471
 30
0.0
 10
3.0290796977
 20
3.284214805
 30
0.0
 10
3.0262379672
 20
3.2811596054
 30
0.0
 10
3.0242387099
 20
3.2782958746
 30
0.0
 10
3.0229510672
 20
3.2758185637
 30
0.0
 10
3.0221655533
 20
3.2738700587
 30
0.0
 10
3.0215867968
 20
3.2718470112
 30
0.0
 10
3.0212962757
 20
3.2701151709
 30
0.0
 10
3.0211857626
 20
3.2687163009
 30
0.0
 10
3.0211583358
 20
3.267313008
 30
0.0
 10
3.0212793667
 20
3.2655598693
 30
0.0
 10
3.0216681048
 20
3.2634895174
 30
0.0
 10
3.0222829465
 20
3.261477573
 30
0.0
 10
3.0231005511
 20
3.2595430755
 30
0.0
 10
3.0244252427
 20
3.2570863464
 30
0.0
 10
3.0264602128
 20
3.2542499274
 30
0.0
 10
3.0288555913
 20
3.2517270077
 30
0.0
 10
3.0309236326
 20
3.2498813053
 30
0.0
 10
3.0325389355
 20
3.2485775606
 30
0.0
 10
3.0342095382
 20
3.2473494893
 30
0.0
 10
3.0364982363
 20
3.245805778
 30
0.0
 10
3.0394607704
 20
3.2440394179
 30
0.0
 10
3.0431356101
 20
3.2421461669
 30
0.0
 10
3.0469015664
 20
3.2404521937
 30
0.0
 10
3.0507373925
 20
3.2389327304
 30
0.0
 10
3.0546279162
 20
3.2375678533
 30
0.0
 10
3.0585616605
 20
3.2363404146
 30
0.0
 10
3.0638514177
 20
3.2348680209
 30
0.0
 10
3.0691979577
 20
3.2336156028
 30
0.0
 10
3.0745795869
 20
3.2325430162
 30
0.0
 10
3.07998029
 20
3.2315808893
 30
0.0
 10
3.0867614615
 20
3.2305647292
 30
0.0
 10
3.0935696976
 20
3.2297594348
 30
0.0
 10
3.0990267136
 20
3.2292229531
 30
0.0
 10
3.1031238518
 20
3.2288714103
 30
0.0
 10
3.1072245479
 20
3.2285668477
 30
0.0
 10
3.1126958692
 20
3.228219603
 30
0.0
 10
3.1195410121
 20
3.2278911742
 30
0.0
 10
3.1277607168
 20
3.2276485118
 30
0.0
 10
3.135983273
 20
3.2275510443
 30
0.0
 10
3.1442062628
 20
3.2275924979
 30
0.0
 10
3.1524274195
 20
3.2277768216
 30
0.0
 10
3.1606441928
 20
3.2281088124
 30
0.0
 10
3.1688533438
 20
3.2286025004
 30
0.0
 10
3.1770505598
 20
3.2292745656
 30
0.0
 10
3.1852296255
 20
3.2301513147
 30
0.0
 10
3.1933814899
 20
3.2312647343
 30
0.0
 10
3.2001409087
 20
3.2324249036
 30
0.0
 10
3.2055172363
 20
3.2335206497
 30
0.0
 10
3.209531193
 20
3.2344341566
 30
0.0
 10
3.2135217592
 20
3.2354499604
 30
0.0
 10
3.21748359
 20
3.2365780745
 30
0.0
 10
3.2214092742
 20
3.2378321999
 30
0.0
 10
3.2239956772
 20
3.2387616786
 30
0.0
 10
3.2252790954
 20
3.2392526753
 30
0.0
  0
SPLINE
  5
43B
100
AcDbEntity
  8
0
100
AcDbSpline
 62
7
  6
CONTINUOUS
 70
0
 71
3
 72
45
 73
41
 74
0
 42
0.0000001
 43
0.0000001
 44
0.0000000001
 40
0.0
 40
0.0
 40
0.0
 40
0.0
 40
0.0604835868
 40
0.0761441825
 40
0.0920856633
 40
0.1083517917
 40
0.1249960986
 40
0.1596303692
 40
0.1777648239
 40
0.1965035702
 40
0.2158631258
 40
0.2357964829
 40
0.2561707765
 40
0.276762319
 40
0.2972932388
 40
0.3175013979
 40
0.3372003048
 40
0.3562964096
 40
0.3747722186
 40
0.3926614715
 40
0.4100180311
 40
0.4269032425
 40
0.4433794073
 40
0.459500614
 40
0.4753171909
 40
0.4908707845
 40
0.5213241784
 40
0.5362877008
 40
0.5511055504
 40
0.6092341592
 40
0.6378253465
 40
0.6661923555
 40
0.6943867651
 40
0.7224481667
 40
0.7782805831
 40
0.8338662022
 40
0.8893074443
 40
0.9169969614
 40
0.9446729821
 40
1.0
 40
1.0
 40
1.0
 40
1.0
 10
3.360473664
 20
3.2965995951
 30
0.0
 10
3.3580836424
 20
3.2952872288
 30
0.0
 10
3.3551789854
 20
3.2934197666
 30
0.0
 10
3.3519614804
 20
3.2907953657
 30
0.0
 10
3.3503582427
 20
3.2893494141
 30
0.0
 10
3.348804838
 20
3.2877865437
 30
0.0
 10
3.3467879883
 20
3.2855036991
 30
0.0
 10
3.3449487742
 20
3.2829567698
 30
0.0
 10
3.3433682401
 20
3.2801439469
 30
0.0
 10
3.3423137751
 20
3.2778350081
 30
0.0
 10
3.3414457137
 20
3.2753630642
 30
0.0
 10
3.3408044157
 20
3.2727461288
 30
0.0
 10
3.3404278012
 20
3.2700215945
 30
0.0
 10
3.3403422498
 20
3.2672452473
 30
0.0
 10
3.3405542258
 20
3.2644832743
 30
0.0
 10
3.3410480313
 20
3.261798874
 30
0.0
 10
3.3417911253
 20
3.2592404602
 30
0.0
 10
3.3427436206
 20
3.2568369351
 30
0.0
 10
3.3438660113
 20
3.2545995177
 30
0.0
 10
3.3451239198
 20
3.2525272132
 30
0.0
 10
3.3464898396
 20
3.250612436
 30
0.0
 10
3.3479411621
 20
3.2488436642
 30
0.0
 10
3.3494616903
 20
3.2472096924
 30
0.0
 10
3.3510373447
 20
3.2456979374
 30
0.0
 10
3.3526587931
 20
3.2442984702
 30
0.0
 10
3.3548542236
 20
3.2425802491
 30
0.0
 10
3.3571296969
 20
3.2410318807
 30
0.0
 10
3.3594590241
 20
3.2396354446
 30
0.0
 10
3.3629291893
 20
3.2377201973
 30
0.0
 10
3.3671148557
 20
3.2358359219
 30
0.0
 10
3.3719945819
 20
3.2340712562
 30
0.0
 10
3.3756602685
 20
3.232927266
 30
0.0
 10
3.379344664
 20
3.2319349958
 30
0.0
 10
3.3842677276
 20
3.23079273
 30
0.0
 10
3.3904564971
 20
3.2296599621
 30
0.0
 10
3.3979175472
 20
3.2286842884
 30
0.0
 10
3.4041488367
 20
3.2281381462
 30
0.0
 10
3.4091354571
 20
3.2278414614
 30
0.0
 10
3.4141213363
 20
3.2276322538
 30
0.0
 10
3.4178635746
 20
3.2275714325
 30
0.0
 10
3.4203577435
 20
3.2275714325
 30
0.0
  0
SPLINE
  5
43C
100
AcDbEntity
  8
0
100
AcDbSpline
 62
7
  6
CONTINUOUS
 70
0
 71
3
 72
33
 73
29
 74
0
 42
0.0000001
 43
0.0000001
 44
0.0000000001
 40
0.0
 40
0.0
 40
0.0
 40
0.0
 40
0.0743016809
 40
0.1457113956
 40
0.2137304502
 40
0.2463439957
 40
0.2779756669
 40
0.3086099369
 40
0.3382560411
 40
0.3669520308
 40
0.3947687869
 40
0.4218171601
 40
0.4482447603
 40
0.474235315
 40
0.4999999879
 40
0.5257646571
 40
0.5517552034
 40
0.5781828009
 40
0.6052311702
 40
0.6330479335
 40
0.6617439396
 40
0.6913900582
 40
0.7220243375
 40
0.7536560168
 40
0.7862695731
 40
0.8542886231
 40
0.9256983435
 40
1.0
 40
1.0
 40
1.0
 40
1.0
 10
7.4556532547
 20
3.2965995951
 30
0.0
 10
7.4567313933
 20
3.2978975393
 30
0.0
 10
7.4588862811
 20
3.3004098657
 30
0.0
 10
7.4622043045
 20
3.303954617
 30
0.0
 10
7.4650362257
 20
3.3066509951
 30
0.0
 10
7.467329134
 20
3.3085923675
 30
0.0
 10
7.4690340621
 20
3.3099111138
 30
0.0
 10
7.4707483003
 20
3.3111036543
 30
0.0
 10
7.4724718439
 20
3.3121606215
 30
0.0
 10
7.4742041096
 20
3.3130736203
 30
0.0
 10
7.4759448617
 20
3.3138337435
 30
0.0
 10
7.4776929609
 20
3.3144339807
 30
0.0
 10
7.4794472408
 20
3.3148678608
 30
0.0
 10
7.4812060247
 20
3.3151299592
 30
0.0
 10
7.4829671183
 20
3.3152181393
 30
0.0
 10
7.4847282117
 20
3.3151299598
 30
0.0
 10
7.4864869955
 20
3.3148678624
 30
0.0
 10
7.4882412745
 20
3.3144339803
 30
0.0
 10
7.4899893746
 20
3.3138337456
 30
0.0
 10
7.4917301265
 20
3.3130736207
 30
0.0
 10
7.4934623928
 20
3.3121606214
 30
0.0
 10
7.4951859377
 20
3.3111036545
 30
0.0
 10
7.4969001768
 20
3.309911114
 30
0.0
 10
7.4986051051
 20
3.3085923669
 30
0.0
 10
7.5008980134
 20
3.3066509941
 30
0.0
 10
7.5037299356
 20
3.3039546166
 30
0.0
 10
7.5070479569
 20
3.3004098641
 30
0.0
 10
7.5092028455
 20
3.2978975389
 30
0.0
 10
7.5102809837
 20
3.2965995951
 30
0.0
  0
SPLINE
  5
43D
100
AcDbEntity
  8
0
100
AcDbSpline
 62
7
  6
CONTINUOUS
 70
0
 71
3
 72
29
 73
25
 74
0
 42
0.0000001
 43
0.0000001
 44
0.0000000001
 40
0.0
 40
0.0
 40
0.0
 40
0.0
 40
0.0639478252
 40
0.1274729189
 40
0.1905493662
 40
0.2531671799
 40
0.3153421573
 40
0.3462861252
 40
0.3771430417
 40
0.4079260369
 40
0.438650872
 40
0.4693356853
 40
0.5000000001
 40
0.5306643149
 40
0.5613491281
 40
0.5920739633
 40
0.6228569584
 40
0.6537138749
 40
0.6846578428
 40
0.7468328202
 40
0.8094506338
 40
0.8725270811
 40
0.9360521749
 40
1.0
 40
1.0
 40
1.0
 40
1.0
 10
4.0042047825
 20
3.3565460005
 30
0.0
 10
4.0004489231
 20
3.3538187754
 30
0.0
 10
3.9928345102
 20
3.3485546354
 30
0.0
 10
3.9810475489
 20
3.3413048401
 30
0.0
 10
3.9689203086
 20
3.3348367217
 30
0.0
 10
3.9564562382
 20
3.3292753658
 30
0.0
 10
3.9457852905
 20
3.3255007793
 30
0.0
 10
3.9371180413
 20
3.3230712193
 30
0.0
 10
3.9305676027
 20
3.3215591601
 30
0.0
 10
3.9239673591
 20
3.3203680427
 30
0.0
 10
3.9173282026
 20
3.3195086919
 30
0.0
 10
3.9106623526
 20
3.3189896499
 30
0.0
 10
3.9039829192
 20
3.3188161034
 30
0.0
 10
3.8973034859
 20
3.3189896499
 30
0.0
 10
3.8906376359
 20
3.3195086919
 30
0.0
 10
3.8839984794
 20
3.3203680427
 30
0.0
 10
3.8773982358
 20
3.3215591601
 30
0.0
 10
3.8708477972
 20
3.3230712193
 30
0.0
 10
3.862180548
 20
3.3255007793
 30
0.0
 10
3.8515096003
 20
3.3292753658
 30
0.0
 10
3.8390455299
 20
3.3348367217
 30
0.0
 10
3.8269182896
 20
3.3413048401
 30
0.0
 10
3.8151313283
 20
3.3485546354
 30
0.0
 10
3.8075169155
 20
3.3538187754
 30
0.0
 10
3.803761056
 20
3.3565460005
 30
0.0
  0
SPLINE
  5
43E
100
AcDbEntity
  8
0
100
AcDbSpline
 62
7
  6
CONTINUOUS
 70
0
 71
3
 72
29
 73
25
 74
0
 42
0.0000001
 43
0.0000001
 44
0.0000000001
 40
0.0
 40
0.0
 40
0.0
 40
0.0
 40
0.0639478252
 40
0.1274729189
 40
0.1905493662
 40
0.2531671799
 40
0.3153421573
 40
0.3462861252
 40
0.3771430417
 40
0.4079260369
 40
0.438650872
 40
0.4693356853
 40
0.5000000001
 40
0.5306643149
 40
0.5613491281
 40
0.5920739633
 40
0.6228569584
 40
0.6537138749
 40
0.6846578428
 40
0.7468328202
 40
0.8094506338
 40
0.8725270811
 40
0.9360521749
 40
1.0
 40
1.0
 40
1.0
 40
1.0
 10
4.0042047825
 20
3.529632571
 30
0.0
 10
4.0004489231
 20
3.532359796
 30
0.0
 10
3.9928345102
 20
3.537623936
 30
0.0
 10
3.9810475489
 20
3.5448737313
 30
0.0
 10
3.9689203086
 20
3.5513418497
 30
0.0
 10
3.9564562382
 20
3.5569032056
 30
0.0
 10
3.9457852905
 20
3.5606777921
 30
0.0
 10
3.9371180413
 20
3.5631073522
 30
0.0
 10
3.9305676027
 20
3.5646194113
 30
0.0
 10
3.9239673591
 20
3.5658105288
 30
0.0
 10
3.9173282026
 20
3.5666698795
 30
0.0
 10
3.9106623526
 20
3.5671889216
 30
0.0
 10
3.9039829192
 20
3.5673624681
 30
0.0
 10
3.8973034859
 20
3.5671889216
 30
0.0
 10
3.8906376359
 20
3.5666698795
 30
0.0
 10
3.8839984794
 20
3.5658105288
 30
0.0
 10
3.8773982358
 20
3.5646194113
 30
0.0
 10
3.8708477972
 20
3.5631073522
 30
0.0
 10
3.862180548
 20
3.5606777921
 30
0.0
 10
3.8515096003
 20
3.5569032056
 30
0.0
 10
3.8390455299
 20
3.5513418497
 30
0.0
 10
3.8269182896
 20
3.5448737313
 30
0.0
 10
3.8151313283
 20
3.537623936
 30
0.0
 10
3.8075169155
 20
3.532359796
 30
0.0
 10
3.803761056
 20
3.529632571
 30
0.0
  0
LINE
  5
43F
100
AcDbEntity
  8
0
100
AcDbLine
 62
7
  6
CONTINUOUS
 10
7.3002329193
 20
4.4762815151
 11
7.299766508
 21
4.4762532331
  0
LINE
  5
440
100
AcDbEntity
  8
0
100
AcDbLine
 62
7
  6
CONTINUOUS
 10
7.299766508
 20
4.4762532331
 11
7.2963131247
 21
4.4765288742
  0
SPLINE
  5
441
100
AcDbEntity
  8
0
100
AcDbSpline
 62
7
  6
CONTINUOUS
 70
0
 71
3
 72
29
 73
25
 74
0
 42
0.0000001
 43
0.0000001
 44
0.0000000001
 40
0.0
 40
0.0
 40
0.0
 40
0.0
 40
0.0639478252
 40
0.1274729189
 40
0.1905493662
 40
0.2531671799
 40
0.3153421573
 40
0.3462861252
 40
0.3771430417
 40
0.4079260369
 40
0.438650872
 40
0.4693356853
 40
0.5000000001
 40
0.5306643149
 40
0.5613491281
 40
0.5920739633
 40
0.6228569584
 40
0.6537138749
 40
0.6846578428
 40
0.7468328202
 40
0.8094506338
 40
0.8725270811
 40
0.9360521749
 40
1.0
 40
1.0
 40
1.0
 40
1.0
 10
4.3012047825
 20
3.3565460005
 30
0.0
 10
4.2974489231
 20
3.3538187754
 30
0.0
 10
4.2898345102
 20
3.3485546354
 30
0.0
 10
4.2780475489
 20
3.3413048401
 30
0.0
 10
4.2659203086
 20
3.3348367217
 30
0.0
 10
4.2534562382
 20
3.3292753658
 30
0.0
 10
4.2427852905
 20
3.3255007793
 30
0.0
 10
4.2341180413
 20
3.3230712193
 30
0.0
 10
4.2275676027
 20
3.3215591601
 30
0.0
 10
4.2209673591
 20
3.3203680427
 30
0.0
 10
4.2143282026
 20
3.3195086919
 30
0.0
 10
4.2076623526
 20
3.3189896499
 30
0.0
 10
4.2009829192
 20
3.3188161034
 30
0.0
 10
4.1943034859
 20
3.3189896499
 30
0.0
 10
4.1876376359
 20
3.3195086919
 30
0.0
 10
4.1809984794
 20
3.3203680427
 30
0.0
 10
4.1743982358
 20
3.3215591601
 30
0.0
 10
4.1678477972
 20
3.3230712193
 30
0.0
 10
4.159180548
 20
3.3255007793
 30
0.0
 10
4.1485096003
 20
3.3292753658
 30
0.0
 10
4.1360455299
 20
3.3348367217
 30
0.0
 10
4.1239182896
 20
3.3413048401
 30
0.0
 10
4.1121313283
 20
3.3485546354
 30
0.0
 10
4.1045169155
 20
3.3538187754
 30
0.0
 10
4.100761056
 20
3.3565460005
 30
0.0
  0
SPLINE
  5
442
100
AcDbEntity
  8
0
100
AcDbSpline
 62
7
  6
CONTINUOUS
 70
0
 71
3
 72
29
 73
25
 74
0
 42
0.0000001
 43
0.0000001
 44
0.0000000001
 40
0.0
 40
0.0
 40
0.0
 40
0.0
 40
0.0639478252
 40
0.1274729189
 40
0.1905493662
 40
0.2531671799
 40
0.3153421573
 40
0.3462861252
 40
0.3771430417
 40
0.4079260369
 40
0.438650872
 40
0.4693356853
 40
0.5000000001
 40
0.5306643149
 40
0.5613491281
 40
0.5920739633
 40
0.6228569584
 40
0.6537138749
 40
0.6846578428
 40
0.7468328202
 40
0.8094506338
 40
0.8725270811
 40
0.9360521749
 40
1.0
 40
1.0
 40
1.0
 40
1.0
 10
4.3012047825
 20
3.529632571
 30
0.0
 10
4.2974489231
 20
3.532359796
 30
0.0
 10
4.2898345102
 20
3.537623936
 30
0.0
 10
4.2780475489
 20
3.5448737313
 30
0.0
 10
4.2659203086
 20
3.5513418497
 30
0.0
 10
4.2534562382
 20
3.5569032056
 30
0.0
 10
4.2427852905
 20
3.5606777921
 30
0.0
 10
4.2341180413
 20
3.5631073522
 30
0.0
 10
4.2275676027
 20
3.5646194113
 30
0.0
 10
4.2209673591
 20
3.5658105288
 30
0.0
 10
4.2143282026
 20
3.5666698795
 30
0.0
 10
4.2076623526
 20
3.5671889216
 30
0.0
 10
4.2009829192
 20
3.5673624681
 30
0.0
 10
4.1943034859
 20
3.5671889216
 30
0.0
 10
4.1876376359
 20
3.5666698795
 30
0.0
 10
4.1809984794
 20
3.5658105288
 30
0.0
 10
4.1743982358
 20
3.5646194113
 30
0.0
 10
4.1678477972
 20
3.5631073522
 30
0.0
 10
4.159180548
 20
3.5606777921
 30
0.0
 10
4.1485096003
 20
3.5569032056
 30
0.0
 10
4.1360455299
 20
3.5513418497
 30
0.0
 10
4.1239182896
 20
3.5448737313
 30
0.0
 10
4.1121313283
 20
3.537623936
 30
0.0
 10
4.1045169155
 20
3.532359796
 30
0.0
 10
4.100761056
 20
3.529632571
 30
0.0
  0
SPLINE
  5
443
100
AcDbEntity
  8
0
100
AcDbSpline
 62
7
  6
CONTINUOUS
 70
0
 71
3
 72
25
 73
21
 74
0
 42
0.0000001
 43
0.0000001
 44
0.0000000001
 40
0.0
 40
0.0
 40
0.0
 40
0.0
 40
0.0625861898
 40
0.1251503106
 40
0.1876867676
 40
0.2501958463
 40
0.3126766846
 40
0.3439098925
 40
0.375137949
 40
0.4375741118
 40
0.5000000147
 40
0.5624259305
 40
0.6248620984
 40
0.6560901502
 40
0.6873233424
 40
0.7498041475
 40
0.8123132119
 40
0.8748496693
 40
0.9374137962
 40
1.0
 40
1.0
 40
1.0
 40
1.0
 10
7.175644351
 20
3.2965995951
 30
0.0
 10
7.1791445613
 20
3.2979195299
 30
0.0
 10
7.18617289
 20
3.3004828327
 30
0.0
 10
7.1968150416
 20
3.3040365329
 30
0.0
 10
7.2075664281
 20
3.3072315615
 30
0.0
 10
7.2184326338
 20
3.3099942549
 30
0.0
 10
7.227583489
 20
3.3118732689
 30
0.0
 10
7.2349529916
 20
3.31308655
 30
0.0
 10
7.2423505302
 20
3.3140953113
 30
0.0
 10
7.2516463056
 20
3.3149560827
 30
0.0
 10
7.2628422984
 20
3.3153051969
 30
0.0
 10
7.2740382914
 20
3.3149560816
 30
0.0
 10
7.2833340675
 20
3.3140953096
 30
0.0
 10
7.2907316054
 20
3.3130865494
 30
0.0
 10
7.298101105
 20
3.3118732694
 30
0.0
 10
7.3072519559
 20
3.3099942538
 30
0.0
 10
7.3181181594
 20
3.307231563
 30
0.0
 10
7.3288695448
 20
3.3040365326
 30
0.0
 10
7.3395116986
 20
3.3004828351
 30
0.0
 10
7.3465400278
 20
3.2979195302
 30
0.0
 10
7.3500402389
 20
3.2965995951
 30
0.0
  0
SPLINE
  5
444
100
AcDbEntity
  8
0
100
AcDbSpline
 62
7
  6
CONTINUOUS
 70
0
 71
3
 72
17
 73
13
 74
0
 42
0.0000001
 43
0.0000001
 44
0.0000000001
 40
0.0
 40
0.0
 40
0.0
 40
0.0
 40
0.1213499562
 40
0.2432268153
 40
0.3045138225
 40
0.3660841936
 40
0.4901718832
 40
0.5527407223
 40
0.6156613373
 40
0.7425266994
 40
0.8706917043
 40
1.0
 40
1.0
 40
1.0
 40
1.0
 10
6.980108095
 20
3.3151888317
 30
0.0
 10
6.9826719026
 20
3.3151888317
 30
0.0
 10
6.9878134666
 20
3.3149549233
 30
0.0
 10
6.9941971257
 20
3.3140924346
 30
0.0
 10
6.9992697744
 20
3.3130846972
 30
0.0
 10
7.0043443188
 20
3.3118677167
 30
0.0
 10
7.0093731478
 20
3.3103622177
 30
0.0
 10
7.014346829
 20
3.3086096041
 30
0.0
 10
7.0193218029
 20
3.3066904433
 30
0.0
 10
7.0254888876
 20
3.3040199012
 30
0.0
 10
7.0327925854
 20
3.300466988
 30
0.0
 10
7.0375974923
 20
3.2979145204
 30
0.0
 10
7.0399921745
 20
3.2965995951
 30
0.0
  0
SPLINE
  5
445
100
AcDbEntity
  8
0
100
AcDbSpline
 62
7
  6
CONTINUOUS
 70
0
 71
3
 72
17
 73
13
 74
0
 42
0.0000001
 43
0.0000001
 44
0.0000000001
 40
0.0
 40
0.0
 40
0.0
 40
0.0
 40
0.1293082957
 40
0.2574733005
 40
0.3843386626
 40
0.4472592776
 40
0.5098281167
 40
0.6339158062
 40
0.6954861772
 40
0.7567731845
 40
0.8786500437
 40
1.0
 40
1.0
 40
1.0
 40
1.0
 10
3.360473664
 20
3.2965995951
 30
0.0
 10
3.3628683462
 20
3.2979145204
 30
0.0
 10
3.3676732531
 20
3.300466988
 30
0.0
 10
3.3749769509
 20
3.3040199012
 30
0.0
 10
3.3811440356
 20
3.3066904433
 30
0.0
 10
3.3861190095
 20
3.3086096041
 30
0.0
 10
3.3910926907
 20
3.3103622177
 30
0.0
 10
3.3961215197
 20
3.3118677167
 30
0.0
 10
3.4011960641
 20
3.3130846972
 30
0.0
 10
3.4062687128
 20
3.3140924346
 30
0.0
 10
3.4126523719
 20
3.3149549233
 30
0.0
 10
3.4177939359
 20
3.3151888317
 30
0.0
 10
3.4203577435
 20
3.3151888317
 30
0.0
  0
LINE
  5
446
100
AcDbEntity
  8
0
100
AcDbLine
 62
7
  6
CONTINUOUS
 10
7.3580729222
 20
4.4667114243
 11
7.3380411321
 21
4.4701318627
  0
LINE
  5
447
100
AcDbEntity
  8
0
100
AcDbLine
 62
7
  6
CONTINUOUS
 10
7.3380411321
 20
4.4701318627
 11
7.3371314587
 21
4.4702923798
  0
LINE
  5
448
100
AcDbEntity
  8
0
100
AcDbLine
 62
7
  6
CONTINUOUS
 10
7.3371314587
 20
4.4702923798
 11
7.3353053133
 21
4.4706154047
  0
LINE
  5
449
100
AcDbEntity
  8
0
100
AcDbLine
 62
7
  6
CONTINUOUS
 10
7.3213738594
 20
4.4729528538
 11
7.3183738594
 21
4.473535767
  0
SPLINE
  5
44A
100
AcDbEntity
  8
0
100
AcDbSpline
 62
7
  6
CONTINUOUS
 70
0
 71
3
 72
25
 73
21
 74
0
 42
0.0000001
 43
0.0000001
 44
0.0000000001
 40
0.0
 40
0.0
 40
0.0
 40
0.0
 40
0.0625850164
 40
0.1251482977
 40
0.1876847104
 40
0.250193353
 40
0.3126737062
 40
0.3751294238
 40
0.4375663364
 40
0.468783632
 40
0.499999983
 40
0.53121633
 40
0.5624336155
 40
0.62487051
 40
0.6873262656
 40
0.7498066505
 40
0.8123153172
 40
0.874851726
 40
0.9374149999
 40
1.0
 40
1.0
 40
1.0
 40
1.0
 10
3.0504255996
 20
3.2965995951
 30
0.0
 10
3.0539257547
 20
3.2979195091
 30
0.0
 10
3.0609539498
 20
3.3004828908
 30
0.0
 10
3.0715960848
 20
3.3040363812
 30
0.0
 10
3.0823473432
 20
3.3072315737
 30
0.0
 10
3.0932136998
 20
3.3099940559
 30
0.0
 10
3.1041928984
 20
3.3122488429
 30
0.0
 10
3.1152720306
 20
3.3139235224
 30
0.0
 10
3.1245692159
 20
3.3147836735
 30
0.0
 10
3.1320257493
 20
3.3151308685
 30
0.0
 10
3.1376235402
 20
3.3152174974
 30
0.0
 10
3.1432213305
 20
3.3151308691
 30
0.0
 10
3.150677862
 20
3.3147836743
 30
0.0
 10
3.1599750479
 20
3.3139235228
 30
0.0
 10
3.1710541832
 20
3.3122488432
 30
0.0
 10
3.1820333875
 20
3.3099940561
 30
0.0
 10
3.1928997469
 20
3.3072315727
 30
0.0
 10
3.2036510065
 20
3.304036381
 30
0.0
 10
3.2142931388
 20
3.3004828881
 30
0.0
 10
3.2213213333
 20
3.2979195087
 30
0.0
 10
3.2248214875
 20
3.2965995951
 30
0.0
  0
LINE
  5
44B
100
AcDbEntity
  8
0
100
AcDbLine
 62
7
  6
CONTINUOUS
 10
7.0658768019
 20
4.4707686977
 11
7.049217428
 21
4.4680756045
  0
SPLINE
  5
44C
100
AcDbEntity
  8
0
100
AcDbSpline
 62
7
  6
CONTINUOUS
 70
0
 71
3
 72
39
 73
35
 74
0
 42
0.0000001
 43
0.0000001
 44
0.0000000001
 40
0.0
 40
0.0
 40
0.0
 40
0.0
 40
0.060488354
 40
0.0920823993
 40
0.1249789256
 40
0.1420580433
 40
0.1596334266
 40
0.1777658286
 40
0.1965028786
 40
0.2158587737
 40
0.235787865
 40
0.2561580397
 40
0.2767456422
 40
0.2972731829
 40
0.3174783808
 40
0.3371748007
 40
0.3562692758
 40
0.3747452844
 40
0.3926343038
 40
0.4268588978
 40
0.4594460304
 40
0.490810295
 40
0.5212670323
 40
0.5510473073
 40
0.5803196369
 40
0.6092074579
 40
0.6661585957
 40
0.7224127473
 40
0.7782521945
 40
0.8338448833
 40
0.8892932257
 40
0.9169862667
 40
0.9446658351
 40
1.0
 40
1.0
 40
1.0
 40
1.0
 10
6.9202240156
 20
3.2965995951
 30
0.0
 10
6.9178339209
 20
3.2952871888
 30
0.0
 10
6.9143228906
 20
3.293029438
 30
0.0
 10
6.9100362695
 20
3.2893622437
 30
0.0
 10
6.9075111157
 20
3.2866758784
 30
0.0
 10
6.9056451483
 20
3.2842669852
 30
0.0
 10
6.9043225414
 20
3.2822862208
 30
0.0
 10
6.9031187985
 20
3.2801444274
 30
0.0
 10
6.9020645472
 20
3.2778360169
 30
0.0
 10
6.9011965646
 20
3.275364611
 30
0.0
 10
6.9005551929
 20
3.2727484001
 30
0.0
 10
6.9001783642
 20
3.2700245911
 30
0.0
 10
6.9000924485
 20
3.2672489087
 30
0.0
 10
6.9003039712
 20
3.2644875014
 30
0.0
 10
6.9007972464
 20
3.2618035447
 30
0.0
 10
6.9015398045
 20
3.2592454383
 30
0.0
 10
6.9024916794
 20
3.2568420175
 30
0.0
 10
6.9036136361
 20
3.2546045067
 30
0.0
 10
6.9052657221
 20
3.2518816788
 30
0.0
 10
6.9075989157
 20
3.248842847
 30
0.0
 10
6.9107151163
 20
3.2456875858
 30
0.0
 10
6.9140110086
 20
3.2429847561
 30
0.0
 10
6.9174281572
 20
3.2406584223
 30
0.0
 10
6.9209301378
 20
3.238647462
 30
0.0
 10
6.9244931264
 20
3.2369038405
 30
0.0
 10
6.9292797379
 20
3.2348943646
 30
0.0
 10
6.9353643234
 20
3.2328624312
 30
0.0
 10
6.9427649467
 20
3.231022341
 30
0.0
 10
6.9502043837
 20
3.2296603306
 30
0.0
 10
6.9576661376
 20
3.2286844632
 30
0.0
 10
6.9638978868
 20
3.2281382417
 30
0.0
 10
6.9688849068
 20
3.2278415072
 30
0.0
 10
6.9738711846
 20
3.2276322822
 30
0.0
 10
6.9776137244
 20
3.2275714325
 30
0.0
 10
6.980108095
 20
3.2275714325
 30
0.0
  0
SPLINE
  5
44D
100
AcDbEntity
  8
0
100
AcDbSpline
 62
7
  6
CONTINUOUS
 70
0
 71
3
 72
17
 73
13
 74
0
 42
0.0000001
 43
0.0000001
 44
0.0000000001
 40
0.0
 40
0.0
 40
0.0
 40
0.0
 40
0.1293082957
 40
0.2574733005
 40
0.3843386626
 40
0.4472592776
 40
0.5098281167
 40
0.6339158062
 40
0.6954861772
 40
0.7567731845
 40
0.8786500437
 40
1.0
 40
1.0
 40
1.0
 40
1.0
 10
6.9202240156
 20
3.2965995951
 30
0.0
 10
6.9226186978
 20
3.2979145204
 30
0.0
 10
6.9274236047
 20
3.300466988
 30
0.0
 10
6.9347273024
 20
3.3040199012
 30
0.0
 10
6.9408943871
 20
3.3066904433
 30
0.0
 10
6.9458693611
 20
3.3086096041
 30
0.0
 10
6.9508430422
 20
3.3103622177
 30
0.0
 10
6.9558718713
 20
3.3118677167
 30
0.0
 10
6.9609464156
 20
3.3130846972
 30
0.0
 10
6.9660190643
 20
3.3140924346
 30
0.0
 10
6.9724027234
 20
3.3149549233
 30
0.0
 10
6.9775442875
 20
3.3151888317
 30
0.0
 10
6.980108095
 20
3.3151888317
 30
0.0
  0
SPLINE
  5
44E
100
AcDbEntity
  8
0
100
AcDbSpline
 62
7
  6
CONTINUOUS
 70
0
 71
3
 72
37
 73
33
 74
0
 42
0.0000001
 43
0.0000001
 44
0.0000000001
 40
0.0
 40
0.0
 40
0.0
 40
0.0
 40
0.0742987481
 40
0.1103977285
 40
0.1457106817
 40
0.1801766557
 40
0.2137379281
 40
0.2463496653
 40
0.277980437
 40
0.308614334
 40
0.3382594224
 40
0.3669544354
 40
0.3947713515
 40
0.4218185018
 40
0.4482457911
 40
0.4742359088
 40
0.5000000139
 40
0.5257641227
 40
0.5517542491
 40
0.5781815525
 40
0.6052287019
 40
0.6330456015
 40
0.6617405999
 40
0.6913856756
 40
0.7220195593
 40
0.7536503164
 40
0.7862620439
 40
0.8198233201
 40
0.8542892946
 40
0.8896022352
 40
0.9257012232
 40
1.0
 40
1.0
 40
1.0
 40
1.0
 10
2.8901848548
 20
3.2965995951
 30
0.0
 10
2.8912629835
 20
3.2978975274
 30
0.0
 10
2.8928956318
 20
3.2998012345
 30
0.0
 10
2.8951318175
 20
3.3022406956
 30
0.0
 10
2.8968009704
 20
3.3039718171
 30
0.0
 10
2.8984785322
 20
3.3056135063
 30
0.0
 10
2.9001649949
 20
3.3071567217
 30
0.0
 10
2.9018606347
 20
3.3085922917
 30
0.0
 10
2.9035655915
 20
3.3099109758
 30
0.0
 10
2.9052797915
 20
3.3111035871
 30
0.0
 10
2.9070033005
 20
3.3121606438
 30
0.0
 10
2.9087357279
 20
3.313073352
 30
0.0
 10
2.9104763008
 20
3.3138339114
 30
0.0
 10
2.9122245456
 20
3.3144338564
 30
0.0
 10
2.913978819
 20
3.314867676
 30
0.0
 10
2.9157375814
 20
3.315130277
 30
0.0
 10
2.9174987204
 20
3.3152176665
 30
0.0
 10
2.9192598594
 20
3.3151302762
 30
0.0
 10
2.9210186226
 20
3.3148676759
 30
0.0
 10
2.9227728956
 20
3.3144338531
 30
0.0
 10
2.9245211412
 20
3.3138339109
 30
0.0
 10
2.926261714
 20
3.3130733526
 30
0.0
 10
2.9279941396
 20
3.3121606433
 30
0.0
 10
2.9297176474
 20
3.3111035864
 30
0.0
 10
2.9314318469
 20
3.309910976
 30
0.0
 10
2.9331368033
 20
3.3085922927
 30
0.0
 10
2.9348324424
 20
3.3071567227
 30
0.0
 10
2.9365189048
 20
3.3056135071
 30
0.0
 10
2.9381964665
 20
3.3039718181
 30
0.0
 10
2.9398656204
 20
3.3022406977
 30
0.0
 10
2.9421018064
 20
3.2998012361
 30
0.0
 10
2.9437344547
 20
3.2978975279
 30
0.0
 10
2.9448125838
 20
3.2965995951
 30
0.0
  0
SPLINE
  5
44F
100
AcDbEntity
  8
0
100
AcDbSpline
 62
7
  6
CONTINUOUS
 70
0
 71
3
 72
53
 73
49
 74
0
 42
0.0000001
 43
0.0000001
 44
0.0000000001
 40
0.0
 40
0.0
 40
0.0
 40
0.0
 40
0.0000409293
 40
0.0000760468
 40
0.000122393
 40
0.0002500963
 40
0.0004254553
 40
0.000648915
 40
0.0009206706
 40
0.0016093892
 40
0.0024919447
 40
0.0035682782
 40
0.0048380561
 40
0.0063008753
 40
0.0079563068
 40
0.0098038612
 40
0.0118428599
 40
0.0140725732
 40
0.0191011842
 40
0.0248829389
 40
0.0314098968
 40
0.0386733487
 40
0.0466633072
 40
0.0553691631
 40
0.0647790321
 40
0.0748804865
 40
0.0856598224
 40
0.0971028188
 40
0.1219176592
 40
0.1491933505
 40
0.1787858972
 40
0.2105398346
 40
0.2442892688
 40
0.2798588642
 40
0.3170649563
 40
0.3557165825
 40
0.3956166933
 40
0.436563089
 40
0.4783494858
 40
0.5207664298
 40
0.6066418569
 40
0.6496705836
 40
0.6924705621
 40
0.7765043166
 40
0.856962374
 40
0.9320446179
 40
0.9670175252
 40
1.0
 40
1.0
 40
1.0
 40
1.0
 10
6.1489380444
 20
3.1998160009
 30
0.0
 10
6.1489382713
 20
3.1998114105
 30
0.0
 10
6.1489463738
 20
3.1998049896
 30
0.0
 10
6.1489582583
 20
3.1997993132
 30
0.0
 10
6.1489806469
 20
3.1997912405
 30
0.0
 10
6.1490186488
 20
3.1997820049
 30
0.0
 10
6.149076866
 20
3.1997711678
 30
0.0
 10
6.1491513435
 20
3.1997601818
 30
0.0
 10
6.1492833067
 20
3.1997438677
 30
0.0
 10
6.1494893171
 20
3.1997238833
 30
0.0
 10
6.1497857075
 20
3.199700453
 30
0.0
 10
6.1501474621
 20
3.19967628
 30
0.0
 10
6.1505744524
 20
3.1996513515
 30
0.0
 10
6.1510665298
 20
3.1996257127
 30
0.0
 10
6.1516235309
 20
3.199599366
 30
0.0
 10
6.1522452668
 20
3.1995723176
 30
0.0
 10
6.1529315171
 20
3.1995445657
 30
0.0
 10
6.1539747876
 20
3.1995050186
 30
0.0
 10
6.1554382151
 20
3.1994543131
 30
0.0
 10
6.1573840909
 20
3.1993926749
 30
0.0
 10
6.1595809428
 20
3.1993278857
 30
0.0
 10
6.1620257667
 20
3.1992598259
 30
0.0
 10
6.1647152662
 20
3.199188521
 30
0.0
 10
6.1676457882
 20
3.1991139434
 30
0.0
 10
6.1708134023
 20
3.1990358926
 30
0.0
 10
6.1742138326
 20
3.1989541953
 30
0.0
 10
6.1778425425
 20
3.1988687313
 30
0.0
 10
6.1831230399
 20
3.198746237
 30
0.0
 10
6.1902555261
 20
3.198583883
 30
0.0
 10
6.1994255825
 20
3.1983769748
 30
0.0
 10
6.2093746266
 20
3.1981515119
 30
0.0
 10
6.2200503878
 20
3.1979074382
 30
0.0
 10
6.231397026
 20
3.1976426025
 30
0.0
 10
6.2433555643
 20
3.197356333
 30
0.0
 10
6.255864228
 20
3.1970487861
 30
0.0
 10
6.2688587299
 20
3.196717335
 30
0.0
 10
6.2822728092
 20
3.1963638466
 30
0.0
 10
6.296038411
 20
3.1959874092
 30
0.0
 10
6.3100861151
 20
3.195588433
 30
0.0
 10
6.3291764813
 20
3.1950290778
 30
0.0
 10
6.3484054496
 20
3.1944374002
 30
0.0
 10
6.3676769727
 20
3.1938306566
 30
0.0
 10
6.3867416661
 20
3.1932264659
 30
0.0
 10
6.4100076623
 20
3.1925007578
 30
0.0
 10
6.4368996145
 20
3.1917502063
 30
0.0
 10
6.4582886315
 20
3.191308064
 30
0.0
 10
6.4743497111
 20
3.1911229484
 30
0.0
 10
6.4819806071
 20
3.1910898099
 30
0.0
 10
6.485684289
 20
3.1910897834
 30
0.0
  0
SPLINE
  5
450
100
AcDbEntity
  8
0
100
AcDbSpline
 62
7
  6
CONTINUOUS
 70
0
 71
3
 72
60
 73
56
 74
0
 42
0.0000001
 43
0.0000001
 44
0.0000000001
 40
0.0
 40
0.0
 40
0.0
 40
0.0
 40
0.000011318
 40
0.0000267229
 40
0.0000520944
 40
0.0000887997
 40
0.0001372557
 40
0.000197636
 40
0.0002700283
 40
0.0003544829
 40
0.0005596884
 40
0.0008134052
 40
0.0011157058
 40
0.0014666294
 40
0.0018661717
 40
0.0023143002
 40
0.0033561545
 40
0.0045918456
 40
0.0060209928
 40
0.0076431386
 40
0.0094576717
 40
0.0114639545
 40
0.0136613461
 40
0.0186266179
 40
0.0243470727
 40
0.0308155981
 40
0.0380229612
 40
0.0459592251
 40
0.0546139969
 40
0.0639764807
 40
0.0740341307
 40
0.0847735174
 40
0.096180224
 40
0.120934894
 40
0.1481698714
 40
0.1777411132
 40
0.2094949678
 40
0.2432663952
 40
0.2788792296
 40
0.3161499357
 40
0.3548856313
 40
0.3948864355
 40
0.4359469586
 40
0.5203976483
 40
0.5633540608
 40
0.606503667
 40
0.6924908197
 40
0.7348812719
 40
0.7765724782
 40
0.8173444535
 40
0.856979351
 40
0.8952647573
 40
0.9319942684
 40
0.9669681864
 40
1.0
 40
1.0
 40
1.0
 40
1.0
 10
6.1376785488
 20
3.2327394956
 30
0.0
 10
6.1376777841
 20
3.2327405897
 30
0.0
 10
6.1376772856
 20
3.2327443184
 30
0.0
 10
6.1376826956
 20
3.2327483998
 30
0.0
 10
6.1376907702
 20
3.232752146
 30
0.0
 10
6.1377033589
 20
3.2327560559
 30
0.0
 10
6.1377200134
 20
3.23276002
 30
0.0
 10
6.1377410271
 20
3.2327640554
 30
0.0
 10
6.1377663151
 20
3.2327681347
 30
0.0
 10
6.1378086129
 20
3.2327740161
 30
0.0
 10
6.1378722967
 20
3.2327812284
 30
0.0
 10
6.1379616865
 20
3.2327895875
 30
0.0
 10
6.1380683138
 20
3.232798072
 30
0.0
 10
6.1381921772
 20
3.2328066715
 30
0.0
 10
6.1383332686
 20
3.2328153768
 30
0.0
 10
6.1385557704
 20
3.2328277549
 30
0.0
 10
6.1388768602
 20
3.2328432118
 30
0.0
 10
6.1393136374
 20
3.2328614449
 30
0.0
 10
6.139818886
 20
3.2328801642
 30
0.0
 10
6.1403924254
 20
3.2328993875
 30
0.0
 10
6.1410340491
 20
3.2329191133
 30
0.0
 10
6.14174353
 20
3.2329393493
 30
0.0
 10
6.1428245026
 20
3.2329682116
 30
0.0
 10
6.144343449
 20
3.2330052287
 30
0.0
 10
6.1463660761
 20
3.2330499345
 30
0.0
 10
6.1486531525
 20
3.2330962936
 30
0.0
 10
6.1512015639
 20
3.2331447127
 30
0.0
 10
6.1540078126
 20
3.2331956153
 30
0.0
 10
6.1570682298
 20
3.2332487683
 30
0.0
 10
6.1603788403
 20
3.2333038393
 30
0.0
 10
6.1639353028
 20
3.233360971
 30
0.0
 10
6.1677328487
 20
3.233420395
 30
0.0
 10
6.1732635311
 20
3.2335051731
 30
0.0
 10
6.1807394615
 20
3.2336173388
 30
0.0
 10
6.1903574903
 20
3.2337568897
 30
0.0
 10
6.2008009041
 20
3.2339077383
 30
0.0
 10
6.2120151412
 20
3.2340687019
 30
0.0
 10
6.2239418343
 20
3.2342397156
 30
0.0
 10
6.2365190654
 20
3.2344225249
 30
0.0
 10
6.2496816874
 20
3.2346150703
 30
0.0
 10
6.2633617132
 20
3.2348182177
 30
0.0
 10
6.2774885927
 20
3.2350317544
 30
0.0
 10
6.2970062892
 20
3.23533029
 30
0.0
 10
6.316872394
 20
3.2356423362
 30
0.0
 10
6.3369848046
 20
3.2359609866
 30
0.0
 10
6.3572783713
 20
3.2362841993
 30
0.0
 10
6.377505259
 20
3.2366026289
 30
0.0
 10
6.3975603782
 20
3.2369047786
 30
0.0
 10
6.4122837433
 20
3.2371143335
 30
0.0
 10
6.4266823518
 20
3.2373053983
 30
0.0
 10
6.4406795907
 20
3.2374702789
 30
0.0
 10
6.4542003756
 20
3.2376049163
 30
0.0
 10
6.4671717427
 20
3.2377059909
 30
0.0
 10
6.4795237634
 20
3.2377664234
 30
0.0
 10
6.4875441517
 20
3.2377825995
 30
0.0
 10
6.4914398224
 20
3.2377828115
 30
0.0
  0
LINE
  5
451
100
AcDbEntity
  8
0
100
AcDbLine
 62
7
  6
CONTINUOUS
 10
7.3605472658
 20
4.4668343227
 11
7.3602847761
 21
4.4668795117
  0
LINE
  5
452
100
AcDbEntity
  8
0
100
AcDbLine
 62
7
  6
CONTINUOUS
 10
7.3602847761
 20
4.4668795117
 11
7.3580729222
 21
4.4672222139
  0
SPLINE
  5
453
100
AcDbEntity
  8
0
100
AcDbSpline
 62
7
  6
CONTINUOUS
 70
0
 71
3
 72
27
 73
23
 74
0
 42
0.0000001
 43
0.0000001
 44
0.0000000001
 40
0.0
 40
0.0
 40
0.0
 40
0.0
 40
0.0271720585
 40
0.0541261858
 40
0.080918776
 40
0.1076062807
 40
0.1342471384
 40
0.1608983043
 40
0.214438656
 40
0.2686692279
 40
0.3239779448
 40
0.3807154118
 40
0.4392027001
 40
0.499740921
 40
0.5626186668
 40
0.6281145113
 40
0.6964813288
 40
0.7679057325
 40
0.8047904725
 40
0.8424479673
 40
0.9199452307
 40
1.0
 40
1.0
 40
1.0
 40
1.0
 10
6.8657433466
 20
2.6086609689
 30
0.0
 10
6.8644626107
 20
2.6091650782
 30
0.0
 10
6.8619367752
 20
2.6102351996
 30
0.0
 10
6.8582496437
 20
2.6120297278
 30
0.0
 10
6.8546826591
 20
2.6140025579
 30
0.0
 10
6.8512368897
 20
2.6161501933
 30
0.0
 10
6.8479124347
 20
2.618468802
 30
0.0
 10
6.8436356191
 20
2.6217875653
 30
0.0
 10
6.8385760249
 20
2.6263620265
 30
0.0
 10
6.8329939013
 20
2.6324664539
 30
0.0
 10
6.8278737252
 20
2.6391667676
 30
0.0
 10
6.8231935518
 20
2.6464372105
 30
0.0
 10
6.8189229617
 20
2.6542569336
 30
0.0
 10
6.8150221398
 20
2.6626103503
 30
0.0
 10
6.8114399964
 20
2.671487727
 30
0.0
 10
6.8081127778
 20
2.6808841161
 30
0.0
 10
6.8049643031
 20
2.690795988
 30
0.0
 10
6.8024468102
 20
2.6993844196
 30
0.0
 10
6.800433862
 20
2.7064989447
 30
0.0
 10
6.7983679414
 20
2.7139181261
 30
0.0
 10
6.7957498886
 20
2.7234533832
 30
0.0
 10
6.7936153663
 20
2.7311433833
 30
0.0
 10
6.7925080089
 20
2.7350443586
 30
0.0
  0
SPLINE
  5
454
100
AcDbEntity
  8
0
100
AcDbSpline
 62
7
  6
CONTINUOUS
 70
0
 71
3
 72
21
 73
17
 74
0
 42
0.0000001
 43
0.0000001
 44
0.0000000001
 40
0.0
 40
0.0
 40
0.0
 40
0.0
 40
0.036902101
 40
0.0769891739
 40
0.1203972117
 40
0.1672198638
 40
0.2175194461
 40
0.2713331228
 40
0.3286770844
 40
0.389552589
 40
0.4539457345
 40
0.5218328897
 40
0.5931777706
 40
0.667936494
 40
0.8274886333
 40
1.0
 40
1.0
 40
1.0
 40
1.0
 10
6.8337586867
 20
2.7295553068
 30
0.0
 10
6.8333111104
 20
2.7298130645
 30
0.0
 10
6.8323533521
 20
2.7303097433
 30
0.0
 10
6.8308048371
 20
2.7309771398
 30
0.0
 10
6.8290881446
 20
2.7315963345
 30
0.0
 10
6.8272050019
 20
2.7321667895
 30
0.0
 10
6.8251571297
 20
2.73268799
 30
0.0
 10
6.822946536
 20
2.7331594026
 30
0.0
 10
6.8205754133
 20
2.7335805745
 30
0.0
 10
6.8180461533
 20
2.7339510065
 30
0.0
 10
6.8153613243
 20
2.734270353
 30
0.0
 10
6.8125236948
 20
2.7345382014
 30
0.0
 10
6.8095362102
 20
2.734754324
 30
0.0
 10
6.8052637801
 20
2.734977943
 30
0.0
 10
6.7995703427
 20
2.7351177749
 30
0.0
 10
6.7949220971
 20
2.7350897544
 30
0.0
 10
6.7925080089
 20
2.7350443586
 30
0.0
  0
SPLINE
  5
455
100
AcDbEntity
  8
0
100
AcDbSpline
 62
7
  6
CONTINUOUS
 70
0
 71
3
 72
44
 73
40
 74
0
 42
0.0000001
 43
0.0000001
 44
0.0000000001
 40
0.0
 40
0.0
 40
0.0
 40
0.0
 40
0.0553274939
 40
0.0830037513
 40
0.1106935043
 40
0.1661352227
 40
0.2217213184
 40
0.2775542127
 40
0.3338018031
 40
0.3621690573
 40
0.3907604877
 40
0.4488895975
 40
0.4637075715
 40
0.4786712218
 40
0.5091248745
 40
0.5246786065
 40
0.5404953132
 40
0.5566166619
 40
0.5730929604
 40
0.5899783242
 40
0.6073350191
 40
0.6252244353
 40
0.6437003939
 40
0.662796646
 40
0.6824957252
 40
0.7027040595
 40
0.7232351628
 40
0.7438268864
 40
0.7642013513
 40
0.7841348841
 40
0.8034946178
 40
0.8222335414
 40
0.840368158
 40
0.8750027657
 40
0.8916472281
 40
0.9079135049
 40
0.9238551328
 40
0.9395158689
 40
1.0
 40
1.0
 40
1.0
 40
1.0
 10
3.4203577435
 20
3.2275714325
 30
0.0
 10
3.4228519122
 20
3.2275714325
 30
0.0
 10
3.4265941506
 20
3.2276322552
 30
0.0
 10
3.4315800275
 20
3.2278414616
 30
0.0
 10
3.4365666541
 20
3.2281381454
 30
0.0
 10
3.4427978902
 20
3.2286842887
 30
0.0
 10
3.4502591574
 20
3.2296599595
 30
0.0
 10
3.4576977239
 20
3.2310216487
 30
0.0
 10
3.463847686
 20
3.2325505062
 30
0.0
 10
3.4687208814
 20
3.2340712305
 30
0.0
 10
3.4736006349
 20
3.2358359356
 30
0.0
 10
3.4777862913
 20
3.2377201905
 30
0.0
 10
3.4812564559
 20
3.2396354409
 30
0.0
 10
3.4835857821
 20
3.241031877
 30
0.0
 10
3.4858612548
 20
3.2425802459
 30
0.0
 10
3.4880566879
 20
3.2442984628
 30
0.0
 10
3.4896781345
 20
3.2456979319
 30
0.0
 10
3.4912537901
 20
3.2472096846
 30
0.0
 10
3.4927743175
 20
3.2488436569
 30
0.0
 10
3.4942256415
 20
3.2506124264
 30
0.0
 10
3.4955915599
 20
3.2525272045
 30
0.0
 10
3.4968494709
 20
3.2545995064
 30
0.0
 10
3.4979718599
 20
3.2568369235
 30
0.0
 10
3.4989243574
 20
3.2592404463
 30
0.0
 10
3.4996674527
 20
3.2617988589
 30
0.0
 10
3.5001612597
 20
3.2644832591
 30
0.0
 10
3.5003732363
 20
3.2672452323
 30
0.0
 10
3.5002876869
 20
3.2700215796
 30
0.0
 10
3.4999110732
 20
3.2727461139
 30
0.0
 10
3.4992697771
 20
3.27536305
 30
0.0
 10
3.4984017179
 20
3.277834996
 30
0.0
 10
3.4973472515
 20
3.2801439356
 30
0.0
 10
3.4957667192
 20
3.2829567623
 30
0.0
 10
3.4939275031
 20
3.2855036931
 30
0.0
 10
3.4919106528
 20
3.2877865403
 30
0.0
 10
3.4903572473
 20
3.2893494114
 30
0.0
 10
3.4887540089
 20
3.2907953636
 30
0.0
 10
3.4855365038
 20
3.2934197665
 30
0.0
 10
3.4826318453
 20
3.2952872284
 30
0.0
 10
3.480241823
 20
3.2965995951
 30
0.0
  0
LINE
  5
456
100
AcDbEntity
  8
0
100
AcDbLine
 62
7
  6
CONTINUOUS
 10
3.1783829193
 20
4.4832813438
 11
3.178845373
 21
4.4832423706
  0
SPLINE
  5
457
100
AcDbEntity
  8
0
100
AcDbSpline
 62
7
  6
CONTINUOUS
 70
0
 71
3
 72
23
 73
19
 74
0
 42
0.0000001
 43
0.0000001
 44
0.0000000001
 40
0.0
 40
0.0
 40
0.0
 40
0.0
 40
0.0193443962
 40
0.0535869654
 40
0.1067306824
 40
0.1795431184
 40
0.2677884555
 40
0.3671741392
 40
0.4736427145
 40
0.5810947699
 40
0.6827934091
 40
0.7744161656
 40
0.8524362829
 40
0.9128731257
 40
0.9548869549
 40
0.9810395496
 40
0.9949542251
 40
1.0
 40
1.0
 40
1.0
 40
1.0
 10
3.178845373
 20
4.4832423706
 30
0.0
 10
3.1791158475
 20
4.4832247103
 30
0.0
 10
3.1798658607
 20
4.483187793
 30
0.0
 10
3.1813605797
 20
4.4831387114
 30
0.0
 10
3.1836048342
 20
4.4830926636
 30
0.0
 10
3.186605977
 20
4.4830558741
 30
0.0
 10
3.1902551456
 20
4.4830253451
 30
0.0
 10
3.1943759658
 20
4.4830031154
 30
0.0
 10
3.1987659672
 20
4.4829942738
 30
0.0
 10
3.2031883691
 20
4.4830074975
 30
0.0
 10
3.2074026641
 20
4.483036518
 30
0.0
 10
3.2112044764
 20
4.4830740048
 30
0.0
 10
3.214428054
 20
4.4831155894
 30
0.0
 10
3.2169563668
 20
4.4831628101
 30
0.0
 10
3.2187576755
 20
4.4832123018
 30
0.0
 10
3.2199069805
 20
4.4832563917
 30
0.0
 10
3.2205382253
 20
4.4832896987
 30
0.0
 10
3.2208033317
 20
4.4833073888
 30
0.0
 10
3.2208737731
 20
4.483313437
 30
0.0
  0
SPLINE
  5
458
100
AcDbEntity
  8
0
100
AcDbSpline
 62
7
  6
CONTINUOUS
 70
0
 71
3
 72
17
 73
13
 74
0
 42
0.0000001
 43
0.0000001
 44
0.0000000001
 40
0.0
 40
0.0
 40
0.0
 40
0.0
 40
0.1213499562
 40
0.2432268153
 40
0.3045138225
 40
0.3660841936
 40
0.4901718832
 40
0.5527407223
 40
0.6156613373
 40
0.7425266994
 40
0.8706917043
 40
1.0
 40
1.0
 40
1.0
 40
1.0
 10
3.4203577435
 20
3.3151888317
 30
0.0
 10
3.422921551
 20
3.3151888317
 30
0.0
 10
3.4280631151
 20
3.3149549233
 30
0.0
 10
3.4344467742
 20
3.3140924346
 30
0.0
 10
3.4395194229
 20
3.3130846972
 30
0.0
 10
3.4445939672
 20
3.3118677167
 30
0.0
 10
3.4496227963
 20
3.3103622177
 30
0.0
 10
3.4545964774
 20
3.3086096041
 30
0.0
 10
3.4595714514
 20
3.3066904433
 30
0.0
 10
3.4657385361
 20
3.3040199012
 30
0.0
 10
3.4730422338
 20
3.300466988
 30
0.0
 10
3.4778471408
 20
3.2979145204
 30
0.0
 10
3.480241823
 20
3.2965995951
 30
0.0
  0
SPLINE
  5
459
100
AcDbEntity
  8
0
100
AcDbSpline
 62
7
  6
CONTINUOUS
 70
0
 71
3
 72
26
 73
22
 74
0
 42
0.0000001
 43
0.0000001
 44
0.0000000001
 40
0.0
 40
0.0
 40
0.0
 40
0.0
 40
0.0800839654
 40
0.1575737249
 40
0.2321043259
 40
0.2681959243
 40
0.3034945537
 40
0.3717595613
 40
0.4370601155
 40
0.4996414865
 40
0.5598005139
 40
0.6178680116
 40
0.6742121515
 40
0.7292322139
 40
0.7833599779
 40
0.8370495367
 40
0.8638818198
 40
0.8907763805
 40
0.9177860686
 40
0.9449646662
 40
1.0
 40
1.0
 40
1.0
 40
1.0
 10
3.6077987186
 20
2.7350215214
 30
0.0
 10
3.6067134816
 20
2.7311027924
 30
0.0
 10
3.6046247971
 20
2.7233794228
 30
0.0
 10
3.6015667309
 20
2.7119981627
 30
0.0
 10
3.5990302778
 20
2.7027896314
 30
0.0
 10
3.5969917868
 20
2.6956664336
 30
0.0
 10
3.5949821147
 20
2.6888661971
 30
0.0
 10
3.5924194554
 20
2.6806830698
 30
0.0
 10
3.5891457735
 20
2.6712749321
 30
0.0
 10
3.5856335089
 20
2.6623929911
 30
0.0
 10
3.5818135954
 20
2.6540394638
 30
0.0
 10
3.5776239533
 20
2.6462206047
 30
0.0
 10
3.573010206
 20
2.6389492055
 30
0.0
 10
3.5679260792
 20
2.6322453391
 30
0.0
 10
3.5623367338
 20
2.6261361039
 30
0.0
 10
3.5572351824
 20
2.6215652687
 30
0.0
 10
3.5529009184
 20
2.6182511679
 30
0.0
 10
3.549516704
 20
2.6159343399
 30
0.0
 10
3.5459997587
 20
2.6137902155
 30
0.0
 10
3.5411167529
 20
2.6111573787
 30
0.0
 10
3.5372874517
 20
2.6094703596
 30
0.0
 10
3.534675889
 20
2.6084761933
 30
0.0
  0
SPLINE
  5
45A
100
AcDbEntity
  8
0
100
AcDbSpline
 62
7
  6
CONTINUOUS
 70
0
 71
3
 72
55
 73
51
 74
0
 42
0.0000001
 43
0.0000001
 44
0.0000000001
 40
0.0
 40
0.0
 40
0.0
 40
0.0
 40
0.0164641449
 40
0.0319365339
 40
0.0465747097
 40
0.060508281
 40
0.0738491981
 40
0.0866896322
 40
0.1111673183
 40
0.1344494023
 40
0.156893974
 40
0.1787586326
 40
0.2002272026
 40
0.2214327033
 40
0.2319694898
 40
0.2424751281
 40
0.263424459
 40
0.2738857419
 40
0.2843470502
 40
0.3052966023
 40
0.315802443
 40
0.3263394983
 40
0.3475457921
 40
0.3690155709
 40
0.390882017
 40
0.4133291899
 40
0.4248508597
 40
0.4366212851
 40
0.4611042771
 40
0.4739481513
 40
0.4872931377
 40
0.5012315493
 40
0.5158754551
 40
0.5313546562
 40
0.5478268721
 40
0.5845127769
 40
0.6279046769
 40
0.6529083694
 40
0.6805269212
 40
0.7108840981
 40
0.7436342629
 40
0.7776790201
 40
0.8113459982
 40
0.8431440225
 40
0.8723196331
 40
0.8987726983
 40
0.9227331719
 40
0.9644702065
 40
0.9828848155
 40
1.0
 40
1.0
 40
1.0
 40
1.0
 10
2.8882473082
 20
3.2416645193
 30
0.0
 10
2.8886274822
 20
3.2411020006
 30
0.0
 10
2.8893976629
 20
3.2400324811
 30
0.0
 10
2.8906141778
 20
3.2385448133
 30
0.0
 10
2.8918464184
 20
3.2372090225
 30
0.0
 10
2.8930916234
 20
3.2360090178
 30
0.0
 10
2.8943465521
 20
3.2349298351
 30
0.0
 10
2.8960040091
 20
3.2336568258
 30
0.0
 10
2.8981032165
 20
3.2322921891
 30
0.0
 10
2.9006771263
 20
3.2309580144
 30
0.0
 10
2.9032590149
 20
3.2298990682
 30
0.0
 10
2.9058452741
 20
3.2290725787
 30
0.0
 10
2.908434238
 20
3.2284470562
 30
0.0
 10
2.9105977329
 20
3.2280716658
 30
0.0
 10
2.9123262562
 20
3.2278521296
 30
0.0
 10
2.914049855
 20
3.2276834858
 30
0.0
 10
2.915776858
 20
3.2275887661
 30
0.0
 10
2.9175035641
 20
3.2275656021
 30
0.0
 10
2.9192302749
 20
3.2275891132
 30
0.0
 10
2.9209572763
 20
3.2276842053
 30
0.0
 10
2.9226808673
 20
3.2278532195
 30
0.0
 10
2.9244093957
 20
3.228073136
 30
0.0
 10
2.9265728889
 20
3.2284490586
 30
0.0
 10
2.9291618691
 20
3.2290752792
 30
0.0
 10
2.9317480271
 20
3.2299025787
 30
0.0
 10
2.9338808619
 20
3.230778007
 30
0.0
 10
2.9355749911
 20
3.2316085834
 30
0.0
 10
2.9373024447
 20
3.2325569975
 30
0.0
 10
2.9390029872
 20
3.2336635261
 30
0.0
 10
2.9406603051
 20
3.2349374879
 30
0.0
 10
2.9419151788
 20
3.2360175346
 30
0.0
 10
2.9431602952
 20
3.2372185043
 30
0.0
 10
2.9443924298
 20
3.2385553402
 30
0.0
 10
2.9456088208
 20
3.2400443287
 30
0.0
 10
2.9472629295
 20
3.2423430663
 30
0.0
 10
2.9492712084
 20
3.2457940859
 30
0.0
 10
2.9509562496
 20
3.2498003387
 30
0.0
 10
2.952139617
 20
3.2535811559
 30
0.0
 10
2.9529386558
 20
3.256911357
 30
0.0
 10
2.9535564388
 20
3.2606044359
 30
0.0
 10
2.9539329299
 20
3.2645965958
 30
0.0
 10
2.954019419
 20
3.268742281
 30
0.0
 10
2.9538028744
 20
3.2728438203
 30
0.0
 10
2.9533143731
 20
3.2767192943
 30
0.0
 10
2.9526108001
 20
3.2802581662
 30
0.0
 10
2.9517499989
 20
3.2834281616
 30
0.0
 10
2.9505100595
 20
3.2870222508
 30
0.0
 10
2.9490702014
 20
3.2901905627
 30
0.0
 10
2.9474695651
 20
3.292947505
 30
0.0
 10
2.946655227
 20
3.2941669161
 30
0.0
 10
2.9462448267
 20
3.2947411175
 30
0.0
  0
LINE
  5
45B
100
AcDbEntity
  8
0
100
AcDbLine
 62
7
  6
CONTINUOUS
 10
3.2208829193
 20
4.4828140676
 11
3.2197792089
 21
4.4827527019
  0
SPLINE
  5
45C
100
AcDbEntity
  8
0
100
AcDbSpline
 62
7
  6
CONTINUOUS
 70
0
 71
3
 72
23
 73
19
 74
0
 42
0.0000001
 43
0.0000001
 44
0.0000000001
 40
0.0
 40
0.0
 40
0.0
 40
0.0
 40
0.0246812571
 40
0.060359204
 40
0.1084339448
 40
0.1688987208
 40
0.2397629823
 40
0.3189064994
 40
0.4044860205
 40
0.4941661489
 40
0.5843995211
 40
0.6713783191
 40
0.7524909705
 40
0.8256949335
 40
0.8886530879
 40
0.9386856477
 40
0.9752721831
 40
1.0
 40
1.0
 40
1.0
 40
1.0
 10
3.2197792089
 20
4.4827527019
 30
0.0
 10
3.2194478315
 20
4.4827384946
 30
0.0
 10
3.2186372075
 20
4.4827090035
 30
0.0
 10
3.2171805438
 20
4.4826689056
 30
0.0
 10
3.2152428469
 20
4.4826295249
 30
0.0
 10
3.2128321644
 20
4.4825939241
 30
0.0
 10
3.2100038911
 20
4.4825612391
 30
0.0
 10
3.2068380542
 20
4.4825322196
 30
0.0
 10
3.203419301
 20
4.4825093627
 30
0.0
 10
3.1998514584
 20
4.482496295
 30
0.0
 10
3.1962647871
 20
4.4824978055
 30
0.0
 10
3.1927932787
 20
4.4825105566
 30
0.0
 10
3.1895506621
 20
4.4825306833
 30
0.0
 10
3.1866308973
 20
4.4825560274
 30
0.0
 10
3.1841288673
 20
4.4825856584
 30
0.0
 10
3.1821190557
 20
4.4826214998
 30
0.0
 10
3.1806232144
 20
4.4826612
 30
0.0
 10
3.179799794
 20
4.4826923727
 30
0.0
 10
3.1794678533
 20
4.4827079835
 30
0.0
  0
LINE
  5
45D
100
AcDbEntity
  8
0
100
AcDbLine
 62
7
  6
CONTINUOUS
 10
3.1794678533
 20
4.4827079835
 11
3.1783829193
 21
4.482781145
  0
LINE
  5
45E
100
AcDbEntity
  8
0
100
AcDbLine
 62
7
  6
CONTINUOUS
 10
3.0759829193
 20
4.4728237082
 11
3.0758917497
 21
4.4727705752
  0
LINE
  5
45F
100
AcDbEntity
  8
0
100
AcDbLine
 62
7
  6
CONTINUOUS
 10
3.0758917497
 20
4.4727705752
 11
3.0687255887
 21
4.4712534233
  0
SPLINE
  5
460
100
AcDbEntity
  8
0
100
AcDbSpline
 62
7
  6
CONTINUOUS
 70
0
 71
3
 72
8
 73
4
 74
0
 42
0.0000001
 43
0.0000001
 44
0.0000000001
 40
0.0
 40
0.0
 40
0.0
 40
0.0
 40
1.0
 40
1.0
 40
1.0
 40
1.0
 10
3.0678256932
 20
4.4710840707
 30
0.0
 10
3.0677947692
 20
4.4710782856
 30
0.0
 10
3.0677638445
 20
4.4710725038
 30
0.0
 10
3.0677329193
 20
4.4710667253
 30
0.0
  0
SPLINE
  5
461
100
AcDbEntity
  8
0
100
AcDbSpline
 62
7
  6
CONTINUOUS
 70
0
 71
3
 72
22
 73
18
 74
0
 42
0.0000001
 43
0.0000001
 44
0.0000000001
 40
0.0
 40
0.0
 40
0.0
 40
0.0
 40
0.1201214895
 40
0.1814150028
 40
0.2433441289
 40
0.3057957365
 40
0.3686620176
 40
0.431840139
 40
0.495231693
 40
0.558742783
 40
0.6222846954
 40
0.6857740565
 40
0.7491330089
 40
0.8122911501
 40
0.8751861812
 40
0.9377690056
 40
1.0
 40
1.0
 40
1.0
 40
1.0
 10
3.5335190416
 20
2.960093008
 30
0.0
 10
3.5411330923
 20
2.9536126401
 30
0.0
 10
3.5519783477
 20
2.9430216365
 30
0.0
 10
3.5650294144
 20
2.9275199066
 30
0.0
 10
3.5741988576
 20
2.9150641997
 30
0.0
 10
3.5826061161
 20
2.9019275996
 30
0.0
 10
3.5901837341
 20
2.8881760257
 30
0.0
 10
3.59686537
 20
2.8738808099
 30
0.0
 10
3.6025880005
 20
2.8591172935
 30
0.0
 10
3.6072911123
 20
2.8439657847
 30
0.0
 10
3.6109191722
 20
2.8285125519
 30
0.0
 10
3.6134239674
 20
2.8128502058
 30
0.0
 10
3.6147653552
 20
2.7970770263
 30
0.0
 10
3.6149114429
 20
2.7812964386
 30
0.0
 10
3.6138401556
 20
2.7656153269
 30
0.0
 10
3.6115405639
 20
2.7501452211
 30
0.0
 10
3.6091816278
 20
2.7400133727
 30
0.0
 10
3.6077987186
 20
2.7350215214
 30
0.0
  0
LINE
  5
462
100
AcDbEntity
  8
0
100
AcDbLine
 62
7
  6
CONTINUOUS
 10
3.1042329193
 20
4.4765140397
 11
3.1037581561
 21
4.4764611899
  0
LINE
  5
463
100
AcDbEntity
  8
0
100
AcDbLine
 62
7
  6
CONTINUOUS
 10
3.1037581561
 20
4.4764611899
 11
3.1032910313
 21
4.4764097428
  0
LINE
  5
464
100
AcDbEntity
  8
0
100
AcDbLine
 62
7
  6
CONTINUOUS
 10
3.1032910313
 20
4.4764097428
 11
3.0959829193
 21
4.4758064935
  0
SPLINE
  5
465
100
AcDbEntity
  8
0
100
AcDbSpline
 62
7
  6
CONTINUOUS
 70
0
 71
3
 72
11
 73
7
 74
0
 42
0.0000001
 43
0.0000001
 44
0.0000000001
 40
0.0
 40
0.0
 40
0.0
 40
0.0
 40
0.2513970283
 40
0.5024629101
 40
0.7523059412
 40
1.0
 40
1.0
 40
1.0
 40
1.0
 10
5.0152919432
 20
6.5685892857
 30
0.0
 10
5.0166733403
 20
6.5694285371
 30
0.0
 10
5.0194302644
 20
6.5711125761
 30
0.0
 10
5.0235657092
 20
6.5736214647
 30
0.0
 10
5.0277097724
 20
6.5760698297
 30
0.0
 10
5.0304985923
 20
6.5776378288
 30
0.0
 10
5.0318994613
 20
6.5783953042
 30
0.0
  0
SPLINE
  5
466
100
AcDbEntity
  8
0
100
AcDbSpline
 62
7
  6
CONTINUOUS
 70
0
 71
3
 72
11
 73
7
 74
0
 42
0.0000001
 43
0.0000001
 44
0.0000000001
 40
0.0
 40
0.0
 40
0.0
 40
0.0
 40
0.247694059
 40
0.4975370901
 40
0.7486029722
 40
1.0
 40
1.0
 40
1.0
 40
1.0
 10
5.3685663789
 20
6.5783953032
 30
0.0
 10
5.3699672478
 20
6.5776378279
 30
0.0
 10
5.3727560673
 20
6.576069829
 30
0.0
 10
5.3769001301
 20
6.5736214642
 30
0.0
 10
5.3810355745
 20
6.5711125758
 30
0.0
 10
5.3837924983
 20
6.569428537
 30
0.0
 10
5.3851738953
 20
6.5685892857
 30
0.0
  0
LINE
  5
467
100
AcDbEntity
  8
0
100
AcDbLine
 62
7
  6
CONTINUOUS
 10
3.1209829193
 20
4.4787890881
 11
3.1208242074
 21
4.4787220691
  0
LINE
  5
468
100
AcDbEntity
  8
0
100
AcDbLine
 62
7
  6
CONTINUOUS
 10
3.1208242074
 20
4.4787220691
 11
3.1137448822
 21
4.4776580556
  0
SPLINE
  5
469
100
AcDbEntity
  8
0
100
AcDbSpline
 62
7
  6
CONTINUOUS
 70
0
 71
3
 72
37
 73
33
 74
0
 42
0.0000001
 43
0.0000001
 44
0.0000000001
 40
0.0
 40
0.0
 40
0.0
 40
0.0
 40
0.0003481709
 40
0.0006654999
 40
0.0013995997
 40
0.0018961511
 40
0.0024997779
 40
0.0040565092
 40
0.0061044882
 40
0.0086571341
 40
0.0117210995
 40
0.0153000647
 40
0.0193962153
 40
0.0240109026
 40
0.0291447036
 40
0.0347974618
 40
0.0476579657
 40
0.0625877719
 40
0.0795805265
 40
0.0986271357
 40
0.1197170797
 40
0.1428395518
 40
0.167981242
 40
0.195125112
 40
0.2242537134
 40
0.2553491112
 40
0.3233595076
 40
0.3989879098
 40
0.4820336525
 40
0.5722741265
 40
0.7733499654
 40
1.0
 40
1.0
 40
1.0
 40
1.0
 10
3.8400856712
 20
3.2358033455
 30
0.0
 10
3.8400812285
 20
3.2358100234
 30
0.0
 10
3.8400742707
 20
3.235824096
 30
0.0
 10
3.8400728301
 20
3.2358573812
 30
0.0
 10
3.8400952544
 20
3.2358888607
 30
0.0
 10
3.8401279847
 20
3.2359150754
 30
0.0
 10
3.8401805444
 20
3.2359470278
 30
0.0
 10
3.8402700533
 20
3.2359849258
 30
0.0
 10
3.8404052702
 20
3.2360281065
 30
0.0
 10
3.8405765022
 20
3.2360715014
 30
0.0
 10
3.8407838259
 20
3.2361151614
 30
0.0
 10
3.8410273452
 20
3.2361589202
 30
0.0
 10
3.8413070677
 20
3.2362027288
 30
0.0
 10
3.8416229932
 20
3.2362465188
 30
0.0
 10
3.8419750884
 20
3.2362902545
 30
0.0
 10
3.8425164352
 20
3.2363511085
 30
0.0
 10
3.8432832664
 20
3.236425729
 30
0.0
 10
3.8443113637
 20
3.2365114916
 30
0.0
 10
3.8454824428
 20
3.2365966612
 30
0.0
 10
3.8467958165
 20
3.2366809329
 30
0.0
 10
3.8482507301
 20
3.2367639452
 30
0.0
 10
3.8498463422
 20
3.2368453496
 30
0.0
 10
3.8515816684
 20
3.2369248715
 30
0.0
 10
3.8534555725
 20
3.2370023807
 30
0.0
 10
3.8554668206
 20
3.237077718
 30
0.0
 10
3.8584191972
 20
3.2371780918
 30
0.0
 10
3.8624427914
 20
3.2372952394
 30
0.0
 10
3.8676633914
 20
3.2374183166
 30
0.0
 10
3.8733965252
 20
3.237526346
 30
0.0
 10
3.8820196173
 20
3.2376536012
 30
0.0
 10
3.8939514344
 20
3.2377569558
 30
0.0
 10
3.9038047821
 20
3.2377825274
 30
0.0
 10
3.9090260161
 20
3.2377828115
 30
0.0
  0
LINE
  5
46A
100
AcDbEntity
  8
0
100
AcDbLine
 62
7
  6
CONTINUOUS
 10
3.1492329193
 20
4.4808072192
 11
3.1487597709
 21
4.4807824024
  0
LINE
  5
46B
100
AcDbEntity
  8
0
100
AcDbLine
 62
7
  6
CONTINUOUS
 10
3.1487597709
 20
4.4807824024
 11
3.1482940622
 21
4.4807585243
  0
LINE
  5
46C
100
AcDbEntity
  8
0
100
AcDbLine
 62
7
  6
CONTINUOUS
 10
3.1482940622
 20
4.4807585243
 11
3.1409829193
 21
4.4805844454
  0
SPLINE
  5
46D
100
AcDbEntity
  8
0
100
AcDbSpline
 62
7
  6
CONTINUOUS
 70
0
 71
3
 72
21
 73
17
 74
0
 42
0.0000001
 43
0.0000001
 44
0.0000000001
 40
0.0
 40
0.0
 40
0.0
 40
0.0
 40
0.0368070525
 40
0.0768345375
 40
0.1202111618
 40
0.1670227914
 40
0.2173262978
 40
0.2711553622
 40
0.3285217148
 40
0.3894239902
 40
0.4538465712
 40
0.5217599496
 40
0.5931280907
 40
0.6679079157
 40
0.8274963576
 40
1.0
 40
1.0
 40
1.0
 40
1.0
 10
3.5666622839
 20
2.7294047022
 30
0.0
 10
3.5671090117
 20
2.7296583861
 30
0.0
 10
3.5680646964
 20
2.7301477205
 30
0.0
 10
3.5696088649
 20
2.7308066673
 30
0.0
 10
3.5713207405
 20
2.73141995
 30
0.0
 10
3.5731985869
 20
2.7319870785
 30
0.0
 10
3.5752406935
 20
2.7325075164
 30
0.0
 10
3.5774450706
 20
2.7329806849
 30
0.0
 10
3.57980953
 20
2.7334061758
 30
0.0
 10
3.5823316985
 20
2.7337834767
 30
0.0
 10
3.5850089888
 20
2.734112171
 30
0.0
 10
3.5878386175
 20
2.7343919554
 30
0.0
 10
3.5908176712
 20
2.7346224832
 30
0.0
 10
3.5950780646
 20
2.7348691451
 30
0.0
 10
3.6007553621
 20
2.7350441776
 30
0.0
 10
3.6053911639
 20
2.7350489997
 30
0.0
 10
3.6077987186
 20
2.7350215214
 30
0.0
  0
SPLINE
  5
46E
100
AcDbEntity
  8
0
100
AcDbSpline
 62
7
  6
CONTINUOUS
 70
0
 71
3
 72
31
 73
27
 74
0
 42
0.0000001
 43
0.0000001
 44
0.0000000001
 40
0.0
 40
0.0
 40
0.0
 40
0.0
 40
0.0012159956
 40
0.0025907178
 40
0.004269667
 40
0.0063348057
 40
0.0088300915
 40
0.0117801817
 40
0.0151997939
 40
0.0190982302
 40
0.0283533033
 40
0.0395755251
 40
0.0527769019
 40
0.0679624148
 40
0.0851329699
 40
0.1042850573
 40
0.1254130656
 40
0.1485105632
 40
0.2005771406
 40
0.2603977018
 40
0.327863678
 40
0.4028459383
 40
0.4851894892
 40
0.5747161864
 40
0.7744425795
 40
1.0
 40
1.0
 40
1.0
 40
1.0
 10
3.8502075138
 20
3.1949489212
 30
0.0
 10
3.8502048523
 20
3.1949227159
 30
0.0
 10
3.8502118524
 20
3.1948650709
 30
0.0
 10
3.8502583332
 20
3.1947832763
 30
0.0
 10
3.850336642
 20
3.1947037074
 30
0.0
 10
3.8504466854
 20
3.1946245215
 30
0.0
 10
3.8505889226
 20
3.1945450653
 30
0.0
 10
3.8507637111
 20
3.1944651859
 30
0.0
 10
3.8509712323
 20
3.1943848753
 30
0.0
 10
3.8513116795
 20
3.1942706777
 30
0.0
 10
3.8518211202
 20
3.1941305608
 30
0.0
 10
3.8525326995
 20
3.1939691356
 30
0.0
 10
3.8533753453
 20
3.1938069458
 30
0.0
 10
3.854348772
 20
3.1936443879
 30
0.0
 10
3.8554526742
 20
3.1934819302
 30
0.0
 10
3.8566866133
 20
3.1933201486
 30
0.0
 10
3.8580500734
 20
3.1931596232
 30
0.0
 10
3.8601242395
 20
3.1929391495
 30
0.0
 10
3.8630363085
 20
3.192674021
 30
0.0
 10
3.8669103122
 20
3.1923801162
 30
0.0
 10
3.8712831281
 20
3.19210411
 30
0.0
 10
3.8761459648
 20
3.1918517929
 30
0.0
 10
3.8814885121
 20
3.1916279366
 30
0.0
 10
3.8895335498
 20
3.1913637752
 30
0.0
 10
3.9006833287
 20
3.1911424575
 30
0.0
 10
3.9098956755
 20
3.1910898184
 30
0.0
 10
3.9147815495
 20
3.1910897834
 30
0.0
  0
LINE
  5
46F
100
AcDbEntity
  8
0
100
AcDbLine
 62
7
  6
CONTINUOUS
 10
3.2784829193
 20
4.4789864571
 11
3.2779835622
 21
4.4789448064
  0
LINE
  5
470
100
AcDbEntity
  8
0
100
AcDbLine
 62
7
  6
CONTINUOUS
 10
3.2779835622
 20
4.4789448064
 11
3.2698463684
 21
4.4793669059
  0
LINE
  5
471
100
AcDbEntity
  8
0
100
AcDbLine
 62
7
  6
CONTINUOUS
 10
3.2698463684
 20
4.4793669059
 11
3.2692329193
 21
4.4794079926
  0
LINE
  5
472
100
AcDbEntity
  8
0
100
AcDbLine
 62
7
  6
CONTINUOUS
 10
3.3056532067
 20
4.4752799279
 11
3.3051239217
 21
4.4753647295
  0
LINE
  5
473
100
AcDbEntity
  8
0
100
AcDbLine
 62
7
  6
CONTINUOUS
 10
3.3051239217
 20
4.4753647295
 11
3.2964829193
 21
4.4769460881
  0
SPLINE
  5
474
100
AcDbEntity
  8
0
100
AcDbSpline
 62
7
  6
CONTINUOUS
 70
0
 71
3
 72
53
 73
49
 74
0
 42
0.0000001
 43
0.0000001
 44
0.0000000001
 40
0.0
 40
0.0
 40
0.0
 40
0.0
 40
0.0329818951
 40
0.0679555724
 40
0.1047123658
 40
0.1430374906
 40
0.223495295
 40
0.3075287088
 40
0.3503285021
 40
0.3933570414
 40
0.4792320949
 40
0.5634350981
 40
0.6043813593
 40
0.644281356
 40
0.6829328715
 40
0.7201388701
 40
0.7557084519
 40
0.7894579147
 40
0.8212118807
 40
0.8508044499
 40
0.8780802129
 40
0.9028952016
 40
0.9143382246
 40
0.9251177376
 40
0.9352191484
 40
0.9446292372
 40
0.9533351075
 40
0.9613252167
 40
0.968588802
 40
0.9751158334
 40
0.9808977856
 40
0.9859265026
 40
0.988156275
 40
0.9901953516
 40
0.9920430107
 40
0.9936985441
 40
0.9951614069
 40
0.9964312193
 40
0.9975076335
 40
0.9983903513
 40
0.9990791886
 40
0.9993509641
 40
0.9995744322
 40
0.9997498004
 40
0.9998775252
 40
0.9999238895
 40
0.9999590304
 40
1.0
 40
1.0
 40
1.0
 40
1.0
 10
3.9147815495
 20
3.1910897834
 30
0.0
 10
3.9184851668
 20
3.1910898165
 30
0.0
 10
3.9261160842
 20
3.1911230836
 30
0.0
 10
3.9378737891
 20
3.1912583794
 30
0.0
 10
3.9502303668
 20
3.191474786
 30
0.0
 10
3.9676919946
 20
3.1918649483
 30
0.0
 10
3.9904579868
 20
3.1925008072
 30
0.0
 10
4.0137238733
 20
3.1932266468
 30
0.0
 10
4.032788504
 20
3.193830445
 30
0.0
 10
4.052059931
 20
3.1944376432
 30
0.0
 10
4.0759788963
 20
3.1951730217
 30
0.0
 10
4.0996654803
 20
3.1958567885
 30
0.0
 10
4.1181923254
 20
3.1963639561
 30
0.0
 10
4.1316063685
 20
3.1967173639
 30
0.0
 10
4.1446008416
 20
3.1970485931
 30
0.0
 10
4.1571094713
 20
3.1973565934
 30
0.0
 10
4.1690680135
 20
3.1976423923
 30
0.0
 10
4.1804146512
 20
3.1979075141
 30
0.0
 10
4.1910904255
 20
3.1981514638
 30
0.0
 10
4.2010394849
 20
3.1983769152
 30
0.0
 10
4.2102095672
 20
3.1985839319
 30
0.0
 10
4.2173420841
 20
3.1987461919
 30
0.0
 10
4.222622621
 20
3.1988687113
 30
0.0
 10
4.226251349
 20
3.198954194
 30
0.0
 10
4.2296518203
 20
3.1990358529
 30
0.0
 10
4.2328194566
 20
3.1991138868
 30
0.0
 10
4.2357500208
 20
3.1991885174
 30
0.0
 10
4.238439554
 20
3.1992598298
 30
0.0
 10
4.2408844195
 20
3.199327849
 30
0.0
 10
4.2430813174
 20
3.1993926305
 30
0.0
 10
4.2450272347
 20
3.1994543018
 30
0.0
 10
4.2464907024
 20
3.1995050255
 30
0.0
 10
4.2475340005
 20
3.199544569
 30
0.0
 10
4.2482202783
 20
3.1995723145
 30
0.0
 10
4.2488420467
 20
3.1995993541
 30
0.0
 10
4.2493990764
 20
3.1996256914
 30
0.0
 10
4.2498911745
 20
3.1996513222
 30
0.0
 10
4.2503181831
 20
3.1996762459
 30
0.0
 10
4.2506799689
 20
3.1997004198
 30
0.0
 10
4.2509763996
 20
3.1997238564
 30
0.0
 10
4.251182443
 20
3.199743852
 30
0.0
 10
4.2513144214
 20
3.1997601775
 30
0.0
 10
4.2513889021
 20
3.1997711706
 30
0.0
 10
4.2514471228
 20
3.1997820125
 30
0.0
 10
4.2514851294
 20
3.1997912527
 30
0.0
 10
4.2515075255
 20
3.1997993237
 30
0.0
 10
4.2515194195
 20
3.1998050036
 30
0.0
 10
4.2515275345
 20
3.1998114122
 30
0.0
 10
4.2515277749
 20
3.1998160065
 30
0.0
  0
LINE
  5
475
100
AcDbEntity
  8
0
100
AcDbLine
 62
7
  6
CONTINUOUS
 10
7.3353053133
 20
4.4711235804
 11
7.3371314349
 21
4.4708007749
  0
LINE
  5
476
100
AcDbEntity
  8
0
100
AcDbLine
 62
7
  6
CONTINUOUS
 10
7.3371314349
 20
4.4708007749
 11
7.3380410975
 21
4.4706403668
  0
LINE
  5
477
100
AcDbEntity
  8
0
100
AcDbLine
 62
7
  6
CONTINUOUS
 10
7.3380410975
 20
4.4706403668
 11
7.3580729222
 21
4.4672222139
  0
LINE
  5
478
100
AcDbEntity
  8
0
100
AcDbLine
 62
7
  6
CONTINUOUS
 10
7.3183738594
 20
4.4740420048
 11
7.3213738594
 21
4.4734594771
  0
LINE
  5
479
100
AcDbEntity
  8
0
100
AcDbLine
 62
7
  6
CONTINUOUS
 10
3.1409829193
 20
4.4810860659
 11
3.1482938247
 21
4.4812600199
  0
LINE
  5
47A
100
AcDbEntity
  8
0
100
AcDbLine
 62
7
  6
CONTINUOUS
 10
7.3596045064
 20
4.466476095
 11
7.3605122345
 21
4.4663300501
  0
SPLINE
  5
47B
100
AcDbEntity
  8
0
100
AcDbSpline
 62
7
  6
CONTINUOUS
 70
0
 71
3
 72
9
 73
5
 74
0
 42
0.0000001
 43
0.0000001
 44
0.0000000001
 40
0.0
 40
0.0
 40
0.0
 40
0.0
 40
0.3022491204
 40
1.0
 40
1.0
 40
1.0
 40
1.0
 10
7.3605122345
 20
4.4663300501
 30
0.0
 10
7.3605157704
 20
4.4663294016
 30
0.0
 10
7.3605274645
 20
4.4663272318
 30
0.0
 10
7.3605391465
 20
4.4663249889
 30
0.0
 10
7.3605472658
 20
4.4663232717
 30
0.0
  0
LINE
  5
47C
100
AcDbEntity
  8
0
100
AcDbLine
 62
7
  6
CONTINUOUS
 10
3.1137448972
 20
4.4781615847
 11
3.1209829193
 21
4.4792918766
  0
LINE
  5
47D
100
AcDbEntity
  8
0
100
AcDbLine
 62
7
  6
CONTINUOUS
 10
3.0959829193
 20
4.4763112346
 11
3.1032910178
 21
4.4769140863
  0
LINE
  5
47E
100
AcDbEntity
  8
0
100
AcDbLine
 62
7
  6
CONTINUOUS
 10
3.0687255796
 20
4.4717611726
 11
3.0759829193
 21
4.4733304171
  0
LINE
  5
47F
100
AcDbEntity
  8
0
100
AcDbLine
 62
7
  6
CONTINUOUS
 10
3.2692329193
 20
4.479910378
 11
3.2698463665
 21
4.479869318
  0
LINE
  5
480
100
AcDbEntity
  8
0
100
AcDbLine
 62
7
  6
CONTINUOUS
 10
3.2698463665
 20
4.479869318
 11
3.2784829193
 21
4.479489117
  0
LINE
  5
481
100
AcDbEntity
  8
0
100
AcDbLine
 62
7
  6
CONTINUOUS
 10
3.2964829193
 20
4.4774500813
 11
3.3051242681
 21
4.4758697054
  0
LINE
  5
482
100
AcDbEntity
  8
0
100
AcDbLine
 62
7
  6
CONTINUOUS
 10
3.3051242681
 20
4.4758697054
 11
3.3057329193
 21
4.4757722912
  0
SPLINE
  5
483
100
AcDbEntity
  8
0
100
AcDbSpline
 62
7
  6
CONTINUOUS
 70
0
 71
3
 72
49
 73
45
 74
0
 42
0.0000001
 43
0.0000001
 44
0.0000000001
 40
0.0
 40
0.0
 40
0.0
 40
0.0
 40
0.013233892
 40
0.0264953008
 40
0.0398074389
 40
0.0531962993
 40
0.0666856398
 40
0.0802974987
 40
0.094052432
 40
0.1079689412
 40
0.1220633639
 40
0.1363497399
 40
0.1655318555
 40
0.195591636
 40
0.2265559457
 40
0.2584160655
 40
0.2911309571
 40
0.3246310935
 40
0.3588225208
 40
0.3935910196
 40
0.4288062885
 40
0.4643260346
 40
0.5
 40
0.5356739654
 40
0.5711937115
 40
0.6064089804
 40
0.6411774792
 40
0.6753689065
 40
0.7088690429
 40
0.7415839345
 40
0.7734440543
 40
0.804408364
 40
0.8344681445
 40
0.8636502601
 40
0.8779366361
 40
0.8920310588
 40
0.905947568
 40
0.9197025013
 40
0.9333143602
 40
0.9468037007
 40
0.9601925611
 40
0.9735046992
 40
0.986766108
 40
1.0
 40
1.0
 40
1.0
 40
1.0
 10
6.6416886105
 20
2.6026295232
 30
0.0
 10
6.6392629241
 20
2.6026295232
 30
0.0
 10
6.6344049794
 20
2.6027906287
 30
0.0
 10
6.627139457
 20
2.6035143728
 30
0.0
 10
6.6199089295
 20
2.6047188074
 30
0.0
 10
6.6127316291
 20
2.6064007953
 30
0.0
 10
6.6056246527
 20
2.6085560807
 30
0.0
 10
6.5986053006
 20
2.6111794465
 30
0.0
 10
6.5916905435
 20
2.6142644018
 30
0.0
 10
6.5848970587
 20
2.617803236
 30
0.0
 10
6.5782410646
 20
2.6217875468
 30
0.0
 10
6.5695110368
 20
2.6277214288
 30
0.0
 10
6.5590221783
 20
2.636231069
 30
0.0
 10
6.5473329292
 20
2.6479643374
 30
0.0
 10
6.5365572275
 20
2.6611797669
 30
0.0
 10
6.5267973212
 20
2.6757486848
 30
0.0
 10
6.5181443473
 20
2.691531226
 30
0.0
 10
6.5106797244
 20
2.7083760838
 30
0.0
 10
6.504473721
 20
2.7261221008
 30
0.0
 10
6.4995848607
 20
2.744599573
 30
0.0
 10
6.4960593564
 20
2.7636318631
 30
0.0
 10
6.4939306229
 20
2.783037026
 30
0.0
 10
6.4932188033
 20
2.8026295232
 30
0.0
 10
6.4939306229
 20
2.8222220204
 30
0.0
 10
6.4960593564
 20
2.8416271833
 30
0.0
 10
6.4995848607
 20
2.8606594734
 30
0.0
 10
6.504473721
 20
2.8791369456
 30
0.0
 10
6.5106797244
 20
2.8968829626
 30
0.0
 10
6.5181443473
 20
2.9137278204
 30
0.0
 10
6.5267973212
 20
2.9295103616
 30
0.0
 10
6.5365572275
 20
2.9440792795
 30
0.0
 10
6.5473329292
 20
2.957294709
 30
0.0
 10
6.5590221783
 20
2.9690279774
 30
0.0
 10
6.5695110368
 20
2.9775376176
 30
0.0
 10
6.5782410646
 20
2.9834714996
 30
0.0
 10
6.5848970587
 20
2.9874558104
 30
0.0
 10
6.5916905435
 20
2.9909946446
 30
0.0
 10
6.5986053006
 20
2.9940795999
 30
0.0
 10
6.6056246527
 20
2.9967029657
 30
0.0
 10
6.6127316291
 20
2.9988582511
 30
0.0
 10
6.6199089295
 20
3.000540239
 30
0.0
 10
6.627139457
 20
3.0017446736
 30
0.0
 10
6.6344049794
 20
3.0024684177
 30
0.0
 10
6.6392629241
 20
3.0026295232
 30
0.0
 10
6.6416886105
 20
3.0026295232
 30
0.0
  0
SPLINE
  5
484
100
AcDbEntity
  8
0
100
AcDbSpline
 62
7
  6
CONTINUOUS
 70
0
 71
3
 72
61
 73
57
 74
0
 42
0.0000001
 43
0.0000001
 44
0.0000000001
 40
0.0
 40
0.0
 40
0.0
 40
0.0
 40
0.0330312617
 40
0.0680063143
 40
0.1047345744
 40
0.1430203648
 40
0.1826549854
 40
0.2234269198
 40
0.2651180666
 40
0.3075082947
 40
0.3503752619
 40
0.3934952081
 40
0.4366446952
 40
0.479600985
 40
0.5640514565
 40
0.6051118843
 40
0.6451125911
 40
0.6838482476
 40
0.7211187688
 40
0.7567317695
 40
0.790503089
 40
0.8222569657
 40
0.8518283535
 40
0.8790630336
 40
0.9038182371
 40
0.9152248999
 40
0.9259641778
 40
0.9360217816
 40
0.9453845345
 40
0.9540396007
 40
0.9619758688
 40
0.9691830548
 40
0.975651485
 40
0.9813725339
 40
0.9863379729
 40
0.9885353524
 40
0.9905416254
 40
0.992356135
 40
0.9939782368
 40
0.9954074055
 40
0.9966432034
 40
0.9976852097
 40
0.9981334187
 40
0.9985330378
 40
0.9988840295
 40
0.999186387
 40
0.99944015
 40
0.9996453926
 40
0.9997298627
 40
0.9998022691
 40
0.9998626621
 40
0.99991113
 40
0.9999478473
 40
0.9999732325
 40
0.9999886567
 40
1.0
 40
1.0
 40
1.0
 40
1.0
 10
3.9090260161
 20
3.2377828115
 30
0.0
 10
3.9129216221
 20
3.2377825407
 30
0.0
 10
3.9209420801
 20
3.2377662581
 30
0.0
 10
3.9332940201
 20
3.237705446
 30
0.0
 10
3.9462654296
 20
3.2376055649
 30
0.0
 10
3.9597860724
 20
3.2374700115
 30
0.0
 10
3.9737833255
 20
3.2373056164
 30
0.0
 10
3.9881818879
 20
3.2371142926
 30
0.0
 10
4.0029052143
 20
3.2369046291
 30
0.0
 10
4.0178754216
 20
3.2366794637
 30
0.0
 10
4.0330139992
 20
3.2364440558
 30
0.0
 10
4.0482420574
 20
3.2362038691
 30
0.0
 10
4.0634806076
 20
3.2359609211
 30
0.0
 10
4.0835929676
 20
3.2356423806
 30
0.0
 10
4.1034590222
 20
3.2353302887
 30
0.0
 10
4.122976673
 20
3.2350318123
 30
0.0
 10
4.1371035245
 20
3.2348181344
 30
0.0
 10
4.150783517
 20
3.2346152169
 30
0.0
 10
4.1639461283
 20
3.2344223195
 30
0.0
 10
4.1765233516
 20
3.2342399066
 30
0.0
 10
4.1884500518
 20
3.2340686504
 30
0.0
 10
4.1996642962
 20
3.2339076316
 30
0.0
 10
4.2101077013
 20
3.2337571545
 30
0.0
 10
4.2197257667
 20
3.2336169615
 30
0.0
 10
4.2272017295
 20
3.2335054031
 30
0.0
 10
4.2327324549
 20
3.2334204605
 30
0.0
 10
4.2365299755
 20
3.2333609019
 30
0.0
 10
4.240086451
 20
3.2333037146
 30
0.0
 10
4.2433971242
 20
3.2332487328
 30
0.0
 10
4.2464576119
 20
3.2331957666
 30
0.0
 10
4.2492638754
 20
3.2331448636
 30
0.0
 10
4.2518122503
 20
3.2330961708
 30
0.0
 10
4.2540993628
 20
3.233049721
 30
0.0
 10
4.2561220745
 20
3.2330052864
 30
0.0
 10
4.2576411125
 20
3.2329683868
 30
0.0
 10
4.2587221008
 20
3.2329394658
 30
0.0
 10
4.2594315743
 20
3.2329191562
 30
0.0
 10
4.2600731867
 20
3.2328993554
 30
0.0
 10
4.2606467194
 20
3.2328800958
 30
0.0
 10
4.2611519779
 20
3.2328613754
 30
0.0
 10
4.2615887891
 20
3.2328431615
 30
0.0
 10
4.2619099203
 20
3.2328277334
 30
0.0
 10
4.2621324601
 20
3.2328153822
 30
0.0
 10
4.2622735793
 20
3.2328066964
 30
0.0
 10
4.2623974679
 20
3.232798116
 30
0.0
 10
4.2625041169
 20
3.2327896491
 30
0.0
 10
4.2625935247
 20
3.2327813048
 30
0.0
 10
4.2626572213
 20
3.2327741024
 30
0.0
 10
4.2626995279
 20
3.2327682262
 30
0.0
 10
4.2627248213
 20
3.2327641492
 30
0.0
 10
4.2627458396
 20
3.2327601144
 30
0.0
 10
4.2627624988
 20
3.2327561495
 30
0.0
 10
4.2627750905
 20
3.2327522367
 30
0.0
 10
4.2627831706
 20
3.232748486
 30
0.0
 10
4.2627885806
 20
3.2327443958
 30
0.0
 10
4.2627880841
 20
3.2327406622
 30
0.0
 10
4.2627873195
 20
3.2327395644
 30
0.0
  0
SPLINE
  5
485
100
AcDbEntity
  8
0
100
AcDbSpline
 62
7
  6
CONTINUOUS
 70
0
 71
3
 72
42
 73
38
 74
0
 42
0.0000001
 43
0.0000001
 44
0.0000000001
 40
0.0
 40
0.0
 40
0.0
 40
0.0
 40
0.0620080429
 40
0.1240833634
 40
0.1862493995
 40
0.2173869332
 40
0.2485619953
 40
0.2797834732
 40
0.3110551094
 40
0.3423895019
 40
0.3580837339
 40
0.3737980819
 40
0.405264244
 40
0.4367965252
 40
0.4525935312
 40
0.468401473
 40
0.4842164749
 40
0.5000357613
 40
0.5158534715
 40
0.5316667586
 40
0.5474710473
 40
0.5632623231
 40
0.5790404118
 40
0.5947997918
 40
0.626255571
 40
0.6419612442
 40
0.6576517754
 40
0.6889721969
 40
0.7202370188
 40
0.7514474398
 40
0.7826170414
 40
0.8137465915
 40
0.8448466005
 40
0.8759166898
 40
0.9069665434
 40
0.93799761
 40
1.0
 40
1.0
 40
1.0
 40
1.0
 10
3.2252790954
 20
3.2392526753
 30
0.0
 10
3.2269484665
 20
3.2398913257
 30
0.0
 10
3.2302560294
 20
3.241258636
 30
0.0
 10
3.2350806286
 20
3.243622371
 30
0.0
 10
3.2389425901
 20
3.2459033133
 30
0.0
 10
3.2418910953
 20
3.2479505358
 30
0.0
 10
3.2440181018
 20
3.2496098582
 30
0.0
 10
3.2460392334
 20
3.2514031866
 30
0.0
 10
3.2479285784
 20
3.2533420161
 30
0.0
 10
3.2493656403
 20
3.2550867404
 30
0.0
 10
3.25041186
 20
3.2565628376
 30
0.0
 10
3.2513822197
 20
3.2580943459
 30
0.0
 10
3.2524354581
 20
3.2601101121
 30
0.0
 10
3.2532273132
 20
3.2622468131
 30
0.0
 10
3.2536766535
 20
3.2640117898
 30
0.0
 10
3.2539168211
 20
3.2653587089
 30
0.0
 10
3.2540547761
 20
3.2667205646
 30
0.0
 10
3.2540882214
 20
3.2680892931
 30
0.0
 10
3.2540164881
 20
3.2694565029
 30
0.0
 10
3.2538406339
 20
3.2708137639
 30
0.0
 10
3.2535646883
 20
3.2721534221
 30
0.0
 10
3.2531927129
 20
3.273468488
 30
0.0
 10
3.2527317118
 20
3.2747536119
 30
0.0
 10
3.2520072088
 20
3.276419692
 30
0.0
 10
3.2511309539
 20
3.2780132057
 30
0.0
 10
3.2501315129
 20
3.2795249368
 30
0.0
 10
3.2490591902
 20
3.2809812217
 30
0.0
 10
3.2475949446
 20
3.2827020289
 30
0.0
 10
3.2456790929
 20
3.2846131908
 30
0.0
 10
3.2436370497
 20
3.2863814946
 30
0.0
 10
3.2414928846
 20
3.2880172548
 30
0.0
 10
3.2392663673
 20
3.2895327966
 30
0.0
 10
3.2369719132
 20
3.2909374177
 30
0.0
 10
3.2346219947
 20
3.2922420065
 30
0.0
 10
3.2322252867
 20
3.2934538844
 30
0.0
 10
3.2289792957
 20
3.2949571161
 30
0.0
 10
3.2264937388
 20
3.2959689865
 30
0.0
 10
3.2248214875
 20
3.2965995951
 30
0.0
  0
SPLINE
  5
486
100
AcDbEntity
  8
0
100
AcDbSpline
 62
7
  6
CONTINUOUS
 70
0
 71
3
 72
44
 73
40
 74
0
 42
0.0000001
 43
0.0000001
 44
0.0000000001
 40
0.0
 40
0.0
 40
0.0
 40
0.0
 40
0.0620145106
 40
0.0930496974
 40
0.1241049684
 40
0.1551831062
 40
0.186289765
 40
0.2174278418
 40
0.2486046127
 40
0.2798259689
 40
0.3110975961
 40
0.3424293752
 40
0.3581236194
 40
0.3738361864
 40
0.4052995435
 40
0.4210635715
 40
0.4368443788
 40
0.4526381541
 40
0.4684436029
 40
0.4842560335
 40
0.5000720823
 40
0.5158871096
 40
0.5316971518
 40
0.5474982643
 40
0.5632870221
 40
0.5948019005
 40
0.6262513876
 40
0.6419570354
 40
0.6576439403
 40
0.6889634218
 40
0.7202240567
 40
0.7514355012
 40
0.78260422
 40
0.8137352136
 40
0.844835932
 40
0.8759083824
 40
0.9069592961
 40
0.9379923602
 40
1.0
 40
1.0
 40
1.0
 40
1.0
 10
7.3505497474
 20
3.2392726726
 30
0.0
 10
7.3522178858
 20
3.2399119759
 30
0.0
 10
7.3546964389
 20
3.240937957
 30
0.0
 10
7.3579309095
 20
3.2424621575
 30
0.0
 10
7.3603174748
 20
3.243691427
 30
0.0
 10
7.3626557789
 20
3.2450145934
 30
0.0
 10
7.3649363461
 20
3.246439859
 30
0.0
 10
7.3671464144
 20
3.2479776071
 30
0.0
 10
7.3692705901
 20
3.2496379019
 30
0.0
 10
7.371288538
 20
3.2514323943
 30
0.0
 10
7.3731743772
 20
3.2533722027
 30
0.0
 10
7.3746082066
 20
3.2551176794
 30
0.0
 10
7.3756516125
 20
3.2565942783
 30
0.0
 10
7.3766191165
 20
3.2581259766
 30
0.0
 10
7.3774583406
 20
3.2597389383
 30
0.0
 10
7.3781404582
 20
3.2614221138
 30
0.0
 10
7.3785671358
 20
3.2627184957
 30
0.0
 10
7.3789022921
 20
3.2640427792
 30
0.0
 10
7.3791396308
 20
3.2653890632
 30
0.0
 10
7.3792754844
 20
3.2667500432
 30
0.0
 10
7.3793064935
 20
3.2681177403
 30
0.0
 10
7.3792327524
 20
3.2694837246
 30
0.0
 10
7.3790550719
 20
3.2708396247
 30
0.0
 10
7.3787773638
 20
3.2721778192
 30
0.0
 10
7.3782802628
 20
3.2739277649
 30
0.0
 10
7.3774358071
 20
3.2760410349
 30
0.0
 10
7.3763393485
 20
3.278030304
 30
0.0
 10
7.3753394988
 20
3.2795402057
 30
0.0
 10
7.3742671173
 20
3.2809948626
 30
0.0
 10
7.3728027761
 20
3.2827134276
 30
0.0
 10
7.3708876413
 20
3.2846227497
 30
0.0
 10
7.368846233
 20
3.2863890627
 30
0.0
 10
7.366703055
 20
3.2880234328
 30
0.0
 10
7.3644775391
 20
3.2895375523
 30
0.0
 10
7.362184276
 20
3.2909411821
 30
0.0
 10
7.3598354901
 20
3.2922446336
 30
0.0
 10
7.3574401244
 20
3.293455831
 30
0.0
 10
7.3541957879
 20
3.2949579504
 30
0.0
 10
7.3517115988
 20
3.2959693226
 30
0.0
 10
7.3500402389
 20
3.2965995951
 30
0.0
  0
ENDSEC
  0
SECTION
  2
OBJECTS
  0
DICTIONARY
  5
C
100
AcDbDictionary
280
0
281
1
  3
ACAD_GROUP
350
D
  3
ACAD_MLINESTYLE
350
17
  3
ACAD_LAYOUT
350
1A
  3
ACAD_PLOTSETTINGS
350
19
  3
ACAD_PLOTSTYLENAME
350
E
  0
DICTIONARY
  5
D
102
{ACAD_REACTORS
330
C
102
}
100
AcDbDictionary
280
0
281
1
  0
ACDBDICTIONARYWDFLT
  5
E
102
{ACAD_REACTORS
330
C
102
}
100
AcDbDictionary
281
1
  3
Normal
350
F
100
AcDbDictionaryWithDefault
340
F
  0
DICTIONARY
  5
17
102
{ACAD_REACTORS
330
C
102
}
100
AcDbDictionary
280
0
281
1
  3
Standard
350
18
  0
DICTIONARY
  5
19
102
{ACAD_REACTORS
330
C
102
}
100
AcDbDictionary
281
1
  0
DICTIONARY
  5
1A
102
{ACAD_REACTORS
330
C
102
}
100
AcDbDictionary
281
1
  3
Model
350
487
  3
Layout1
350
488
  0
ACDBPLACEHOLDER
  5
F
102
{ACAD_REACTORS
330
E
102
}
  0
MLINESTYLE
  5
18
102
{ACAD_REACTORS
330
17
102
}
100
AcDbMlineStyle
  2
STANDARD
 70
0
  3

 62
256
 51
90.0
 52
90.0
 71
2
 49
0.5
 62
256
  6
BYLAYER
 49
-0.5
 62
256
  6
BYLAYER
  0
LAYOUT
  5
487
102
{ACAD_REACTORS
330
1A
102
}
100
AcDbPlotSettings
  1

  2
none_device
  4
ANSI_A_(11.00_x_8.50_Inches)
  6

 40
0.0
 41
0.0
 42
0.0
 43
0.0
 44
279.4
 45
215.9
 46
0.0
 47
0.0
 48
0.0
 49
0.0
140
0.0
141
0.0
142
1.0
143
1.0
 70
1024
 72
0
 73
0
 74
0
  7

 75
0
147
1.0
148
0.0
149
0.0
100
AcDbLayout
  1
Model
 70
0
 71
0
 10
0.0
 20
0.0
 11
11.0
 21
8.5
 12
0.0
 22
0.0
 32
0.0
 14
0.0
 24
0.0
 34
0.0
 15
0.0
 25
0.0
 35
0.0
146
0.0
 13
0.0
 23
0.0
 33
0.0
 16
1.0
 26
0.0
 36
0.0
 17
0.0
 27
1.0
 37
0.0
 76
0
330
202
345
0
346
0
  0
LAYOUT
  5
488
102
{ACAD_REACTORS
330
1A
102
}
100
AcDbPlotSettings
  1

  2
none_device
  4
ANSI_A_(11.00_x_8.50_Inches)
  6

 40
0.0
 41
0.0
 42
0.0
 43
0.0
 44
279.4
 45
215.9
 46
0.0
 47
0.0
 48
0.0
 49
0.0
140
0.0
141
0.0
142
1.0
143
1.0
 70
0
 72
0
 73
0
 74
0
  7

 75
0
147
1.0
148
0.0
149
0.0
100
AcDbLayout
  1
Layout1
 70
0
 71
1
 10
0.0
 20
0.0
 11
11.0
 21
8.5
 12
0.0
 22
0.0
 32
0.0
 14
0.0
 24
0.0
 34
0.0
 15
0.0
 25
0.0
 35
0.0
146
0.0
 13
0.0
 23
0.0
 33
0.0
 16
1.0
 26
0.0
 36
0.0
 17
0.0
 27
1.0
 37
0.0
 76
0
330
203
345
0
346
0
  0
ENDSEC
  0
EOF
