  0
SECTION
  2
HEADER
  9
$ACADVER
  1
AC1015
  9
$DWGCODEPAGE
  3
ANSI_1252
  9
$EXTMAX
 10
33.1102362205
 20
23.3858267717
 30
0.0
  9
$EXTMIN
 10
0.0
 20
0.0
 30
0.0
  9
$LIMMIN
 10
0.0
 20
0.0
  9
$LIMMAX
 10
33.1102362205
 20
23.3858267717
  9
$VIEWCTR
 10
16.5551181102
 20
11.6929133858
  9
$VIEWSIZE
 40
23.3858267717
  9
$CLAYER
  8
0
  9
$LTSCALE
 40
1.8210629921
  9
$CELTYPE
  6
BYLAYER
  9
$DIMSCALE
 40
1.0
  9
$DIMASZ
 40
0.1
  9
$DIMEXO
 40
0.2069389764
  9
$DIMDLI
 40
1.2581889764
  9
$DIMEXE
 40
0.595984252
  9
$DIMCEN
 40
0.297992126
  9
$DIMLFAC
 40
1.0
  9
$DIMBLK
  1
_FILLED
  9
$DIMTXT
 40
0.08
  9
$DIMTOL
 70
1
  9
$DIMLIM
 70
0
  9
$DIMTFAC
 40
1.0
  9
$DIMTP
 40
0.01
  9
$DIMTM
 40
0.01
  9
$PDMODE
 70
3
  9
$PDSIZE
 40
0.06
  9
$HANDSEED
  5
2FB
  9
$TILEMODE
 70
1
  9
$MEASUREMENT
 70
0
  9
$INSUNITS
 70
1
  0
ENDSEC
  0
SECTION
  2
CLASSES
  0
CLASS
  1
ACDBDICTIONARYWDFLT
  2
AcDbDictionaryWithDefault
  3
AutoCAD 2000
 90
0
280
0
281
0
  0
CLASS
  1
ACDBPLACEHOLDER
  2
AcDbPlaceHolder
  3
AutoCAD 2000
 90
0
280
0
281
0
  0
CLASS
  1
LAYOUT
  2
AcDbLayout
  3
AutoCAD 2000
 90
0
280
0
281
0
  0
ENDSEC
  0
SECTION
  2
TABLES
  0
TABLE
  2
VPORT
  5
8
100
AcDbSymbolTable
 70
2
  0
VPORT
  5
1F4
100
AcDbSymbolTableRecord
100
AcDbViewportTableRecord
  2
*ACTIVE
 70
0
 10
0.0
 20
0.0
 11
1.0
 21
1.0
 12
16.5551181102
 22
11.6929133858
 13
0.0
 23
0.0
 14
1.0
 24
1.0
 15
0.0
 25
0.0
 16
0.0
 26
0.0
 36
1.0
 17
0.0
 27
0.0
 37
0.0
 40
23.3858267717
 41
1.4158249158
 42
50.0
 43
0.0
 44
0.0
 50
0.0
 51
0.0
 71
0
 72
100
 73
1
 74
1
 75
0
 76
0
 77
0
 78
0
  0
ENDTAB
  0
TABLE
  2
LTYPE
  5
5
100
AcDbSymbolTable
 70
6
  0
LTYPE
  5
14
100
AcDbSymbolTableRecord
100
AcDbLinetypeTableRecord
  2
BYBLOCK
 70
0
  3

 72
65
 73
0
 40
0.0
  0
LTYPE
  5
15
100
AcDbSymbolTableRecord
100
AcDbLinetypeTableRecord
  2
BYLAYER
 70
0
  3

 72
65
 73
0
 40
0.0
  0
LTYPE
  5
16
100
AcDbSymbolTableRecord
100
AcDbLinetypeTableRecord
  2
CONTINUOUS
 70
64
  3
Solid line
 72
65
 73
0
 40
0.0
  0
LTYPE
  5
1F5
100
AcDbSymbolTableRecord
100
AcDbLinetypeTableRecord
  2
CENTER
 70
64
  3
____ _ ____ _ ____ _ ____ _ ____ _ ____ _ ____
 72
65
 73
4
 40
0.6
 49
0.375
 74
0
 49
-0.075
 74
0
 49
0.075
 74
0
 49
-0.075
 74
0
  0
LTYPE
  5
1F6
100
AcDbSymbolTableRecord
100
AcDbLinetypeTableRecord
  2
HIDDEN
 70
64
  3
- - - - - - - - - - - - - - - - - - - -
 72
65
 73
2
 40
0.2
 49
0.1
 74
0
 49
-0.1
 74
0
  0
LTYPE
  5
1F7
100
AcDbSymbolTableRecord
100
AcDbLinetypeTableRecord
  2
PHANTOM
 70
64
  3
_____ _ _ _____ _ _ _____ _ _ _____
 72
65
 73
6
 40
0.8
 49
0.45
 74
0
 49
-0.05
 74
0
 49
0.1
 74
0
 49
-0.05
 74
0
 49
0.1
 74
0
 49
-0.05
 74
0
  0
LTYPE
  5
1F8
100
AcDbSymbolTableRecord
100
AcDbLinetypeTableRecord
  2
DOT
 70
64
  3
. . . . . . . . . . . . . . . . . . . .
 72
65
 73
2
 40
0.2
 49
0.1
 74
0
 49
-0.1
 74
0
  0
LTYPE
  5
1F9
100
AcDbSymbolTableRecord
100
AcDbLinetypeTableRecord
  2
DASHED
 70
64
  3
- - - - - - - - - - - - - - - - - - - -
 72
65
 73
2
 40
0.2
 49
0.1
 74
0
 49
-0.1
 74
0
  0
ENDTAB
  0
TABLE
  2
LAYER
  5
2
100
AcDbSymbolTable
 70
36
  0
LAYER
  5
10
100
AcDbSymbolTableRecord
100
AcDbLayerTableRecord
  2
0
 70
0
 62
7
  6
CONTINUOUS
370
-3
390
F
  0
LAYER
  5
1FA
100
AcDbSymbolTableRecord
100
AcDbLayerTableRecord
  2
DEFAULT_1
 70
0
 62
7
  6
CENTER
370
-3
390
F
  0
LAYER
  5
1FB
100
AcDbSymbolTableRecord
100
AcDbLayerTableRecord
  2
DEFAULT_2
 70
0
 62
8
  6
HIDDEN
370
-3
390
F
  0
LAYER
  5
1FC
100
AcDbSymbolTableRecord
100
AcDbLayerTableRecord
  2
DEFAULT_3
 70
0
 62
7
  6
PHANTOM
370
-3
390
F
  0
LAYER
  5
1FD
100
AcDbSymbolTableRecord
100
AcDbLayerTableRecord
  2
3_ALL_SYMBOLS
 70
0
 62
7
  6
CONTINUOUS
370
-3
390
F
  0
LAYER
  5
1FE
100
AcDbSymbolTableRecord
100
AcDbLayerTableRecord
  2
DEFAULT_COORDINATE_SYSTEM
 70
0
 62
7
  6
CONTINUOUS
370
-3
390
F
  0
LAYER
  5
1FF
100
AcDbSymbolTableRecord
100
AcDbLayerTableRecord
  2
DEFAULT_DATUM_AXES
 70
0
 62
7
  6
CONTINUOUS
370
-3
390
F
  0
LAYER
  5
200
100
AcDbSymbolTableRecord
100
AcDbLayerTableRecord
  2
DEFAULT_DATUM_CURVES
 70
0
 62
7
  6
CONTINUOUS
370
-3
390
F
  0
LAYER
  5
201
100
AcDbSymbolTableRecord
100
AcDbLayerTableRecord
  2
DEFAULT_DATUM_PLANES
 70
0
 62
7
  6
CONTINUOUS
370
-3
390
F
  0
ENDTAB
  0
TABLE
  2
STYLE
  5
3
100
AcDbSymbolTable
 70
1
  0
STYLE
  5
11
100
AcDbSymbolTableRecord
100
AcDbTextStyleTableRecord
  2
STANDARD
 70
0
 40
0.0
 41
0.8
 50
0.0
 71
0
 42
0.2
  3
txt
  4

  0
STYLE
  5
202
100
AcDbSymbolTableRecord
100
AcDbTextStyleTableRecord
  2
TEXTSTYLE_1
 70
0
 40
0.0
 41
0.8
 50
0.0
 71
0
 42
0.2
  3
gdt
  4

  0
ENDTAB
  0
TABLE
  2
VIEW
  5
6
100
AcDbSymbolTable
 70
0
  0
ENDTAB
  0
TABLE
  2
UCS
  5
7
100
AcDbSymbolTable
 70
0
  0
ENDTAB
  0
TABLE
  2
APPID
  5
9
100
AcDbSymbolTable
 70
1
  0
APPID
  5
203
100
AcDbSymbolTableRecord
100
AcDbRegAppTableRecord
  2
ACAD
 70
0
  0
ENDTAB
  0
TABLE
  2
BLOCK_RECORD
  5
1
100
AcDbSymbolTable
 70
0
  0
BLOCK_RECORD
  5
204
100
AcDbSymbolTableRecord
100
AcDbBlockTableRecord
  2
*Model_Space
  0
BLOCK_RECORD
  5
205
100
AcDbSymbolTableRecord
100
AcDbBlockTableRecord
  2
*Paper_Space
  0
ENDTAB
  0
TABLE
  2
DIMSTYLE
  5
A
100
AcDbSymbolTable
 70
1
100
AcDbDimStyleTable
 71
0
  0
DIMSTYLE
105
206
100
AcDbSymbolTableRecord
100
AcDbDimStyleTableRecord
  2
STANDARD
 70
0
  3

  4

 40
1.0
 41
0.1
 42
0.0625
 43
0.38
 44
0.18
 45
0.0
 46
0.0
 47
0.01
 48
0.01
140
0.08
141
0.09
142
0.0
143
25.4
144
1.0
145
0.0
146
1.0
147
0.09
 71
1.0
 72
0.0
 73
1
 74
1
 75
0
 76
0
 77
0
 78
4
170
0
171
2
172
0
173
0
174
0
175
0
176
0
177
0
178
0
270
2
271
2
272
2
273
2
274
2
275
0
280
0
281
0
282
0
283
1
284
4
285
0
286
0
287
3
288
0
340
11
  0
ENDTAB
  0
ENDSEC
  0
SECTION
  2
BLOCKS
  0
BLOCK
  5
20
100
AcDbEntity
  8
0
100
AcDbBlockBegin
  2
*Model_Space
 70
0
 10
0.0
 20
0.0
 30
0.0
  3
*Model_Space
  1

  0
ENDBLK
  5
21
100
AcDbEntity
  8
0
100
AcDbBlockEnd
  0
BLOCK
  5
1C
100
AcDbEntity
  8
0
100
AcDbBlockBegin
  2
*Paper_Space
 70
0
 10
0.0
 20
0.0
 30
0.0
  3
*Paper_Space
  1

  0
ENDBLK
  5
1D
100
AcDbEntity
  8
0
100
AcDbBlockEnd
  0
ENDSEC
  0
SECTION
  2
ENTITIES
  0
LINE
  5
207
100
AcDbEntity
  8
0
100
AcDbLine
 62
6
  6
CONTINUOUS
 10
9.539650765
 20
12.5993347132
 11
9.539650765
 21
12.3604599212
  0
LINE
  5
208
100
AcDbEntity
  8
0
100
AcDbLine
 62
9
  6
CONTINUOUS
 10
9.569650765
 20
12.5993347132
 11
9.569650765
 21
12.3604599287
  0
LINE
  5
209
100
AcDbEntity
  8
0
100
AcDbLine
 62
9
  6
CONTINUOUS
 10
9.569650765
 20
12.3604599212
 11
9.5607848353
 21
12.3317999266
  0
LINE
  5
20A
100
AcDbEntity
  8
0
100
AcDbLine
 62
9
  6
CONTINUOUS
 10
9.569650765
 20
12.5993347132
 11
9.5571141747
 21
12.6265896926
  0
LINE
  5
20B
100
AcDbEntity
  8
0
100
AcDbLine
 62
9
  6
CONTINUOUS
 10
10.4420868064
 20
12.2939640543
 11
10.4465067048
 21
12.2642914323
  0
LINE
  5
20C
100
AcDbEntity
  8
0
100
AcDbLine
 62
9
  6
CONTINUOUS
 10
10.8362308666
 20
12.3526739552
 11
10.840650765
 21
12.3230013332
  0
LINE
  5
20D
100
AcDbEntity
  8
0
100
AcDbLine
 62
6
  6
CONTINUOUS
 10
11.377150765
 20
11.6124662344
 11
11.377150765
 21
11.1272739169
  0
LINE
  5
20E
100
AcDbEntity
  8
0
100
AcDbLine
 62
9
  6
CONTINUOUS
 10
11.407150765
 20
11.1272739169
 11
11.407150765
 21
11.6424662344
  0
LINE
  5
20F
100
AcDbEntity
  8
0
100
AcDbLine
 62
9
  6
CONTINUOUS
 10
11.0252302742
 20
12.7387944403
 11
11.0323636773
 21
12.7679340107
  0
LINE
  5
210
100
AcDbEntity
  8
0
100
AcDbLine
 62
6
  6
CONTINUOUS
 10
11.652150765
 20
11.6424662344
 11
11.652150765
 21
11.7624662344
  0
LINE
  5
211
100
AcDbEntity
  8
0
100
AcDbLine
 62
6
  6
CONTINUOUS
 10
11.774650765
 20
12.2360993418
 11
11.774650765
 21
11.7924662344
  0
LINE
  5
212
100
AcDbEntity
  8
0
100
AcDbLine
 62
6
  6
CONTINUOUS
 10
11.8643038102
 20
11.6424662344
 11
11.8643038102
 21
11.7624662344
  0
LINE
  5
213
100
AcDbEntity
  8
0
100
AcDbLine
 62
9
  6
CONTINUOUS
 10
11.5658240839
 20
12.3286506639
 11
11.5594618165
 21
12.2993330659
  0
LINE
  5
214
100
AcDbEntity
  8
0
100
AcDbLine
 62
9
  6
CONTINUOUS
 10
11.989650765
 20
12.6224662344
 11
11.989650765
 21
12.6524662344
  0
LINE
  5
215
100
AcDbEntity
  8
0
100
AcDbLine
 62
9
  6
CONTINUOUS
 10
12.089650765
 20
12.2724662344
 11
12.089650765
 21
12.2133054365
  0
LINE
  5
216
100
AcDbEntity
  8
0
100
AcDbLine
 62
6
  6
CONTINUOUS
 10
12.3149977197
 20
11.6424662344
 11
12.3149977197
 21
11.7624662344
  0
LINE
  5
217
100
AcDbEntity
  8
0
100
AcDbLine
 62
6
  6
CONTINUOUS
 10
12.404650765
 20
12.2124662344
 11
12.404650765
 21
11.7924662344
  0
LINE
  5
218
100
AcDbEntity
  8
0
100
AcDbLine
 62
6
  6
CONTINUOUS
 10
12.527150765
 20
11.6424662344
 11
12.527150765
 21
11.7624662344
  0
LINE
  5
219
100
AcDbEntity
  8
0
100
AcDbLine
 62
9
  6
CONTINUOUS
 10
12.759650765
 20
12.2424662344
 11
12.759650765
 21
12.6524662344
  0
LINE
  5
21A
100
AcDbEntity
  8
0
100
AcDbLine
 62
9
  6
CONTINUOUS
 10
12.772150765
 20
11.1272739169
 11
12.772150765
 21
11.6424662344
  0
LINE
  5
21B
100
AcDbEntity
  8
0
100
AcDbLine
 62
6
  6
CONTINUOUS
 10
12.789650765
 20
12.2724662344
 11
12.789650765
 21
12.6224662344
  0
LINE
  5
21C
100
AcDbEntity
  8
0
100
AcDbLine
 62
9
  6
CONTINUOUS
 10
12.802150765
 20
11.6124662344
 11
12.802150765
 21
11.1272739169
  0
LINE
  5
21D
100
AcDbEntity
  8
0
100
AcDbLine
 62
6
  6
CONTINUOUS
 10
17.102150765
 20
9.3324662344
 11
15.077150765
 21
9.3324662344
  0
LINE
  5
21E
100
AcDbEntity
  8
0
100
AcDbLine
 62
6
  6
CONTINUOUS
 10
11.0286238877
 20
9.3324662344
 11
13.1506776423
 21
9.3324662344
  0
LINE
  5
21F
100
AcDbEntity
  8
0
100
AcDbLine
 62
6
  6
CONTINUOUS
 10
19.0286238877
 20
9.3324662344
 11
21.1506776423
 21
9.3324662344
  0
LINE
  5
220
100
AcDbEntity
  8
0
100
AcDbLine
 62
9
  6
CONTINUOUS
 10
17.102150765
 20
9.581433702
 11
16.7879587954
 21
9.581433702
  0
LINE
  5
221
100
AcDbEntity
  8
0
100
AcDbLine
 62
9
  6
CONTINUOUS
 10
15.3930197436
 20
9.581433702
 11
15.077150765
 21
9.581433702
  0
LINE
  5
222
100
AcDbEntity
  8
0
100
AcDbLine
 62
6
  6
CONTINUOUS
 10
17.064650765
 20
9.6524662344
 11
16.7445857571
 21
9.6524662344
  0
LINE
  5
223
100
AcDbEntity
  8
0
100
AcDbLine
 62
6
  6
CONTINUOUS
 10
15.4347157728
 20
9.6524662344
 11
15.114650765
 21
9.6524662344
  0
LINE
  5
224
100
AcDbEntity
  8
0
100
AcDbLine
 62
9
  6
CONTINUOUS
 10
16.5898348798
 20
9.8279816105
 11
15.5894666408
 21
9.8279816024
  0
LINE
  5
225
100
AcDbEntity
  8
0
100
AcDbLine
 62
6
  6
CONTINUOUS
 10
15.6014358648
 20
9.8324662344
 11
16.5778656651
 21
9.8324662344
  0
LINE
  5
226
100
AcDbEntity
  8
0
100
AcDbLine
 62
7
  6
CONTINUOUS
 10
15.9310821678
 20
9.9274662344
 11
16.2482193621
 21
9.9274662344
  0
LINE
  5
227
100
AcDbEntity
  8
0
100
AcDbLine
 62
9
  6
CONTINUOUS
 10
16.552650765
 20
10.0739662344
 11
16.2482193621
 21
10.0739662344
  0
LINE
  5
228
100
AcDbEntity
  8
0
100
AcDbLine
 62
9
  6
CONTINUOUS
 10
15.9310821678
 20
10.0739662344
 11
15.626650765
 21
10.0739662344
  0
LINE
  5
229
100
AcDbEntity
  8
0
100
AcDbLine
 62
9
  6
CONTINUOUS
 10
15.630150765
 20
10.0774662344
 11
15.9416127631
 21
10.0774662344
  0
LINE
  5
22A
100
AcDbEntity
  8
0
100
AcDbLine
 62
9
  6
CONTINUOUS
 10
16.2376887668
 20
10.0774662344
 11
16.549150765
 21
10.0774662344
  0
LINE
  5
22B
100
AcDbEntity
  8
0
100
AcDbLine
 62
6
  6
CONTINUOUS
 10
15.9416127631
 20
10.0774662344
 11
16.2376887668
 21
10.0774662344
  0
LINE
  5
22C
100
AcDbEntity
  8
0
100
AcDbLine
 62
9
  6
CONTINUOUS
 10
15.714650765
 20
10.1424662344
 11
16.464650765
 21
10.1424662344
  0
LINE
  5
22D
100
AcDbEntity
  8
0
100
AcDbLine
 62
9
  6
CONTINUOUS
 10
15.754650765
 20
10.1824662344
 11
16.424650765
 21
10.1824662344
  0
LINE
  5
22E
100
AcDbEntity
  8
0
100
AcDbLine
 62
9
  6
CONTINUOUS
 10
12.9408174316
 20
10.229746449
 11
11.2384840983
 21
10.229746449
  0
LINE
  5
22F
100
AcDbEntity
  8
0
100
AcDbLine
 62
9
  6
CONTINUOUS
 10
19.2384840983
 20
10.229746449
 11
20.9408174316
 21
10.229746449
  0
LINE
  5
230
100
AcDbEntity
  8
0
100
AcDbLine
 62
9
  6
CONTINUOUS
 10
16.7978429625
 20
10.4932113745
 11
15.3814585674
 21
10.4932113745
  0
LINE
  5
231
100
AcDbEntity
  8
0
100
AcDbLine
 62
9
  6
CONTINUOUS
 10
16.7465213683
 20
10.6358070072
 11
15.4327801616
 21
10.6358070072
  0
LINE
  5
232
100
AcDbEntity
  8
0
100
AcDbLine
 62
6
  6
CONTINUOUS
 10
15.0242731608
 20
14.4104662344
 11
15.0242731608
 21
13.8004662344
  0
LINE
  5
233
100
AcDbEntity
  8
0
100
AcDbLine
 62
6
  6
CONTINUOUS
 10
15.077150765
 20
9.581433702
 11
15.077150765
 21
9.3324662344
  0
LINE
  5
234
100
AcDbEntity
  8
0
100
AcDbLine
 62
9
  6
CONTINUOUS
 10
11.377150765
 20
11.1272739169
 11
12.802150765
 21
11.1272739169
  0
LINE
  5
235
100
AcDbEntity
  8
0
100
AcDbLine
 62
9
  6
CONTINUOUS
 10
19.377150765
 20
11.1272739169
 11
20.802150765
 21
11.1272739169
  0
LINE
  5
236
100
AcDbEntity
  8
0
100
AcDbLine
 62
6
  6
CONTINUOUS
 10
15.4502817214
 20
13.8004662344
 11
15.45112239
 21
13.7842632327
  0
LINE
  5
237
100
AcDbEntity
  8
0
100
AcDbLine
 62
6
  6
CONTINUOUS
 10
15.2223483516
 20
14.4104662344
 11
15.2223483516
 21
13.8004662344
  0
LINE
  5
238
100
AcDbEntity
  8
0
100
AcDbLine
 62
6
  6
CONTINUOUS
 10
15.329650765
 20
13.4347270032
 11
15.329650765
 21
12.8752993821
  0
LINE
  5
239
100
AcDbEntity
  8
0
100
AcDbLine
 62
6
  6
CONTINUOUS
 10
15.4502817214
 20
14.4104662344
 11
15.4502817214
 21
13.8004662344
  0
LINE
  5
23A
100
AcDbEntity
  8
0
100
AcDbLine
 62
6
  6
CONTINUOUS
 10
15.626650765
 20
10.0739662344
 11
15.626650765
 21
9.8324662344
  0
LINE
  5
23B
100
AcDbEntity
  8
0
100
AcDbLine
 62
6
  6
CONTINUOUS
 10
15.5140618322
 20
12.8004662344
 11
15.4327801616
 21
10.6358070072
  0
LINE
  5
23C
100
AcDbEntity
  8
0
100
AcDbLine
 62
6
  6
CONTINUOUS
 10
17.079650765
 20
13.7108993052
 11
16.8781195437
 21
13.504607504
  0
LINE
  5
23D
100
AcDbEntity
  8
0
100
AcDbLine
 62
9
  6
CONTINUOUS
 10
15.714650765
 20
10.1424662344
 11
15.714650765
 21
10.0774662344
  0
LINE
  5
23E
100
AcDbEntity
  8
0
100
AcDbLine
 62
9
  6
CONTINUOUS
 10
15.754650765
 20
10.1824662344
 11
15.754650765
 21
10.0774662344
  0
LINE
  5
23F
100
AcDbEntity
  8
0
100
AcDbLine
 62
6
  6
CONTINUOUS
 10
15.9284775335
 20
14.4104662344
 11
15.9284775335
 21
13.8004662344
  0
LINE
  5
240
100
AcDbEntity
  8
0
100
AcDbLine
 62
6
  6
CONTINUOUS
 10
15.9310821678
 20
9.9274662344
 11
15.9310821678
 21
10.0739662344
  0
LINE
  5
241
100
AcDbEntity
  8
0
100
AcDbLine
 62
9
  6
CONTINUOUS
 10
20.802150765
 20
11.6124662344
 11
19.377150765
 21
11.6124662344
  0
LINE
  5
242
100
AcDbEntity
  8
0
100
AcDbLine
 62
9
  6
CONTINUOUS
 10
12.802150765
 20
11.6124662344
 11
11.377150765
 21
11.6124662344
  0
LINE
  5
243
100
AcDbEntity
  8
0
100
AcDbLine
 62
9
  6
CONTINUOUS
 10
20.772150765
 20
11.6424662344
 11
19.407150765
 21
11.6424662344
  0
LINE
  5
244
100
AcDbEntity
  8
0
100
AcDbLine
 62
9
  6
CONTINUOUS
 10
12.772150765
 20
11.6424662344
 11
11.407150765
 21
11.6424662344
  0
LINE
  5
245
100
AcDbEntity
  8
0
100
AcDbLine
 62
6
  6
CONTINUOUS
 10
11.6521544049
 20
11.7624662344
 11
12.527147125
 21
11.7624662344
  0
LINE
  5
246
100
AcDbEntity
  8
0
100
AcDbLine
 62
6
  6
CONTINUOUS
 10
19.6521544049
 20
11.7624662344
 11
20.527147125
 21
11.7624662344
  0
LINE
  5
247
100
AcDbEntity
  8
0
100
AcDbLine
 62
7
  6
CONTINUOUS
 10
12.404650765
 20
11.7924662344
 11
11.774650765
 21
11.7924662344
  0
LINE
  5
248
100
AcDbEntity
  8
0
100
AcDbLine
 62
7
  6
CONTINUOUS
 10
19.774650765
 20
11.7924662344
 11
20.404650765
 21
11.7924662344
  0
LINE
  5
249
100
AcDbEntity
  8
0
100
AcDbLine
 62
6
  6
CONTINUOUS
 10
16.2482193621
 20
9.9274662344
 11
16.2482193621
 21
10.0739662344
  0
LINE
  5
24A
100
AcDbEntity
  8
0
100
AcDbLine
 62
6
  6
CONTINUOUS
 10
16.2508239964
 20
14.4104662344
 11
16.2508239964
 21
13.8004662344
  0
LINE
  5
24B
100
AcDbEntity
  8
0
100
AcDbLine
 62
9
  6
CONTINUOUS
 10
16.424650765
 20
10.1824662344
 11
16.424650765
 21
10.0774662344
  0
LINE
  5
24C
100
AcDbEntity
  8
0
100
AcDbLine
 62
9
  6
CONTINUOUS
 10
16.464650765
 20
10.1424662344
 11
16.464650765
 21
10.0774662344
  0
LINE
  5
24D
100
AcDbEntity
  8
0
100
AcDbLine
 62
6
  6
CONTINUOUS
 10
16.552650765
 20
10.0739662344
 11
16.552650765
 21
9.8324662344
  0
LINE
  5
24E
100
AcDbEntity
  8
0
100
AcDbLine
 62
9
  6
CONTINUOUS
 10
20.0143592709
 20
12.2124662344
 11
19.774650765
 21
12.2124662344
  0
LINE
  5
24F
100
AcDbEntity
  8
0
100
AcDbLine
 62
9
  6
CONTINUOUS
 10
12.404650765
 20
12.2124662344
 11
12.164942259
 21
12.2124662344
  0
LINE
  5
250
100
AcDbEntity
  8
0
100
AcDbLine
 62
6
  6
CONTINUOUS
 10
12.1721128775
 20
12.2424662344
 11
12.759650765
 21
12.2424662344
  0
LINE
  5
251
100
AcDbEntity
  8
0
100
AcDbLine
 62
6
  6
CONTINUOUS
 10
19.419650765
 20
12.2424662344
 11
20.0071886524
 21
12.2424662344
  0
LINE
  5
252
100
AcDbEntity
  8
0
100
AcDbLine
 62
9
  6
CONTINUOUS
 10
12.089650765
 20
12.2724662344
 11
12.789650765
 21
12.2724662344
  0
LINE
  5
253
100
AcDbEntity
  8
0
100
AcDbLine
 62
9
  6
CONTINUOUS
 10
19.389650765
 20
12.2724662344
 11
20.089650765
 21
12.2724662344
  0
LINE
  5
254
100
AcDbEntity
  8
0
100
AcDbLine
 62
9
  6
CONTINUOUS
 10
9.569650765
 20
12.3604599212
 11
9.539650765
 21
12.3604599212
  0
LINE
  5
255
100
AcDbEntity
  8
0
100
AcDbLine
 62
9
  6
CONTINUOUS
 10
22.609650765
 20
12.3604599212
 11
22.639650765
 21
12.3604599212
  0
LINE
  5
256
100
AcDbEntity
  8
0
100
AcDbLine
 62
6
  6
CONTINUOUS
 10
15.099650765
 20
13.7108993052
 11
15.3011819862
 21
13.504607504
  0
LINE
  5
257
100
AcDbEntity
  8
0
100
AcDbLine
 62
6
  6
CONTINUOUS
 10
16.6652396978
 20
12.8004662344
 11
16.7465213683
 21
10.6358070072
  0
LINE
  5
258
100
AcDbEntity
  8
0
100
AcDbLine
 62
6
  6
CONTINUOUS
 10
16.7290198085
 20
14.4104662344
 11
16.7290198085
 21
13.8004662344
  0
LINE
  5
259
100
AcDbEntity
  8
0
100
AcDbLine
 62
6
  6
CONTINUOUS
 10
16.849650765
 20
13.4347270032
 11
16.849650765
 21
12.8752993821
  0
LINE
  5
25A
100
AcDbEntity
  8
0
100
AcDbLine
 62
6
  6
CONTINUOUS
 10
16.9569531783
 20
14.4104662344
 11
16.9569531783
 21
13.8004662344
  0
LINE
  5
25B
100
AcDbEntity
  8
0
100
AcDbLine
 62
6
  6
CONTINUOUS
 10
16.7281791406
 20
13.7842634524
 11
16.7290198085
 21
13.8004662344
  0
LINE
  5
25C
100
AcDbEntity
  8
0
100
AcDbLine
 62
9
  6
CONTINUOUS
 10
9.569650765
 20
12.5993347132
 11
9.539650765
 21
12.5993347132
  0
LINE
  5
25D
100
AcDbEntity
  8
0
100
AcDbLine
 62
9
  6
CONTINUOUS
 10
22.609650765
 20
12.5993347132
 11
22.639650765
 21
12.5993347132
  0
LINE
  5
25E
100
AcDbEntity
  8
0
100
AcDbLine
 62
9
  6
CONTINUOUS
 10
20.189650765
 20
12.6224662344
 11
19.389650765
 21
12.6224662344
  0
LINE
  5
25F
100
AcDbEntity
  8
0
100
AcDbLine
 62
9
  6
CONTINUOUS
 10
11.989650765
 20
12.6224662344
 11
12.789650765
 21
12.6224662344
  0
LINE
  5
260
100
AcDbEntity
  8
0
100
AcDbLine
 62
6
  6
CONTINUOUS
 10
20.189650765
 20
12.6524662344
 11
19.419650765
 21
12.6524662344
  0
LINE
  5
261
100
AcDbEntity
  8
0
100
AcDbLine
 62
6
  6
CONTINUOUS
 10
12.759650765
 20
12.6524662344
 11
11.989650765
 21
12.6524662344
  0
LINE
  5
262
100
AcDbEntity
  8
0
100
AcDbLine
 62
6
  6
CONTINUOUS
 10
16.829650765
 20
12.8004662344
 11
15.349650765
 21
12.8004662344
  0
LINE
  5
263
100
AcDbEntity
  8
0
100
AcDbLine
 62
9
  6
CONTINUOUS
 10
16.849650765
 20
12.8752993821
 11
15.329650765
 21
12.8752993821
  0
LINE
  5
264
100
AcDbEntity
  8
0
100
AcDbLine
 62
6
  6
CONTINUOUS
 10
17.102150765
 20
9.581433702
 11
17.102150765
 21
9.3324662344
  0
LINE
  5
265
100
AcDbEntity
  8
0
100
AcDbLine
 62
6
  6
CONTINUOUS
 10
17.1550283691
 20
14.4104662344
 11
17.1550283691
 21
13.8004662344
  0
LINE
  5
266
100
AcDbEntity
  8
0
100
AcDbLine
 62
6
  6
CONTINUOUS
 10
10.4465067048
 20
12.2642914323
 11
10.840650765
 21
12.3230013332
  0
LINE
  5
267
100
AcDbEntity
  8
0
100
AcDbLine
 62
9
  6
CONTINUOUS
 10
10.4420868064
 20
12.2939640543
 11
10.8362308666
 21
12.3526739552
  0
LINE
  5
268
100
AcDbEntity
  8
0
100
AcDbLine
 62
9
  6
CONTINUOUS
 10
16.849650765
 20
13.4347270032
 11
15.329650765
 21
13.4347270032
  0
LINE
  5
269
100
AcDbEntity
  8
0
100
AcDbLine
 62
6
  6
CONTINUOUS
 10
21.338650765
 20
12.3230013332
 11
21.7327948251
 21
12.2642914323
  0
LINE
  5
26A
100
AcDbEntity
  8
0
100
AcDbLine
 62
9
  6
CONTINUOUS
 10
21.3430706633
 20
12.3526739552
 11
21.7372147235
 21
12.2939640543
  0
LINE
  5
26B
100
AcDbEntity
  8
0
100
AcDbLine
 62
9
  6
CONTINUOUS
 10
16.8781195437
 20
13.504607504
 11
15.3011819862
 21
13.504607504
  0
LINE
  5
26C
100
AcDbEntity
  8
0
100
AcDbLine
 62
6
  6
CONTINUOUS
 10
17.1550283691
 20
13.8004662344
 11
16.9569531783
 21
13.8004662344
  0
LINE
  5
26D
100
AcDbEntity
  8
0
100
AcDbLine
 62
6
  6
CONTINUOUS
 10
16.7290198085
 20
13.8004662344
 11
16.2508239964
 21
13.8004662344
  0
LINE
  5
26E
100
AcDbEntity
  8
0
100
AcDbLine
 62
6
  6
CONTINUOUS
 10
15.9284775335
 20
13.8004662344
 11
15.4502817214
 21
13.8004662344
  0
LINE
  5
26F
100
AcDbEntity
  8
0
100
AcDbLine
 62
6
  6
CONTINUOUS
 10
15.2223483516
 20
13.8004662344
 11
15.0242731608
 21
13.8004662344
  0
LINE
  5
270
100
AcDbEntity
  8
0
100
AcDbLine
 62
9
  6
CONTINUOUS
 10
17.1550283691
 20
14.4104662344
 11
16.9569531783
 21
14.4104662344
  0
LINE
  5
271
100
AcDbEntity
  8
0
100
AcDbLine
 62
9
  6
CONTINUOUS
 10
16.7290198085
 20
14.4104662344
 11
16.2508239964
 21
14.4104662344
  0
LINE
  5
272
100
AcDbEntity
  8
0
100
AcDbLine
 62
9
  6
CONTINUOUS
 10
15.9284775335
 20
14.4104662344
 11
15.4502817214
 21
14.4104662344
  0
LINE
  5
273
100
AcDbEntity
  8
0
100
AcDbLine
 62
9
  6
CONTINUOUS
 10
15.2223483516
 20
14.4104662344
 11
15.0242731608
 21
14.4104662344
  0
LINE
  5
274
100
AcDbEntity
  8
0
100
AcDbLine
 62
7
  6
CONTINUOUS
 10
17.017150765
 20
14.5604662344
 11
15.162150765
 21
14.5604662344
  0
LINE
  5
275
100
AcDbEntity
  8
0
100
AcDbLine
 62
9
  6
CONTINUOUS
 10
16.998787198
 20
14.6204662344
 11
15.1805143319
 21
14.6204662344
  0
LINE
  5
276
100
AcDbEntity
  8
0
100
AcDbLine
 62
6
  6
CONTINUOUS
 10
19.377150765
 20
11.6124662344
 11
19.377150765
 21
11.1272739169
  0
LINE
  5
277
100
AcDbEntity
  8
0
100
AcDbLine
 62
6
  6
CONTINUOUS
 10
19.389650765
 20
12.6224662344
 11
19.389650765
 21
12.2724662344
  0
LINE
  5
278
100
AcDbEntity
  8
0
100
AcDbLine
 62
9
  6
CONTINUOUS
 10
19.407150765
 20
11.1272739169
 11
19.407150765
 21
11.6424662344
  0
LINE
  5
279
100
AcDbEntity
  8
0
100
AcDbLine
 62
9
  6
CONTINUOUS
 10
19.419650765
 20
12.2424662344
 11
19.419650765
 21
12.6524662344
  0
LINE
  5
27A
100
AcDbEntity
  8
0
100
AcDbLine
 62
6
  6
CONTINUOUS
 10
19.652150765
 20
11.6424662344
 11
19.652150765
 21
11.7624662344
  0
LINE
  5
27B
100
AcDbEntity
  8
0
100
AcDbLine
 62
6
  6
CONTINUOUS
 10
19.774650765
 20
12.2124662344
 11
19.774650765
 21
11.7924662344
  0
LINE
  5
27C
100
AcDbEntity
  8
0
100
AcDbLine
 62
6
  6
CONTINUOUS
 10
19.8643038102
 20
11.6424662344
 11
19.8643038102
 21
11.7624662344
  0
LINE
  5
27D
100
AcDbEntity
  8
0
100
AcDbLine
 62
9
  6
CONTINUOUS
 10
20.089650765
 20
12.2724662344
 11
20.089650765
 21
12.2133054365
  0
LINE
  5
27E
100
AcDbEntity
  8
0
100
AcDbLine
 62
9
  6
CONTINUOUS
 10
20.189650765
 20
12.6224662344
 11
20.189650765
 21
12.6524662344
  0
LINE
  5
27F
100
AcDbEntity
  8
0
100
AcDbLine
 62
6
  6
CONTINUOUS
 10
20.3149977197
 20
11.6424662344
 11
20.3149977197
 21
11.7624662344
  0
LINE
  5
280
100
AcDbEntity
  8
0
100
AcDbLine
 62
6
  6
CONTINUOUS
 10
20.404650765
 20
12.2360993418
 11
20.404650765
 21
11.7924662344
  0
LINE
  5
281
100
AcDbEntity
  8
0
100
AcDbLine
 62
6
  6
CONTINUOUS
 10
20.527150765
 20
11.6424662344
 11
20.527150765
 21
11.7624662344
  0
LINE
  5
282
100
AcDbEntity
  8
0
100
AcDbLine
 62
9
  6
CONTINUOUS
 10
20.772150765
 20
11.1272739169
 11
20.772150765
 21
11.6424662344
  0
LINE
  5
283
100
AcDbEntity
  8
0
100
AcDbLine
 62
9
  6
CONTINUOUS
 10
20.802150765
 20
11.6124662344
 11
20.802150765
 21
11.1272739169
  0
LINE
  5
284
100
AcDbEntity
  8
0
100
AcDbLine
 62
9
  6
CONTINUOUS
 10
20.613477446
 20
12.3286506639
 11
20.6198397134
 21
12.2993330659
  0
LINE
  5
285
100
AcDbEntity
  8
0
100
AcDbLine
 62
9
  6
CONTINUOUS
 10
21.3430706633
 20
12.3526739552
 11
21.338650765
 21
12.3230013332
  0
LINE
  5
286
100
AcDbEntity
  8
0
100
AcDbLine
 62
9
  6
CONTINUOUS
 10
21.1540712557
 20
12.7387944403
 11
21.1469378526
 21
12.7679340107
  0
LINE
  5
287
100
AcDbEntity
  8
0
100
AcDbLine
 62
9
  6
CONTINUOUS
 10
21.7372147235
 20
12.2939640543
 11
21.7327948251
 21
12.2642914323
  0
LINE
  5
288
100
AcDbEntity
  8
0
100
AcDbLine
 62
9
  6
CONTINUOUS
 10
22.609650765
 20
12.5993347132
 11
22.6221873552
 21
12.6265896926
  0
LINE
  5
289
100
AcDbEntity
  8
0
100
AcDbLine
 62
9
  6
CONTINUOUS
 10
22.609650765
 20
12.3604599287
 11
22.609650765
 21
12.5993347132
  0
LINE
  5
28A
100
AcDbEntity
  8
0
100
AcDbLine
 62
6
  6
CONTINUOUS
 10
22.639650765
 20
12.3604599212
 11
22.639650765
 21
12.5993347132
  0
LINE
  5
28B
100
AcDbEntity
  8
0
100
AcDbLine
 62
9
  6
CONTINUOUS
 10
22.609650765
 20
12.3604599212
 11
22.6185166946
 21
12.3317999266
  0
ARC
  5
28C
100
AcDbEntity
  8
0
100
AcDbCircle
 62
6
  6
CONTINUOUS
 10
10.402150765
 20
9.2424662344
 40
2.75
100
AcDbArc
 50
1.8754700483
 51
21.0394697813
  0
ARC
  5
28D
100
AcDbEntity
  8
0
100
AcDbCircle
 62
9
  6
CONTINUOUS
 10
10.4973584448
 20
10.5824662344
 40
2.25
100
AcDbArc
 50
76.2444427842
 51
114.7012151867
  0
ARC
  5
28E
100
AcDbEntity
  8
0
100
AcDbCircle
 62
9
  6
CONTINUOUS
 10
10.4973584448
 20
10.5824662344
 40
2.22
100
AcDbArc
 50
76.2444427842
 51
114.7012151867
  0
ARC
  5
28F
100
AcDbEntity
  8
0
100
AcDbCircle
 62
9
  6
CONTINUOUS
 10
11.1353106578
 20
10.3448265311
 40
2.0300000124
100
AcDbArc
 50
77.7559857074
 51
98.4722246009
  0
ARC
  5
290
100
AcDbEntity
  8
0
100
AcDbCircle
 62
6
  6
CONTINUOUS
 10
11.1353106578
 20
10.3448265311
 40
2.0
100
AcDbArc
 50
77.7559857074
 51
98.4722246009
  0
ARC
  5
291
100
AcDbEntity
  8
0
100
AcDbCircle
 62
6
  6
CONTINUOUS
 10
8.877150765
 20
11.1272739169
 40
2.5
100
AcDbArc
 50
338.9605302187
 51
360.0
  0
ARC
  5
292
100
AcDbEntity
  8
0
100
AcDbCircle
 62
9
  6
CONTINUOUS
 10
8.9333171489
 20
11.1276013686
 40
2.4738406549
100
AcDbArc
 50
338.7192505641
 51
359.9924159801
  0
ARC
  5
293
100
AcDbEntity
  8
0
100
AcDbCircle
 62
9
  6
CONTINUOUS
 10
9.569650765
 20
12.5993347132
 40
0.03
100
AcDbArc
 50
114.7012151867
 51
180.0
  0
ARC
  5
294
100
AcDbEntity
  8
0
100
AcDbCircle
 62
9
  6
CONTINUOUS
 10
9.569650765
 20
12.3604599212
 40
0.03
100
AcDbArc
 50
180.0
 51
252.8106195197
  0
ARC
  5
295
100
AcDbEntity
  8
0
100
AcDbCircle
 62
9
  6
CONTINUOUS
 10
11.407150765
 20
11.6124662344
 40
0.03
100
AcDbArc
 50
90.0
 51
180.0
  0
ARC
  5
296
100
AcDbEntity
  8
0
100
AcDbCircle
 62
6
  6
CONTINUOUS
 10
12.434650765
 20
12.2124662344
 40
0.03
100
AcDbArc
 50
90.345933678
 51
180.0
  0
ARC
  5
297
100
AcDbEntity
  8
0
100
AcDbCircle
 62
6
  6
CONTINUOUS
 10
11.7446511375
 20
12.2360992463
 40
0.0299999676
100
AcDbArc
 50
0.0001824025
 51
82.1632499441
  0
ARC
  5
298
100
AcDbEntity
  8
0
100
AcDbCircle
 62
6
  6
CONTINUOUS
 10
13.777150765
 20
9.2424662344
 40
2.75
100
AcDbArc
 50
158.9605302187
 51
178.1245299517
  0
ARC
  5
299
100
AcDbEntity
  8
0
100
AcDbCircle
 62
6
  6
CONTINUOUS
 10
15.163175707
 20
9.581433702
 40
0.0860249421
100
AcDbArc
 50
124.338423378
 51
180.0
  0
ARC
  5
29A
100
AcDbEntity
  8
0
100
AcDbCircle
 62
6
  6
CONTINUOUS
 10
15.9984303587
 20
9.1495711947
 40
0.9
100
AcDbArc
 50
11.7251268757
 51
48.919690311
  0
ARC
  5
29B
100
AcDbEntity
  8
0
100
AcDbCircle
 62
6
  6
CONTINUOUS
 10
15.7656307569
 20
9.7029342316
 40
1.3
100
AcDbArc
 50
357.7751307226
 51
37.4382101818
  0
ARC
  5
29C
100
AcDbEntity
  8
0
100
AcDbCircle
 62
6
  6
CONTINUOUS
 10
15.6014358648
 20
9.8142513342
 40
0.0182149002
100
AcDbArc
 50
90.0
 51
131.0799258243
  0
ARC
  5
29D
100
AcDbEntity
  8
0
100
AcDbCircle
 62
6
  6
CONTINUOUS
 10
15.1829562202
 20
10.6451877481
 40
0.25
100
AcDbArc
 50
322.5617898181
 51
357.849587733
  0
ARC
  5
29E
100
AcDbEntity
  8
0
100
AcDbCircle
 62
9
  6
CONTINUOUS
 10
15.754650765
 20
10.1424662344
 40
0.04
100
AcDbArc
 50
90.0
 51
180.0
  0
ARC
  5
29F
100
AcDbEntity
  8
0
100
AcDbCircle
 62
6
  6
CONTINUOUS
 10
15.630150765
 20
10.0739662344
 40
0.0035
100
AcDbArc
 50
90.0
 51
180.0
  0
ARC
  5
2A0
100
AcDbEntity
  8
0
100
AcDbCircle
 62
6
  6
CONTINUOUS
 10
12.9278549487
 20
11.9596641353
 40
2.7898963579
100
AcDbArc
 50
38.8810902756
 51
41.2853998608
  0
ARC
  5
2A1
100
AcDbEntity
  8
0
100
AcDbCircle
 62
6
  6
CONTINUOUS
 10
15.302150765
 20
11.1272739169
 40
2.5
100
AcDbArc
 50
180.0
 51
201.0394697813
  0
ARC
  5
2A2
100
AcDbEntity
  8
0
100
AcDbCircle
 62
9
  6
CONTINUOUS
 10
15.2459843991
 20
11.1276013743
 40
2.4738406506
100
AcDbArc
 50
180.0075841518
 51
201.2807494072
  0
ARC
  5
2A3
100
AcDbEntity
  8
0
100
AcDbCircle
 62
9
  6
CONTINUOUS
 10
12.759650765
 20
12.6224662344
 40
0.03
100
AcDbArc
 50
0.0
 51
90.0
  0
ARC
  5
2A4
100
AcDbEntity
  8
0
100
AcDbCircle
 62
6
  6
CONTINUOUS
 10
12.759650765
 20
12.2724662344
 40
0.03
100
AcDbArc
 50
270.0
 51
360.0
  0
ARC
  5
2A5
100
AcDbEntity
  8
0
100
AcDbCircle
 62
6
  6
CONTINUOUS
 10
12.772150765
 20
11.6124662344
 40
0.03
100
AcDbArc
 50
0.0
 51
90.0
  0
ARC
  5
2A6
100
AcDbEntity
  8
0
100
AcDbCircle
 62
9
  6
CONTINUOUS
 10
10.151846812
 20
14.2424662344
 40
2.0
100
AcDbArc
 50
252.8106195197
 51
278.4722246009
  0
ARC
  5
2A7
100
AcDbEntity
  8
0
100
AcDbCircle
 62
9
  6
CONTINUOUS
 10
10.151846812
 20
14.2424662344
 40
1.97
100
AcDbArc
 50
252.8106194549
 51
278.4722246009
  0
ARC
  5
2A8
100
AcDbEntity
  8
0
100
AcDbCircle
 62
9
  6
CONTINUOUS
 10
12.0727055394
 20
15.011954921
 40
2.7690221405
100
AcDbArc
 50
269.3818748974
 51
269.5735703086
  0
ARC
  5
2A9
100
AcDbEntity
  8
0
100
AcDbCircle
 62
9
  6
CONTINUOUS
 10
12.089650765
 20
14.7424662344
 40
2.5
100
AcDbArc
 50
257.7559857074
 51
268.132186573
  0
ARC
  5
2AA
100
AcDbEntity
  8
0
100
AcDbCircle
 62
9
  6
CONTINUOUS
 10
12.089650765
 20
14.7424662344
 40
2.4700000103
100
AcDbArc
 50
257.7559857074
 51
270.0
  0
ARC
  5
2AB
100
AcDbEntity
  8
0
100
AcDbCircle
 62
9
  6
CONTINUOUS
 10
12.0874348557
 20
17.2732539273
 40
5.0303685799
100
AcDbArc
 50
269.5974993414
 51
270.0252391552
  0
ARC
  5
2AC
100
AcDbEntity
  8
0
100
AcDbCircle
 62
9
  6
CONTINUOUS
 10
11.989650765
 20
16.6784005923
 40
4.0559343726
100
AcDbArc
 50
256.2444427842
 51
270.0
  0
ARC
  5
2AD
100
AcDbEntity
  8
0
100
AcDbCircle
 62
6
  6
CONTINUOUS
 10
11.989650765
 20
16.6784005923
 40
4.0259343579
100
AcDbArc
 50
256.2444427842
 51
270.0
  0
ARC
  5
2AE
100
AcDbEntity
  8
0
100
AcDbCircle
 62
9
  6
CONTINUOUS
 10
12.0558986911
 20
15.2485647974
 40
3.0352916819
100
AcDbArc
 50
269.8352020833
 51
270.0569514744
  0
ARC
  5
2AF
100
AcDbEntity
  8
0
100
AcDbCircle
 62
6
  6
CONTINUOUS
 10
15.479650765
 20
12.8752993821
 40
0.15
100
AcDbArc
 50
180.0
 51
209.9264348666
  0
ARC
  5
2B0
100
AcDbEntity
  8
0
100
AcDbCircle
 62
6
  6
CONTINUOUS
 10
15.162150765
 20
14.4104662344
 40
0.15
100
AcDbArc
 50
90.0
 51
114.6243183522
  0
ARC
  5
2B1
100
AcDbEntity
  8
0
100
AcDbCircle
 62
6
  6
CONTINUOUS
 10
15.229650765
 20
13.4347270032
 40
0.1
100
AcDbArc
 50
0.0
 51
44.331208047
  0
ARC
  5
2B2
100
AcDbEntity
  8
0
100
AcDbCircle
 62
6
  6
CONTINUOUS
 10
15.1848041171
 20
14.5906195865
 40
0.0301533521
100
AcDbArc
 50
98.178968898
 51
270.0
  0
ARC
  5
2B3
100
AcDbEntity
  8
0
100
AcDbCircle
 62
6
  6
CONTINUOUS
 10
16.089650765
 20
8.2950504353
 40
6.3904157991
100
AcDbArc
 50
81.821031102
 51
98.178968898
  0
ARC
  5
2B4
100
AcDbEntity
  8
0
100
AcDbCircle
 62
6
  6
CONTINUOUS
 10
16.1808711712
 20
9.1495711947
 40
0.9
100
AcDbArc
 50
131.080309689
 51
168.2748731243
  0
ARC
  5
2B5
100
AcDbEntity
  8
0
100
AcDbCircle
 62
6
  6
CONTINUOUS
 10
16.413670773
 20
9.7029342316
 40
1.3
100
AcDbArc
 50
142.5617898182
 51
182.2248692774
  0
ARC
  5
2B6
100
AcDbEntity
  8
0
100
AcDbCircle
 62
6
  6
CONTINUOUS
 10
17.0161258229
 20
9.581433702
 40
0.0860249421
100
AcDbArc
 50
0.0
 51
55.661576622
  0
ARC
  5
2B7
100
AcDbEntity
  8
0
100
AcDbCircle
 62
6
  6
CONTINUOUS
 10
16.424650765
 20
10.1424662344
 40
0.04
100
AcDbArc
 50
0.0
 51
90.0
  0
ARC
  5
2B8
100
AcDbEntity
  8
0
100
AcDbCircle
 62
6
  6
CONTINUOUS
 10
16.5778656651
 20
9.8142513342
 40
0.0182149002
100
AcDbArc
 50
48.920035384
 51
90.0
  0
ARC
  5
2B9
100
AcDbEntity
  8
0
100
AcDbCircle
 62
6
  6
CONTINUOUS
 10
16.549150765
 20
10.0739662344
 40
0.0035
100
AcDbArc
 50
0.0
 51
90.0
  0
ARC
  5
2BA
100
AcDbEntity
  8
0
100
AcDbCircle
 62
6
  6
CONTINUOUS
 10
18.402150765
 20
9.2424662344
 40
2.75
100
AcDbArc
 50
1.8754700483
 51
21.0394697813
  0
ARC
  5
2BB
100
AcDbEntity
  8
0
100
AcDbCircle
 62
6
  6
CONTINUOUS
 10
16.877150765
 20
11.1272739169
 40
2.5
100
AcDbArc
 50
338.9605302187
 51
360.0
  0
ARC
  5
2BC
100
AcDbEntity
  8
0
100
AcDbCircle
 62
9
  6
CONTINUOUS
 10
16.9333171489
 20
11.1276013686
 40
2.4738406549
100
AcDbArc
 50
338.7192505641
 51
359.9924159801
  0
ARC
  5
2BD
100
AcDbEntity
  8
0
100
AcDbCircle
 62
6
  6
CONTINUOUS
 10
16.9963453098
 20
10.6451877481
 40
0.25
100
AcDbArc
 50
182.150412267
 51
217.4382101819
  0
ARC
  5
2BE
100
AcDbEntity
  8
0
100
AcDbCircle
 62
6
  6
CONTINUOUS
 10
19.407150765
 20
11.6124662344
 40
0.03
100
AcDbArc
 50
90.0
 51
180.0
  0
ARC
  5
2BF
100
AcDbEntity
  8
0
100
AcDbCircle
 62
6
  6
CONTINUOUS
 10
19.2510469381
 20
11.9600004663
 40
2.7893741386
100
AcDbArc
 50
138.7143750419
 51
141.1191348217
  0
ARC
  5
2C0
100
AcDbEntity
  8
0
100
AcDbCircle
 62
6
  6
CONTINUOUS
 10
19.419650765
 20
12.6224662344
 40
0.03
100
AcDbArc
 50
90.0
 51
180.0
  0
ARC
  5
2C1
100
AcDbEntity
  8
0
100
AcDbCircle
 62
9
  6
CONTINUOUS
 10
19.419650765
 20
12.2724662344
 40
0.03
100
AcDbArc
 50
180.0
 51
270.0
  0
ARC
  5
2C2
100
AcDbEntity
  8
0
100
AcDbCircle
 62
6
  6
CONTINUOUS
 10
21.777150765
 20
9.2424662344
 40
2.75
100
AcDbArc
 50
158.9605302187
 51
178.1245299517
  0
ARC
  5
2C3
100
AcDbEntity
  8
0
100
AcDbCircle
 62
9
  6
CONTINUOUS
 10
21.0439908721
 20
10.3448265311
 40
2.0300000124
100
AcDbArc
 50
81.5277753991
 51
102.2440142926
  0
ARC
  5
2C4
100
AcDbEntity
  8
0
100
AcDbCircle
 62
6
  6
CONTINUOUS
 10
21.0439908721
 20
10.3448265311
 40
2.0
100
AcDbArc
 50
81.5277753991
 51
102.2440142926
  0
ARC
  5
2C5
100
AcDbEntity
  8
0
100
AcDbCircle
 62
6
  6
CONTINUOUS
 10
23.302150765
 20
11.1272739169
 40
2.5
100
AcDbArc
 50
180.0
 51
201.0394697813
  0
ARC
  5
2C6
100
AcDbEntity
  8
0
100
AcDbCircle
 62
9
  6
CONTINUOUS
 10
23.2459843991
 20
11.1276013743
 40
2.4738406506
100
AcDbArc
 50
180.0075841518
 51
201.2807494072
  0
ARC
  5
2C7
100
AcDbEntity
  8
0
100
AcDbCircle
 62
6
  6
CONTINUOUS
 10
21.6819430851
 20
10.5824662344
 40
2.25
100
AcDbArc
 50
65.2987848133
 51
103.7555572158
  0
ARC
  5
2C8
100
AcDbEntity
  8
0
100
AcDbCircle
 62
9
  6
CONTINUOUS
 10
21.6819430851
 20
10.5824662344
 40
2.22
100
AcDbArc
 50
65.2987848133
 51
103.7555572158
  0
ARC
  5
2C9
100
AcDbEntity
  8
0
100
AcDbCircle
 62
6
  6
CONTINUOUS
 10
19.744650765
 20
12.2124662344
 40
0.03
100
AcDbArc
 50
0.0
 51
89.654066322
  0
ARC
  5
2CA
100
AcDbEntity
  8
0
100
AcDbCircle
 62
6
  6
CONTINUOUS
 10
22.609650765
 20
12.5993347132
 40
0.03
100
AcDbArc
 50
0.0
 51
65.2987848133
  0
ARC
  5
2CB
100
AcDbEntity
  8
0
100
AcDbCircle
 62
6
  6
CONTINUOUS
 10
22.609650765
 20
12.3604599212
 40
0.03
100
AcDbArc
 50
287.1893804803
 51
360.0
  0
ARC
  5
2CC
100
AcDbEntity
  8
0
100
AcDbCircle
 62
6
  6
CONTINUOUS
 10
20.772150765
 20
11.6124662344
 40
0.03
100
AcDbArc
 50
0.0
 51
90.0
  0
ARC
  5
2CD
100
AcDbEntity
  8
0
100
AcDbCircle
 62
6
  6
CONTINUOUS
 10
20.4346503924
 20
12.2360992463
 40
0.0299999676
100
AcDbArc
 50
97.836750056
 51
179.9998175975
  0
ARC
  5
2CE
100
AcDbEntity
  8
0
100
AcDbCircle
 62
9
  6
CONTINUOUS
 10
20.189650765
 20
16.6784005923
 40
4.0559343726
100
AcDbArc
 50
270.0
 51
283.7555572158
  0
ARC
  5
2CF
100
AcDbEntity
  8
0
100
AcDbCircle
 62
9
  6
CONTINUOUS
 10
20.189650765
 20
16.6784005923
 40
4.0259343579
100
AcDbArc
 50
270.0
 51
283.7555572158
  0
ARC
  5
2D0
100
AcDbEntity
  8
0
100
AcDbCircle
 62
6
  6
CONTINUOUS
 10
20.089650765
 20
14.7424662344
 40
2.5
100
AcDbArc
 50
271.867813427
 51
282.2440142926
  0
ARC
  5
2D1
100
AcDbEntity
  8
0
100
AcDbCircle
 62
9
  6
CONTINUOUS
 10
20.089650765
 20
14.7424662344
 40
2.4700000103
100
AcDbArc
 50
270.0
 51
282.2440142926
  0
ARC
  5
2D2
100
AcDbEntity
  8
0
100
AcDbCircle
 62
6
  6
CONTINUOUS
 10
22.0274547179
 20
14.2424662344
 40
2.0
100
AcDbArc
 50
261.5277753991
 51
287.1893804803
  0
ARC
  5
2D3
100
AcDbEntity
  8
0
100
AcDbCircle
 62
9
  6
CONTINUOUS
 10
22.0274547179
 20
14.2424662344
 40
1.97
100
AcDbArc
 50
261.5277753991
 51
287.1893805451
  0
ARC
  5
2D4
100
AcDbEntity
  8
0
100
AcDbCircle
 62
6
  6
CONTINUOUS
 10
17.017150765
 20
14.4104662344
 40
0.15
100
AcDbArc
 50
65.3756816478
 51
90.0
  0
ARC
  5
2D5
100
AcDbEntity
  8
0
100
AcDbCircle
 62
6
  6
CONTINUOUS
 10
16.699650765
 20
12.8752993821
 40
0.15
100
AcDbArc
 50
330.0735651334
 51
360.0
  0
ARC
  5
2D6
100
AcDbEntity
  8
0
100
AcDbCircle
 62
6
  6
CONTINUOUS
 10
16.949650765
 20
13.4347270032
 40
0.1
100
AcDbArc
 50
135.6687919529
 51
180.0
  0
ARC
  5
2D7
100
AcDbEntity
  8
0
100
AcDbCircle
 62
6
  6
CONTINUOUS
 10
16.9944974128
 20
14.5906195865
 40
0.0301533521
100
AcDbArc
 50
270.0
 51
81.821031102
  0
LINE
  5
2D8
100
AcDbEntity
  8
0
100
AcDbLine
 62
9
  6
CONTINUOUS
 10
12.089650765
 20
12.2428858355
 11
12.1721128775
 21
12.2424662344
  0
LINE
  5
2D9
100
AcDbEntity
  8
0
100
AcDbLine
 62
9
  6
CONTINUOUS
 10
12.089650765
 20
12.2133054365
 11
12.164942259
 21
12.2124662344
  0
LINE
  5
2DA
100
AcDbEntity
  8
0
100
AcDbLine
 62
9
  6
CONTINUOUS
 10
12.0081664641
 20
12.2437945255
 11
12.0428330268
 21
12.2430939192
  0
SPLINE
  5
2DB
100
AcDbEntity
  8
0
100
AcDbSpline
 62
9
  6
CONTINUOUS
 70
0
 71
3
 72
10
 73
6
 74
4
 42
0.0000001
 43
0.0000001
 44
0.0000000001
 12
0.0327934551
 22
-0.0011737564
 32
0.0
 13
0.0328143045
 23
-0.0000991305
 33
0.0
 40
0.0
 40
0.0
 40
0.0
 40
0.0
 40
0.4974518099
 40
0.7481926475
 40
1.0
 40
1.0
 40
1.0
 40
1.0
 10
12.0143592709
 20
12.213810465
 30
0.0
 10
12.0197969921
 20
12.2136158359
 30
0.0
 10
12.0279796483
 20
12.2134340271
 30
0.0
 10
12.0389171807
 20
12.2133209566
 30
0.0
 10
12.0444141017
 20
12.2132939914
 30
0.0
 10
12.0471683961
 20
12.2132856708
 30
0.0
 11
12.0143592709
 21
12.213810465
 31
0.0
 11
12.030678139
 21
12.2134170492
 31
0.0
 11
12.0389055863
 21
12.2133285101
 31
0.0
 11
12.0471683961
 21
12.2132856708
 31
0.0
  0
LINE
  5
2DC
100
AcDbEntity
  8
0
100
AcDbLine
 62
9
  6
CONTINUOUS
 10
12.0589157424
 20
12.2132746149
 11
12.089650765
 21
12.2133054365
  0
SPLINE
  5
2DD
100
AcDbEntity
  8
0
100
AcDbSpline
 62
6
  6
CONTINUOUS
 70
0
 71
3
 72
32
 73
28
 74
26
 42
0.0000001
 43
0.0000001
 44
0.0000000001
 12
0.0
 22
0.1631053139
 32
0.0
 13
-0.1430760486
 23
0.0783210191
 33
0.0
 40
0.0
 40
0.0
 40
0.0
 40
0.0
 40
0.0984483287
 40
0.1475374196
 40
0.1963683842
 40
0.2448370245
 40
0.2928456074
 40
0.3402911506
 40
0.3870596044
 40
0.4330128378
 40
0.4780004856
 40
0.5644423568
 40
0.6451633026
 40
0.6830016135
 40
0.7189927316
 40
0.7849285219
 40
0.8423445862
 40
0.8908578964
 40
0.911747944
 40
0.9303950173
 40
0.946796475
 40
0.960968414
 40
0.9729297455
 40
0.982695571
 40
0.9902773233
 40
0.9956835672
 40
1.0
 40
1.0
 40
1.0
 40
1.0
 10
17.1550283691
 20
14.4104662344
 30
0.0
 10
17.1550283691
 20
14.4158187162
 30
0.0
 10
17.1546390933
 20
14.4238469727
 30
0.0
 10
17.1533615261
 20
14.4344492006
 30
0.0
 10
17.1520296715
 20
14.4422993048
 30
0.0
 10
17.1503362538
 20
14.4500188233
 30
0.0
 10
17.1483003857
 20
14.4575771989
 30
0.0
 10
17.1459391102
 20
14.4649432864
 30
0.0
 10
17.1432730395
 20
14.4720852946
 30
0.0
 10
17.1403345205
 20
14.478974503
 30
0.0
 10
17.1361511363
 20
14.4876670546
 30
0.0
 10
17.130454778
 20
14.4977150726
 30
0.0
 10
17.1241397862
 20
14.5069160612
 30
0.0
 10
17.1189526394
 20
14.5135291792
 30
0.0
 10
17.1140287522
 20
14.5193189784
 30
0.0
 10
17.1080505105
 20
14.5256009922
 30
0.0
 10
17.1011415863
 20
14.5319018548
 30
0.0
 10
17.0957656202
 20
14.5362260405
 30
0.0
 10
17.0919090071
 20
14.5390629223
 30
0.0
 10
17.0894148024
 20
14.5408036432
 30
0.0
 10
17.0871883438
 20
14.5422885779
 30
0.0
 10
17.085239316
 20
14.5435334932
 30
0.0
 10
17.0835757722
 20
14.5445544821
 30
0.0
 10
17.0822053719
 20
14.5453676858
 30
0.0
 10
17.0811358276
 20
14.5459893687
 30
0.0
 10
17.0803186201
 20
14.5464555645
 30
0.0
 10
17.0798566243
 20
14.5467124467
 30
0.0
 10
17.079650765
 20
14.5468251358
 30
0.0
 11
17.1550283691
 21
14.4104662344
 31
0.0
 11
17.1542547956
 21
14.4265050355
 31
0.0
 11
17.1532960572
 21
14.4344541191
 31
0.0
 11
17.1519637391
 21
14.4423064831
 31
0.0
 11
17.1502702225
 21
14.4500284529
 31
0.0
 11
17.148233092
 21
14.4575892812
 31
0.0
 11
17.1458700957
 21
14.4649583036
 31
0.0
 11
17.1432028542
 21
14.4721049814
 31
0.0
 11
17.1402617773
 21
14.4789990613
 31
0.0
 11
17.1370784874
 21
14.4856103294
 31
0.0
 11
17.1301244187
 21
14.4978751716
 31
0.0
 11
17.1226672161
 21
14.5087257054
 31
0.0
 11
17.1188583174
 21
14.5135817638
 31
0.0
 11
17.1150546119
 21
14.5180530887
 31
0.0
 11
17.1076363539
 21
14.5258395026
 31
0.0
 11
17.1007155116
 21
14.5321484361
 31
0.0
 11
17.0945468584
 21
14.537104219
 31
0.0
 11
17.0918020646
 21
14.5391230426
 31
0.0
 11
17.0893082641
 21
14.5408641045
 31
0.0
 11
17.0870823224
 21
14.5423479141
 31
0.0
 11
17.085134045
 21
14.5435918326
 31
0.0
 11
17.0834712832
 21
14.5446123498
 31
0.0
 11
17.082101888
 21
14.545425955
 31
0.0
 11
17.0810325928
 21
14.5460471207
 31
0.0
 11
17.0802662756
 21
14.546483362
 31
0.0
 11
17.079650765
 21
14.5468251358
 31
0.0
  0
SPLINE
  5
2DE
100
AcDbEntity
  8
0
100
AcDbSpline
 62
6
  6
CONTINUOUS
 70
0
 71
3
 72
14
 73
10
 74
8
 42
0.0000001
 43
0.0000001
 44
0.0000000001
 12
0.0
 22
0.0656172624
 32
0.0
 13
-0.0001112861
 23
0.065617168
 33
0.0
 40
0.0
 40
0.0
 40
0.0
 40
0.0
 40
0.2617459376
 40
0.3913327099
 40
0.5191235135
 40
0.6444665856
 40
0.7667778655
 40
0.8854788062
 40
1.0
 40
1.0
 40
1.0
 40
1.0
 10
16.7290198085
 20
14.4104662344
 30
0.0
 10
16.7290198085
 20
14.4161912517
 30
0.0
 10
16.7289632285
 20
14.4247506972
 30
0.0
 10
16.7288086942
 20
14.4361041415
 30
0.0
 10
16.7286616083
 20
14.4444738974
 30
0.0
 10
16.7284978465
 20
14.452684156
 30
0.0
 10
16.7283440307
 20
14.4606957655
 30
0.0
 10
16.7282248304
 20
14.4684712511
 30
0.0
 10
16.7281838268
 20
14.4735723219
 30
0.0
 10
16.7281795786
 20
14.476077174
 30
0.0
 11
16.7290198085
 21
14.4104662344
 31
0.0
 11
16.7289173172
 21
14.4276409804
 31
0.0
 11
16.7288025071
 21
14.4361433345
 31
0.0
 11
16.7286573217
 21
14.4445273602
 31
0.0
 11
16.7284975598
 21
14.4527504777
 31
0.0
 11
16.7283477651
 21
14.460774811
 31
0.0
 11
16.7282330626
 21
14.4685627971
 31
0.0
 11
16.7281795786
 21
14.476077174
 31
0.0
  0
SPLINE
  5
2DF
100
AcDbEntity
  8
0
100
AcDbSpline
 62
7
  6
CONTINUOUS
 70
0
 71
3
 72
12
 73
8
 74
6
 42
0.0000001
 43
0.0000001
 44
0.0000000001
 12
-0.081449112
 22
-0.0026579576
 32
0.0
 13
-0.0814924692
 23
0.0000061469
 33
0.0
 40
0.0
 40
0.0
 40
0.0
 40
0.0
 40
0.2491586624
 40
0.4990463725
 40
0.6241825728
 40
0.7494095313
 40
1.0
 40
1.0
 40
1.0
 40
1.0
 10
20.1711350659
 20
12.2437945255
 30
0.0
 10
20.1643704819
 20
12.2435737744
 30
0.0
 10
20.150817399
 20
12.2432566996
 30
0.0
 10
20.1338630695
 20
12.2430533793
 30
0.0
 10
20.1202744835
 20
12.2429598722
 30
0.0
 10
20.1066666254
 20
12.2428993476
 30
0.0
 10
20.0964578436
 20
12.242885322
 30
0.0
 10
20.089650765
 20
12.2428858355
 30
0.0
 11
20.1711350659
 21
12.2437945255
 31
0.0
 11
20.15083664
 21
12.2432956791
 31
0.0
 11
20.130474331
 21
12.2430358571
 31
0.0
 11
20.120276926
 21
12.2429640235
 31
0.0
 11
20.1100719758
 21
12.242917978
 31
0.0
 11
20.089650765
 21
12.2428858355
 31
0.0
  0
LINE
  5
2E0
100
AcDbEntity
  8
0
100
AcDbLine
 62
7
  6
CONTINUOUS
 10
20.089650765
 20
12.2428858355
 11
20.0071886524
 21
12.2424662344
  0
LINE
  5
2E1
100
AcDbEntity
  8
0
100
AcDbLine
 62
7
  6
CONTINUOUS
 10
20.089650765
 20
12.2133054365
 11
20.0143592709
 21
12.2124662344
  0
SPLINE
  5
2E2
100
AcDbEntity
  8
0
100
AcDbSpline
 62
7
  6
CONTINUOUS
 70
0
 71
3
 72
13
 73
9
 74
7
 42
0.0000001
 43
0.0000001
 44
0.0000000001
 12
-0.0752485443
 22
-0.0026933259
 32
0.0
 13
-0.0752967282
 23
0.0000121687
 33
0.0
 40
0.0
 40
0.0
 40
0.0
 40
0.0
 40
0.2467850312
 40
0.3712724706
 40
0.4963232134
 40
0.6218377052
 40
0.7477105245
 40
1.0
 40
1.0
 40
1.0
 40
1.0
 10
20.164942259
 20
12.213810465
 30
0.0
 10
20.1587521875
 20
12.2135889075
 30
0.0
 10
20.1494344399
 20
12.213399422
 30
0.0
 10
20.1369777555
 20
12.2132977592
 30
0.0
 10
20.1275643207
 20
12.2132711246
 30
0.0
 10
20.1181161397
 20
12.2132748501
 30
0.0
 10
20.1054744105
 20
12.2132910698
 30
0.0
 10
20.0959829556
 20
12.2133044132
 30
0.0
 10
20.089650765
 20
12.2133054365
 30
0.0
 11
20.164942259
 21
12.213810465
 31
0.0
 11
20.1463649762
 21
12.2133871248
 31
0.0
 11
20.1369918287
 21
12.213306185
 31
0.0
 11
20.1275759645
 21
12.2132762072
 31
0.0
 11
20.1181251338
 21
12.2132762444
 31
0.0
 11
20.1086473285
 21
12.213287128
 31
0.0
 11
20.089650765
 21
12.2133054365
 31
0.0
  0
LINE
  5
2E3
100
AcDbEntity
  8
0
100
AcDbLine
 62
7
  6
CONTINUOUS
 10
12.0428330262
 20
12.2430938593
 11
12.0081664641
 21
12.2437945255
  0
SPLINE
  5
2E4
100
AcDbEntity
  8
0
100
AcDbSpline
 62
7
  6
CONTINUOUS
 70
0
 71
3
 72
10
 73
6
 74
4
 42
0.0000001
 43
0.0000001
 44
0.0000000001
 12
-0.0328142374
 22
0.0001009854
 32
0.0
 13
-0.0327935098
 23
0.0011692548
 33
0.0
 40
0.0
 40
0.0
 40
0.0
 40
0.0
 40
0.1481742878
 40
0.4338633867
 40
1.0
 40
1.0
 40
1.0
 40
1.0
 10
12.0471683986
 20
12.2132864606
 30
0.0
 10
12.0455476565
 20
12.2132914484
 30
0.0
 10
12.0408020464
 20
12.2133107197
 30
0.0
 10
12.0298643318
 20
12.213398106
 30
0.0
 10
12.0205478064
 20
12.2135898123
 30
0.0
 10
12.0143592709
 20
12.213810465
 30
0.0
 11
12.0471683986
 21
12.2132864606
 31
0.0
 11
12.0423062032
 21
12.213306786
 31
0.0
 11
12.032931843
 21
12.2133867894
 31
0.0
 11
12.0143592709
 21
12.213810465
 31
0.0
  0
SPLINE
  5
2E5
100
AcDbEntity
  8
0
100
AcDbSpline
 62
6
  6
CONTINUOUS
 70
0
 71
3
 72
33
 73
29
 74
27
 42
0.0000001
 43
0.0000001
 44
0.0000000001
 12
-0.1430863152
 22
-0.0783085388
 32
0.0
 13
0.0
 23
-0.1631082899
 33
0.0
 40
0.0
 40
0.0
 40
0.0
 40
0.0
 40
0.0043164253
 40
0.0097227072
 40
0.0173045743
 40
0.0270705975
 40
0.039032106
 40
0.0532041029
 40
0.0696054293
 40
0.0882527047
 40
0.1091432844
 40
0.1576559257
 40
0.2150729074
 40
0.2810072468
 40
0.3169986115
 40
0.3548372386
 40
0.3944076592
 40
0.4355753279
 40
0.5220167182
 40
0.567002885
 40
0.6129544686
 40
0.6597213428
 40
0.7071652113
 40
0.7551717042
 40
0.8036380779
 40
0.8524668168
 40
0.9015540821
 40
1.0
 40
1.0
 40
1.0
 40
1.0
 10
15.099650765
 20
14.5468251358
 30
0.0
 10
15.0994448912
 20
14.5467124648
 30
0.0
 10
15.0989828685
 20
14.5464556078
 30
0.0
 10
15.0981656358
 20
14.545989405
 30
0.0
 10
15.09709609
 20
14.5453676417
 30
0.0
 10
15.0957256626
 20
14.5445543754
 30
0.0
 10
15.0940620322
 20
14.5435334153
 30
0.0
 10
15.0921129364
 20
14.5422885161
 30
0.0
 10
15.0898864789
 20
14.540803478
 30
0.0
 10
15.0873922454
 20
14.539062646
 30
0.0
 10
15.0835355034
 20
14.5362257871
 30
0.0
 10
15.0781594429
 20
14.5319014406
 30
0.0
 10
15.0712505273
 20
14.5256004297
 30
0.0
 10
15.0652721141
 20
14.5193183445
 30
0.0
 10
15.0603483005
 20
14.5135284415
 30
0.0
 10
15.0565422221
 20
14.5086757298
 30
0.0
 10
15.05277593
 20
14.5034408136
 30
0.0
 10
15.0477851528
 20
14.4958416497
 30
0.0
 10
15.0431496343
 20
14.4876657273
 30
0.0
 10
15.0389663843
 20
14.4789734357
 30
0.0
 10
15.0360280595
 20
14.47208421
 30
0.0
 10
15.0333621454
 20
14.4649423001
 30
0.0
 10
15.0310008422
 20
14.4575763741
 30
0.0
 10
15.0289650964
 20
14.4500181564
 30
0.0
 10
15.0272717903
 20
14.4422988338
 30
0.0
 10
15.0259399374
 20
14.4344489311
 30
0.0
 10
15.0246623991
 20
14.4238468562
 30
0.0
 10
15.0242731608
 20
14.4158186828
 30
0.0
 10
15.0242731608
 20
14.4104662344
 30
0.0
 11
15.099650765
 21
14.5468251358
 31
0.0
 11
15.099035221
 21
14.5464833981
 31
0.0
 11
15.0982688804
 21
14.5460471528
 31
0.0
 11
15.0971995737
 21
14.5454259247
 31
0.0
 11
15.0958301435
 21
14.5446122584
 31
0.0
 11
15.0941673038
 21
14.5435917449
 31
0.0
 11
15.0922189632
 21
14.5423478295
 31
0.0
 11
15.0899930306
 21
14.5408639569
 31
0.0
 11
15.0874991904
 21
14.5391227973
 31
0.0
 11
15.0847542585
 21
14.5371039099
 31
0.0
 11
15.0785855932
 21
14.5321480858
 31
0.0
 11
15.0716645689
 21
14.5258388762
 31
0.0
 11
15.0642463425
 21
14.5180524881
 31
0.0
 11
15.060442613
 21
14.5135809902
 31
0.0
 11
15.0566336522
 21
14.5087247719
 31
0.0
 11
15.0528636986
 21
14.5034859773
 31
0.0
 11
15.0491764781
 21
14.4978741342
 31
0.0
 11
15.0422223834
 21
14.4856091011
 31
0.0
 11
15.0390391307
 21
14.4789979347
 31
0.0
 11
15.0360982386
 21
14.4721039199
 31
0.0
 11
15.0334311265
 21
14.4649573202
 31
0.0
 11
15.0310681531
 21
14.457588429
 31
0.0
 11
15.0290311222
 21
14.450027779
 31
0.0
 11
15.0273377052
 21
14.4423060181
 31
0.0
 11
15.0260054146
 21
14.4344538703
 31
0.0
 11
15.0250466974
 21
14.4265049369
 31
0.0
 11
15.0242731608
 21
14.4104662344
 31
0.0
  0
SPLINE
  5
2E6
100
AcDbEntity
  8
0
100
AcDbSpline
 62
6
  6
CONTINUOUS
 70
0
 71
3
 72
14
 73
10
 74
8
 42
0.0000001
 43
0.0000001
 44
0.0000000001
 12
-0.0001109285
 22
-0.0656198416
 32
0.0
 13
0.0
 23
-0.0656199354
 33
0.0
 40
0.0
 40
0.0
 40
0.0
 40
0.0
 40
0.1145200927
 40
0.233220411
 40
0.3555314763
 40
0.4808746928
 40
0.6086659166
 40
0.738253185
 40
1.0
 40
1.0
 40
1.0
 40
1.0
 10
15.4511219492
 20
14.4760798471
 30
0.0
 10
15.4511177147
 20
14.473574917
 30
0.0
 10
15.4510767366
 20
14.4684736758
 30
0.0
 10
15.4509575466
 20
14.4606979156
 30
0.0
 10
15.4508037217
 20
14.4526859949
 30
0.0
 10
15.4506399466
 20
14.4444753943
 30
0.0
 10
15.4504928583
 20
14.4361052743
 30
0.0
 10
15.4503383106
 20
14.4247513283
 30
0.0
 10
15.4502817214
 20
14.4161915041
 30
0.0
 10
15.4502817214
 20
14.4104662344
 30
0.0
 11
15.4511219492
 21
14.4760798471
 31
0.0
 11
15.4510684996
 21
14.4685652361
 31
0.0
 11
15.4509538092
 21
14.4607769733
 31
0.0
 11
15.4508040081
 21
14.4527523272
 31
0.0
 11
15.4506442353
 21
14.4445288654
 31
0.0
 11
15.4504990442
 21
14.4361444706
 31
0.0
 11
15.4503842254
 21
14.4276417376
 31
0.0
 11
15.4502817214
 21
14.4104662344
 31
0.0
  0
SPLINE
  5
2E7
100
AcDbEntity
  8
0
100
AcDbSpline
 62
9
  6
CONTINUOUS
 70
0
 71
3
 72
20
 73
16
 74
14
 42
0.0000001
 43
0.0000001
 44
0.0000000001
 12
-0.0106276012
 22
0.0276286926
 32
0.0
 13
-0.0280684047
 23
-0.0094050633
 33
0.0
 40
0.0
 40
0.0
 40
0.0
 40
0.0
 40
0.0309847288
 40
0.0639299435
 40
0.1002838017
 40
0.141065947
 40
0.1869233549
 40
0.2381317037
 40
0.2947339374
 40
0.3566426995
 40
0.423668209
 40
0.4954771143
 40
0.6517939682
 40
0.8218153028
 40
1.0
 40
1.0
 40
1.0
 40
1.0
 10
20.9688173984
 20
10.2297464362
 30
0.0
 10
20.968707634
 20
10.2300317921
 30
0.0
 10
20.9683975114
 20
10.2305912306
 30
0.0
 10
20.9677094199
 20
10.2313141323
 30
0.0
 10
20.9668066412
 20
10.2319299523
 30
0.0
 10
20.9656984892
 20
10.2324360036
 30
0.0
 10
20.9643928874
 20
10.2328289857
 30
0.0
 10
20.9629005447
 20
10.2331098613
 30
0.0
 10
20.9612325963
 20
10.2332776983
 30
0.0
 10
20.9594013122
 20
10.233331049
 30
0.0
 10
20.957420431
 20
10.2332685809
 30
0.0
 10
20.9545171699
 20
10.2330255076
 30
0.0
 10
20.9506295198
 20
10.2324244694
 30
0.0
 10
20.9457769542
 20
10.2312970147
 30
0.0
 10
20.9424845517
 20
10.2303050489
 30
0.0
 10
20.9408174316
 20
10.2297464361
 30
0.0
 11
20.9688173984
 21
10.2297464362
 31
0.0
 11
20.96837683
 21
10.2305509144
 31
0.0
 11
20.9677118271
 21
10.2312642767
 31
0.0
 11
20.9668290998
 21
10.2318798258
 31
0.0
 11
20.9657353578
 21
10.2323908644
 31
0.0
 11
20.9644383651
 21
10.2327915674
 31
0.0
 11
20.9629501007
 21
10.2330795976
 31
0.0
 11
20.9612835976
 21
10.2332534901
 31
0.0
 11
20.959451889
 21
10.2333117798
 31
0.0
 11
20.9574686425
 21
10.2332534901
 31
0.0
 11
20.9553500651
 21
10.2330795976
 31
0.0
 11
20.9507742843
 21
10.2323908643
 31
0.0
 11
20.9458689857
 21
10.2312642766
 31
0.0
 11
20.9408174316
 21
10.2297464361
 31
0.0
  0
SPLINE
  5
2E8
100
AcDbEntity
  8
0
100
AcDbSpline
 62
9
  6
CONTINUOUS
 70
0
 71
3
 72
20
 73
16
 74
14
 42
0.0000001
 43
0.0000001
 44
0.0000000001
 12
-0.0280684045
 22
0.0094050633
 32
0.0
 13
-0.0106276009
 23
-0.0276286924
 33
0.0
 40
0.0
 40
0.0
 40
0.0
 40
0.0
 40
0.1781846985
 40
0.3482060339
 40
0.504522888
 40
0.5763317931
 40
0.6433573024
 40
0.7052660641
 40
0.7618682975
 40
0.8130766459
 40
0.8589340535
 40
0.8997161985
 40
0.9360700566
 40
0.9690152712
 40
1.0
 40
1.0
 40
1.0
 40
1.0
 10
19.2384840983
 20
10.2297464362
 30
0.0
 10
19.2368169782
 20
10.230305049
 30
0.0
 10
19.2335245757
 20
10.2312970148
 30
0.0
 10
19.2286720102
 20
10.2324244695
 30
0.0
 10
19.2247843601
 20
10.2330255077
 30
0.0
 10
19.221881099
 20
10.2332685809
 30
0.0
 10
19.2199002178
 20
10.233331049
 30
0.0
 10
19.2180689337
 20
10.2332776983
 30
0.0
 10
19.2164009853
 20
10.2331098612
 30
0.0
 10
19.2149086426
 20
10.2328289857
 30
0.0
 10
19.2136030409
 20
10.2324360035
 30
0.0
 10
19.2124948889
 20
10.2319299522
 30
0.0
 10
19.2115921103
 20
10.2313141322
 30
0.0
 10
19.2109040187
 20
10.2305912305
 30
0.0
 10
19.2105938962
 20
10.230031792
 30
0.0
 10
19.2104841318
 20
10.2297464361
 30
0.0
 11
19.2384840983
 21
10.2297464362
 31
0.0
 11
19.2334325442
 21
10.2312642767
 31
0.0
 11
19.2285272457
 21
10.2323908644
 31
0.0
 11
19.2239514649
 21
10.2330795976
 31
0.0
 11
19.2218328875
 21
10.2332534901
 31
0.0
 11
19.219849641
 21
10.2333117798
 31
0.0
 11
19.2180179324
 21
10.2332534901
 31
0.0
 11
19.2163514294
 21
10.2330795976
 31
0.0
 11
19.214863165
 21
10.2327915673
 31
0.0
 11
19.2135661723
 21
10.2323908643
 31
0.0
 11
19.2124724304
 21
10.2318798257
 31
0.0
 11
19.2115897031
 21
10.2312642766
 31
0.0
 11
19.2109247002
 21
10.2305509143
 31
0.0
 11
19.2104841318
 21
10.2297464361
 31
0.0
  0
SPLINE
  5
2E9
100
AcDbEntity
  8
0
100
AcDbSpline
 62
9
  6
CONTINUOUS
 70
0
 71
3
 72
18
 73
14
 74
12
 42
0.0000001
 43
0.0000001
 44
0.0000000001
 12
-0.3268826923
 22
-0.8591989193
 32
0.0
 13
-0.0297618895
 23
-0.9187977511
 33
0.0
 40
0.0
 40
0.0
 40
0.0
 40
0.0
 40
0.1211032109
 40
0.2435964819
 40
0.3053268518
 40
0.3673587994
 40
0.4922642693
 40
0.6181660087
 40
0.6814386658
 40
0.7448935602
 40
0.8085083265
 40
0.8722571704
 40
1.0
 40
1.0
 40
1.0
 40
1.0
 10
19.2384840983
 20
10.229746449
 30
0.0
 10
19.2252885837
 20
10.195062533
 30
0.0
 10
19.2001468689
 20
10.1247550785
 30
0.0
 10
19.1722175383
 20
10.0354327745
 30
0.0
 10
19.1519078981
 20
9.962753162
 30
0.0
 10
19.132907256
 20
9.8889569099
 30
0.0
 10
19.1118872084
 20
9.7953979192
 30
0.0
 10
19.0946971055
 20
9.7006729405
 30
0.0
 10
19.0832661122
 20
9.6241044332
 30
0.0
 10
19.0758636325
 20
9.5662457489
 30
0.0
 10
19.0696634261
 20
9.5080988529
 30
0.0
 10
19.0630167566
 20
9.4302066755
 30
0.0
 10
19.0598766953
 20
9.3715895356
 30
0.0
 10
19.058609406
 20
9.3324662607
 30
0.0
 11
19.2384840983
 21
10.229746449
 31
0.0
 11
19.2009969735
 21
10.1249200393
 31
0.0
 11
19.1673923474
 21
10.0174456525
 31
0.0
 11
19.1521194832
 21
9.9627920588
 31
0.0
 11
19.1379011618
 21
9.9075683631
 31
0.0
 11
19.1127291941
 21
9.7955384277
 31
0.0
 11
19.0920639557
 21
9.681659358
 31
0.0
 11
19.0834752044
 21
9.6241316991
 31
0.0
 11
19.0760725761
 21
9.5662705216
 31
0.0
 11
19.0698723492
 21
9.5081203751
 31
0.0
 11
19.0648890238
 21
9.4497296238
 31
0.0
 11
19.058609406
 21
9.3324662607
 31
0.0
  0
SPLINE
  5
2EA
100
AcDbEntity
  8
0
100
AcDbSpline
 62
6
  6
CONTINUOUS
 70
0
 71
3
 72
49
 73
45
 74
43
 42
0.0000001
 43
0.0000001
 44
0.0000000001
 12
0.0
 22
0.4856923085
 32
0.0
 13
0.0
 23
-0.4856923085
 33
0.0
 40
0.0
 40
0.0
 40
0.0
 40
0.0
 40
0.0330465693
 40
0.065834309
 40
0.0980346622
 40
0.1294697399
 40
0.1448828233
 40
0.1600912741
 40
0.1751076757
 40
0.1899573648
 40
0.2046767647
 40
0.2193066204
 40
0.2338921205
 40
0.248484312
 40
0.2631305949
 40
0.2778708603
 40
0.3077499619
 40
0.3383177492
 40
0.3696083238
 40
0.4015685741
 40
0.4340652775
 40
0.4669376005
 40
0.4999992435
 40
0.5330608322
 40
0.5659329301
 40
0.5984294609
 40
0.630389555
 40
0.6616801136
 40
0.6922480093
 40
0.7221271817
 40
0.7368675979
 40
0.7515139953
 40
0.7661063153
 40
0.7806920769
 40
0.7953222987
 40
0.8100420823
 40
0.8248921601
 40
0.8399089718
 40
0.8551178326
 40
0.8705312616
 40
0.9019665466
 40
0.9341664586
 40
0.9669536272
 40
1.0
 40
1.0
 40
1.0
 40
1.0
 10
15.9284775335
 20
14.4104662344
 30
0.0
 10
15.9284775335
 20
14.4158163892
 30
0.0
 10
15.92890264
 20
14.426479919
 30
0.0
 10
15.9308399196
 20
14.4422514986
 30
0.0
 10
15.9341200546
 20
14.4575366134
 30
0.0
 10
15.9380643289
 20
14.469740761
 30
0.0
 10
15.9419767839
 20
14.4790001888
 30
0.0
 10
15.9452679317
 20
14.485621091
 30
0.0
 10
15.9489419446
 20
14.4919326618
 30
0.0
 10
15.9530011455
 20
14.4979086975
 30
0.0
 10
15.9574365758
 20
14.5035317942
 30
0.0
 10
15.9622413958
 20
14.508785385
 30
0.0
 10
15.9674105272
 20
14.5136510448
 30
0.0
 10
15.9729242065
 20
14.5181259518
 30
0.0
 10
15.9787601646
 20
14.5222149016
 30
0.0
 10
15.9869788657
 20
14.5271786167
 30
0.0
 10
15.9979913499
 20
14.5324405739
 30
0.0
 10
16.0120304546
 20
14.5373566921
 30
0.0
 10
16.026775201
 20
14.5410732703
 30
0.0
 10
16.0420535657
 20
14.5437557171
 30
0.0
 10
16.0577141524
 20
14.5455671538
 30
0.0
 10
16.0736221217
 20
14.5465980398
 30
0.0
 10
16.0896503779
 20
14.5469419901
 30
0.0
 10
16.1056785984
 20
14.546598079
 30
0.0
 10
16.1215864966
 20
14.5455672066
 30
0.0
 10
16.137246992
 20
14.5437558013
 30
0.0
 10
16.1525253427
 20
14.5410735687
 30
0.0
 10
16.1672700459
 20
14.5373568761
 30
0.0
 10
16.1813092748
 20
14.5324410467
 30
0.0
 10
16.1923218221
 20
14.5271790688
 30
0.0
 10
16.2005405464
 20
14.5222152948
 30
0.0
 10
16.2063766656
 20
14.5181264709
 30
0.0
 10
16.2118905142
 20
14.5136516328
 30
0.0
 10
16.2170596466
 20
14.508785791
 30
0.0
 10
16.2218645534
 20
14.5035320635
 30
0.0
 10
16.2263001613
 20
14.4979088736
 30
0.0
 10
16.2303595457
 20
14.4919327295
 30
0.0
 10
16.2340336711
 20
14.4856209956
 30
0.0
 10
16.2373248692
 20
14.4789999067
 30
0.0
 10
16.2412373255
 20
14.4697403111
 30
0.0
 10
16.2451816188
 20
14.4575361521
 30
0.0
 10
16.2484616749
 20
14.4422511512
 30
0.0
 10
16.2503988773
 20
14.4264797617
 30
0.0
 10
16.2508239964
 20
14.4158163574
 30
0.0
 10
16.2508239964
 20
14.4104662344
 30
0.0
 11
15.9284775335
 21
14.4104662344
 31
0.0
 11
15.9291250005
 21
14.4265036343
 31
0.0
 11
15.9310873662
 21
14.4423070162
 31
0.0
 11
15.9344048131
 21
14.4575905818
 31
0.0
 11
15.9391411411
 21
14.4721051319
 31
0.0
 11
15.9420600333
 21
14.4789986437
 31
0.0
 11
15.94535368
 21
14.4856103121
 31
0.0
 11
15.9490275113
 21
14.4919107825
 31
0.0
 11
15.9530824254
 21
14.4978753524
 31
0.0
 11
15.9575120832
 21
14.5034867473
 31
0.0
 11
15.9623094978
 21
14.5087283582
 31
0.0
 11
15.9674667382
 21
14.5135849877
 31
0.0
 11
15.972967544
 21
14.5180538995
 31
0.0
 11
15.978791317
 21
14.5221388459
 31
0.0
 11
15.9849174216
 21
14.5258436358
 31
0.0
 11
15.9979874855
 21
14.5321502212
 31
0.0
 11
16.0119821759
 21
14.5371068698
 31
0.0
 11
16.0267072129
 21
14.5408671981
 31
0.0
 11
16.0419891021
 21
14.543591655
 31
0.0
 11
16.0576652299
 21
14.5454286903
 31
0.0
 11
16.0735963243
 21
14.5464813536
 31
0.0
 11
16.0896503868
 21
14.5468271272
 31
0.0
 11
16.1057044236
 21
14.5464813872
 31
0.0
 11
16.12163541
 21
14.5454287469
 31
0.0
 11
16.1373114604
 21
14.543591772
 31
0.0
 11
16.1525932963
 21
14.5408674485
 31
0.0
 11
16.1673183277
 21
14.5371071294
 31
0.0
 11
16.1813131316
 21
14.5321506436
 31
0.0
 11
16.1943832458
 21
14.5258440831
 31
0.0
 11
16.2005094197
 21
14.5221392664
 31
0.0
 11
16.2063333256
 21
14.5180544127
 31
0.0
 11
16.2118342539
 21
14.5135855527
 31
0.0
 11
16.2169915422
 21
14.5087287887
 31
0.0
 11
16.2217890569
 21
14.5034870285
 31
0.0
 11
16.2262188809
 21
14.4978755273
 31
0.0
 11
16.2302739646
 21
14.4919108445
 31
0.0
 11
16.233947913
 21
14.4856102117
 31
0.0
 11
16.2372416209
 21
14.4789983514
 31
0.0
 11
16.2401605408
 21
14.472104669
 31
0.0
 11
16.2448968774
 21
14.4575900158
 31
0.0
 11
16.2482142356
 21
14.4423066503
 31
0.0
 11
16.2501765277
 21
14.4265035388
 31
0.0
 11
16.2508239964
 21
14.4104662344
 31
0.0
  0
SPLINE
  5
2EB
100
AcDbEntity
  8
0
100
AcDbSpline
 62
6
  6
CONTINUOUS
 70
0
 71
3
 72
36
 73
32
 74
30
 42
0.0000001
 43
0.0000001
 44
0.0000000001
 12
-0.2265543147
 22
-0.199017881
 32
0.0
 13
-0.0005718188
 23
0.3015537224
 33
0.0
 40
0.0
 40
0.0
 40
0.0
 40
0.0
 40
0.0812791984
 40
0.1625957944
 40
0.2434397544
 40
0.2834851434
 40
0.3231699393
 40
0.362378119
 40
0.4009575623
 40
0.4387682746
 40
0.4756450713
 40
0.5113897275
 40
0.545829352
 40
0.5787974395
 40
0.6101508378
 40
0.6398180407
 40
0.6678131131
 40
0.6812097546
 40
0.6942288303
 40
0.7192442715
 40
0.7431247616
 40
0.766163007
 40
0.7886800221
 40
0.8109483265
 40
0.8332121581
 40
0.8556732912
 40
0.8784644659
 40
0.9016868277
 40
0.9254230494
 40
0.9497154679
 40
1.0
 40
1.0
 40
1.0
 40
1.0
 10
16.9569531783
 20
13.8004662344
 30
0.0
 10
16.9508151273
 20
13.7950742298
 30
0.0
 10
16.9383582423
 20
13.7844876407
 30
0.0
 10
16.9191286647
 20
13.7693451999
 30
0.0
 10
16.9026309568
 20
13.7574586245
 30
0.0
 10
16.8891765486
 20
13.7485392191
 30
0.0
 10
16.8790262353
 20
13.7422188127
 30
0.0
 10
16.8688085839
 20
13.7362957523
 30
0.0
 10
16.858552289
 20
13.7308285116
 30
0.0
 10
16.8482948051
 20
13.7258797876
 30
0.0
 10
16.8380838976
 20
13.7215148279
 30
0.0
 10
16.8279774741
 20
13.7178010972
 30
0.0
 10
16.818040943
 20
13.7148140144
 30
0.0
 10
16.8083524779
 20
13.7126100347
 30
0.0
 10
16.7989929312
 20
13.7112414322
 30
0.0
 10
16.7900452692
 20
13.7107559713
 30
0.0
 10
16.782895066
 20
13.7110910985
 30
0.0
 10
16.7774718928
 20
13.7118228876
 30
0.0
 10
16.7723970354
 20
13.7128221403
 30
0.0
 10
16.7664092326
 20
13.7145847949
 30
0.0
 10
16.7597826946
 20
13.7175324989
 30
0.0
 10
16.7538368199
 20
13.7212297365
 30
0.0
 10
16.748572297
 20
13.7255932557
 30
0.0
 10
16.743978411
 20
13.7305497802
 30
0.0
 10
16.740035743
 20
13.7360284584
 30
0.0
 10
16.7367144094
 20
13.7419618525
 30
0.0
 10
16.7339801348
 20
13.7482902167
 30
0.0
 10
16.7318030303
 20
13.7549641396
 30
0.0
 10
16.7301554459
 20
13.7619420273
 30
0.0
 10
16.7286079037
 20
13.7717090381
 30
0.0
 10
16.7281877797
 20
13.7792186701
 30
0.0
 10
16.7281781952
 20
13.7842731661
 30
0.0
 11
16.9569531783
 21
13.8004662344
 31
0.0
 11
16.9382644674
 21
13.7846082224
 31
0.0
 11
16.9189854119
 21
13.7694551559
 31
0.0
 11
16.8991832763
 21
13.7552353349
 31
0.0
 11
16.8891151276
 21
13.7485675973
 31
0.0
 11
16.8789528583
 21
13.742247769
 31
0.0
 11
16.8687194232
 21
13.7363258228
 31
0.0
 11
16.8584482984
 21
13.7308623809
 31
0.0
 11
16.8481738044
 21
13.7259187026
 31
0.0
 11
16.8379429723
 21
13.7215606781
 31
0.0
 11
16.8278191458
 21
13.7178601409
 31
0.0
 11
16.817868024
 21
13.7148882672
 31
0.0
 11
16.8081690406
 21
13.7127050423
 31
0.0
 11
16.7988099351
 21
13.711363603
 31
0.0
 11
16.7898755759
 21
13.7109020821
 31
0.0
 11
16.7814441578
 21
13.7113253037
 31
0.0
 11
16.7774410416
 21
13.7118685914
 31
0.0
 11
16.7735894975
 21
13.7126293494
 31
0.0
 11
16.7663582218
 21
13.7147771946
 31
0.0
 11
16.7597839683
 21
13.717716138
 31
0.0
 11
16.7538855156
 21
13.7213866926
 31
0.0
 11
16.7486560772
 21
13.7257177963
 31
0.0
 11
16.7440857102
 21
13.7306375871
 31
0.0
 11
16.7401543981
 21
13.7360799459
 31
0.0
 11
16.736833904
 21
13.7419834399
 31
0.0
 11
16.7340957696
 21
13.748287222
 31
0.0
 11
16.7319119692
 21
13.7549408116
 31
0.0
 11
16.7302549115
 21
13.7619041206
 31
0.0
 11
16.7290970241
 21
13.7691375146
 31
0.0
 11
16.7281781952
 21
13.7842731661
 31
0.0
  0
SPLINE
  5
2EC
100
AcDbEntity
  8
0
100
AcDbSpline
 62
6
  6
CONTINUOUS
 70
0
 71
3
 72
19
 73
15
 74
13
 42
0.0000001
 43
0.0000001
 44
0.0000000001
 12
0.0
 22
0.0117231795
 32
0.0
 13
0.0117231795
 23
0.0
 33
0.0
 40
0.0
 40
0.0
 40
0.0
 40
0.0
 40
0.0624770546
 40
0.1250062164
 40
0.1875310203
 40
0.2500355194
 40
0.312549742
 40
0.3750518929
 40
0.4375527347
 40
0.5000529651
 40
0.6250343007
 40
0.7500205901
 40
0.8750094212
 40
1.0
 40
1.0
 40
1.0
 40
1.0
 10
15.9310821678
 20
10.0739662344
 30
0.0
 10
15.9310821678
 20
10.0742103776
 30
0.0
 10
15.9312475693
 20
10.0747006262
 30
0.0
 10
15.9317511003
 20
10.0752446746
 30
0.0
 10
15.9323507282
 20
10.0756712162
 30
0.0
 10
15.9329996773
 20
10.07601476
 30
0.0
 10
15.9336762936
 20
10.0762979119
 30
0.0
 10
15.934369988
 20
10.0765352897
 30
0.0
 10
15.9350751513
 20
10.0767353627
 30
0.0
 10
15.9360259733
 20
10.0769604658
 30
0.0
 10
15.9372290641
 20
10.0771748789
 30
0.0
 10
15.9386848427
 20
10.0773467301
 30
0.0
 10
15.940147342
 20
10.0774450901
 30
0.0
 10
15.9411243341
 20
10.0774662344
 30
0.0
 10
15.9416127631
 20
10.0774662344
 30
0.0
 11
15.9310821678
 21
10.0739662344
 31
0.0
 11
15.9312900266
 21
10.0746685506
 31
0.0
 11
15.9317671189
 21
10.0752250858
 31
0.0
 11
15.9323590239
 21
10.0756574306
 31
0.0
 11
15.9330042674
 21
10.0760046849
 31
0.0
 11
15.9336791864
 21
10.0762903002
 31
0.0
 11
15.934371913
 21
10.0765290767
 31
0.0
 11
15.9350764895
 21
10.0767301582
 31
0.0
 11
15.9357892966
 21
10.0768997384
 31
0.0
 11
15.9372310597
 21
10.0771606361
 31
0.0
 11
15.938685947
 21
10.07733448
 31
0.0
 11
15.9401478311
 21
10.0774339824
 31
0.0
 11
15.9416127631
 21
10.0774662344
 31
0.0
  0
SPLINE
  5
2ED
100
AcDbEntity
  8
0
100
AcDbSpline
 62
6
  6
CONTINUOUS
 70
0
 71
3
 72
53
 73
49
 74
47
 42
0.0000001
 43
0.0000001
 44
0.0000000001
 12
0.0
 22
0.3531371609
 32
0.0
 13
-0.0005969676
 23
-0.3531366564
 33
0.0
 40
0.0
 40
0.0
 40
0.0
 40
0.0
 40
0.0394041632
 40
0.0788691397
 40
0.1183200676
 40
0.1577488633
 40
0.1774709803
 40
0.1971979241
 40
0.2366386724
 40
0.2563574797
 40
0.2760627588
 40
0.2957477247
 40
0.3154006564
 40
0.3350049612
 40
0.3545403028
 40
0.3933267684
 40
0.4316084946
 40
0.4691640495
 40
0.5058281152
 40
0.5413983019
 40
0.6085706887
 40
0.639889468
 40
0.6695177778
 40
0.6836637938
 40
0.6973457043
 40
0.7232839329
 40
0.7473029903
 40
0.7586006863
 40
0.7694403689
 40
0.7798487314
 40
0.7898629197
 40
0.7995322643
 40
0.8089212352
 40
0.8181167573
 40
0.8272225125
 40
0.8363540651
 40
0.8456351729
 40
0.8551915823
 40
0.8651396035
 40
0.8755822949
 40
0.8866091806
 40
0.89829567
 40
0.9106868397
 40
0.923800561
 40
0.9376430929
 40
0.9522120986
 40
0.9674895072
 40
1.0
 40
1.0
 40
1.0
 40
1.0
 10
15.2223483516
 20
14.4104662344
 30
0.0
 10
15.2223483516
 20
14.4151045925
 30
0.0
 10
15.2228537786
 20
14.4243960656
 30
0.0
 10
15.2251097908
 20
14.4381666255
 30
0.0
 10
15.2288638909
 20
14.4516110508
 30
0.0
 10
15.2332133448
 20
14.4624000467
 30
0.0
 10
15.2373987836
 20
14.4706929917
 30
0.0
 10
15.2420468476
 20
14.478736872
 30
0.0
 10
15.2473632312
 20
14.4863782346
 30
0.0
 10
15.2532824133
 20
14.493534421
 30
0.0
 10
15.2580114419
 20
14.4986433084
 30
0.0
 10
15.2630042808
 20
14.5034827905
 30
0.0
 10
15.2682351644
 20
14.508045648
 30
0.0
 10
15.2736784962
 20
14.512324368
 30
0.0
 10
15.2811682886
 20
14.5176257075
 30
0.0
 10
15.2909161859
 20
14.5235155481
 30
0.0
 10
15.3030391517
 20
14.5294725922
 30
0.0
 10
15.3153599101
 20
14.5343612359
 30
0.0
 10
15.3276856015
 20
14.5382781421
 30
0.0
 10
15.3436068098
 20
14.5422841623
 30
0.0
 10
15.3592026835
 20
14.5448919125
 30
0.0
 10
15.3742179579
 20
14.5463355331
 30
0.0
 10
15.3830508303
 20
14.5467675576
 30
0.0
 10
15.3898142977
 20
14.5468458104
 30
0.0
 10
15.3961432003
 20
14.5467584841
 30
0.0
 10
15.4036276404
 20
14.5463466132
 30
0.0
 10
15.4107909352
 20
14.5454548446
 30
0.0
 10
15.4161283516
 20
14.5444295849
 30
0.0
 10
15.4198515459
 20
14.5435191106
 30
0.0
 10
15.4233719964
 20
14.5424394673
 30
0.0
 10
15.4266852481
 20
14.5411784439
 30
0.0
 10
15.4297867764
 20
14.5397236246
 30
0.0
 10
15.4326726168
 20
14.5380617885
 30
0.0
 10
15.4353394566
 20
14.5361790366
 30
0.0
 10
15.437784736
 20
14.5340614901
 30
0.0
 10
15.4400060668
 20
14.5316958067
 30
0.0
 10
15.4420008472
 20
14.5290691735
 30
0.0
 10
15.4437677084
 20
14.5261714868
 30
0.0
 10
15.4453151315
 20
14.5229989469
 30
0.0
 10
15.4466511642
 20
14.5195462825
 30
0.0
 10
15.4477843659
 20
14.5158081856
 30
0.0
 10
15.4487212439
 20
14.5117809566
 30
0.0
 10
15.4494761424
 20
14.5074667993
 30
0.0
 10
15.4500668883
 20
14.5028716463
 30
0.0
 10
15.4505094536
 20
14.4980027716
 30
0.0
 10
15.4508198934
 20
14.4928687848
 30
0.0
 10
15.451084936
 20
14.4855328722
 30
0.0
 10
15.4511284184
 20
14.4799067293
 30
0.0
 10
15.4511219492
 20
14.4760798471
 30
0.0
 11
15.2223483516
 21
14.4104662344
 31
0.0
 11
15.2231025974
 21
14.4243608523
 31
0.0
 11
15.2253598121
 21
14.4381133939
 31
0.0
 11
15.229109051
 21
14.4515310081
 31
0.0
 11
15.2343178856
 21
14.4644437729
 31
0.0
 11
15.2374562683
 21
14.4706611984
 31
0.0
 11
15.2409410781
 21
14.4766932522
 31
0.0
 11
15.2488938158
 21
14.4881275417
 31
0.0
 11
15.2533322532
 21
14.4934931564
 31
0.0
 11
15.2580579922
 21
14.4986010354
 31
0.0
 11
15.263048199
 21
14.5034405695
 31
0.0
 11
15.268277254
 21
14.5080038017
 31
0.0
 11
15.2737195307
 21
14.512282782
 31
0.0
 11
15.2793493434
 21
14.5162698425
 31
0.0
 11
15.2910619253
 21
14.5233706631
 31
0.0
 11
15.3031884854
 21
14.5293457609
 31
0.0
 11
15.3155097968
 21
14.5342521729
 31
0.0
 11
15.3278445229
 21
14.5381880133
 31
0.0
 11
15.3400238106
 21
14.5412617015
 31
0.0
 11
15.3634132349
 21
14.5452143974
 31
0.0
 11
15.3744229675
 21
14.5462658307
 31
0.0
 11
15.3848737394
 21
14.5467685698
 31
0.0
 11
15.389868905
 21
14.5468249693
 31
0.0
 11
15.3946999964
 21
14.5467554862
 31
0.0
 11
15.4038443912
 21
14.546225291
 31
0.0
 11
15.4122572867
 21
14.5451446049
 31
0.0
 11
15.4161741731
 21
14.5443861862
 31
0.0
 11
15.4198909983
 21
14.5434707693
 31
0.0
 11
15.4234030917
 21
14.5423867558
 31
0.0
 11
15.4267057829
 21
14.541122545
 31
0.0
 11
15.4297944015
 21
14.5396665362
 31
0.0
 11
15.4326647216
 21
14.5380068888
 31
0.0
 11
15.4353149617
 21
14.5361304405
 31
0.0
 11
15.4377441766
 21
14.5340235771
 31
0.0
 11
15.4399514218
 21
14.531672684
 31
0.0
 11
15.4419357559
 21
14.5290641498
 31
0.0
 11
15.4436982142
 21
14.5261862169
 31
0.0
 11
15.445245178
 21
14.5230321427
 31
0.0
 11
15.4465839238
 21
14.5195960244
 31
0.0
 11
15.4477217279
 21
14.5158719591
 31
0.0
 11
15.4486661885
 21
14.51185455
 31
0.0
 11
15.4494296657
 21
14.5075458872
 31
0.0
 11
15.4500281577
 21
14.5029537816
 31
0.0
 11
15.4504777549
 21
14.4980861888
 31
0.0
 11
15.4507945542
 21
14.4929510943
 31
0.0
 11
15.450995373
 21
14.4875598124
 31
0.0
 11
15.4511219492
 21
14.4760798471
 31
0.0
  0
SPLINE
  5
2EE
100
AcDbEntity
  8
0
100
AcDbSpline
 62
6
  6
CONTINUOUS
 70
0
 71
3
 72
21
 73
17
 74
15
 42
0.0000001
 43
0.0000001
 44
0.0000000001
 12
0.0117261232
 22
0.0
 32
0.0
 13
0.0
 23
-0.0117261232
 33
0.0
 40
0.0
 40
0.0
 40
0.0
 40
0.0
 40
0.124934585
 40
0.2498685108
 40
0.3747990151
 40
0.4997255746
 40
0.5621995499
 40
0.6246733221
 40
0.6871507942
 40
0.7496405187
 40
0.8121252314
 40
0.8433909458
 40
0.8747202543
 40
0.9060480087
 40
0.9374845399
 40
1.0
 40
1.0
 40
1.0
 40
1.0
 10
16.2376887668
 20
10.0774662344
 30
0.0
 10
16.2381770996
 20
10.0774662344
 30
0.0
 10
16.2391539036
 20
10.0774451006
 30
0.0
 10
16.2406161205
 20
10.0773467797
 30
0.0
 10
16.2420716277
 20
10.0771749983
 30
0.0
 10
16.2432744936
 20
10.0769606436
 30
0.0
 10
16.2442251725
 20
10.0767356998
 30
0.0
 10
16.2449302296
 20
10.076535712
 30
0.0
 10
16.2456238448
 20
10.0762983949
 30
0.0
 10
16.2463003841
 20
10.0760154973
 30
0.0
 10
16.2468414516
 20
10.0757292482
 30
0.0
 10
16.2472490067
 20
10.0754583972
 30
0.0
 10
16.2475381343
 20
10.0752316431
 30
0.0
 10
16.2478024766
 20
10.0749735786
 30
0.0
 10
16.2480929799
 20
10.0745793544
 30
0.0
 10
16.2482193621
 20
10.074210589
 30
0.0
 10
16.2482193621
 20
10.0739662344
 30
0.0
 11
16.2376887668
 21
10.0774662344
 31
0.0
 11
16.2391534104
 21
10.077433997
 31
0.0
 11
16.2406150208
 21
10.0773345345
 31
0.0
 11
16.2420696276
 21
10.0771607562
 31
0.0
 11
16.2435111314
 21
10.0768999667
 31
0.0
 11
16.2442238356
 21
10.0767304893
 31
0.0
 11
16.2449282991
 21
10.076529498
 31
0.0
 11
16.2456209473
 21
10.0762908175
 31
0.0
 11
16.2462958376
 21
10.0760053993
 31
0.0
 11
16.2469410401
 21
10.0756581702
 31
0.0
 11
16.2472459883
 21
10.0754546489
 31
0.0
 11
16.2475339252
 21
10.0752264953
 31
0.0
 11
16.2477945009
 21
10.0749675579
 31
0.0
 11
16.2480106713
 21
10.0746689654
 31
0.0
 11
16.2482193621
 21
10.0739662344
 31
0.0
  0
SPLINE
  5
2EF
100
AcDbEntity
  8
0
100
AcDbSpline
 62
9
  6
CONTINUOUS
 70
0
 71
3
 72
44
 73
40
 74
38
 42
0.0000001
 43
0.0000001
 44
0.0000000001
 12
-0.2407185285
 22
0.0085961025
 32
0.0
 13
-0.1971765845
 23
0.1383499094
 33
0.0
 40
0.0
 40
0.0
 40
0.0
 40
0.0
 40
0.1044288565
 40
0.2060075159
 40
0.3040245435
 40
0.3978309741
 40
0.4867876844
 40
0.570292774
 40
0.6477724153
 40
0.7186951608
 40
0.7825554679
 40
0.8116962279
 40
0.8389044402
 40
0.8641278731
 40
0.8873230062
 40
0.908448089
 40
0.9274612909
 40
0.9443234682
 40
0.9590054037
 40
0.9655203451
 40
0.9714800984
 40
0.9768812834
 40
0.9817205183
 40
0.9859948475
 40
0.9897028712
 40
0.9928435433
 40
0.9942007955
 40
0.9954158174
 40
0.9964884782
 40
0.9974186469
 40
0.9982061928
 40
0.9988509849
 40
0.9993528925
 40
0.9995502237
 40
0.9997117846
 40
0.999837559
 40
0.9999275305
 40
0.9999816827
 40
1.0
 40
1.0
 40
1.0
 40
1.0
 10
12.0143592709
 20
12.213810465
 30
0.0
 10
12.0059799507
 20
12.214109692
 30
0.0
 10
11.9894533651
 20
12.2147987693
 30
0.0
 10
11.9650773457
 20
12.2161022768
 30
0.0
 10
11.9415688526
 20
12.2176279197
 30
0.0
 10
11.9190890419
 20
12.2193339231
 30
0.0
 10
11.897789152
 20
12.2211739275
 30
0.0
 10
11.8778132587
 20
12.2230971847
 30
0.0
 10
11.8592958847
 20
12.2250517781
 30
0.0
 10
11.8423628536
 20
12.2269837758
 30
0.0
 10
11.8292978396
 20
12.2285759824
 30
0.0
 10
11.8197233669
 20
12.229794469
 30
0.0
 10
11.8132289396
 20
12.2306421309
 30
0.0
 10
11.807210219
 20
12.2314457383
 30
0.0
 10
11.8016776899
 20
12.2322000314
 30
0.0
 10
11.7966409883
 20
12.2328998482
 30
0.0
 10
11.7921093858
 20
12.2335400965
 30
0.0
 10
11.7880911369
 20
12.2341158111
 30
0.0
 10
11.785067028
 20
12.23455468
 30
0.0
 10
11.7829096044
 20
12.2348705463
 30
0.0
 10
11.7814896317
 20
12.2350795116
 30
0.0
 10
11.7802028921
 20
12.2352697234
 30
0.0
 10
11.7790501128
 20
12.2354407617
 30
0.0
 10
11.7780318626
 20
12.2355922256
 30
0.0
 10
11.7771485559
 20
12.2357239536
 30
0.0
 10
11.7764969386
 20
12.2358213838
 30
0.0
 10
11.7760433066
 20
12.235889356
 30
0.0
 10
11.7757538925
 20
12.2359327831
 30
0.0
 10
11.7754983973
 20
12.2359711755
 30
0.0
 10
11.7752768522
 20
12.2360045208
 30
0.0
 10
11.7750892817
 20
12.2360327903
 30
0.0
 10
11.7749357289
 20
12.2360560012
 30
0.0
 10
11.774829014
 20
12.2360721099
 30
0.0
 10
11.7747607081
 20
12.2360825418
 30
0.0
 10
11.7747221811
 20
12.2360882579
 30
0.0
 10
11.7746923749
 20
12.2360931673
 30
0.0
 10
11.7746706321
 20
12.2360956668
 30
0.0
 10
11.7746583093
 20
12.2360990281
 30
0.0
 10
11.7746519689
 20
12.2360984971
 30
0.0
 10
11.774650765
 20
12.2360993418
 30
0.0
 11
12.0143592709
 21
12.213810465
 31
0.0
 11
11.9892271173
 21
12.2148582009
 31
0.0
 11
11.9647945734
 21
12.2161647107
 31
0.0
 11
11.9412345809
 21
12.2176936931
 31
0.0
 11
11.9187040307
 21
12.2194035643
 31
0.0
 11
11.8973563497
 21
12.2212475958
 31
0.0
 11
11.8773349043
 21
12.2231753213
 31
0.0
 11
11.8587753294
 21
12.2251342893
 31
0.0
 11
11.8418021493
 21
12.2270708661
 31
0.0
 11
11.8265329718
 21
12.2289317778
 31
0.0
 11
11.8195699381
 21
12.2298179032
 31
0.0
 11
11.8130713578
 21
12.2306660658
 31
0.0
 11
11.8070491886
 21
12.2314701865
 31
0.0
 11
11.8015133475
 21
12.2322249529
 31
0.0
 11
11.796473322
 21
12.2329252142
 31
0.0
 11
11.7919385993
 21
12.2335658197
 31
0.0
 11
11.7879180403
 21
12.2341419354
 31
0.0
 11
11.7844182409
 21
12.2346498728
 31
0.0
 11
11.7828655275
 21
12.2348772029
 31
0.0
 11
11.7814452855
 21
12.2350862023
 31
0.0
 11
11.7801582757
 21
12.2352764423
 31
0.0
 11
11.7790052586
 21
12.235447494
 31
0.0
 11
11.7779868985
 21
12.2355989833
 31
0.0
 11
11.7771035102
 21
12.2357307335
 31
0.0
 11
11.7763553291
 21
12.235842613
 31
0.0
 11
11.7760320147
 21
12.23589106
 31
0.0
 11
11.7757425903
 21
12.23593449
 31
0.0
 11
11.7754870854
 21
12.2359728865
 31
0.0
 11
11.7752655292
 21
12.2360062331
 31
0.0
 11
11.7750779514
 21
12.2360345132
 31
0.0
 11
11.7749243811
 21
12.2360577105
 31
0.0
 11
11.774804848
 21
12.2360758084
 31
0.0
 11
11.7747578545
 21
12.23608294
 31
0.0
 11
11.7747193813
 21
12.2360887906
 31
0.0
 11
11.7746894321
 21
12.2360933582
 31
0.0
 11
11.7746680105
 21
12.2360966406
 31
0.0
 11
11.7746551202
 21
12.2360986358
 31
0.0
 11
11.774650765
 21
12.2360993418
 31
0.0
  0
SPLINE
  5
2F0
100
AcDbEntity
  8
0
100
AcDbSpline
 62
6
  6
CONTINUOUS
 70
0
 71
3
 72
38
 73
34
 74
32
 42
0.0000001
 43
0.0000001
 44
0.0000000001
 12
0.2261368523
 22
-0.3086388125
 32
0.0
 13
0.2261368523
 23
0.3086388125
 33
0.0
 40
0.0
 40
0.0
 40
0.0
 40
0.0
 40
0.0563954458
 40
0.0851927347
 40
0.1144035155
 40
0.1440443836
 40
0.1741268377
 40
0.2046740938
 40
0.235717169
 40
0.2672535278
 40
0.2992803673
 40
0.3318079313
 40
0.3647933067
 40
0.3981870589
 40
0.431933819
 40
0.4659199557
 40
0.500035903
 40
0.5341547631
 40
0.5511740717
 40
0.5681429712
 40
0.6018799654
 40
0.6352737695
 40
0.6682450141
 40
0.700763598
 40
0.7327868516
 40
0.7643126791
 40
0.7953501104
 40
0.8258949349
 40
0.8559717209
 40
0.8856067446
 40
0.9148136864
 40
0.9436077649
 40
1.0
 40
1.0
 40
1.0
 40
1.0
 10
15.9284775335
 20
13.8004662344
 30
0.0
 10
15.932728563
 20
13.7946642932
 30
0.0
 10
15.9395226431
 20
13.7861626679
 30
0.0
 10
15.9493638943
 20
13.7753855835
 30
0.0
 10
15.9572726833
 20
13.7674793312
 30
0.0
 10
15.9656659606
 20
13.7598435789
 30
0.0
 10
15.9745597825
 20
13.752524794
 30
0.0
 10
15.9839664666
 20
13.7455719557
 30
0.0
 10
15.9938915731
 20
13.7390368457
 30
0.0
 10
16.0043382891
 20
13.7329851899
 30
0.0
 10
16.0153024391
 20
13.7274920252
 30
0.0
 10
16.0267661327
 20
13.7226380796
 30
0.0
 10
16.0386935913
 20
13.7185018722
 30
0.0
 10
16.05103328
 20
13.7151720422
 30
0.0
 10
16.0637099747
 20
13.7127324465
 30
0.0
 10
16.0766254599
 20
13.7112319815
 30
0.0
 10
16.0896659183
 20
13.7107345653
 30
0.0
 10
16.1005425596
 20
13.7111541413
 30
0.0
 10
16.1091907068
 20
13.711987021
 30
0.0
 10
16.1177521139
 20
13.7131455939
 30
0.0
 10
16.1282940594
 20
13.7151808804
 30
0.0
 10
16.140631057
 20
13.7185074246
 30
0.0
 10
16.1525551813
 20
13.7226449203
 30
0.0
 10
16.1640144581
 20
13.7275003502
 30
0.0
 10
16.1749759403
 20
13.7329921871
 30
0.0
 10
16.1854204396
 20
13.7390426942
 30
0.0
 10
16.1953426794
 20
13.7455778612
 30
0.0
 10
16.2047474129
 20
13.7525303423
 30
0.0
 10
16.2136401562
 20
13.7598476211
 30
0.0
 10
16.2220320665
 20
13.7674819924
 30
0.0
 10
16.229939114
 20
13.7753876596
 30
0.0
 10
16.2397794726
 20
13.786163766
 30
0.0
 10
16.2465732089
 20
13.7946646235
 30
0.0
 10
16.2508239964
 20
13.8004662344
 30
0.0
 11
15.9284775335
 21
13.8004662344
 31
0.0
 11
15.9419577598
 21
13.7836172742
 31
0.0
 11
15.9493885151
 21
13.7754817017
 31
0.0
 11
15.9572939549
 21
13.7675811246
 31
0.0
 11
15.9656853012
 21
13.7599518468
 31
0.0
 11
15.9745749978
 21
13.7526405707
 31
0.0
 11
15.9839756602
 21
13.7456954601
 31
0.0
 11
15.9938982366
 21
13.7391670544
 31
0.0
 11
16.0043416913
 21
13.7331229658
 31
0.0
 11
16.0152997478
 21
13.7276382723
 31
0.0
 11
16.0267618213
 21
13.7227891662
 31
0.0
 11
16.0386877593
 21
13.7186593059
 31
0.0
 11
16.051024868
 21
13.7153354607
 31
0.0
 11
16.0637044433
 21
13.7128961341
 31
0.0
 11
16.0766219052
 21
13.7114012311
 31
0.0
 11
16.0896656794
 21
13.7109015283
 31
0.0
 11
16.1027104379
 21
13.7114046425
 31
0.0
 11
16.1091922943
 21
13.712029209
 31
0.0
 11
16.1156263553
 21
13.7128990268
 31
0.0
 11
16.1283013657
 21
13.7153422982
 31
0.0
 11
16.1406384927
 21
13.7186661516
 31
0.0
 11
16.1525587699
 21
13.722795836
 31
0.0
 11
16.1640167384
 21
13.7276458259
 31
0.0
 11
16.1749733301
 21
13.7331303807
 31
0.0
 11
16.1854131163
 21
13.7391727637
 31
0.0
 11
16.1953332094
 21
13.7457010147
 31
0.0
 11
16.2047326696
 21
13.7526461869
 31
0.0
 11
16.2136208105
 21
13.7599559405
 31
0.0
 11
16.2220105081
 21
13.7675837074
 31
0.0
 11
16.2299145382
 21
13.7754836171
 31
0.0
 11
16.2373443875
 21
13.7836183536
 31
0.0
 11
16.2508239964
 21
13.8004662344
 31
0.0
  0
SPLINE
  5
2F1
100
AcDbEntity
  8
0
100
AcDbSpline
 62
9
  6
CONTINUOUS
 70
0
 71
3
 72
20
 73
16
 74
14
 42
0.0000001
 43
0.0000001
 44
0.0000000001
 12
-0.0280684045
 22
0.0094050633
 32
0.0
 13
-0.0106276009
 23
-0.0276286924
 33
0.0
 40
0.0
 40
0.0
 40
0.0
 40
0.0
 40
0.1781846985
 40
0.3482060339
 40
0.504522888
 40
0.5763317931
 40
0.6433573024
 40
0.7052660641
 40
0.7618682975
 40
0.8130766459
 40
0.8589340535
 40
0.8997161985
 40
0.9360700566
 40
0.9690152712
 40
1.0
 40
1.0
 40
1.0
 40
1.0
 10
11.2384840983
 20
10.2297464362
 30
0.0
 10
11.2368169782
 20
10.230305049
 30
0.0
 10
11.2335245757
 20
10.2312970148
 30
0.0
 10
11.2286720102
 20
10.2324244695
 30
0.0
 10
11.2247843601
 20
10.2330255077
 30
0.0
 10
11.221881099
 20
10.2332685809
 30
0.0
 10
11.2199002178
 20
10.233331049
 30
0.0
 10
11.2180689337
 20
10.2332776983
 30
0.0
 10
11.2164009853
 20
10.2331098612
 30
0.0
 10
11.2149086426
 20
10.2328289857
 30
0.0
 10
11.2136030409
 20
10.2324360035
 30
0.0
 10
11.2124948889
 20
10.2319299522
 30
0.0
 10
11.2115921103
 20
10.2313141322
 30
0.0
 10
11.2109040187
 20
10.2305912305
 30
0.0
 10
11.2105938962
 20
10.230031792
 30
0.0
 10
11.2104841318
 20
10.2297464361
 30
0.0
 11
11.2384840983
 21
10.2297464362
 31
0.0
 11
11.2334325442
 21
10.2312642767
 31
0.0
 11
11.2285272457
 21
10.2323908644
 31
0.0
 11
11.2239514649
 21
10.2330795976
 31
0.0
 11
11.2218328875
 21
10.2332534901
 31
0.0
 11
11.219849641
 21
10.2333117798
 31
0.0
 11
11.2180179324
 21
10.2332534901
 31
0.0
 11
11.2163514294
 21
10.2330795976
 31
0.0
 11
11.214863165
 21
10.2327915673
 31
0.0
 11
11.2135661723
 21
10.2323908643
 31
0.0
 11
11.2124724304
 21
10.2318798257
 31
0.0
 11
11.2115897031
 21
10.2312642766
 31
0.0
 11
11.2109247002
 21
10.2305509143
 31
0.0
 11
11.2104841318
 21
10.2297464361
 31
0.0
  0
SPLINE
  5
2F2
100
AcDbEntity
  8
0
100
AcDbSpline
 62
9
  6
CONTINUOUS
 70
0
 71
3
 72
18
 73
14
 74
12
 42
0.0000001
 43
0.0000001
 44
0.0000000001
 12
-0.3268826923
 22
-0.8591989193
 32
0.0
 13
-0.0297618895
 23
-0.9187977511
 33
0.0
 40
0.0
 40
0.0
 40
0.0
 40
0.0
 40
0.1211032109
 40
0.2435964819
 40
0.3053268518
 40
0.3673587994
 40
0.4922642693
 40
0.6181660087
 40
0.6814386658
 40
0.7448935602
 40
0.8085083265
 40
0.8722571704
 40
1.0
 40
1.0
 40
1.0
 40
1.0
 10
11.2384840983
 20
10.229746449
 30
0.0
 10
11.2252885837
 20
10.195062533
 30
0.0
 10
11.2001468689
 20
10.1247550785
 30
0.0
 10
11.1722175383
 20
10.0354327745
 30
0.0
 10
11.1519078981
 20
9.962753162
 30
0.0
 10
11.132907256
 20
9.8889569099
 30
0.0
 10
11.1118872084
 20
9.7953979192
 30
0.0
 10
11.0946971055
 20
9.7006729405
 30
0.0
 10
11.0832661122
 20
9.6241044332
 30
0.0
 10
11.0758636325
 20
9.5662457489
 30
0.0
 10
11.0696634261
 20
9.5080988529
 30
0.0
 10
11.0630167566
 20
9.4302066755
 30
0.0
 10
11.0598766953
 20
9.3715895356
 30
0.0
 10
11.058609406
 20
9.3324662607
 30
0.0
 11
11.2384840983
 21
10.229746449
 31
0.0
 11
11.2009969735
 21
10.1249200393
 31
0.0
 11
11.1673923474
 21
10.0174456525
 31
0.0
 11
11.1521194832
 21
9.9627920588
 31
0.0
 11
11.1379011618
 21
9.9075683631
 31
0.0
 11
11.1127291941
 21
9.7955384277
 31
0.0
 11
11.0920639557
 21
9.681659358
 31
0.0
 11
11.0834752044
 21
9.6241316991
 31
0.0
 11
11.0760725761
 21
9.5662705216
 31
0.0
 11
11.0698723492
 21
9.5081203751
 31
0.0
 11
11.0648890238
 21
9.4497296238
 31
0.0
 11
11.058609406
 21
9.3324662607
 31
0.0
  0
SPLINE
  5
2F3
100
AcDbEntity
  8
0
100
AcDbSpline
 62
9
  6
CONTINUOUS
 70
0
 71
3
 72
18
 73
14
 74
12
 42
0.0000001
 43
0.0000001
 44
0.0000000001
 12
0.3268827036
 22
-0.8591989139
 32
0.0
 13
0.0297618861
 23
-0.9187977502
 33
0.0
 40
0.0
 40
0.0
 40
0.0
 40
0.0
 40
0.1211032113
 40
0.2435964818
 40
0.3053268517
 40
0.3673587994
 40
0.4922642694
 40
0.6181660087
 40
0.6814386657
 40
0.7448935601
 40
0.8085083265
 40
0.8722571705
 40
1.0
 40
1.0
 40
1.0
 40
1.0
 10
12.9408174316
 20
10.229746449
 30
0.0
 10
12.9540129467
 20
10.1950625331
 30
0.0
 10
12.9791546614
 20
10.1247550786
 30
0.0
 10
13.0070839911
 20
10.0354327745
 30
0.0
 10
13.0273936313
 20
9.9627531623
 30
0.0
 10
13.0463942738
 20
9.8889569103
 30
0.0
 10
13.0674143223
 20
9.7953979199
 30
0.0
 10
13.084604426
 20
9.7006729415
 30
0.0
 10
13.0960354191
 20
9.6241044342
 30
0.0
 10
13.1034378984
 20
9.5662457499
 30
0.0
 10
13.1096381045
 20
9.5080988539
 30
0.0
 10
13.1162847738
 20
9.4302066766
 30
0.0
 10
13.1194248351
 20
9.3715895367
 30
0.0
 10
13.1206921243
 20
9.3324662619
 30
0.0
 11
12.9408174316
 21
10.229746449
 31
0.0
 11
12.9783045567
 21
10.1249200392
 31
0.0
 11
13.011909182
 21
10.0174456527
 31
0.0
 11
13.0271820462
 21
9.9627920591
 31
0.0
 11
13.0414003679
 21
9.9075683635
 31
0.0
 11
13.0665723366
 21
9.7955384284
 31
0.0
 11
13.0872375756
 21
9.6816593589
 31
0.0
 11
13.0958263268
 21
9.6241317001
 31
0.0
 11
13.1032289548
 21
9.5662705226
 31
0.0
 11
13.1094291814
 21
9.5081203761
 31
0.0
 11
13.1144125067
 21
9.4497296248
 31
0.0
 11
13.1206921243
 21
9.3324662619
 31
0.0
  0
SPLINE
  5
2F4
100
AcDbEntity
  8
0
100
AcDbSpline
 62
9
  6
CONTINUOUS
 70
0
 71
3
 72
20
 73
16
 74
14
 42
0.0000001
 43
0.0000001
 44
0.0000000001
 12
-0.0106276012
 22
0.0276286926
 32
0.0
 13
-0.0280684047
 23
-0.0094050633
 33
0.0
 40
0.0
 40
0.0
 40
0.0
 40
0.0
 40
0.0309847288
 40
0.0639299435
 40
0.1002838017
 40
0.141065947
 40
0.1869233549
 40
0.2381317037
 40
0.2947339374
 40
0.3566426995
 40
0.423668209
 40
0.4954771143
 40
0.6517939682
 40
0.8218153028
 40
1.0
 40
1.0
 40
1.0
 40
1.0
 10
12.9688173984
 20
10.2297464362
 30
0.0
 10
12.968707634
 20
10.2300317921
 30
0.0
 10
12.9683975114
 20
10.2305912306
 30
0.0
 10
12.9677094199
 20
10.2313141323
 30
0.0
 10
12.9668066412
 20
10.2319299523
 30
0.0
 10
12.9656984892
 20
10.2324360036
 30
0.0
 10
12.9643928874
 20
10.2328289857
 30
0.0
 10
12.9629005447
 20
10.2331098613
 30
0.0
 10
12.9612325963
 20
10.2332776983
 30
0.0
 10
12.9594013122
 20
10.233331049
 30
0.0
 10
12.957420431
 20
10.2332685809
 30
0.0
 10
12.9545171699
 20
10.2330255076
 30
0.0
 10
12.9506295198
 20
10.2324244694
 30
0.0
 10
12.9457769542
 20
10.2312970147
 30
0.0
 10
12.9424845517
 20
10.2303050489
 30
0.0
 10
12.9408174316
 20
10.2297464361
 30
0.0
 11
12.9688173984
 21
10.2297464362
 31
0.0
 11
12.96837683
 21
10.2305509144
 31
0.0
 11
12.9677118271
 21
10.2312642767
 31
0.0
 11
12.9668290998
 21
10.2318798258
 31
0.0
 11
12.9657353578
 21
10.2323908644
 31
0.0
 11
12.9644383651
 21
10.2327915674
 31
0.0
 11
12.9629501007
 21
10.2330795976
 31
0.0
 11
12.9612835976
 21
10.2332534901
 31
0.0
 11
12.959451889
 21
10.2333117798
 31
0.0
 11
12.9574686425
 21
10.2332534901
 31
0.0
 11
12.9553500651
 21
10.2330795976
 31
0.0
 11
12.9507742843
 21
10.2323908643
 31
0.0
 11
12.9458689857
 21
10.2312642766
 31
0.0
 11
12.9408174316
 21
10.2297464361
 31
0.0
  0
SPLINE
  5
2F5
100
AcDbEntity
  8
0
100
AcDbSpline
 62
9
  6
CONTINUOUS
 70
0
 71
3
 72
44
 73
40
 74
38
 42
0.0000001
 43
0.0000001
 44
0.0000000001
 12
-0.2001370721
 22
-0.1340315428
 32
0.0
 13
-0.2407185214
 23
-0.0085962528
 33
0.0
 40
0.0
 40
0.0
 40
0.0
 40
0.0
 40
0.0000182353
 40
0.0000723047
 40
0.0001621925
 40
0.0002878826
 40
0.0004493589
 40
0.0006466054
 40
0.0011483446
 40
0.0017929718
 40
0.0025803583
 40
0.0035103756
 40
0.0045828952
 40
0.0057977885
 40
0.0071549271
 40
0.0102954261
 40
0.0140033643
 40
0.0182777107
 40
0.023116784
 40
0.0285174869
 40
0.0344765367
 40
0.0409906529
 40
0.0556709698
 40
0.0725322114
 40
0.0915439758
 40
0.1126666132
 40
0.1358593016
 40
0.1610812383
 40
0.1882872225
 40
0.2174245866
 40
0.2812802759
 40
0.3521988565
 40
0.4296764768
 40
0.5131814088
 40
0.6021416208
 40
0.6959522092
 40
0.7939759483
 40
0.8955650817
 40
1.0
 40
1.0
 40
1.0
 40
1.0
 10
20.404650765
 20
12.2360993418
 30
0.0
 10
20.4046495484
 20
12.2360985271
 30
0.0
 10
20.404643262
 20
12.2360990185
 30
0.0
 10
20.4046309181
 20
12.2360957141
 30
0.0
 10
20.404609216
 20
12.236093202
 30
0.0
 10
20.4045794188
 20
12.2360883154
 30
0.0
 10
20.4045409144
 20
12.2360826065
 30
0.0
 10
20.4044726318
 20
12.236072192
 30
0.0
 10
20.4043659495
 20
12.2360560985
 30
0.0
 10
20.4042124337
 20
12.2360329048
 30
0.0
 10
20.4040248999
 20
12.2360046486
 30
0.0
 10
20.4038033899
 20
12.235971314
 30
0.0
 10
20.4035479279
 20
12.2359329287
 30
0.0
 10
20.4032585443
 20
12.2358895052
 30
0.0
 10
20.4028049462
 20
12.2358215323
 30
0.0
 10
20.4021533609
 20
12.2357240902
 30
0.0
 10
20.4012700779
 20
12.2355923345
 30
0.0
 10
20.4002518536
 20
12.2354408215
 30
0.0
 10
20.3990991289
 20
12.2352697579
 30
0.0
 10
20.3978124968
 20
12.2350795593
 30
0.0
 10
20.3963926819
 20
12.2348706303
 30
0.0
 10
20.3942355041
 20
12.2345548296
 30
0.0
 10
20.3912116581
 20
12.2341160395
 30
0.0
 10
20.3871937367
 20
12.2335402984
 30
0.0
 10
20.3826625208
 20
12.2329000796
 30
0.0
 10
20.3776263136
 20
12.2322003961
 30
0.0
 10
20.3720942856
 20
12.2314462242
 30
0.0
 10
20.3660760662
 20
12.2306426066
 30
0.0
 10
20.3595822125
 20
12.2297949666
 30
0.0
 10
20.3500085501
 20
12.2285766261
 30
0.0
 10
20.3369445066
 20
12.2269845455
 30
0.0
 10
20.3200123604
 20
12.2250524413
 30
0.0
 10
20.3014954844
 20
12.2230979846
 30
0.0
 10
20.2815195089
 20
12.2211744727
 30
0.0
 10
20.2602190065
 20
12.2193345609
 30
0.0
 10
20.2377380637
 20
12.2176282336
 30
0.0
 10
20.2142278559
 20
12.2161025423
 30
0.0
 10
20.1898499763
 20
12.2147988802
 30
0.0
 10
20.1733220654
 20
12.2141097146
 30
0.0
 10
20.164942259
 20
12.213810465
 30
0.0
 11
20.404650765
 21
12.2360993418
 31
0.0
 11
20.4046464274
 21
12.23609865
 31
0.0
 11
20.4046335552
 21
12.2360966684
 31
0.0
 11
20.4046121521
 21
12.2360933989
 31
0.0
 11
20.4045822215
 21
12.2360888438
 31
0.0
 11
20.4045437671
 21
12.2360830049
 31
0.0
 11
20.4044967926
 21
12.2360758844
 31
0.0
 11
20.4043772974
 21
12.2360578064
 31
0.0
 11
20.4042237648
 21
12.2360346262
 31
0.0
 11
20.4040362237
 21
12.2360063601
 31
0.0
 11
20.4038147028
 21
12.2359730243
 31
0.0
 11
20.4035592311
 21
12.2359346352
 31
0.0
 11
20.4032698375
 21
12.235891209
 31
0.0
 11
20.4029465508
 21
12.2358427621
 31
0.0
 11
20.4021984135
 21
12.2357308711
 31
0.0
 11
20.4013150503
 21
12.2355990927
 31
0.0
 11
20.4002966928
 21
12.2354475576
 31
0.0
 11
20.399143719
 21
12.2352764791
 31
0.0
 11
20.397856825
 21
12.2350862498
 31
0.0
 11
20.3964367491
 21
12.2348772861
 31
0.0
 11
20.3948842295
 21
12.2346500044
 31
0.0
 11
20.3913848117
 21
12.2341421524
 31
0.0
 11
20.3873644818
 21
12.2335660268
 31
0.0
 11
20.3828301051
 21
12.2329254481
 31
0.0
 11
20.3777906567
 21
12.2322253127
 31
0.0
 11
20.3722553943
 21
12.2314706614
 31
0.0
 11
20.3662335889
 21
12.23066654
 31
0.0
 11
20.3597355466
 21
12.2298184027
 31
0.0
 11
20.3527733226
 21
12.2289323936
 31
0.0
 11
20.3375052505
 21
12.2270716078
 31
0.0
 11
20.3205330813
 21
12.2251350215
 31
0.0
 11
20.3019739928
 21
12.2231760839
 31
0.0
 11
20.2819525976
 21
12.2212482353
 31
0.0
 11
20.2606040752
 21
12.2194041454
 31
0.0
 11
20.2380725358
 21
12.2176940758
 31
0.0
 11
20.2145109309
 21
12.2161649783
 31
0.0
 11
20.1900758697
 21
12.2148583004
 31
0.0
 11
20.164942259
 21
12.213810465
 31
0.0
  0
SPLINE
  5
2F6
100
AcDbEntity
  8
0
100
AcDbSpline
 62
6
  6
CONTINUOUS
 70
0
 71
3
 72
34
 73
30
 74
28
 42
0.0000001
 43
0.0000001
 44
0.0000000001
 12
-0.0005712367
 22
-0.3015353892
 32
0.0
 13
-0.2265405403
 23
0.1990057809
 33
0.0
 40
0.0
 40
0.0
 40
0.0
 40
0.0
 40
0.0502880141
 40
0.0745822545
 40
0.0983203471
 40
0.1442874603
 40
0.1667502578
 40
0.1890157022
 40
0.2112851578
 40
0.2338036499
 40
0.2568433601
 40
0.2807249374
 40
0.3057419177
 40
0.332147076
 40
0.3601435876
 40
0.389812497
 40
0.4211675975
 40
0.4541375551
 40
0.4885792428
 40
0.5243260159
 40
0.5612050327
 40
0.5990181041
 40
0.6375998636
 40
0.6768104071
 40
0.716497693
 40
0.7565455413
 40
0.8373943945
 40
0.9187158837
 40
1.0
 40
1.0
 40
1.0
 40
1.0
 10
15.4511233475
 20
13.7842733028
 30
0.0
 10
15.451113772
 20
13.7792187642
 30
0.0
 10
15.4506938033
 20
13.7717095052
 30
0.0
 10
15.4491457786
 20
13.7619412093
 30
0.0
 10
15.4469740426
 20
13.7527404562
 30
0.0
 10
15.4437263499
 20
13.7439964099
 30
0.0
 10
15.4392656706
 20
13.7360284932
 30
0.0
 10
15.435322851
 20
13.7305493944
 30
0.0
 10
15.4307289942
 20
13.725592956
 30
0.0
 10
15.4254643236
 20
13.7212295488
 30
0.0
 10
15.4195185662
 20
13.7175323394
 30
0.0
 10
15.4128916857
 20
13.7145846217
 30
0.0
 10
15.4056110348
 20
13.7124408833
 30
0.0
 10
15.3977137379
 20
13.7111516491
 30
0.0
 10
15.389256465
 20
13.7107561479
 30
0.0
 10
15.3803083707
 20
13.7112414238
 30
0.0
 10
15.3709490025
 20
13.7126100276
 30
0.0
 10
15.3612605429
 20
13.714814034
 30
0.0
 10
15.3513240425
 20
13.7178011018
 30
0.0
 10
15.3412176245
 20
13.7215148255
 30
0.0
 10
15.3310067238
 20
13.725879794
 30
0.0
 10
15.3207492373
 20
13.7308285147
 30
0.0
 10
15.3104929393
 20
13.7362957518
 30
0.0
 10
15.3002752861
 20
13.7422188148
 30
0.0
 10
15.290124971
 20
13.7485392337
 30
0.0
 10
15.2766705522
 20
13.7574586373
 30
0.0
 10
15.2601728484
 20
13.7693452105
 30
0.0
 10
15.2409432841
 20
13.784487652
 30
0.0
 10
15.2284864008
 20
13.7950742314
 30
0.0
 10
15.2223483516
 20
13.8004662344
 30
0.0
 11
15.4511233475
 21
13.7842733028
 31
0.0
 11
15.4502045034
 21
13.7691375241
 31
0.0
 11
15.4490465965
 21
13.7619040279
 31
0.0
 11
15.4473895327
 21
13.7549405878
 31
0.0
 11
15.4424674987
 21
13.7419832119
 31
0.0
 11
15.4391469115
 21
13.7360796669
 31
0.0
 11
15.4352155507
 21
13.7306372469
 31
0.0
 11
15.4306452055
 21
13.7257175192
 31
0.0
 11
15.425415666
 21
13.7213864868
 31
0.0
 11
15.4195171793
 21
13.7177159502
 31
0.0
 11
15.4129430358
 21
13.7147770302
 31
0.0
 11
15.4057117186
 21
13.7126293057
 31
0.0
 11
15.3978571328
 21
13.7113252422
 31
0.0
 11
15.3894257923
 21
13.7109020543
 31
0.0
 11
15.3804914653
 21
13.711363629
 31
0.0
 11
15.3711324175
 21
13.7127050373
 31
0.0
 11
15.3614334788
 21
13.7148882763
 31
0.0
 11
15.3514823659
 21
13.7178601472
 31
0.0
 11
15.3413585546
 21
13.7215606764
 31
0.0
 11
15.3311277308
 21
13.7259187034
 31
0.0
 11
15.3208532198
 21
13.7308623881
 31
0.0
 11
15.3105821013
 21
13.7363258228
 31
0.0
 11
15.3003486723
 21
13.7422477673
 31
0.0
 11
15.2901863862
 21
13.7485676127
 31
0.0
 11
15.2801182301
 21
13.7552353525
 31
0.0
 11
15.2603160997
 21
13.7694551691
 31
0.0
 11
15.2410370591
 21
13.7846082297
 31
0.0
 11
15.2223483516
 21
13.8004662344
 31
0.0
  0
SPLINE
  5
2F7
100
AcDbEntity
  8
0
100
AcDbSpline
 62
6
  6
CONTINUOUS
 70
0
 71
3
 72
53
 73
49
 74
47
 42
0.0000001
 43
0.0000001
 44
0.0000000001
 12
-0.0005989208
 22
0.3531393257
 32
0.0
 13
0.0
 23
-0.3531398336
 33
0.0
 40
0.0
 40
0.0
 40
0.0
 40
0.0
 40
0.032510992
 40
0.0477886569
 40
0.0623579362
 40
0.076200812
 40
0.089314908
 40
0.1017064384
 40
0.1133932315
 40
0.1244203487
 40
0.1348631948
 40
0.144811292
 40
0.1543677032
 40
0.16364876
 40
0.1727802268
 40
0.1818858721
 40
0.1910812866
 40
0.2004701908
 40
0.2101394467
 40
0.2201534913
 40
0.2305616842
 40
0.2414011934
 40
0.2526987273
 40
0.2767173478
 40
0.3026551306
 40
0.3163368782
 40
0.3304827419
 40
0.3601106885
 40
0.3914291258
 40
0.4586004691
 40
0.4941710366
 40
0.5308354427
 40
0.5683914228
 40
0.6066736671
 40
0.6454603706
 40
0.6649956975
 40
0.6845999425
 40
0.7042528
 40
0.7239376971
 40
0.7436429277
 40
0.7633617132
 40
0.8028024678
 40
0.8225294162
 40
0.8422515161
 40
0.8816802063
 40
0.921131004
 40
0.9605958895
 40
1.0
 40
1.0
 40
1.0
 40
1.0
 10
16.7281795786
 20
14.476077174
 30
0.0
 10
16.7281730881
 20
14.4799041439
 30
0.0
 10
16.7282165364
 20
14.4855304185
 30
0.0
 10
16.7284815288
 20
14.4928665096
 30
0.0
 10
16.7287919311
 20
14.4980006407
 30
0.0
 10
16.729234446
 20
14.5028696742
 30
0.0
 10
16.7298251328
 20
14.507464998
 30
0.0
 10
16.7305799633
 20
14.5117793247
 30
0.0
 10
16.7315167674
 20
14.5158067109
 30
0.0
 10
16.7326498856
 20
14.5195449486
 30
0.0
 10
16.7339858319
 20
14.5229977347
 30
0.0
 10
16.7355331699
 20
14.5261703766
 30
0.0
 10
16.7372999612
 20
14.5290681404
 30
0.0
 10
16.7392946707
 20
14.5316948375
 30
0.0
 10
16.7415158981
 20
14.5340606103
 30
0.0
 10
16.7439610754
 20
14.5361782578
 30
0.0
 10
16.746627829
 20
14.5380611172
 30
0.0
 10
16.7495136063
 20
14.539723053
 30
0.0
 10
16.7526150878
 20
14.5411779518
 30
0.0
 10
16.7559282944
 20
14.5424390368
 30
0.0
 10
16.759448697
 20
14.5435187363
 30
0.0
 10
16.7631718448
 20
14.5444292705
 30
0.0
 10
16.7685091848
 20
14.5454546648
 30
0.0
 10
16.7756724081
 20
14.5463464908
 30
0.0
 10
16.7831567796
 20
14.5467583603
 30
0.0
 10
16.7894856382
 20
14.5468458069
 30
0.0
 10
16.7962490793
 20
14.5467676797
 30
0.0
 10
16.8050819159
 20
14.5463356007
 30
0.0
 10
16.8200971123
 20
14.5448921478
 30
0.0
 10
16.8356929947
 20
14.5422844432
 30
0.0
 10
16.8516143376
 20
14.5382786142
 30
0.0
 10
16.8639402973
 20
14.5343617744
 30
0.0
 10
16.8762612986
 20
14.5294730563
 30
0.0
 10
16.8883844976
 20
14.5235159434
 30
0.0
 10
16.8981325913
 20
14.5176260959
 30
0.0
 10
16.9056225134
 20
14.5123247855
 30
0.0
 10
16.9110658981
 20
14.5080460756
 30
0.0
 10
16.916296819
 20
14.5034832167
 30
0.0
 10
16.9212896897
 20
14.4986437243
 30
0.0
 10
16.9260187608
 20
14.493534827
 30
0.0
 10
16.9319380076
 20
14.4863786124
 30
0.0
 10
16.9372544506
 20
14.4787372072
 30
0.0
 10
16.9419025818
 20
14.4706932856
 30
0.0
 10
16.9460880823
 20
14.4624003082
 30
0.0
 10
16.9504375746
 20
14.4516112639
 30
0.0
 10
16.9541917071
 20
14.4381667782
 30
0.0
 10
16.956447745
 20
14.424396148
 30
0.0
 10
16.9569531783
 20
14.4151046214
 30
0.0
 10
16.9569531783
 20
14.4104662344
 30
0.0
 11
16.7281795786
 21
14.476077174
 31
0.0
 11
16.7283060849
 21
14.4875574033
 31
0.0
 11
16.7285068667
 21
14.492948818
 31
0.0
 11
16.7288236254
 21
14.4980840508
 31
0.0
 11
16.7292731727
 21
14.5029518074
 31
0.0
 11
16.729871606
 21
14.5075440895
 31
0.0
 11
16.7306350168
 21
14.511852927
 31
0.0
 11
16.7315794041
 21
14.5158704956
 31
0.0
 11
16.7327171271
 21
14.5195947019
 31
0.0
 11
16.7340557886
 21
14.5230309416
 31
0.0
 11
16.735602671
 21
14.5261851152
 31
0.0
 11
16.7373650566
 21
14.5290631234
 31
0.0
 11
16.7393493138
 21
14.5316717247
 31
0.0
 11
16.7415564604
 21
14.5340227021
 31
0.0
 11
16.7439855727
 21
14.5361296617
 31
0.0
 11
16.7466357241
 21
14.5380062121
 31
0.0
 11
16.7495059872
 21
14.5396659612
 31
0.0
 11
16.7525945613
 21
14.5411220517
 31
0.0
 11
16.755897203
 21
14.5423863245
 31
0.0
 11
16.7594092454
 21
14.5434703944
 31
0.0
 11
16.7631260215
 21
14.5443858763
 31
0.0
 11
16.7670428634
 21
14.5451443821
 31
0.0
 11
16.7754556569
 21
14.5462251554
 31
0.0
 11
16.7845999606
 21
14.5467554001
 31
0.0
 11
16.7894310298
 21
14.5468249643
 31
0.0
 11
16.7944261803
 21
14.5467686446
 31
0.0
 11
16.8048769042
 21
14.5462659288
 31
0.0
 11
16.8158866072
 21
14.5452145744
 31
0.0
 11
16.839275873
 21
14.5412620751
 31
0.0
 11
16.8514554198
 21
14.5381884757
 31
0.0
 11
16.863790393
 21
14.5342526917
 31
0.0
 11
16.876111954
 21
14.5293462294
 31
0.0
 11
16.8882387918
 21
14.5233710497
 31
0.0
 11
16.8999515905
 21
14.5162702246
 31
0.0
 11
16.9055814799
 21
14.5122831912
 31
0.0
 11
16.9110238079
 21
14.5080042256
 31
0.0
 11
16.9162528992
 21
14.5034409948
 31
0.0
 11
16.9212431388
 21
14.4986014538
 31
0.0
 11
16.9259689187
 21
14.4934935642
 31
0.0
 11
16.9304074028
 21
14.4881279298
 31
0.0
 11
16.9383602377
 21
14.4766935769
 31
0.0
 11
16.9418450984
 21
14.4706614898
 31
0.0
 11
16.9449835268
 21
14.464444035
 31
0.0
 11
16.9501924133
 21
14.4515312177
 31
0.0
 11
16.9539416836
 21
14.4381135505
 31
0.0
 11
16.9561989228
 21
14.4243609386
 31
0.0
 11
16.9569531783
 21
14.4104662344
 31
0.0
  0
SPLINE
  5
2F8
100
AcDbEntity
  8
0
100
AcDbSpline
 62
9
  6
CONTINUOUS
 70
0
 71
3
 72
18
 73
14
 74
12
 42
0.0000001
 43
0.0000001
 44
0.0000000001
 12
0.3268827036
 22
-0.8591989139
 32
0.0
 13
0.0297618861
 23
-0.9187977502
 33
0.0
 40
0.0
 40
0.0
 40
0.0
 40
0.0
 40
0.1211032113
 40
0.2435964818
 40
0.3053268517
 40
0.3673587994
 40
0.4922642694
 40
0.6181660087
 40
0.6814386657
 40
0.7448935601
 40
0.8085083265
 40
0.8722571705
 40
1.0
 40
1.0
 40
1.0
 40
1.0
 10
20.9408174316
 20
10.229746449
 30
0.0
 10
20.9540129467
 20
10.1950625331
 30
0.0
 10
20.9791546614
 20
10.1247550786
 30
0.0
 10
21.0070839911
 20
10.0354327745
 30
0.0
 10
21.0273936313
 20
9.9627531623
 30
0.0
 10
21.0463942738
 20
9.8889569103
 30
0.0
 10
21.0674143223
 20
9.7953979199
 30
0.0
 10
21.084604426
 20
9.7006729415
 30
0.0
 10
21.0960354191
 20
9.6241044342
 30
0.0
 10
21.1034378984
 20
9.5662457499
 30
0.0
 10
21.1096381045
 20
9.5080988539
 30
0.0
 10
21.1162847738
 20
9.4302066766
 30
0.0
 10
21.1194248351
 20
9.3715895367
 30
0.0
 10
21.1206921243
 20
9.3324662619
 30
0.0
 11
20.9408174316
 21
10.229746449
 31
0.0
 11
20.9783045567
 21
10.1249200392
 31
0.0
 11
21.011909182
 21
10.0174456527
 31
0.0
 11
21.0271820462
 21
9.9627920591
 31
0.0
 11
21.0414003679
 21
9.9075683635
 31
0.0
 11
21.0665723366
 21
9.7955384284
 31
0.0
 11
21.0872375756
 21
9.6816593589
 31
0.0
 11
21.0958263268
 21
9.6241317001
 31
0.0
 11
21.1032289548
 21
9.5662705226
 31
0.0
 11
21.1094291814
 21
9.5081203761
 31
0.0
 11
21.1144125067
 21
9.4497296248
 31
0.0
 11
21.1206921243
 21
9.3324662619
 31
0.0
  0
ENDSEC
  0
SECTION
  2
OBJECTS
  0
DICTIONARY
  5
C
100
AcDbDictionary
280
0
281
1
  3
ACAD_GROUP
350
D
  3
ACAD_MLINESTYLE
350
17
  3
ACAD_LAYOUT
350
1A
  3
ACAD_PLOTSETTINGS
350
19
  3
ACAD_PLOTSTYLENAME
350
E
  0
DICTIONARY
  5
D
102
{ACAD_REACTORS
330
C
102
}
100
AcDbDictionary
280
0
281
1
  0
ACDBDICTIONARYWDFLT
  5
E
102
{ACAD_REACTORS
330
C
102
}
100
AcDbDictionary
281
1
  3
Normal
350
F
100
AcDbDictionaryWithDefault
340
F
  0
DICTIONARY
  5
17
102
{ACAD_REACTORS
330
C
102
}
100
AcDbDictionary
280
0
281
1
  3
Standard
350
18
  0
DICTIONARY
  5
19
102
{ACAD_REACTORS
330
C
102
}
100
AcDbDictionary
281
1
  0
DICTIONARY
  5
1A
102
{ACAD_REACTORS
330
C
102
}
100
AcDbDictionary
281
1
  3
Model
350
2F9
  3
Layout1
350
2FA
  0
ACDBPLACEHOLDER
  5
F
102
{ACAD_REACTORS
330
E
102
}
  0
MLINESTYLE
  5
18
102
{ACAD_REACTORS
330
17
102
}
100
AcDbMlineStyle
  2
STANDARD
 70
0
  3

 62
256
 51
90.0
 52
90.0
 71
2
 49
0.5
 62
256
  6
BYLAYER
 49
-0.5
 62
256
  6
BYLAYER
  0
LAYOUT
  5
2F9
102
{ACAD_REACTORS
330
1A
102
}
100
AcDbPlotSettings
  1

  2
none_device
  4
ISO_A1_(594.00_x_841.00_MM)
  6

 40
0.0
 41
0.0
 42
0.0
 43
0.0
 44
841.0
 45
594.0
 46
0.0
 47
0.0
 48
0.0
 49
0.0
140
0.0
141
0.0
142
1.0
143
1.0
 70
1024
 72
0
 73
0
 74
0
  7

 75
0
147
1.0
148
0.0
149
0.0
100
AcDbLayout
  1
Model
 70
0
 71
0
 10
0.0
 20
0.0
 11
33.1102362205
 21
23.3858267717
 12
0.0
 22
0.0
 32
0.0
 14
0.0
 24
0.0
 34
0.0
 15
0.0
 25
0.0
 35
0.0
146
0.0
 13
0.0
 23
0.0
 33
0.0
 16
1.0
 26
0.0
 36
0.0
 17
0.0
 27
1.0
 37
0.0
 76
0
330
204
345
0
346
0
  0
LAYOUT
  5
2FA
102
{ACAD_REACTORS
330
1A
102
}
100
AcDbPlotSettings
  1

  2
none_device
  4
ISO_A1_(594.00_x_841.00_MM)
  6

 40
0.0
 41
0.0
 42
0.0
 43
0.0
 44
841.0
 45
594.0
 46
0.0
 47
0.0
 48
0.0
 49
0.0
140
0.0
141
0.0
142
1.0
143
1.0
 70
0
 72
0
 73
0
 74
0
  7

 75
0
147
1.0
148
0.0
149
0.0
100
AcDbLayout
  1
Layout1
 70
0
 71
1
 10
0.0
 20
0.0
 11
33.1102362205
 21
23.3858267717
 12
0.0
 22
0.0
 32
0.0
 14
0.0
 24
0.0
 34
0.0
 15
0.0
 25
0.0
 35
0.0
146
0.0
 13
0.0
 23
0.0
 33
0.0
 16
1.0
 26
0.0
 36
0.0
 17
0.0
 27
1.0
 37
0.0
 76
0
330
205
345
0
346
0
  0
ENDSEC
  0
EOF
