  0
SECTION
  2
HEADER
  9
$ACADVER
  1
AC1015
  9
$DWGCODEPAGE
  3
ANSI_1252
  9
$EXTMAX
 10
33.1102362205
 20
23.3858267717
 30
0.0
  9
$EXTMIN
 10
0.0
 20
0.0
 30
0.0
  9
$LIMMIN
 10
0.0
 20
0.0
  9
$LIMMAX
 10
33.1102362205
 20
23.3858267717
  9
$VIEWCTR
 10
16.5551181102
 20
11.6929133858
  9
$VIEWSIZE
 40
23.3858267717
  9
$CLAYER
  8
0
  9
$LTSCALE
 40
1.8210629921
  9
$CELTYPE
  6
BYLAYER
  9
$DIMSCALE
 40
1.0
  9
$DIMASZ
 40
0.1
  9
$DIMEXO
 40
0.2069389764
  9
$DIMDLI
 40
1.2581889764
  9
$DIMEXE
 40
0.595984252
  9
$DIMCEN
 40
0.297992126
  9
$DIMLFAC
 40
1.0
  9
$DIMBLK
  1
_FILLED
  9
$DIMTXT
 40
0.08
  9
$DIMTOL
 70
1
  9
$DIMLIM
 70
0
  9
$DIMTFAC
 40
1.0
  9
$DIMTP
 40
0.01
  9
$DIMTM
 40
0.01
  9
$PDMODE
 70
3
  9
$PDSIZE
 40
0.06
  9
$HANDSEED
  5
2DF
  9
$TILEMODE
 70
1
  9
$MEASUREMENT
 70
0
  9
$INSUNITS
 70
1
  0
ENDSEC
  0
SECTION
  2
CLASSES
  0
CLASS
  1
ACDBDICTIONARYWDFLT
  2
AcDbDictionaryWithDefault
  3
AutoCAD 2000
 90
0
280
0
281
0
  0
CLASS
  1
ACDBPLACEHOLDER
  2
AcDbPlaceHolder
  3
AutoCAD 2000
 90
0
280
0
281
0
  0
CLASS
  1
LAYOUT
  2
AcDbLayout
  3
AutoCAD 2000
 90
0
280
0
281
0
  0
ENDSEC
  0
SECTION
  2
TABLES
  0
TABLE
  2
VPORT
  5
8
100
AcDbSymbolTable
 70
2
  0
VPORT
  5
1F4
100
AcDbSymbolTableRecord
100
AcDbViewportTableRecord
  2
*ACTIVE
 70
0
 10
0.0
 20
0.0
 11
1.0
 21
1.0
 12
16.5551181102
 22
11.6929133858
 13
0.0
 23
0.0
 14
1.0
 24
1.0
 15
0.0
 25
0.0
 16
0.0
 26
0.0
 36
1.0
 17
0.0
 27
0.0
 37
0.0
 40
23.3858267717
 41
1.4158249158
 42
50.0
 43
0.0
 44
0.0
 50
0.0
 51
0.0
 71
0
 72
100
 73
1
 74
1
 75
0
 76
0
 77
0
 78
0
  0
ENDTAB
  0
TABLE
  2
LTYPE
  5
5
100
AcDbSymbolTable
 70
6
  0
LTYPE
  5
14
100
AcDbSymbolTableRecord
100
AcDbLinetypeTableRecord
  2
BYBLOCK
 70
0
  3

 72
65
 73
0
 40
0.0
  0
LTYPE
  5
15
100
AcDbSymbolTableRecord
100
AcDbLinetypeTableRecord
  2
BYLAYER
 70
0
  3

 72
65
 73
0
 40
0.0
  0
LTYPE
  5
16
100
AcDbSymbolTableRecord
100
AcDbLinetypeTableRecord
  2
CONTINUOUS
 70
64
  3
Solid line
 72
65
 73
0
 40
0.0
  0
LTYPE
  5
1F5
100
AcDbSymbolTableRecord
100
AcDbLinetypeTableRecord
  2
CENTER
 70
64
  3
____ _ ____ _ ____ _ ____ _ ____ _ ____ _ ____
 72
65
 73
4
 40
0.6
 49
0.375
 74
0
 49
-0.075
 74
0
 49
0.075
 74
0
 49
-0.075
 74
0
  0
LTYPE
  5
1F6
100
AcDbSymbolTableRecord
100
AcDbLinetypeTableRecord
  2
HIDDEN
 70
64
  3
- - - - - - - - - - - - - - - - - - - -
 72
65
 73
2
 40
0.2
 49
0.1
 74
0
 49
-0.1
 74
0
  0
LTYPE
  5
1F7
100
AcDbSymbolTableRecord
100
AcDbLinetypeTableRecord
  2
PHANTOM
 70
64
  3
_____ _ _ _____ _ _ _____ _ _ _____
 72
65
 73
6
 40
0.8
 49
0.45
 74
0
 49
-0.05
 74
0
 49
0.1
 74
0
 49
-0.05
 74
0
 49
0.1
 74
0
 49
-0.05
 74
0
  0
LTYPE
  5
1F8
100
AcDbSymbolTableRecord
100
AcDbLinetypeTableRecord
  2
DOT
 70
64
  3
. . . . . . . . . . . . . . . . . . . .
 72
65
 73
2
 40
0.2
 49
0.1
 74
0
 49
-0.1
 74
0
  0
LTYPE
  5
1F9
100
AcDbSymbolTableRecord
100
AcDbLinetypeTableRecord
  2
DASHED
 70
64
  3
- - - - - - - - - - - - - - - - - - - -
 72
65
 73
2
 40
0.2
 49
0.1
 74
0
 49
-0.1
 74
0
  0
ENDTAB
  0
TABLE
  2
LAYER
  5
2
100
AcDbSymbolTable
 70
36
  0
LAYER
  5
10
100
AcDbSymbolTableRecord
100
AcDbLayerTableRecord
  2
0
 70
0
 62
7
  6
CONTINUOUS
370
-3
390
F
  0
LAYER
  5
1FA
100
AcDbSymbolTableRecord
100
AcDbLayerTableRecord
  2
DEFAULT_1
 70
0
 62
7
  6
CENTER
370
-3
390
F
  0
LAYER
  5
1FB
100
AcDbSymbolTableRecord
100
AcDbLayerTableRecord
  2
DEFAULT_2
 70
0
 62
8
  6
HIDDEN
370
-3
390
F
  0
LAYER
  5
1FC
100
AcDbSymbolTableRecord
100
AcDbLayerTableRecord
  2
DEFAULT_3
 70
0
 62
7
  6
PHANTOM
370
-3
390
F
  0
LAYER
  5
1FD
100
AcDbSymbolTableRecord
100
AcDbLayerTableRecord
  2
3_ALL_SYMBOLS
 70
0
 62
7
  6
CONTINUOUS
370
-3
390
F
  0
LAYER
  5
1FE
100
AcDbSymbolTableRecord
100
AcDbLayerTableRecord
  2
DEFAULT_COORDINATE_SYSTEM
 70
0
 62
7
  6
CONTINUOUS
370
-3
390
F
  0
LAYER
  5
1FF
100
AcDbSymbolTableRecord
100
AcDbLayerTableRecord
  2
DEFAULT_DATUM_AXES
 70
0
 62
7
  6
CONTINUOUS
370
-3
390
F
  0
LAYER
  5
200
100
AcDbSymbolTableRecord
100
AcDbLayerTableRecord
  2
DEFAULT_DATUM_CURVES
 70
0
 62
7
  6
CONTINUOUS
370
-3
390
F
  0
LAYER
  5
201
100
AcDbSymbolTableRecord
100
AcDbLayerTableRecord
  2
DEFAULT_DATUM_PLANES
 70
0
 62
7
  6
CONTINUOUS
370
-3
390
F
  0
ENDTAB
  0
TABLE
  2
STYLE
  5
3
100
AcDbSymbolTable
 70
1
  0
STYLE
  5
11
100
AcDbSymbolTableRecord
100
AcDbTextStyleTableRecord
  2
STANDARD
 70
0
 40
0.0
 41
0.8
 50
0.0
 71
0
 42
0.2
  3
txt
  4

  0
STYLE
  5
202
100
AcDbSymbolTableRecord
100
AcDbTextStyleTableRecord
  2
TEXTSTYLE_1
 70
0
 40
0.0
 41
0.8
 50
0.0
 71
0
 42
0.2
  3
gdt
  4

  0
ENDTAB
  0
TABLE
  2
VIEW
  5
6
100
AcDbSymbolTable
 70
0
  0
ENDTAB
  0
TABLE
  2
UCS
  5
7
100
AcDbSymbolTable
 70
0
  0
ENDTAB
  0
TABLE
  2
APPID
  5
9
100
AcDbSymbolTable
 70
1
  0
APPID
  5
203
100
AcDbSymbolTableRecord
100
AcDbRegAppTableRecord
  2
ACAD
 70
0
  0
ENDTAB
  0
TABLE
  2
BLOCK_RECORD
  5
1
100
AcDbSymbolTable
 70
0
  0
BLOCK_RECORD
  5
204
100
AcDbSymbolTableRecord
100
AcDbBlockTableRecord
  2
*Model_Space
  0
BLOCK_RECORD
  5
205
100
AcDbSymbolTableRecord
100
AcDbBlockTableRecord
  2
*Paper_Space
  0
ENDTAB
  0
TABLE
  2
DIMSTYLE
  5
A
100
AcDbSymbolTable
 70
1
100
AcDbDimStyleTable
 71
0
  0
DIMSTYLE
105
206
100
AcDbSymbolTableRecord
100
AcDbDimStyleTableRecord
  2
STANDARD
 70
0
  3

  4

 40
1.0
 41
0.1
 42
0.0625
 43
0.38
 44
0.18
 45
0.0
 46
0.0
 47
0.01
 48
0.01
140
0.08
141
0.09
142
0.0
143
25.4
144
1.0
145
0.0
146
1.0
147
0.09
 71
1.0
 72
0.0
 73
1
 74
1
 75
0
 76
0
 77
0
 78
4
170
0
171
2
172
0
173
0
174
0
175
0
176
0
177
0
178
0
270
2
271
2
272
2
273
2
274
2
275
0
280
0
281
0
282
0
283
1
284
4
285
0
286
0
287
3
288
0
340
11
  0
ENDTAB
  0
ENDSEC
  0
SECTION
  2
BLOCKS
  0
BLOCK
  5
20
100
AcDbEntity
  8
0
100
AcDbBlockBegin
  2
*Model_Space
 70
0
 10
0.0
 20
0.0
 30
0.0
  3
*Model_Space
  1

  0
ENDBLK
  5
21
100
AcDbEntity
  8
0
100
AcDbBlockEnd
  0
BLOCK
  5
1C
100
AcDbEntity
  8
0
100
AcDbBlockBegin
  2
*Paper_Space
 70
0
 10
0.0
 20
0.0
 30
0.0
  3
*Paper_Space
  1

  0
ENDBLK
  5
1D
100
AcDbEntity
  8
0
100
AcDbBlockEnd
  0
ENDSEC
  0
SECTION
  2
ENTITIES
  0
LINE
  5
207
100
AcDbEntity
  8
0
100
AcDbLine
 62
6
  6
CONTINUOUS
 10
16.230747841
 20
0.6354436655
 11
16.5478850353
 21
0.6354436655
  0
LINE
  5
208
100
AcDbEntity
  8
0
100
AcDbLine
 62
6
  6
CONTINUOUS
 10
16.5478850353
 20
1.5054436655
 11
16.230747841
 21
1.5054436655
  0
LINE
  5
209
100
AcDbEntity
  8
0
100
AcDbLine
 62
6
  6
CONTINUOUS
 10
16.0543164382
 20
4.6954436655
 11
16.7243164382
 21
4.6954436655
  0
LINE
  5
20A
100
AcDbEntity
  8
0
100
AcDbLine
 62
9
  6
CONTINUOUS
 10
16.0143164382
 20
4.7354436655
 11
16.7643164382
 21
4.7354436655
  0
LINE
  5
20B
100
AcDbEntity
  8
0
100
AcDbLine
 62
6
  6
CONTINUOUS
 10
9.8393164382
 20
12.7354436655
 11
9.8393164382
 21
13.4054436655
  0
LINE
  5
20C
100
AcDbEntity
  8
0
100
AcDbLine
 62
9
  6
CONTINUOUS
 10
9.8567798479
 20
12.7354436655
 11
9.8567798479
 21
13.4054436655
  0
LINE
  5
20D
100
AcDbEntity
  8
0
100
AcDbLine
 62
9
  6
CONTINUOUS
 10
16.0143164382
 20
5.4054436655
 11
16.7643164382
 21
5.4054436655
  0
LINE
  5
20E
100
AcDbEntity
  8
0
100
AcDbLine
 62
6
  6
CONTINUOUS
 10
16.7243164382
 20
5.4454436655
 11
16.0543164382
 21
5.4454436655
  0
LINE
  5
20F
100
AcDbEntity
  8
0
100
AcDbLine
 62
6
  6
CONTINUOUS
 10
11.3282895609
 20
14.1014706987
 11
11.3282895609
 21
13.4354436655
  0
LINE
  5
210
100
AcDbEntity
  8
0
100
AcDbLine
 62
6
  6
CONTINUOUS
 10
11.3282895609
 20
12.7054436655
 11
11.3282895609
 21
12.0394172998
  0
LINE
  5
211
100
AcDbEntity
  8
0
100
AcDbLine
 62
9
  6
CONTINUOUS
 10
11.3320293505
 20
13.4054436655
 11
11.3320293505
 21
12.7354436655
  0
LINE
  5
212
100
AcDbEntity
  8
0
100
AcDbLine
 62
9
  6
CONTINUOUS
 10
11.5101497715
 20
13.9216103322
 11
11.5101497715
 21
13.4354436655
  0
LINE
  5
213
100
AcDbEntity
  8
0
100
AcDbLine
 62
9
  6
CONTINUOUS
 10
11.5101497715
 20
12.7054436655
 11
11.5101497715
 21
12.2192769989
  0
LINE
  5
214
100
AcDbEntity
  8
0
100
AcDbLine
 62
9
  6
CONTINUOUS
 10
11.6768164382
 20
12.3879436655
 11
11.6768164382
 21
12.7054436655
  0
LINE
  5
215
100
AcDbEntity
  8
0
100
AcDbLine
 62
9
  6
CONTINUOUS
 10
11.6768164382
 20
13.4354436655
 11
11.6768164382
 21
13.7529436655
  0
LINE
  5
216
100
AcDbEntity
  8
0
100
AcDbLine
 62
9
  6
CONTINUOUS
 10
11.7068164382
 20
12.3579436655
 11
11.7068164382
 21
12.7054436655
  0
LINE
  5
217
100
AcDbEntity
  8
0
100
AcDbLine
 62
9
  6
CONTINUOUS
 10
11.7068164382
 20
13.4354436655
 11
11.7068164382
 21
13.7829436655
  0
LINE
  5
218
100
AcDbEntity
  8
0
100
AcDbLine
 62
9
  6
CONTINUOUS
 10
12.2893164382
 20
12.7054436655
 11
12.2893164382
 21
13.4354436655
  0
LINE
  5
219
100
AcDbEntity
  8
0
100
AcDbLine
 62
9
  6
CONTINUOUS
 10
13.0593164382
 20
12.7054436655
 11
13.0593164382
 21
13.4354436655
  0
LINE
  5
21A
100
AcDbEntity
  8
0
100
AcDbLine
 62
9
  6
CONTINUOUS
 10
13.0718164382
 20
13.7829436655
 11
13.0718164382
 21
13.4323290336
  0
LINE
  5
21B
100
AcDbEntity
  8
0
100
AcDbLine
 62
9
  6
CONTINUOUS
 10
13.0718164382
 20
12.3579436655
 11
13.0718164382
 21
12.7082311304
  0
LINE
  5
21C
100
AcDbEntity
  8
0
100
AcDbLine
 62
6
  6
CONTINUOUS
 10
13.0893164382
 20
12.7354436655
 11
13.0893164382
 21
13.4054436655
  0
LINE
  5
21D
100
AcDbEntity
  8
0
100
AcDbLine
 62
9
  6
CONTINUOUS
 10
13.1018164382
 20
13.7529436655
 11
13.1018164382
 21
12.3879436655
  0
LINE
  5
21E
100
AcDbEntity
  8
0
100
AcDbLine
 62
9
  6
CONTINUOUS
 10
13.2684831048
 20
12.2192769989
 11
13.2684831048
 21
13.9216103322
  0
LINE
  5
21F
100
AcDbEntity
  8
0
100
AcDbLine
 62
6
  6
CONTINUOUS
 10
13.4503433155
 20
12.0394166323
 11
13.4503433154
 21
14.1014700313
  0
LINE
  5
220
100
AcDbEntity
  8
0
100
AcDbLine
 62
7
  6
CONTINUOUS
 10
16.3877897492
 20
1.5204410758
 11
16.3877941596
 21
1.5191410832
  0
LINE
  5
221
100
AcDbEntity
  8
0
100
AcDbLine
 62
6
  6
CONTINUOUS
 10
16.0143164382
 20
5.4054436655
 11
16.0143164382
 21
4.7354436655
  0
LINE
  5
222
100
AcDbEntity
  8
0
100
AcDbLine
 62
9
  6
CONTINUOUS
 10
16.0543164382
 20
4.6954436655
 11
16.0543164382
 21
5.4454436655
  0
LINE
  5
223
100
AcDbEntity
  8
0
100
AcDbLine
 62
9
  6
CONTINUOUS
 10
16.7243164382
 20
4.6954436655
 11
16.7243164382
 21
5.4454436655
  0
LINE
  5
224
100
AcDbEntity
  8
0
100
AcDbLine
 62
6
  6
CONTINUOUS
 10
16.7643164382
 20
4.7354436655
 11
16.7643164382
 21
5.4054436655
  0
LINE
  5
225
100
AcDbEntity
  8
0
100
AcDbLine
 62
6
  6
CONTINUOUS
 10
11.3582894049
 20
12.0094167882
 11
13.4203428039
 21
12.0094167883
  0
LINE
  5
226
100
AcDbEntity
  8
0
100
AcDbLine
 62
6
  6
CONTINUOUS
 10
19.3582894049
 20
12.0094167882
 11
21.4203428039
 21
12.0094167883
  0
LINE
  5
227
100
AcDbEntity
  8
0
100
AcDbLine
 62
9
  6
CONTINUOUS
 10
13.2404831048
 20
12.1912769989
 11
11.5381497715
 21
12.1912769989
  0
LINE
  5
228
100
AcDbEntity
  8
0
100
AcDbLine
 62
9
  6
CONTINUOUS
 10
19.5381497715
 20
12.1912769989
 11
21.2404831048
 21
12.1912769989
  0
LINE
  5
229
100
AcDbEntity
  8
0
100
AcDbLine
 62
9
  6
CONTINUOUS
 10
21.0718164382
 20
12.3579436655
 11
19.7068164382
 21
12.3579436655
  0
LINE
  5
22A
100
AcDbEntity
  8
0
100
AcDbLine
 62
9
  6
CONTINUOUS
 10
13.0718164382
 20
12.3579436655
 11
11.7068164382
 21
12.3579436655
  0
LINE
  5
22B
100
AcDbEntity
  8
0
100
AcDbLine
 62
9
  6
CONTINUOUS
 10
11.6768164382
 20
12.3879436655
 11
13.1018164382
 21
12.3879436655
  0
LINE
  5
22C
100
AcDbEntity
  8
0
100
AcDbLine
 62
9
  6
CONTINUOUS
 10
19.6768164382
 20
12.3879436655
 11
21.1018164382
 21
12.3879436655
  0
LINE
  5
22D
100
AcDbEntity
  8
0
100
AcDbLine
 62
6
  6
CONTINUOUS
 10
20.6146633929
 20
12.6954436655
 11
20.1639694834
 21
12.6954436655
  0
LINE
  5
22E
100
AcDbEntity
  8
0
100
AcDbLine
 62
6
  6
CONTINUOUS
 10
12.1639694834
 20
12.6954436655
 11
12.6146633929
 21
12.6954436655
  0
LINE
  5
22F
100
AcDbEntity
  8
0
100
AcDbLine
 62
9
  6
CONTINUOUS
 10
22.9093164382
 20
12.7054436655
 11
21.4537369289
 21
12.7054436655
  0
LINE
  5
230
100
AcDbEntity
  8
0
100
AcDbLine
 62
6
  6
CONTINUOUS
 10
21.4537369289
 20
12.7054436655
 11
19.7193164382
 21
12.7054436655
  0
LINE
  5
231
100
AcDbEntity
  8
0
100
AcDbLine
 62
9
  6
CONTINUOUS
 10
12.2893164382
 20
12.7054436655
 11
11.3248959474
 21
12.7054436655
  0
LINE
  5
232
100
AcDbEntity
  8
0
100
AcDbLine
 62
6
  6
CONTINUOUS
 10
11.3248959474
 20
12.7054436655
 11
9.8693164382
 21
12.7054436655
  0
LINE
  5
233
100
AcDbEntity
  8
0
100
AcDbLine
 62
6
  6
CONTINUOUS
 10
12.2893164382
 20
12.7054436655
 11
13.0593164382
 21
12.7054436655
  0
LINE
  5
234
100
AcDbEntity
  8
0
100
AcDbLine
 62
9
  6
CONTINUOUS
 10
22.9393164382
 20
12.7354436655
 11
19.6893164382
 21
12.7354436655
  0
LINE
  5
235
100
AcDbEntity
  8
0
100
AcDbLine
 62
9
  6
CONTINUOUS
 10
9.8393164382
 20
12.7354436655
 11
13.0893164382
 21
12.7354436655
  0
LINE
  5
236
100
AcDbEntity
  8
0
100
AcDbLine
 62
9
  6
CONTINUOUS
 10
9.8393164382
 20
13.4054436655
 11
13.0893164382
 21
13.4054436655
  0
LINE
  5
237
100
AcDbEntity
  8
0
100
AcDbLine
 62
9
  6
CONTINUOUS
 10
19.6893164382
 20
13.4054436655
 11
22.9393164382
 21
13.4054436655
  0
LINE
  5
238
100
AcDbEntity
  8
0
100
AcDbLine
 62
9
  6
CONTINUOUS
 10
9.8693164382
 20
13.4354436655
 11
11.3248959474
 21
13.4354436655
  0
LINE
  5
239
100
AcDbEntity
  8
0
100
AcDbLine
 62
6
  6
CONTINUOUS
 10
11.3248959474
 20
13.4354436655
 11
13.0593164382
 21
13.4354436655
  0
LINE
  5
23A
100
AcDbEntity
  8
0
100
AcDbLine
 62
6
  6
CONTINUOUS
 10
19.7193164382
 20
13.4354436655
 11
20.4893164382
 21
13.4354436655
  0
LINE
  5
23B
100
AcDbEntity
  8
0
100
AcDbLine
 62
9
  6
CONTINUOUS
 10
20.4893164382
 20
13.4354436655
 11
21.4537369289
 21
13.4354436655
  0
LINE
  5
23C
100
AcDbEntity
  8
0
100
AcDbLine
 62
6
  6
CONTINUOUS
 10
21.4537369289
 20
13.4354436655
 11
22.9093164382
 21
13.4354436655
  0
LINE
  5
23D
100
AcDbEntity
  8
0
100
AcDbLine
 62
6
  6
CONTINUOUS
 10
20.6146633929
 20
13.4454436655
 11
20.1639694834
 21
13.4454436655
  0
LINE
  5
23E
100
AcDbEntity
  8
0
100
AcDbLine
 62
6
  6
CONTINUOUS
 10
12.1639694834
 20
13.4454436655
 11
12.6146633929
 21
13.4454436655
  0
LINE
  5
23F
100
AcDbEntity
  8
0
100
AcDbLine
 62
9
  6
CONTINUOUS
 10
11.6768164382
 20
13.7529436655
 11
13.1018164382
 21
13.7529436655
  0
LINE
  5
240
100
AcDbEntity
  8
0
100
AcDbLine
 62
9
  6
CONTINUOUS
 10
19.6768164382
 20
13.7529436655
 11
21.1018164382
 21
13.7529436655
  0
LINE
  5
241
100
AcDbEntity
  8
0
100
AcDbLine
 62
9
  6
CONTINUOUS
 10
11.7068164382
 20
13.7829436655
 11
13.0718164382
 21
13.7829436655
  0
LINE
  5
242
100
AcDbEntity
  8
0
100
AcDbLine
 62
9
  6
CONTINUOUS
 10
19.7068164382
 20
13.7829436655
 11
21.0718164382
 21
13.7829436655
  0
LINE
  5
243
100
AcDbEntity
  8
0
100
AcDbLine
 62
9
  6
CONTINUOUS
 10
13.2404831048
 20
13.9496103322
 11
11.5381497715
 21
13.9496103322
  0
LINE
  5
244
100
AcDbEntity
  8
0
100
AcDbLine
 62
9
  6
CONTINUOUS
 10
19.5381497715
 20
13.9496103322
 11
21.2404831048
 21
13.9496103322
  0
LINE
  5
245
100
AcDbEntity
  8
0
100
AcDbLine
 62
6
  6
CONTINUOUS
 10
21.4203434714
 20
14.1314705428
 11
19.3582900724
 21
14.1314705428
  0
LINE
  5
246
100
AcDbEntity
  8
0
100
AcDbLine
 62
6
  6
CONTINUOUS
 10
13.4203434714
 20
14.1314705428
 11
11.3582900724
 21
14.1314705428
  0
LINE
  5
247
100
AcDbEntity
  8
0
100
AcDbLine
 62
6
  6
CONTINUOUS
 10
19.3282895609
 20
14.1014706987
 11
19.3282895609
 21
12.0394172998
  0
LINE
  5
248
100
AcDbEntity
  8
0
100
AcDbLine
 62
9
  6
CONTINUOUS
 10
19.5101497715
 20
13.9216103322
 11
19.5101497715
 21
12.2192769989
  0
LINE
  5
249
100
AcDbEntity
  8
0
100
AcDbLine
 62
9
  6
CONTINUOUS
 10
19.6768164382
 20
12.3879436655
 11
19.6768164382
 21
13.7529436655
  0
LINE
  5
24A
100
AcDbEntity
  8
0
100
AcDbLine
 62
6
  6
CONTINUOUS
 10
19.6893164382
 20
13.4054436655
 11
19.6893164382
 21
12.7354436655
  0
LINE
  5
24B
100
AcDbEntity
  8
0
100
AcDbLine
 62
9
  6
CONTINUOUS
 10
19.7068164382
 20
12.3579436655
 11
19.7068164382
 21
12.7085582974
  0
LINE
  5
24C
100
AcDbEntity
  8
0
100
AcDbLine
 62
9
  6
CONTINUOUS
 10
19.7068164382
 20
13.4326562006
 11
19.7068164382
 21
13.7829436655
  0
LINE
  5
24D
100
AcDbEntity
  8
0
100
AcDbLine
 62
9
  6
CONTINUOUS
 10
19.7193164382
 20
12.7054436655
 11
19.7193164382
 21
13.4354436655
  0
LINE
  5
24E
100
AcDbEntity
  8
0
100
AcDbLine
 62
9
  6
CONTINUOUS
 10
20.4893164382
 20
12.7054436655
 11
20.4893164382
 21
13.4354436655
  0
LINE
  5
24F
100
AcDbEntity
  8
0
100
AcDbLine
 62
9
  6
CONTINUOUS
 10
21.0718164382
 20
13.7829436655
 11
21.0718164382
 21
13.4354436655
  0
LINE
  5
250
100
AcDbEntity
  8
0
100
AcDbLine
 62
9
  6
CONTINUOUS
 10
21.0718164382
 20
12.3579436655
 11
21.0718164382
 21
12.7054436655
  0
LINE
  5
251
100
AcDbEntity
  8
0
100
AcDbLine
 62
9
  6
CONTINUOUS
 10
21.1018164382
 20
13.7529436655
 11
21.1018164382
 21
13.4354436655
  0
LINE
  5
252
100
AcDbEntity
  8
0
100
AcDbLine
 62
9
  6
CONTINUOUS
 10
21.1018164382
 20
12.7054436655
 11
21.1018164382
 21
12.3879436655
  0
LINE
  5
253
100
AcDbEntity
  8
0
100
AcDbLine
 62
9
  6
CONTINUOUS
 10
21.2684831048
 20
12.2192769989
 11
21.2684831048
 21
12.7054436655
  0
LINE
  5
254
100
AcDbEntity
  8
0
100
AcDbLine
 62
9
  6
CONTINUOUS
 10
21.2684831048
 20
13.4354436655
 11
21.2684831048
 21
13.9216103322
  0
LINE
  5
255
100
AcDbEntity
  8
0
100
AcDbLine
 62
9
  6
CONTINUOUS
 10
21.4466035258
 20
12.7354436655
 11
21.4466035258
 21
13.4054436655
  0
LINE
  5
256
100
AcDbEntity
  8
0
100
AcDbLine
 62
6
  6
CONTINUOUS
 10
21.4503433155
 20
12.0394166323
 11
21.4503433155
 21
12.7054436655
  0
LINE
  5
257
100
AcDbEntity
  8
0
100
AcDbLine
 62
6
  6
CONTINUOUS
 10
21.4503433154
 20
13.4354436655
 11
21.4503433154
 21
14.1014700313
  0
LINE
  5
258
100
AcDbEntity
  8
0
100
AcDbLine
 62
9
  6
CONTINUOUS
 10
22.9218530284
 20
13.4054436655
 11
22.9218530284
 21
12.7354436655
  0
LINE
  5
259
100
AcDbEntity
  8
0
100
AcDbLine
 62
6
  6
CONTINUOUS
 10
22.9393164382
 20
13.4054436655
 11
22.9393164382
 21
12.7354436655
  0
ARC
  5
25A
100
AcDbEntity
  8
0
100
AcDbCircle
 62
7
  6
CONTINUOUS
 10
16.3893144832
 20
1.0704501318
 40
0.4486929259
100
AcDbArc
 50
90.1941376172
 51
103.4102141503
  0
ARC
  5
25B
100
AcDbEntity
  8
0
100
AcDbCircle
 62
6
  6
CONTINUOUS
 10
16.0543164382
 20
5.4054436655
 40
0.04
100
AcDbArc
 50
90.0
 51
180.0
  0
ARC
  5
25C
100
AcDbEntity
  8
0
100
AcDbCircle
 62
6
  6
CONTINUOUS
 10
16.0543164382
 20
4.7354436655
 40
0.04
100
AcDbArc
 50
180.0
 51
270.0
  0
ARC
  5
25D
100
AcDbEntity
  8
0
100
AcDbCircle
 62
6
  6
CONTINUOUS
 10
13.4203599001
 20
12.0394002403
 40
0.0299828266
100
AcDbArc
 50
269.9673306419
 51
0.0313238038
  0
ARC
  5
25E
100
AcDbEntity
  8
0
100
AcDbCircle
 62
6
  6
CONTINUOUS
 10
11.3582730129
 20
12.0394002036
 40
0.0299828266
100
AcDbArc
 50
179.9673306473
 51
270.0313237985
  0
ARC
  5
25F
100
AcDbEntity
  8
0
100
AcDbCircle
 62
6
  6
CONTINUOUS
 10
12.3893164382
 20
13.0704436655
 40
0.4375
100
AcDbArc
 50
301.0027191339
 51
303.3000975889
  0
ARC
  5
260
100
AcDbEntity
  8
0
100
AcDbCircle
 62
6
  6
CONTINUOUS
 10
12.3893164382
 20
13.0704436655
 40
0.4375
100
AcDbArc
 50
56.6999024111
 51
58.9972808661
  0
ARC
  5
261
100
AcDbEntity
  8
0
100
AcDbCircle
 62
6
  6
CONTINUOUS
 10
12.3893164382
 20
13.0704436655
 40
0.4375
100
AcDbArc
 50
121.0027191339
 51
123.3000975889
  0
ARC
  5
262
100
AcDbEntity
  8
0
100
AcDbCircle
 62
6
  6
CONTINUOUS
 10
12.3893164382
 20
13.0704436655
 40
0.4375
100
AcDbArc
 50
236.6999024111
 51
238.9972808661
  0
ARC
  5
263
100
AcDbEntity
  8
0
100
AcDbCircle
 62
6
  6
CONTINUOUS
 10
9.8693164382
 20
12.7354436655
 40
0.03
100
AcDbArc
 50
180.0
 51
270.0
  0
ARC
  5
264
100
AcDbEntity
  8
0
100
AcDbCircle
 62
6
  6
CONTINUOUS
 10
9.8693164382
 20
13.4054436655
 40
0.03
100
AcDbArc
 50
90.0
 51
180.0
  0
ARC
  5
265
100
AcDbEntity
  8
0
100
AcDbCircle
 62
6
  6
CONTINUOUS
 10
11.706816345
 20
13.7529437587
 40
0.0299999989
100
AcDbArc
 50
89.9998220837
 51
180.0001779163
  0
ARC
  5
266
100
AcDbEntity
  8
0
100
AcDbCircle
 62
6
  6
CONTINUOUS
 10
11.706816345
 20
12.3879435724
 40
0.0299999989
100
AcDbArc
 50
179.9998220837
 51
270.0001779163
  0
ARC
  5
267
100
AcDbEntity
  8
0
100
AcDbCircle
 62
6
  6
CONTINUOUS
 10
11.3582729762
 20
14.1014870908
 40
0.0299828266
100
AcDbArc
 50
89.9673306392
 51
180.0313238065
  0
ARC
  5
268
100
AcDbEntity
  8
0
100
AcDbCircle
 62
6
  6
CONTINUOUS
 10
13.0718164382
 20
13.7529436655
 40
0.03
100
AcDbArc
 50
0.0
 51
90.0
  0
ARC
  5
269
100
AcDbEntity
  8
0
100
AcDbCircle
 62
6
  6
CONTINUOUS
 10
13.0593164382
 20
12.7354436655
 40
0.03
100
AcDbArc
 50
270.0
 51
360.0
  0
ARC
  5
26A
100
AcDbEntity
  8
0
100
AcDbCircle
 62
6
  6
CONTINUOUS
 10
13.0593164382
 20
13.4054436655
 40
0.03
100
AcDbArc
 50
0.0
 51
90.0
  0
ARC
  5
26B
100
AcDbEntity
  8
0
100
AcDbCircle
 62
6
  6
CONTINUOUS
 10
13.0718165313
 20
12.3879435724
 40
0.0299999989
100
AcDbArc
 50
269.9998220837
 51
360.0
  0
ARC
  5
26C
100
AcDbEntity
  8
0
100
AcDbCircle
 62
6
  6
CONTINUOUS
 10
13.4203598634
 20
14.1014871275
 40
0.0299828266
100
AcDbArc
 50
359.9673306422
 51
90.0313238035
  0
ARC
  5
26D
100
AcDbEntity
  8
0
100
AcDbCircle
 62
6
  6
CONTINUOUS
 10
15.1893164382
 20
22.0704436655
 40
0.21
100
AcDbArc
 50
309.870833936
 51
50.129166064
  0
ARC
  5
26E
100
AcDbEntity
  8
0
100
AcDbCircle
 62
6
  6
CONTINUOUS
 10
15.5407883007
 20
21.2219155281
 40
0.21
100
AcDbArc
 50
354.870833936
 51
95.129166064
  0
ARC
  5
26F
100
AcDbEntity
  8
0
100
AcDbCircle
 62
6
  6
CONTINUOUS
 10
15.5407883007
 20
22.9189718029
 40
0.21
100
AcDbArc
 50
264.870833936
 51
5.129166064
  0
CIRCLE
  5
270
100
AcDbEntity
  8
0
100
AcDbCircle
 62
6
  6
CONTINUOUS
 10
16.3893164382
 20
1.0704436655
 40
0.79
  0
CIRCLE
  5
271
100
AcDbEntity
  8
0
100
AcDbCircle
 62
9
  6
CONTINUOUS
 10
16.3893164382
 20
1.0704436655
 40
0.5001842084
  0
CIRCLE
  5
272
100
AcDbEntity
  8
0
100
AcDbCircle
 62
7
  6
CONTINUOUS
 10
16.3893164382
 20
1.0704436655
 40
0.47
  0
ARC
  5
273
100
AcDbEntity
  8
0
100
AcDbCircle
 62
7
  6
CONTINUOUS
 10
16.3893164382
 20
1.0704436655
 40
0.463
100
AcDbArc
 50
249.9719116677
 51
290.0280883323
  0
ARC
  5
274
100
AcDbEntity
  8
0
100
AcDbCircle
 62
7
  6
CONTINUOUS
 10
16.3893164382
 20
1.0704436655
 40
0.463
100
AcDbArc
 50
69.9719116677
 51
110.0280883323
  0
ARC
  5
275
100
AcDbEntity
  8
0
100
AcDbCircle
 62
9
  6
CONTINUOUS
 10
16.3893164382
 20
1.0704436655
 40
0.463
100
AcDbArc
 50
110.0280883323
 51
249.9719116677
  0
ARC
  5
276
100
AcDbEntity
  8
0
100
AcDbCircle
 62
9
  6
CONTINUOUS
 10
16.3893164382
 20
1.0704436655
 40
0.463
100
AcDbArc
 50
290.0280883323
 51
69.9719116677
  0
ARC
  5
277
100
AcDbEntity
  8
0
100
AcDbCircle
 62
9
  6
CONTINUOUS
 10
16.3893164382
 20
1.0704436655
 40
0.4595
100
AcDbArc
 50
108.7943249773
 51
251.2056750227
  0
ARC
  5
278
100
AcDbEntity
  8
0
100
AcDbCircle
 62
9
  6
CONTINUOUS
 10
16.3893164382
 20
1.0704436655
 40
0.4595
100
AcDbArc
 50
288.7943249773
 51
71.2056750227
  0
ARC
  5
279
100
AcDbEntity
  8
0
100
AcDbCircle
 62
7
  6
CONTINUOUS
 10
16.3893164382
 20
1.0704436655
 40
0.45
100
AcDbArc
 50
255.8841049514
 51
283.973168208
  0
ARC
  5
27A
100
AcDbEntity
  8
0
100
AcDbCircle
 62
7
  6
CONTINUOUS
 10
16.3893164382
 20
1.0704436655
 40
0.45
100
AcDbArc
 50
75.9982965479
 51
90.1943844492
  0
CIRCLE
  5
27B
100
AcDbEntity
  8
0
100
AcDbCircle
 62
6
  6
CONTINUOUS
 10
16.3893164382
 20
5.0704436655
 40
0.656
  0
ARC
  5
27C
100
AcDbEntity
  8
0
100
AcDbCircle
 62
9
  6
CONTINUOUS
 10
16.3893164382
 20
5.0704436655
 40
0.4795772124
100
AcDbArc
 50
51.5274605324
 51
128.4725394676
  0
ARC
  5
27D
100
AcDbEntity
  8
0
100
AcDbCircle
 62
9
  6
CONTINUOUS
 10
16.3893164382
 20
5.0704436655
 40
0.4795772124
100
AcDbArc
 50
141.5064710784
 51
218.4935289216
  0
ARC
  5
27E
100
AcDbEntity
  8
0
100
AcDbCircle
 62
9
  6
CONTINUOUS
 10
16.3893164382
 20
5.0704436655
 40
0.4795772124
100
AcDbArc
 50
231.5274605324
 51
308.4725394676
  0
ARC
  5
27F
100
AcDbEntity
  8
0
100
AcDbCircle
 62
9
  6
CONTINUOUS
 10
16.3893164382
 20
5.0704436655
 40
0.4795772124
100
AcDbArc
 50
321.5064710784
 51
38.4935289216
  0
ARC
  5
280
100
AcDbEntity
  8
0
100
AcDbCircle
 62
7
  6
CONTINUOUS
 10
16.3893164382
 20
5.0704436655
 40
0.46875
100
AcDbArc
 50
53.2392890946
 51
126.7607109054
  0
ARC
  5
281
100
AcDbEntity
  8
0
100
AcDbCircle
 62
7
  6
CONTINUOUS
 10
16.3893164382
 20
5.0704436655
 40
0.46875
100
AcDbArc
 50
143.1577039119
 51
216.8422960881
  0
ARC
  5
282
100
AcDbEntity
  8
0
100
AcDbCircle
 62
7
  6
CONTINUOUS
 10
16.3893164382
 20
5.0704436655
 40
0.46875
100
AcDbArc
 50
233.2392890946
 51
306.7607109054
  0
ARC
  5
283
100
AcDbEntity
  8
0
100
AcDbCircle
 62
7
  6
CONTINUOUS
 10
16.3893164382
 20
5.0704436655
 40
0.46875
100
AcDbArc
 50
323.1577039119
 51
36.8422960881
  0
ARC
  5
284
100
AcDbEntity
  8
0
100
AcDbCircle
 62
6
  6
CONTINUOUS
 10
16.7243164382
 20
5.4054436655
 40
0.04
100
AcDbArc
 50
0.0
 51
90.0
  0
ARC
  5
285
100
AcDbEntity
  8
0
100
AcDbCircle
 62
6
  6
CONTINUOUS
 10
16.7243164382
 20
4.7354436655
 40
0.04
100
AcDbArc
 50
270.0
 51
360.0
  0
ARC
  5
286
100
AcDbEntity
  8
0
100
AcDbCircle
 62
6
  6
CONTINUOUS
 10
21.4203599001
 20
12.0394002403
 40
0.0299828266
100
AcDbArc
 50
269.9673306421
 51
0.0313238037
  0
ARC
  5
287
100
AcDbEntity
  8
0
100
AcDbCircle
 62
6
  6
CONTINUOUS
 10
19.3582730129
 20
12.0394002036
 40
0.0299828266
100
AcDbArc
 50
179.9673306474
 51
270.0313237984
  0
ARC
  5
288
100
AcDbEntity
  8
0
100
AcDbCircle
 62
6
  6
CONTINUOUS
 10
19.3582729762
 20
14.1014870908
 40
0.0299828266
100
AcDbArc
 50
89.967330646
 51
180.0313237998
  0
ARC
  5
289
100
AcDbEntity
  8
0
100
AcDbCircle
 62
6
  6
CONTINUOUS
 10
16.3893164382
 20
22.0704436655
 40
1.0775
100
AcDbArc
 50
278.6026297634
 51
306.3973702366
  0
ARC
  5
28A
100
AcDbEntity
  8
0
100
AcDbCircle
 62
6
  6
CONTINUOUS
 10
16.3893164382
 20
22.0704436655
 40
1.0775
100
AcDbArc
 50
233.6026297634
 51
261.3973702366
  0
ARC
  5
28B
100
AcDbEntity
  8
0
100
AcDbCircle
 62
6
  6
CONTINUOUS
 10
16.3893164382
 20
22.0704436655
 40
1.0775
100
AcDbArc
 50
188.6026297634
 51
216.3973702366
  0
ARC
  5
28C
100
AcDbEntity
  8
0
100
AcDbCircle
 62
6
  6
CONTINUOUS
 10
16.3893164382
 20
22.0704436655
 40
1.0775
100
AcDbArc
 50
323.6026297634
 51
351.3973702366
  0
ARC
  5
28D
100
AcDbEntity
  8
0
100
AcDbCircle
 62
6
  6
CONTINUOUS
 10
16.3893164382
 20
22.0704436655
 40
1.0775
100
AcDbArc
 50
143.6026297634
 51
171.3973702366
  0
ARC
  5
28E
100
AcDbEntity
  8
0
100
AcDbCircle
 62
6
  6
CONTINUOUS
 10
16.3893164382
 20
22.0704436655
 40
1.0775
100
AcDbArc
 50
98.6026297634
 51
126.3973702366
  0
ARC
  5
28F
100
AcDbEntity
  8
0
100
AcDbCircle
 62
6
  6
CONTINUOUS
 10
16.3893164382
 20
22.0704436655
 40
1.0775
100
AcDbArc
 50
53.6026297634
 51
81.3973702366
  0
ARC
  5
290
100
AcDbEntity
  8
0
100
AcDbCircle
 62
6
  6
CONTINUOUS
 10
16.3893164382
 20
22.0704436655
 40
1.0775
100
AcDbArc
 50
8.6026297634
 51
36.3973702366
  0
ARC
  5
291
100
AcDbEntity
  8
0
100
AcDbCircle
 62
6
  6
CONTINUOUS
 10
16.3893164382
 20
22.0704436655
 40
1.0125
100
AcDbArc
 50
310.480163986
 51
319.5185219598
  0
ARC
  5
292
100
AcDbEntity
  8
0
100
AcDbCircle
 62
6
  6
CONTINUOUS
 10
16.3893164382
 20
22.0704436655
 40
1.0125
100
AcDbArc
 50
265.4263455106
 51
274.5718694491
  0
ARC
  5
293
100
AcDbEntity
  8
0
100
AcDbCircle
 62
6
  6
CONTINUOUS
 10
16.3893164382
 20
22.0704436655
 40
1.0125
100
AcDbArc
 50
220.4806288144
 51
229.5193797113
  0
ARC
  5
294
100
AcDbEntity
  8
0
100
AcDbCircle
 62
6
  6
CONTINUOUS
 10
16.3893164382
 20
22.0704436655
 40
1.0125
100
AcDbArc
 50
355.4689602386
 51
4.530121467
  0
ARC
  5
295
100
AcDbEntity
  8
0
100
AcDbCircle
 62
6
  6
CONTINUOUS
 10
16.3893164382
 20
22.0704436655
 40
1.0125
100
AcDbArc
 50
40.4806288144
 51
49.5193797113
  0
ARC
  5
296
100
AcDbEntity
  8
0
100
AcDbCircle
 62
6
  6
CONTINUOUS
 10
16.3893164382
 20
22.0704436655
 40
1.0125
100
AcDbArc
 50
85.4263455106
 51
94.5718694491
  0
ARC
  5
297
100
AcDbEntity
  8
0
100
AcDbCircle
 62
6
  6
CONTINUOUS
 10
16.3893164382
 20
22.0704436655
 40
1.0125
100
AcDbArc
 50
130.480163986
 51
139.5185219598
  0
ARC
  5
298
100
AcDbEntity
  8
0
100
AcDbCircle
 62
6
  6
CONTINUOUS
 10
16.3893164382
 20
22.0704436655
 40
1.0125
100
AcDbArc
 50
175.4689602386
 51
184.530121467
  0
CIRCLE
  5
299
100
AcDbEntity
  8
0
100
AcDbCircle
 62
6
  6
CONTINUOUS
 10
16.3893164382
 20
22.0704436655
 40
0.935
  0
CIRCLE
  5
29A
100
AcDbEntity
  8
0
100
AcDbCircle
 62
9
  6
CONTINUOUS
 10
16.3893164382
 20
22.0704436655
 40
0.909136433
  0
ARC
  5
29B
100
AcDbEntity
  8
0
100
AcDbCircle
 62
6
  6
CONTINUOUS
 10
16.3893164382
 20
20.8704436655
 40
0.21
100
AcDbArc
 50
39.870833936
 51
140.129166064
  0
ARC
  5
29C
100
AcDbEntity
  8
0
100
AcDbCircle
 62
6
  6
CONTINUOUS
 10
17.5893164382
 20
22.0704436655
 40
0.21
100
AcDbArc
 50
129.870833936
 51
230.129166064
  0
ARC
  5
29D
100
AcDbEntity
  8
0
100
AcDbCircle
 62
6
  6
CONTINUOUS
 10
16.3893164382
 20
23.2704436655
 40
0.21
100
AcDbArc
 50
219.870833936
 51
320.129166064
  0
ARC
  5
29E
100
AcDbEntity
  8
0
100
AcDbCircle
 62
6
  6
CONTINUOUS
 10
17.2378445756
 20
21.2219155281
 40
0.21
100
AcDbArc
 50
84.870833936
 51
185.129166064
  0
ARC
  5
29F
100
AcDbEntity
  8
0
100
AcDbCircle
 62
6
  6
CONTINUOUS
 10
17.2378445756
 20
22.9189718029
 40
0.21
100
AcDbArc
 50
174.870833936
 51
275.129166064
  0
ARC
  5
2A0
100
AcDbEntity
  8
0
100
AcDbCircle
 62
6
  6
CONTINUOUS
 10
20.3893164382
 20
13.0704436655
 40
0.4375
100
AcDbArc
 50
121.0027191339
 51
123.3000975889
  0
ARC
  5
2A1
100
AcDbEntity
  8
0
100
AcDbCircle
 62
6
  6
CONTINUOUS
 10
20.3893164382
 20
13.0704436655
 40
0.4375
100
AcDbArc
 50
236.6999024111
 51
238.9972808661
  0
ARC
  5
2A2
100
AcDbEntity
  8
0
100
AcDbCircle
 62
6
  6
CONTINUOUS
 10
20.3893164382
 20
13.0704436655
 40
0.4375
100
AcDbArc
 50
301.0027191339
 51
303.3000975889
  0
ARC
  5
2A3
100
AcDbEntity
  8
0
100
AcDbCircle
 62
6
  6
CONTINUOUS
 10
20.3893164382
 20
13.0704436655
 40
0.4375
100
AcDbArc
 50
56.6999024111
 51
58.9972808661
  0
ARC
  5
2A4
100
AcDbEntity
  8
0
100
AcDbCircle
 62
6
  6
CONTINUOUS
 10
22.9093164382
 20
13.4054436655
 40
0.03
100
AcDbArc
 50
0.0
 51
90.0
  0
ARC
  5
2A5
100
AcDbEntity
  8
0
100
AcDbCircle
 62
6
  6
CONTINUOUS
 10
22.9093164382
 20
12.7354436655
 40
0.03
100
AcDbArc
 50
270.0
 51
360.0
  0
ARC
  5
2A6
100
AcDbEntity
  8
0
100
AcDbCircle
 62
6
  6
CONTINUOUS
 10
19.7193164382
 20
13.4054436655
 40
0.03
100
AcDbArc
 50
90.0
 51
180.0
  0
ARC
  5
2A7
100
AcDbEntity
  8
0
100
AcDbCircle
 62
6
  6
CONTINUOUS
 10
19.7193164382
 20
12.7354436655
 40
0.03
100
AcDbArc
 50
180.0
 51
270.0
  0
ARC
  5
2A8
100
AcDbEntity
  8
0
100
AcDbCircle
 62
6
  6
CONTINUOUS
 10
21.0718164382
 20
12.3879436655
 40
0.03
100
AcDbArc
 50
270.0
 51
360.0
  0
ARC
  5
2A9
100
AcDbEntity
  8
0
100
AcDbCircle
 62
6
  6
CONTINUOUS
 10
21.0718165313
 20
13.7529437587
 40
0.0299999989
100
AcDbArc
 50
0.0
 51
90.0001779163
  0
ARC
  5
2AA
100
AcDbEntity
  8
0
100
AcDbCircle
 62
6
  6
CONTINUOUS
 10
19.706816345
 20
12.3879435724
 40
0.0299999989
100
AcDbArc
 50
179.9998220837
 51
270.0001779163
  0
ARC
  5
2AB
100
AcDbEntity
  8
0
100
AcDbCircle
 62
6
  6
CONTINUOUS
 10
19.706816345
 20
13.7529437587
 40
0.0299999989
100
AcDbArc
 50
89.9998220837
 51
180.0001779163
  0
ARC
  5
2AC
100
AcDbEntity
  8
0
100
AcDbCircle
 62
6
  6
CONTINUOUS
 10
21.4203598634
 20
14.1014871275
 40
0.0299828266
100
AcDbArc
 50
359.967330641
 51
90.0313238048
  0
SPLINE
  5
2AD
100
AcDbEntity
  8
0
100
AcDbSpline
 62
9
  6
CONTINUOUS
 70
0
 71
3
 72
21
 73
17
 74
15
 42
0.0000001
 43
0.0000001
 44
0.0000000001
 12
-0.0348140685
 22
0.0
 32
0.0
 13
0.0
 23
-0.0348140685
 33
0.0
 40
0.0
 40
0.0
 40
0.0
 40
0.0
 40
0.0354641829
 40
0.072575692
 40
0.1125761512
 40
0.1564024924
 40
0.2046536785
 40
0.2576356772
 40
0.3154583501
 40
0.3780093076
 40
0.4450040422
 40
0.5160893185
 40
0.5908407866
 40
0.6687611727
 40
0.8318857191
 40
1.0
 40
1.0
 40
1.0
 40
1.0
 10
9.8693164382
 20
13.4354436655
 30
0.0
 10
9.8689048873
 20
13.4354436655
 30
0.0
 10
9.8680597547
 20
13.4353407984
 30
0.0
 10
9.8668228567
 20
13.4348921291
 30
0.0
 10
9.8656168885
 20
13.434158731
 30
0.0
 10
9.8644555638
 20
13.4331493856
 30
0.0
 10
9.8633460632
 20
13.4318776644
 30
0.0
 10
9.8622955148
 20
13.4303560252
 30
0.0
 10
9.8613136638
 20
13.4285972478
 30
0.0
 10
9.8604083818
 20
13.4266181481
 30
0.0
 10
9.8595870883
 20
13.4244378294
 30
0.0
 10
9.8588588162
 20
13.4220763586
 30
0.0
 10
9.8582308226
 20
13.4195555752
 30
0.0
 10
9.8575228573
 20
13.4159585738
 30
0.0
 10
9.856936952
 20
13.4112401196
 30
0.0
 10
9.8567798479
 20
13.4073945795
 30
0.0
 10
9.8567798479
 20
13.4054436655
 30
0.0
 11
9.8693164382
 21
13.4354436655
 31
0.0
 11
9.8680903341
 21
13.4352986292
 31
0.0
 11
9.8668727347
 21
13.4348665151
 31
0.0
 11
9.8656775442
 21
13.4341518158
 31
0.0
 11
9.8645183369
 21
13.4331597359
 31
0.0
 11
9.8634062501
 21
13.4319007449
 31
0.0
 11
9.8623513287
 21
13.4303876715
 31
0.0
 11
9.8613635597
 21
13.4286336326
 31
0.0
 11
9.860452142
 21
13.4266558834
 31
0.0
 11
9.8596256676
 21
13.4244748653
 31
0.0
 11
9.8588926787
 21
13.422111139
 31
0.0
 11
9.8582603861
 21
13.4195867171
 31
0.0
 11
9.8577342709
 21
13.4169254987
 31
0.0
 11
9.8570210312
 21
13.4112914361
 31
0.0
 11
9.8567798479
 21
13.4054436655
 31
0.0
  0
SPLINE
  5
2AE
100
AcDbEntity
  8
0
100
AcDbSpline
 62
9
  6
CONTINUOUS
 70
0
 71
3
 72
23
 73
19
 74
17
 42
0.0000001
 43
0.0000001
 44
0.0000000001
 12
0.0319935611
 22
0.0
 32
0.0
 13
-0.0
 23
-0.0319935611
 33
0.0
 40
0.0
 40
0.0
 40
0.0
 40
0.0
 40
0.0109656321
 40
0.0223824362
 40
0.0346214518
 40
0.0479768294
 40
0.0788129002
 40
0.1160497574
 40
0.1600920214
 40
0.2109706909
 40
0.2685412588
 40
0.332448261
 40
0.4021854711
 40
0.4772080818
 40
0.5569094541
 40
0.6406138992
 40
0.8171700661
 40
1.0
 40
1.0
 40
1.0
 40
1.0
 10
11.3248959474
 20
13.4354436655
 30
0.0
 10
11.3250128906
 20
13.4354436655
 30
0.0
 10
11.3252522565
 20
13.4354181323
 30
0.0
 10
11.3256061228
 20
13.4353055948
 30
0.0
 10
11.3259568063
 20
13.4351205485
 30
0.0
 10
11.3264422231
 20
13.4347617194
 30
0.0
 10
11.3270332722
 20
13.4341156201
 30
0.0
 10
11.3276840485
 20
13.4331089129
 30
0.0
 10
11.3283082531
 20
13.4318425678
 30
0.0
 10
11.3289010434
 20
13.4303266864
 30
0.0
 10
11.3294563277
 20
13.4285733501
 30
0.0
 10
11.3299691679
 20
13.4265989008
 30
0.0
 10
11.3304349919
 20
13.4244222644
 30
0.0
 10
11.3308483315
 20
13.422063958
 30
0.0
 10
11.3312049376
 20
13.4195459495
 30
0.0
 10
11.3316081471
 20
13.4159424692
 30
0.0
 10
11.3319403855
 20
13.4112266552
 30
0.0
 10
11.3320293505
 20
13.4073934591
 30
0.0
 10
11.3320293505
 20
13.4054436655
 30
0.0
 11
11.3248959474
 21
13.4354436655
 31
0.0
 11
11.3252448885
 21
13.4354073128
 31
0.0
 11
11.3255936088
 21
13.4352986292
 31
0.0
 11
11.3259411192
 21
13.4351181761
 31
0.0
 11
11.3262864309
 21
13.4348665151
 31
0.0
 11
11.3269665022
 21
13.4341518158
 31
0.0
 11
11.3276260989
 21
13.4331597359
 31
0.0
 11
11.3282588837
 21
13.4319007448
 31
0.0
 11
11.328859141
 21
13.4303876715
 31
0.0
 11
11.3294211881
 21
13.4286336326
 31
0.0
 11
11.3299397908
 21
13.4266558834
 31
0.0
 11
11.3304100602
 21
13.4244748653
 31
0.0
 11
11.3308271357
 21
13.422111139
 31
0.0
 11
11.3311869145
 21
13.4195867171
 31
0.0
 11
11.3314862775
 21
13.4169254987
 31
0.0
 11
11.3318921156
 21
13.4112914361
 31
0.0
 11
11.3320293505
 21
13.4054436655
 31
0.0
  0
SPLINE
  5
2AF
100
AcDbEntity
  8
0
100
AcDbSpline
 62
9
  6
CONTINUOUS
 70
0
 71
3
 72
23
 73
19
 74
17
 42
0.0000001
 43
0.0000001
 44
0.0000000001
 12
0.0319935611
 22
0.0
 32
0.0
 13
0.0
 23
0.0319935611
 33
0.0
 40
0.0
 40
0.0
 40
0.0
 40
0.0
 40
0.010965632
 40
0.0223824361
 40
0.0346214516
 40
0.0479768291
 40
0.0788128996
 40
0.1160497565
 40
0.1600920202
 40
0.2109706894
 40
0.2685412573
 40
0.3324482593
 40
0.4021854692
 40
0.4772080799
 40
0.5569094523
 40
0.6406138977
 40
0.8171700657
 40
1.0
 40
1.0
 40
1.0
 40
1.0
 10
11.3248959474
 20
12.7054436655
 30
0.0
 10
11.3250128906
 20
12.7054436655
 30
0.0
 10
11.3252522565
 20
12.7054691987
 30
0.0
 10
11.3256061228
 20
12.7055817363
 30
0.0
 10
11.3259568063
 20
12.7057667825
 30
0.0
 10
11.3264422231
 20
12.7061256116
 30
0.0
 10
11.3270332722
 20
12.7067717109
 30
0.0
 10
11.3276840485
 20
12.7077784181
 30
0.0
 10
11.3283082531
 20
12.7090447632
 30
0.0
 10
11.3289010434
 20
12.7105606446
 30
0.0
 10
11.3294563277
 20
12.7123139809
 30
0.0
 10
11.3299691679
 20
12.7142884301
 30
0.0
 10
11.3304349919
 20
12.7164650666
 30
0.0
 10
11.3308483315
 20
12.718823373
 30
0.0
 10
11.3312049375
 20
12.7213413815
 30
0.0
 10
11.3316081471
 20
12.7249448618
 30
0.0
 10
11.3319403855
 20
12.7296606758
 30
0.0
 10
11.3320293505
 20
12.733493872
 30
0.0
 10
11.3320293505
 20
12.7354436655
 30
0.0
 11
11.3248959474
 21
12.7054436655
 31
0.0
 11
11.3252448885
 21
12.7054800182
 31
0.0
 11
11.3255936088
 21
12.7055887019
 31
0.0
 11
11.3259411192
 21
12.7057691549
 31
0.0
 11
11.3262864309
 21
12.7060208159
 31
0.0
 11
11.3269665022
 21
12.7067355152
 31
0.0
 11
11.3276260989
 21
12.7077275951
 31
0.0
 11
11.3282588836
 21
12.7089865862
 31
0.0
 11
11.3288591409
 21
12.7104996595
 31
0.0
 11
11.329421188
 21
12.7122536984
 31
0.0
 11
11.3299397908
 21
12.7142314476
 31
0.0
 11
11.3304100602
 21
12.7164124657
 31
0.0
 11
11.3308271357
 21
12.718776192
 31
0.0
 11
11.3311869145
 21
12.7213006139
 31
0.0
 11
11.3314862775
 21
12.7239618323
 31
0.0
 11
11.3318921156
 21
12.7295958949
 31
0.0
 11
11.3320293505
 21
12.7354436655
 31
0.0
  0
LINE
  5
2B0
100
AcDbEntity
  8
0
100
AcDbLine
 62
9
  6
CONTINUOUS
 10
13.2684831048
 20
12.2192769989
 11
13.4503433155
 21
12.0394023065
  0
SPLINE
  5
2B1
100
AcDbEntity
  8
0
100
AcDbSpline
 62
9
  6
CONTINUOUS
 70
0
 71
3
 72
15
 73
11
 74
9
 42
0.0000001
 43
0.0000001
 44
0.0000000001
 12
-0.0054219899
 22
-0.0420668306
 32
0.0
 13
-0.0420668306
 23
-0.0054219898
 33
0.0
 40
0.0
 40
0.0
 40
0.0
 40
0.0
 40
0.1219177984
 40
0.246603357
 40
0.3728991288
 40
0.5000000002
 40
0.6271008715
 40
0.7533966432
 40
0.8780822016
 40
1.0
 40
1.0
 40
1.0
 40
1.0
 10
13.2684830716
 20
12.2192769989
 30
0.0
 10
13.2682627259
 20
12.2175674337
 30
0.0
 10
13.2675039788
 20
12.214143792
 30
0.0
 10
13.2655214824
 20
12.2092341954
 30
0.0
 10
13.2627239764
 20
12.2046515794
 30
0.0
 10
13.2592185379
 20
12.2005415659
 30
0.0
 10
13.2551085243
 20
12.1970361274
 30
0.0
 10
13.2505259083
 20
12.1942386215
 30
0.0
 10
13.2456163117
 20
12.1922561252
 30
0.0
 10
13.24219267
 20
12.191497378
 30
0.0
 10
13.2404831048
 20
12.1912770323
 30
0.0
 11
13.2684830716
 21
12.2192769989
 31
0.0
 11
13.2673775003
 21
12.2142254448
 31
0.0
 11
13.265401031
 21
12.2093201462
 31
0.0
 11
13.2626157739
 21
12.2047443654
 31
0.0
 11
13.2591175622
 21
12.2006425416
 31
0.0
 11
13.2550157383
 21
12.1971443299
 31
0.0
 11
13.2504399575
 21
12.1943590728
 31
0.0
 11
13.2455346589
 21
12.1923826036
 31
0.0
 11
13.2404831048
 21
12.1912770323
 31
0.0
  0
LINE
  5
2B2
100
AcDbEntity
  8
0
100
AcDbLine
 62
9
  6
CONTINUOUS
 10
21.0718164382
 20
13.7829436655
 11
21.2404831048
 21
13.9496103322
  0
LINE
  5
2B3
100
AcDbEntity
  8
0
100
AcDbLine
 62
9
  6
CONTINUOUS
 10
21.1018164382
 20
13.7529436655
 11
21.2684831048
 21
13.9216103322
  0
LINE
  5
2B4
100
AcDbEntity
  8
0
100
AcDbLine
 62
9
  6
CONTINUOUS
 10
21.2684831048
 20
13.9216103322
 11
21.4503433154
 21
14.1014850249
  0
SPLINE
  5
2B5
100
AcDbEntity
  8
0
100
AcDbSpline
 62
9
  6
CONTINUOUS
 70
0
 71
3
 72
15
 73
11
 74
9
 42
0.0000001
 43
0.0000001
 44
0.0000000001
 12
0.0420668306
 22
-0.0054219899
 32
0.0
 13
0.0054219898
 23
-0.0420668306
 33
0.0
 40
0.0
 40
0.0
 40
0.0
 40
0.0
 40
0.1219177984
 40
0.246603357
 40
0.3728991288
 40
0.5000000002
 40
0.6271008715
 40
0.7533966432
 40
0.8780822016
 40
1.0
 40
1.0
 40
1.0
 40
1.0
 10
21.2404831048
 20
13.949610299
 30
0.0
 10
21.24219267
 20
13.9493899533
 30
0.0
 10
21.2456163117
 20
13.9486312061
 30
0.0
 10
21.2505259083
 20
13.9466487097
 30
0.0
 10
21.2551085243
 20
13.9438512038
 30
0.0
 10
21.2592185378
 20
13.9403457653
 30
0.0
 10
21.2627239763
 20
13.9362357517
 30
0.0
 10
21.2655214822
 20
13.9316531356
 30
0.0
 10
21.2675039785
 20
13.9267435391
 30
0.0
 10
21.2682627257
 20
13.9233198973
 30
0.0
 10
21.2684830713
 20
13.9216103322
 30
0.0
 11
21.2404831048
 21
13.949610299
 31
0.0
 11
21.2455346589
 21
13.9485047277
 31
0.0
 11
21.2504399574
 21
13.9465282584
 31
0.0
 11
21.2550157383
 21
13.9437430012
 31
0.0
 11
21.2591175621
 21
13.9402447895
 31
0.0
 11
21.2626157737
 21
13.9361429657
 31
0.0
 11
21.2654010308
 21
13.9315671848
 31
0.0
 11
21.2673775001
 21
13.9266618862
 31
0.0
 11
21.2684830713
 21
13.9216103322
 31
0.0
  0
LINE
  5
2B6
100
AcDbEntity
  8
0
100
AcDbLine
 62
9
  6
CONTINUOUS
 10
21.2404831048
 20
13.9496103322
 11
21.4203577972
 21
14.1314705428
  0
LINE
  5
2B7
100
AcDbEntity
  8
0
100
AcDbLine
 62
9
  6
CONTINUOUS
 10
13.2404831048
 20
12.1912769989
 11
13.4203577975
 21
12.0094167883
  0
LINE
  5
2B8
100
AcDbEntity
  8
0
100
AcDbLine
 62
9
  6
CONTINUOUS
 10
21.1018164382
 20
12.3879436655
 11
21.2684831048
 21
12.2192769989
  0
LINE
  5
2B9
100
AcDbEntity
  8
0
100
AcDbLine
 62
9
  6
CONTINUOUS
 10
21.0718164382
 20
12.3579436655
 11
21.2404831048
 21
12.1912769989
  0
LINE
  5
2BA
100
AcDbEntity
  8
0
100
AcDbLine
 62
9
  6
CONTINUOUS
 10
21.2404831048
 20
12.1912769989
 11
21.4203577975
 21
12.0094167883
  0
SPLINE
  5
2BB
100
AcDbEntity
  8
0
100
AcDbSpline
 62
9
  6
CONTINUOUS
 70
0
 71
3
 72
15
 73
11
 74
9
 42
0.0000001
 43
0.0000001
 44
0.0000000001
 12
-0.0054219899
 22
-0.0420668306
 32
0.0
 13
-0.0420668306
 23
-0.0054219898
 33
0.0
 40
0.0
 40
0.0
 40
0.0
 40
0.0
 40
0.1219177984
 40
0.246603357
 40
0.3728991288
 40
0.5000000002
 40
0.6271008715
 40
0.7533966432
 40
0.8780822016
 40
1.0
 40
1.0
 40
1.0
 40
1.0
 10
21.2684830716
 20
12.2192769989
 30
0.0
 10
21.2682627259
 20
12.2175674337
 30
0.0
 10
21.2675039788
 20
12.214143792
 30
0.0
 10
21.2655214824
 20
12.2092341954
 30
0.0
 10
21.2627239764
 20
12.2046515794
 30
0.0
 10
21.2592185379
 20
12.2005415659
 30
0.0
 10
21.2551085243
 20
12.1970361274
 30
0.0
 10
21.2505259083
 20
12.1942386215
 30
0.0
 10
21.2456163117
 20
12.1922561252
 30
0.0
 10
21.24219267
 20
12.191497378
 30
0.0
 10
21.2404831048
 20
12.1912770323
 30
0.0
 11
21.2684830716
 21
12.2192769989
 31
0.0
 11
21.2673775003
 21
12.2142254448
 31
0.0
 11
21.265401031
 21
12.2093201462
 31
0.0
 11
21.2626157739
 21
12.2047443654
 31
0.0
 11
21.2591175622
 21
12.2006425416
 31
0.0
 11
21.2550157383
 21
12.1971443299
 31
0.0
 11
21.2504399575
 21
12.1943590728
 31
0.0
 11
21.2455346589
 21
12.1923826036
 31
0.0
 11
21.2404831048
 21
12.1912770323
 31
0.0
  0
LINE
  5
2BC
100
AcDbEntity
  8
0
100
AcDbLine
 62
9
  6
CONTINUOUS
 10
21.2684831048
 20
12.2192769989
 11
21.4503433155
 21
12.0394023065
  0
LINE
  5
2BD
100
AcDbEntity
  8
0
100
AcDbLine
 62
9
  6
CONTINUOUS
 10
13.0718164382
 20
12.3579436655
 11
13.2404831048
 21
12.1912769989
  0
LINE
  5
2BE
100
AcDbEntity
  8
0
100
AcDbLine
 62
9
  6
CONTINUOUS
 10
19.7068164382
 20
12.3579436655
 11
19.5381497715
 21
12.1912769989
  0
LINE
  5
2BF
100
AcDbEntity
  8
0
100
AcDbLine
 62
9
  6
CONTINUOUS
 10
19.6768164382
 20
12.3879436655
 11
19.5101497715
 21
12.2192769989
  0
LINE
  5
2C0
100
AcDbEntity
  8
0
100
AcDbLine
 62
9
  6
CONTINUOUS
 10
19.5101497715
 20
12.2192769989
 11
19.3282895609
 21
12.0394023062
  0
SPLINE
  5
2C1
100
AcDbEntity
  8
0
100
AcDbSpline
 62
9
  6
CONTINUOUS
 70
0
 71
3
 72
15
 73
11
 74
9
 42
0.0000001
 43
0.0000001
 44
0.0000000001
 12
-0.0420668306
 22
0.0054219899
 32
0.0
 13
-0.0054219898
 23
0.0420668306
 33
0.0
 40
0.0
 40
0.0
 40
0.0
 40
0.0
 40
0.1219177984
 40
0.246603357
 40
0.3728991288
 40
0.5000000002
 40
0.6271008715
 40
0.7533966432
 40
0.8780822016
 40
1.0
 40
1.0
 40
1.0
 40
1.0
 10
19.5381497715
 20
12.1912770321
 30
0.0
 10
19.5364402064
 20
12.1914973778
 30
0.0
 10
19.5330165646
 20
12.1922561249
 30
0.0
 10
19.5281069681
 20
12.1942386213
 30
0.0
 10
19.523524352
 20
12.1970361273
 30
0.0
 10
19.5194143385
 20
12.2005415658
 30
0.0
 10
19.5159089001
 20
12.2046515793
 30
0.0
 10
19.5131113942
 20
12.2092341954
 30
0.0
 10
19.5111288978
 20
12.214143792
 30
0.0
 10
19.5103701507
 20
12.2175674337
 30
0.0
 10
19.510149805
 20
12.2192769989
 30
0.0
 11
19.5381497715
 21
12.1912770321
 31
0.0
 11
19.5330982175
 21
12.1923826034
 31
0.0
 11
19.5281929189
 21
12.1943590726
 31
0.0
 11
19.5236171381
 21
12.1971443298
 31
0.0
 11
19.5195153142
 21
12.2006425415
 31
0.0
 11
19.5160171026
 21
12.2047443654
 31
0.0
 11
19.5132318455
 21
12.2093201462
 31
0.0
 11
19.5112553763
 21
12.2142254448
 31
0.0
 11
19.510149805
 21
12.2192769989
 31
0.0
  0
LINE
  5
2C2
100
AcDbEntity
  8
0
100
AcDbLine
 62
9
  6
CONTINUOUS
 10
19.5381497715
 20
12.1912769989
 11
19.3582750792
 21
12.0094167882
  0
LINE
  5
2C3
100
AcDbEntity
  8
0
100
AcDbLine
 62
9
  6
CONTINUOUS
 10
13.1018164382
 20
12.3879436655
 11
13.2684831048
 21
12.2192769989
  0
LINE
  5
2C4
100
AcDbEntity
  8
0
100
AcDbLine
 62
9
  6
CONTINUOUS
 10
19.6768164382
 20
13.7529436655
 11
19.5101497715
 21
13.9216103322
  0
LINE
  5
2C5
100
AcDbEntity
  8
0
100
AcDbLine
 62
9
  6
CONTINUOUS
 10
19.7068164382
 20
13.7829436655
 11
19.5381497715
 21
13.9496103322
  0
LINE
  5
2C6
100
AcDbEntity
  8
0
100
AcDbLine
 62
9
  6
CONTINUOUS
 10
19.5381497715
 20
13.9496103322
 11
19.3582750788
 21
14.1314705428
  0
SPLINE
  5
2C7
100
AcDbEntity
  8
0
100
AcDbSpline
 62
9
  6
CONTINUOUS
 70
0
 71
3
 72
15
 73
11
 74
9
 42
0.0000001
 43
0.0000001
 44
0.0000000001
 12
0.0054219899
 22
0.0420668306
 32
0.0
 13
0.0420668306
 23
0.0054219898
 33
0.0
 40
0.0
 40
0.0
 40
0.0
 40
0.0
 40
0.1219177984
 40
0.246603357
 40
0.3728991288
 40
0.5000000002
 40
0.6271008715
 40
0.7533966432
 40
0.8780822016
 40
1.0
 40
1.0
 40
1.0
 40
1.0
 10
19.5101498047
 20
13.9216103322
 30
0.0
 10
19.5103701504
 20
13.9233198973
 30
0.0
 10
19.5111288976
 20
13.9267435391
 30
0.0
 10
19.513111394
 20
13.9316531356
 30
0.0
 10
19.5159088999
 20
13.9362357516
 30
0.0
 10
19.5194143384
 20
13.9403457652
 30
0.0
 10
19.523524352
 20
13.9438512036
 30
0.0
 10
19.5281069681
 20
13.9466487095
 30
0.0
 10
19.5330165646
 20
13.9486312059
 30
0.0
 10
19.5364402064
 20
13.949389953
 30
0.0
 10
19.5381497715
 20
13.9496102987
 30
0.0
 11
19.5101498047
 21
13.9216103322
 31
0.0
 11
19.511255376
 21
13.9266618862
 31
0.0
 11
19.5132318453
 21
13.9315671848
 31
0.0
 11
19.5160171024
 21
13.9361429656
 31
0.0
 11
19.5195153141
 21
13.9402447894
 31
0.0
 11
19.523617138
 21
13.9437430011
 31
0.0
 11
19.5281929189
 21
13.9465282582
 31
0.0
 11
19.5330982174
 21
13.9485047274
 31
0.0
 11
19.5381497715
 21
13.9496102987
 31
0.0
  0
LINE
  5
2C8
100
AcDbEntity
  8
0
100
AcDbLine
 62
9
  6
CONTINUOUS
 10
19.5101497715
 20
13.9216103322
 11
19.3282895609
 21
14.1014850245
  0
SPLINE
  5
2C9
100
AcDbEntity
  8
0
100
AcDbSpline
 62
9
  6
CONTINUOUS
 70
0
 71
3
 72
21
 73
17
 74
15
 42
0.0000001
 43
0.0000001
 44
0.0000000001
 12
0.0348140685
 22
0.0
 32
0.0
 13
0.0
 23
0.0348140685
 33
0.0
 40
0.0
 40
0.0
 40
0.0
 40
0.0
 40
0.0354641829
 40
0.072575692
 40
0.1125761512
 40
0.1564024924
 40
0.2046536785
 40
0.2576356772
 40
0.3154583501
 40
0.3780093076
 40
0.4450040422
 40
0.5160893185
 40
0.5908407866
 40
0.6687611727
 40
0.8318857191
 40
1.0
 40
1.0
 40
1.0
 40
1.0
 10
22.9093164382
 20
12.7054436655
 30
0.0
 10
22.909727989
 20
12.7054436655
 30
0.0
 10
22.9105731216
 20
12.7055465326
 30
0.0
 10
22.9118100196
 20
12.7059952019
 30
0.0
 10
22.9130159878
 20
12.7067286
 30
0.0
 10
22.9141773126
 20
12.7077379455
 30
0.0
 10
22.9152868131
 20
12.7090096667
 30
0.0
 10
22.9163373616
 20
12.7105313059
 30
0.0
 10
22.9173192126
 20
12.7122900832
 30
0.0
 10
22.9182244945
 20
12.7142691829
 30
0.0
 10
22.9190457881
 20
12.7164495017
 30
0.0
 10
22.9197740602
 20
12.7188109724
 30
0.0
 10
22.9204020537
 20
12.7213317558
 30
0.0
 10
22.921110019
 20
12.7249287572
 30
0.0
 10
22.9216959244
 20
12.7296472115
 30
0.0
 10
22.9218530284
 20
12.7334927515
 30
0.0
 10
22.9218530284
 20
12.7354436655
 30
0.0
 11
22.9093164382
 21
12.7054436655
 31
0.0
 11
22.9105425423
 21
12.7055887019
 31
0.0
 11
22.9117601416
 21
12.7060208159
 31
0.0
 11
22.9129553321
 21
12.7067355153
 31
0.0
 11
22.9141145394
 21
12.7077275951
 31
0.0
 11
22.9152266262
 21
12.7089865862
 31
0.0
 11
22.9162815477
 21
12.7104996595
 31
0.0
 11
22.9172693166
 21
12.7122536984
 31
0.0
 11
22.9181807343
 21
12.7142314476
 31
0.0
 11
22.9190072087
 21
12.7164124657
 31
0.0
 11
22.9197401976
 21
12.7187761921
 31
0.0
 11
22.9203724903
 21
12.721300614
 31
0.0
 11
22.9208986054
 21
12.7239618324
 31
0.0
 11
22.9216118452
 21
12.7295958949
 31
0.0
 11
22.9218530284
 21
12.7354436655
 31
0.0
  0
LINE
  5
2CA
100
AcDbEntity
  8
0
100
AcDbLine
 62
9
  6
CONTINUOUS
 10
13.2404831048
 20
13.9496103322
 11
13.4203577972
 21
14.1314705428
  0
SPLINE
  5
2CB
100
AcDbEntity
  8
0
100
AcDbSpline
 62
9
  6
CONTINUOUS
 70
0
 71
3
 72
21
 73
17
 74
15
 42
0.0000001
 43
0.0000001
 44
0.0000000001
 12
-0.0348140662
 22
0.0
 32
0.0
 13
-0.0
 23
0.0348140662
 33
0.0
 40
0.0
 40
0.0
 40
0.0
 40
0.0
 40
0.035464271
 40
0.0725760766
 40
0.1125770089
 40
0.1564039607
 40
0.2046558938
 40
0.2576385073
 40
0.3154614917
 40
0.3780130846
 40
0.4450088141
 40
0.5160953757
 40
0.5908482911
 40
0.6687691653
 40
0.8318890422
 40
1.0
 40
1.0
 40
1.0
 40
1.0
 10
9.8693164382
 20
12.7054436655
 30
0.0
 10
9.8689048863
 20
12.7054436655
 30
0.0
 10
9.8680597493
 20
12.7055465364
 30
0.0
 10
9.8668228446
 20
12.7059952157
 30
0.0
 10
9.8656168637
 20
12.7067286229
 30
0.0
 10
9.8644555228
 20
12.7077379829
 30
0.0
 10
9.8633460176
 20
12.7090097306
 30
0.0
 10
9.8622954649
 20
12.7105313897
 30
0.0
 10
9.8613136035
 20
12.7122901821
 30
0.0
 10
9.8604083266
 20
12.7142693092
 30
0.0
 10
9.8595870372
 20
12.7164496652
 30
0.0
 10
9.8588587588
 20
12.7188111792
 30
0.0
 10
9.8582307781
 20
12.7213320044
 30
0.0
 10
9.8575228372
 20
12.7249289772
 30
0.0
 10
9.8569369101
 20
12.729647341
 30
0.0
 10
9.8567798479
 20
12.7334927902
 30
0.0
 10
9.8567798479
 20
12.7354436655
 30
0.0
 11
9.8693164382
 21
12.7054436655
 31
0.0
 11
9.8680903315
 21
12.7055887055
 31
0.0
 11
9.8668727243
 21
12.7060208281
 31
0.0
 11
9.8656775208
 21
12.7067355376
 31
0.0
 11
9.864518299
 21
12.707727633
 31
0.0
 11
9.8634062029
 21
12.7089866504
 31
0.0
 11
9.8623512756
 21
12.7104997456
 31
0.0
 11
9.8613635038
 21
12.7122537952
 31
0.0
 11
9.8604520885
 21
12.7142315697
 31
0.0
 11
9.8596256161
 21
12.7164126254
 31
0.0
 11
9.8588926246
 21
12.7187763976
 31
0.0
 11
9.8582603376
 21
12.7213008728
 31
0.0
 11
9.8577342315
 21
12.7239621101
 31
0.0
 11
9.8570210047
 21
12.72959601
 31
0.0
 11
9.8567798479
 21
12.7354436655
 31
0.0
  0
SPLINE
  5
2CC
100
AcDbEntity
  8
0
100
AcDbSpline
 62
9
  6
CONTINUOUS
 70
0
 71
3
 72
15
 73
11
 74
9
 42
0.0000001
 43
0.0000001
 44
0.0000000001
 12
0.0420668306
 22
-0.0054219899
 32
0.0
 13
0.0054219898
 23
-0.0420668306
 33
0.0
 40
0.0
 40
0.0
 40
0.0
 40
0.0
 40
0.1219177984
 40
0.246603357
 40
0.3728991288
 40
0.5000000002
 40
0.6271008715
 40
0.7533966432
 40
0.8780822016
 40
1.0
 40
1.0
 40
1.0
 40
1.0
 10
13.2404831048
 20
13.949610299
 30
0.0
 10
13.24219267
 20
13.9493899533
 30
0.0
 10
13.2456163117
 20
13.9486312061
 30
0.0
 10
13.2505259083
 20
13.9466487097
 30
0.0
 10
13.2551085243
 20
13.9438512038
 30
0.0
 10
13.2592185378
 20
13.9403457653
 30
0.0
 10
13.2627239763
 20
13.9362357517
 30
0.0
 10
13.2655214822
 20
13.9316531356
 30
0.0
 10
13.2675039785
 20
13.9267435391
 30
0.0
 10
13.2682627257
 20
13.9233198973
 30
0.0
 10
13.2684830713
 20
13.9216103322
 30
0.0
 11
13.2404831048
 21
13.949610299
 31
0.0
 11
13.2455346589
 21
13.9485047277
 31
0.0
 11
13.2504399574
 21
13.9465282584
 31
0.0
 11
13.2550157383
 21
13.9437430012
 31
0.0
 11
13.2591175621
 21
13.9402447895
 31
0.0
 11
13.2626157737
 21
13.9361429657
 31
0.0
 11
13.2654010308
 21
13.9315671848
 31
0.0
 11
13.2673775001
 21
13.9266618862
 31
0.0
 11
13.2684830713
 21
13.9216103322
 31
0.0
  0
LINE
  5
2CD
100
AcDbEntity
  8
0
100
AcDbLine
 62
9
  6
CONTINUOUS
 10
13.2684831048
 20
13.9216103322
 11
13.4503433154
 21
14.1014850249
  0
SPLINE
  5
2CE
100
AcDbEntity
  8
0
100
AcDbSpline
 62
9
  6
CONTINUOUS
 70
0
 71
3
 72
23
 73
19
 74
17
 42
0.0000001
 43
0.0000001
 44
0.0000000001
 12
-0.0319935611
 22
0.0
 32
0.0
 13
0.0
 23
0.0319935611
 33
0.0
 40
0.0
 40
0.0
 40
0.0
 40
0.0
 40
0.0109656321
 40
0.0223824362
 40
0.0346214518
 40
0.0479768294
 40
0.0788129002
 40
0.1160497574
 40
0.1600920214
 40
0.2109706909
 40
0.2685412588
 40
0.332448261
 40
0.4021854711
 40
0.4772080818
 40
0.5569094541
 40
0.6406138992
 40
0.8171700661
 40
1.0
 40
1.0
 40
1.0
 40
1.0
 10
21.4537369289
 20
12.7054436655
 30
0.0
 10
21.4536199857
 20
12.7054436655
 30
0.0
 10
21.4533806198
 20
12.7054691987
 30
0.0
 10
21.4530267536
 20
12.7055817363
 30
0.0
 10
21.45267607
 20
12.7057667825
 30
0.0
 10
21.4521906532
 20
12.7061256116
 30
0.0
 10
21.4515996041
 20
12.7067717109
 30
0.0
 10
21.4509488278
 20
12.7077784181
 30
0.0
 10
21.4503246232
 20
12.7090447632
 30
0.0
 10
21.4497318329
 20
12.7105606446
 30
0.0
 10
21.4491765486
 20
12.712313981
 30
0.0
 10
21.4486637084
 20
12.7142884302
 30
0.0
 10
21.4481978844
 20
12.7164650667
 30
0.0
 10
21.4477845448
 20
12.718823373
 30
0.0
 10
21.4474279388
 20
12.7213413816
 30
0.0
 10
21.4470247292
 20
12.7249448618
 30
0.0
 10
21.4466924908
 20
12.7296606759
 30
0.0
 10
21.4466035258
 20
12.733493872
 30
0.0
 10
21.4466035258
 20
12.7354436655
 30
0.0
 11
21.4537369289
 21
12.7054436655
 31
0.0
 11
21.4533879878
 21
12.7054800182
 31
0.0
 11
21.4530392676
 21
12.7055887019
 31
0.0
 11
21.4526917571
 21
12.7057691549
 31
0.0
 11
21.4523464454
 21
12.7060208159
 31
0.0
 11
21.4516663741
 21
12.7067355153
 31
0.0
 11
21.4510067774
 21
12.7077275951
 31
0.0
 11
21.4503739927
 21
12.7089865862
 31
0.0
 11
21.4497737354
 21
12.7104996595
 31
0.0
 11
21.4492116883
 21
12.7122536984
 31
0.0
 11
21.4486930856
 21
12.7142314476
 31
0.0
 11
21.4482228162
 21
12.7164124657
 31
0.0
 11
21.4478057406
 21
12.7187761921
 31
0.0
 11
21.4474459619
 21
12.721300614
 31
0.0
 11
21.4471465988
 21
12.7239618324
 31
0.0
 11
21.4467407607
 21
12.7295958949
 31
0.0
 11
21.4466035258
 21
12.7354436655
 31
0.0
  0
LINE
  5
2CF
100
AcDbEntity
  8
0
100
AcDbLine
 62
9
  6
CONTINUOUS
 10
13.1018164382
 20
13.7529436655
 11
13.2684831048
 21
13.9216103322
  0
LINE
  5
2D0
100
AcDbEntity
  8
0
100
AcDbLine
 62
9
  6
CONTINUOUS
 10
13.0718164382
 20
13.7829436655
 11
13.2404831048
 21
13.9496103322
  0
LINE
  5
2D1
100
AcDbEntity
  8
0
100
AcDbLine
 62
9
  6
CONTINUOUS
 10
11.5101497715
 20
13.9216103322
 11
11.3282895609
 21
14.1014850245
  0
SPLINE
  5
2D2
100
AcDbEntity
  8
0
100
AcDbSpline
 62
9
  6
CONTINUOUS
 70
0
 71
3
 72
15
 73
11
 74
9
 42
0.0000001
 43
0.0000001
 44
0.0000000001
 12
0.0054219899
 22
0.0420668306
 32
0.0
 13
0.0420668306
 23
0.0054219898
 33
0.0
 40
0.0
 40
0.0
 40
0.0
 40
0.0
 40
0.1219177984
 40
0.246603357
 40
0.3728991288
 40
0.5000000002
 40
0.6271008715
 40
0.7533966432
 40
0.8780822016
 40
1.0
 40
1.0
 40
1.0
 40
1.0
 10
11.5101498047
 20
13.9216103322
 30
0.0
 10
11.5103701504
 20
13.9233198973
 30
0.0
 10
11.5111288976
 20
13.9267435391
 30
0.0
 10
11.513111394
 20
13.9316531356
 30
0.0
 10
11.5159088999
 20
13.9362357516
 30
0.0
 10
11.5194143384
 20
13.9403457652
 30
0.0
 10
11.523524352
 20
13.9438512036
 30
0.0
 10
11.5281069681
 20
13.9466487095
 30
0.0
 10
11.5330165646
 20
13.9486312059
 30
0.0
 10
11.5364402064
 20
13.949389953
 30
0.0
 10
11.5381497715
 20
13.9496102987
 30
0.0
 11
11.5101498047
 21
13.9216103322
 31
0.0
 11
11.511255376
 21
13.9266618862
 31
0.0
 11
11.5132318453
 21
13.9315671848
 31
0.0
 11
11.5160171024
 21
13.9361429656
 31
0.0
 11
11.5195153141
 21
13.9402447894
 31
0.0
 11
11.523617138
 21
13.9437430011
 31
0.0
 11
11.5281929189
 21
13.9465282582
 31
0.0
 11
11.5330982174
 21
13.9485047274
 31
0.0
 11
11.5381497715
 21
13.9496102987
 31
0.0
  0
LINE
  5
2D3
100
AcDbEntity
  8
0
100
AcDbLine
 62
9
  6
CONTINUOUS
 10
11.5381497715
 20
13.9496103322
 11
11.3582750788
 21
14.1314705428
  0
LINE
  5
2D4
100
AcDbEntity
  8
0
100
AcDbLine
 62
9
  6
CONTINUOUS
 10
11.7068164382
 20
13.7829436655
 11
11.5381497715
 21
13.9496103322
  0
LINE
  5
2D5
100
AcDbEntity
  8
0
100
AcDbLine
 62
9
  6
CONTINUOUS
 10
11.6768164382
 20
13.7529436655
 11
11.5101497715
 21
13.9216103322
  0
LINE
  5
2D6
100
AcDbEntity
  8
0
100
AcDbLine
 62
9
  6
CONTINUOUS
 10
11.5381497715
 20
12.1912769989
 11
11.3582750792
 21
12.0094167882
  0
SPLINE
  5
2D7
100
AcDbEntity
  8
0
100
AcDbSpline
 62
9
  6
CONTINUOUS
 70
0
 71
3
 72
15
 73
11
 74
9
 42
0.0000001
 43
0.0000001
 44
0.0000000001
 12
-0.0420668306
 22
0.0054219899
 32
0.0
 13
-0.0054219898
 23
0.0420668306
 33
0.0
 40
0.0
 40
0.0
 40
0.0
 40
0.0
 40
0.1219177984
 40
0.246603357
 40
0.3728991288
 40
0.5000000002
 40
0.6271008715
 40
0.7533966432
 40
0.8780822016
 40
1.0
 40
1.0
 40
1.0
 40
1.0
 10
11.5381497715
 20
12.1912770321
 30
0.0
 10
11.5364402064
 20
12.1914973778
 30
0.0
 10
11.5330165646
 20
12.1922561249
 30
0.0
 10
11.5281069681
 20
12.1942386213
 30
0.0
 10
11.523524352
 20
12.1970361273
 30
0.0
 10
11.5194143385
 20
12.2005415658
 30
0.0
 10
11.5159089001
 20
12.2046515793
 30
0.0
 10
11.5131113942
 20
12.2092341954
 30
0.0
 10
11.5111288978
 20
12.214143792
 30
0.0
 10
11.5103701507
 20
12.2175674337
 30
0.0
 10
11.510149805
 20
12.2192769989
 30
0.0
 11
11.5381497715
 21
12.1912770321
 31
0.0
 11
11.5330982175
 21
12.1923826034
 31
0.0
 11
11.5281929189
 21
12.1943590726
 31
0.0
 11
11.5236171381
 21
12.1971443298
 31
0.0
 11
11.5195153142
 21
12.2006425415
 31
0.0
 11
11.5160171026
 21
12.2047443654
 31
0.0
 11
11.5132318455
 21
12.2093201462
 31
0.0
 11
11.5112553763
 21
12.2142254448
 31
0.0
 11
11.510149805
 21
12.2192769989
 31
0.0
  0
SPLINE
  5
2D8
100
AcDbEntity
  8
0
100
AcDbSpline
 62
9
  6
CONTINUOUS
 70
0
 71
3
 72
21
 73
17
 74
15
 42
0.0000001
 43
0.0000001
 44
0.0000000001
 12
0.0348140662
 22
0.0
 32
0.0
 13
-0.0
 23
-0.0348140662
 33
0.0
 40
0.0
 40
0.0
 40
0.0
 40
0.0
 40
0.035464271
 40
0.0725760766
 40
0.1125770089
 40
0.1564039607
 40
0.2046558938
 40
0.2576385073
 40
0.3154614917
 40
0.3780130846
 40
0.4450088141
 40
0.5160953757
 40
0.5908482911
 40
0.6687691653
 40
0.8318890422
 40
1.0
 40
1.0
 40
1.0
 40
1.0
 10
22.9093164382
 20
13.4354436655
 30
0.0
 10
22.90972799
 20
13.4354436655
 30
0.0
 10
22.910573127
 20
13.4353407946
 30
0.0
 10
22.9118100317
 20
13.4348921153
 30
0.0
 10
22.9130160127
 20
13.4341587081
 30
0.0
 10
22.9141773535
 20
13.4331493482
 30
0.0
 10
22.9152868588
 20
13.4318776004
 30
0.0
 10
22.9163374115
 20
13.4303559413
 30
0.0
 10
22.9173192728
 20
13.428597149
 30
0.0
 10
22.9182245497
 20
13.4266180219
 30
0.0
 10
22.9190458391
 20
13.4244376658
 30
0.0
 10
22.9197741175
 20
13.4220761518
 30
0.0
 10
22.9204020982
 20
13.4195553266
 30
0.0
 10
22.9211100391
 20
13.4159583538
 30
0.0
 10
22.9216959662
 20
13.41123999
 30
0.0
 10
22.9218530284
 20
13.4073945409
 30
0.0
 10
22.9218530284
 20
13.4054436655
 30
0.0
 11
22.9093164382
 21
13.4354436655
 31
0.0
 11
22.9105425448
 21
13.4352986255
 31
0.0
 11
22.911760152
 21
13.4348665029
 31
0.0
 11
22.9129553556
 21
13.4341517934
 31
0.0
 11
22.9141145774
 21
13.433159698
 31
0.0
 11
22.9152266735
 21
13.4319006806
 31
0.0
 11
22.9162816007
 21
13.4303875854
 31
0.0
 11
22.9172693726
 21
13.4286335358
 31
0.0
 11
22.9181807878
 21
13.4266557613
 31
0.0
 11
22.9190072602
 21
13.4244747056
 31
0.0
 11
22.9197402518
 21
13.4221109334
 31
0.0
 11
22.9203725387
 21
13.4195864583
 31
0.0
 11
22.9208986449
 21
13.416925221
 31
0.0
 11
22.9216118716
 21
13.411291321
 31
0.0
 11
22.9218530284
 21
13.4054436655
 31
0.0
  0
LINE
  5
2D9
100
AcDbEntity
  8
0
100
AcDbLine
 62
9
  6
CONTINUOUS
 10
11.5101497715
 20
12.2192769989
 11
11.3282895609
 21
12.0394023062
  0
LINE
  5
2DA
100
AcDbEntity
  8
0
100
AcDbLine
 62
9
  6
CONTINUOUS
 10
11.6768164382
 20
12.3879436655
 11
11.5101497715
 21
12.2192769989
  0
LINE
  5
2DB
100
AcDbEntity
  8
0
100
AcDbLine
 62
9
  6
CONTINUOUS
 10
11.7068164382
 20
12.3579436655
 11
11.5381497715
 21
12.1912769989
  0
SPLINE
  5
2DC
100
AcDbEntity
  8
0
100
AcDbSpline
 62
9
  6
CONTINUOUS
 70
0
 71
3
 72
23
 73
19
 74
17
 42
0.0000001
 43
0.0000001
 44
0.0000000001
 12
-0.0319935611
 22
0.0
 32
0.0
 13
-0.0
 23
-0.0319935611
 33
0.0
 40
0.0
 40
0.0
 40
0.0
 40
0.0
 40
0.010965632
 40
0.0223824361
 40
0.0346214516
 40
0.0479768291
 40
0.0788128996
 40
0.1160497565
 40
0.1600920202
 40
0.2109706894
 40
0.2685412573
 40
0.3324482593
 40
0.4021854692
 40
0.4772080799
 40
0.5569094523
 40
0.6406138977
 40
0.8171700657
 40
1.0
 40
1.0
 40
1.0
 40
1.0
 10
21.4537369289
 20
13.4354436655
 30
0.0
 10
21.4536199857
 20
13.4354436655
 30
0.0
 10
21.4533806198
 20
13.4354181324
 30
0.0
 10
21.4530267536
 20
13.4353055948
 30
0.0
 10
21.45267607
 20
13.4351205485
 30
0.0
 10
21.4521906532
 20
13.4347617194
 30
0.0
 10
21.4515996041
 20
13.4341156201
 30
0.0
 10
21.4509488278
 20
13.433108913
 30
0.0
 10
21.4503246232
 20
13.4318425679
 30
0.0
 10
21.4497318329
 20
13.4303266864
 30
0.0
 10
21.4491765486
 20
13.4285733501
 30
0.0
 10
21.4486637084
 20
13.4265989009
 30
0.0
 10
21.4481978844
 20
13.4244222644
 30
0.0
 10
21.4477845448
 20
13.4220639581
 30
0.0
 10
21.4474279388
 20
13.4195459495
 30
0.0
 10
21.4470247292
 20
13.4159424693
 30
0.0
 10
21.4466924908
 20
13.4112266552
 30
0.0
 10
21.4466035258
 20
13.4073934591
 30
0.0
 10
21.4466035258
 20
13.4054436655
 30
0.0
 11
21.4537369289
 21
13.4354436655
 31
0.0
 11
21.4533879878
 21
13.4354073128
 31
0.0
 11
21.4530392676
 21
13.4352986292
 31
0.0
 11
21.4526917571
 21
13.4351181761
 31
0.0
 11
21.4523464454
 21
13.4348665151
 31
0.0
 11
21.4516663741
 21
13.4341518158
 31
0.0
 11
21.4510067775
 21
13.4331597359
 31
0.0
 11
21.4503739927
 21
13.4319007449
 31
0.0
 11
21.4497737354
 21
13.4303876716
 31
0.0
 11
21.4492116883
 21
13.4286336326
 31
0.0
 11
21.4486930856
 21
13.4266558835
 31
0.0
 11
21.4482228162
 21
13.4244748654
 31
0.0
 11
21.4478057406
 21
13.422111139
 31
0.0
 11
21.4474459619
 21
13.4195867171
 31
0.0
 11
21.4471465989
 21
13.4169254987
 31
0.0
 11
21.4467407607
 21
13.4112914361
 31
0.0
 11
21.4466035258
 21
13.4054436655
 31
0.0
  0
ENDSEC
  0
SECTION
  2
OBJECTS
  0
DICTIONARY
  5
C
100
AcDbDictionary
280
0
281
1
  3
ACAD_GROUP
350
D
  3
ACAD_MLINESTYLE
350
17
  3
ACAD_LAYOUT
350
1A
  3
ACAD_PLOTSETTINGS
350
19
  3
ACAD_PLOTSTYLENAME
350
E
  0
DICTIONARY
  5
D
102
{ACAD_REACTORS
330
C
102
}
100
AcDbDictionary
280
0
281
1
  0
ACDBDICTIONARYWDFLT
  5
E
102
{ACAD_REACTORS
330
C
102
}
100
AcDbDictionary
281
1
  3
Normal
350
F
100
AcDbDictionaryWithDefault
340
F
  0
DICTIONARY
  5
17
102
{ACAD_REACTORS
330
C
102
}
100
AcDbDictionary
280
0
281
1
  3
Standard
350
18
  0
DICTIONARY
  5
19
102
{ACAD_REACTORS
330
C
102
}
100
AcDbDictionary
281
1
  0
DICTIONARY
  5
1A
102
{ACAD_REACTORS
330
C
102
}
100
AcDbDictionary
281
1
  3
Model
350
2DD
  3
Layout1
350
2DE
  0
ACDBPLACEHOLDER
  5
F
102
{ACAD_REACTORS
330
E
102
}
  0
MLINESTYLE
  5
18
102
{ACAD_REACTORS
330
17
102
}
100
AcDbMlineStyle
  2
STANDARD
 70
0
  3

 62
256
 51
90.0
 52
90.0
 71
2
 49
0.5
 62
256
  6
BYLAYER
 49
-0.5
 62
256
  6
BYLAYER
  0
LAYOUT
  5
2DD
102
{ACAD_REACTORS
330
1A
102
}
100
AcDbPlotSettings
  1

  2
none_device
  4
ISO_A1_(594.00_x_841.00_MM)
  6

 40
0.0
 41
0.0
 42
0.0
 43
0.0
 44
841.0
 45
594.0
 46
0.0
 47
0.0
 48
0.0
 49
0.0
140
0.0
141
0.0
142
1.0
143
1.0
 70
1024
 72
0
 73
0
 74
0
  7

 75
0
147
1.0
148
0.0
149
0.0
100
AcDbLayout
  1
Model
 70
0
 71
0
 10
0.0
 20
0.0
 11
33.1102362205
 21
23.3858267717
 12
0.0
 22
0.0
 32
0.0
 14
0.0
 24
0.0
 34
0.0
 15
0.0
 25
0.0
 35
0.0
146
0.0
 13
0.0
 23
0.0
 33
0.0
 16
1.0
 26
0.0
 36
0.0
 17
0.0
 27
1.0
 37
0.0
 76
0
330
204
345
0
346
0
  0
LAYOUT
  5
2DE
102
{ACAD_REACTORS
330
1A
102
}
100
AcDbPlotSettings
  1

  2
none_device
  4
ISO_A1_(594.00_x_841.00_MM)
  6

 40
0.0
 41
0.0
 42
0.0
 43
0.0
 44
841.0
 45
594.0
 46
0.0
 47
0.0
 48
0.0
 49
0.0
140
0.0
141
0.0
142
1.0
143
1.0
 70
0
 72
0
 73
0
 74
0
  7

 75
0
147
1.0
148
0.0
149
0.0
100
AcDbLayout
  1
Layout1
 70
0
 71
1
 10
0.0
 20
0.0
 11
33.1102362205
 21
23.3858267717
 12
0.0
 22
0.0
 32
0.0
 14
0.0
 24
0.0
 34
0.0
 15
0.0
 25
0.0
 35
0.0
146
0.0
 13
0.0
 23
0.0
 33
0.0
 16
1.0
 26
0.0
 36
0.0
 17
0.0
 27
1.0
 37
0.0
 76
0
330
205
345
0
346
0
  0
ENDSEC
  0
EOF
