999
DXF file: E:\BT Custom\CADOUTPUT\_TOP.dxf
999
Pro/ENGINEER 2018400 by Parametric Technology Corporation
  0
SECTION
  2
HEADER
  9
$ACADVER
  1
AC1018
  9
$DWGCODEPAGE
  3
ANSI_1252
  9
$EXTMAX
 10
22.0
 20
17.0
 30
0.0
  9
$EXTMIN
 10
0.0
 20
0.0
 30
0.0
  9
$LIMMIN
 10
0.0
 20
0.0
  9
$LIMMAX
 10
22.0
 20
17.0
  9
$VIEWCTR
 10
11.0
 20
8.5
  9
$VIEWSIZE
 40
17.0
  9
$CLAYER
  8
0
  9
$LTSCALE
 40
1.21
  9
$CELTYPE
  6
BYLAYER
  9
$DIMSCALE
 40
1.0
  9
$DIMASZ
 40
0.1
  9
$DIMEXO
 40
0.0625
  9
$DIMDLI
 40
0.836
  9
$DIMEXE
 40
0.125
  9
$DIMCEN
 40
0.198
  9
$DIMLFAC
 40
1.0
  9
$DIMBLK
  1
_FILLED
  9
$DIMALT
 70
1
  9
$DIMALTD
 70
2
  9
$DIMALTTD
 70
2
  9
$DIMALTF
 40
25.4
  9
$DIMTXT
 40
0.08
  9
$DIMTOL
 70
1
  9
$DIMLIM
 70
0
  9
$DIMTFAC
 40
1.0
  9
$DIMTP
 40
0.001
  9
$DIMTM
 40
0.001
  9
$DIMGAP
 40
0.09
  9
$DIMDSEP
 70
46
  9
$AUNITS
 70
0
  9
$PDMODE
 70
3
  9
$PDSIZE
 40
0.06
  9
$HANDSEED
  5
256
  9
$TILEMODE
 70
1
  9
$MEASUREMENT
 70
0
  9
$INSUNITS
 70
1
  0
ENDSEC
  0
SECTION
  2
CLASSES
  0
CLASS
  1
ACDBDICTIONARYWDFLT
  2
AcDbDictionaryWithDefault
  3
AutoCAD 2000
 90
0
 91
1
280
0
281
0
  0
CLASS
  1
ACDBPLACEHOLDER
  2
AcDbPlaceHolder
  3
AutoCAD 2000
 90
0
 91
1
280
0
281
0
  0
CLASS
  1
LAYOUT
  2
AcDbLayout
  3
AutoCAD 2000
 90
0
 91
0
280
0
281
0
  0
ENDSEC
  0
SECTION
  2
TABLES
  0
TABLE
  2
VPORT
  5
8
100
AcDbSymbolTable
 70
2
  0
VPORT
  5
1F4
100
AcDbSymbolTableRecord
100
AcDbViewportTableRecord
  2
*ACTIVE
 70
0
 10
0.0
 20
0.0
 11
1.0
 21
1.0
 12
11.0
 22
8.5
 13
0.0
 23
0.0
 14
1.0
 24
1.0
 15
0.0
 25
0.0
 16
0.0
 26
0.0
 36
1.0
 17
0.0
 27
0.0
 37
0.0
 40
17.0
 41
1.2941176471
 42
50.0
 43
0.0
 44
0.0
 50
0.0
 51
0.0
 71
0
 72
100
 73
1
 74
1
 75
0
 76
0
 77
0
 78
0
  0
ENDTAB
  0
TABLE
  2
LTYPE
  5
5
100
AcDbSymbolTable
 70
6
  0
LTYPE
  5
14
100
AcDbSymbolTableRecord
100
AcDbLinetypeTableRecord
  2
BYBLOCK
 70
0
  3

 72
65
 73
0
 40
0.0
  0
LTYPE
  5
15
100
AcDbSymbolTableRecord
100
AcDbLinetypeTableRecord
  2
BYLAYER
 70
0
  3

 72
65
 73
0
 40
0.0
  0
LTYPE
  5
16
100
AcDbSymbolTableRecord
100
AcDbLinetypeTableRecord
  2
CONTINUOUS
 70
64
  3
Solid line
 72
65
 73
0
 40
0.0
  0
LTYPE
  5
1F5
100
AcDbSymbolTableRecord
100
AcDbLinetypeTableRecord
  2
CENTER
 70
64
  3
____ _ ____ _ ____ _ ____ _ ____ _ ____ _ ____
 72
65
 73
4
 40
0.6
 49
0.375
 74
0
 49
-0.075
 74
0
 49
0.075
 74
0
 49
-0.075
 74
0
  0
LTYPE
  5
1F6
100
AcDbSymbolTableRecord
100
AcDbLinetypeTableRecord
  2
HIDDEN
 70
64
  3
- - - - - - - - - - - - - - - - - - - -
 72
65
 73
2
 40
0.2
 49
0.1
 74
0
 49
-0.1
 74
0
  0
LTYPE
  5
1F7
100
AcDbSymbolTableRecord
100
AcDbLinetypeTableRecord
  2
PHANTOM
 70
64
  3
_____ _ _ _____ _ _ _____ _ _ _____
 72
65
 73
6
 40
0.8
 49
0.45
 74
0
 49
-0.05
 74
0
 49
0.1
 74
0
 49
-0.05
 74
0
 49
0.1
 74
0
 49
-0.05
 74
0
  0
LTYPE
  5
1F8
100
AcDbSymbolTableRecord
100
AcDbLinetypeTableRecord
  2
DOT
 70
64
  3
. . . . . . . . . . . . . . . . . . . .
 72
65
 73
2
 40
0.2
 49
0.1
 74
0
 49
-0.1
 74
0
  0
LTYPE
  5
1F9
100
AcDbSymbolTableRecord
100
AcDbLinetypeTableRecord
  2
DASHED
 70
64
  3
- - - - - - - - - - - - - - - - - - - -
 72
65
 73
2
 40
0.2
 49
0.1
 74
0
 49
-0.1
 74
0
  0
ENDTAB
  0
TABLE
  2
LAYER
  5
2
100
AcDbSymbolTable
 70
36
  0
LAYER
  5
10
100
AcDbSymbolTableRecord
100
AcDbLayerTableRecord
  2
0
 70
0
 62
7
  6
CONTINUOUS
370
-3
390
F
  0
LAYER
  5
1FA
100
AcDbSymbolTableRecord
100
AcDbLayerTableRecord
  2
DEFAULT_1
 70
0
 62
7
  6
CENTER
370
-3
390
F
  0
LAYER
  5
1FB
100
AcDbSymbolTableRecord
100
AcDbLayerTableRecord
  2
DEFAULT_2
 70
0
 62
8
  6
HIDDEN
370
-3
390
F
  0
LAYER
  5
1FC
100
AcDbSymbolTableRecord
100
AcDbLayerTableRecord
  2
DEFAULT_3
 70
0
 62
7
  6
PHANTOM
370
-3
390
F
  0
LAYER
  5
1FD
100
AcDbSymbolTableRecord
100
AcDbLayerTableRecord
  2
ALL_FEATURES
 70
0
 62
7
  6
CONTINUOUS
370
-3
390
F
  0
LAYER
  5
1FE
100
AcDbSymbolTableRecord
100
AcDbLayerTableRecord
  2
AXES_FEATURES
 70
0
 62
7
  6
CONTINUOUS
370
-3
390
F
  0
LAYER
  5
1FF
100
AcDbSymbolTableRecord
100
AcDbLayerTableRecord
  2
DEFAULT_COORDINATE_SYSTEM
 70
0
 62
7
  6
CONTINUOUS
370
-3
390
F
  0
LAYER
  5
200
100
AcDbSymbolTableRecord
100
AcDbLayerTableRecord
  2
DEFAULT_DATUM_AXES
 70
0
 62
7
  6
CONTINUOUS
370
-3
390
F
  0
LAYER
  5
201
100
AcDbSymbolTableRecord
100
AcDbLayerTableRecord
  2
DEFAULT_DATUM_PLANES
 70
0
 62
7
  6
CONTINUOUS
370
-3
390
F
  0
LAYER
  5
202
100
AcDbSymbolTableRecord
100
AcDbLayerTableRecord
  2
DIMENSIONS
 70
0
 62
7
  6
CONTINUOUS
370
-3
390
F
  0
ENDTAB
  0
TABLE
  2
STYLE
  5
3
100
AcDbSymbolTable
 70
1
  0
STYLE
  5
11
100
AcDbSymbolTableRecord
100
AcDbTextStyleTableRecord
  2
STANDARD
 70
0
 40
0.0
 41
0.8
 50
0.0
 71
0
 42
0.2
  3
txt
  4

  0
STYLE
  5
203
100
AcDbSymbolTableRecord
100
AcDbTextStyleTableRecord
  2
TEXTSTYLE_1
 70
0
 40
0.0
 41
0.8
 50
0.0
 71
0
 42
0.2
  3
gdt
  4

  0
ENDTAB
  0
TABLE
  2
VIEW
  5
6
100
AcDbSymbolTable
 70
0
  0
ENDTAB
  0
TABLE
  2
UCS
  5
7
100
AcDbSymbolTable
 70
0
  0
ENDTAB
  0
TABLE
  2
APPID
  5
9
100
AcDbSymbolTable
 70
1
  0
APPID
  5
204
100
AcDbSymbolTableRecord
100
AcDbRegAppTableRecord
  2
ACAD
 70
0
  0
ENDTAB
  0
TABLE
  2
BLOCK_RECORD
  5
1
100
AcDbSymbolTable
 70
0
  0
BLOCK_RECORD
  5
205
100
AcDbSymbolTableRecord
100
AcDbBlockTableRecord
  2
*Model_Space
  0
BLOCK_RECORD
  5
206
100
AcDbSymbolTableRecord
100
AcDbBlockTableRecord
  2
*Paper_Space
  0
BLOCK_RECORD
  5
207
100
AcDbSymbolTableRecord
100
AcDbBlockTableRecord
  2
_FILLED
  0
ENDTAB
  0
TABLE
  2
DIMSTYLE
  5
A
100
AcDbSymbolTable
 70
1
100
AcDbDimStyleTable
 71
0
  0
DIMSTYLE
105
208
100
AcDbSymbolTableRecord
100
AcDbDimStyleTableRecord
  2
STANDARD
 70
0
  3

  4

 40
1.0
 41
0.1
 42
0.0625
 43
0.38
 44
0.125
 45
0.0
 46
0.0
 47
0.001
 48
0.001
140
0.08
141
0.09
142
0.0
143
25.4
144
1.0
145
0.0
146
1.0
147
0.09
 71
1.0
 72
0.0
 73
1
 74
1
 75
0
 76
0
 77
0
 78
4
 79
1
170
1
171
2
172
0
173
0
174
0
175
0
176
0
177
0
178
0
270
2
179
3
271
3
272
3
273
2
274
2
275
0
280
0
281
0
282
0
283
1
284
4
285
0
286
0
287
3
288
0
340
11
278
46
341
207
342
207
343
207
344
207
  0
ENDTAB
  0
ENDSEC
  0
SECTION
  2
BLOCKS
  0
BLOCK
  5
20
100
AcDbEntity
  8
0
100
AcDbBlockBegin
  2
*Model_Space
 70
0
 10
0.0
 20
0.0
 30
0.0
  3
*Model_Space
  1

  0
ENDBLK
  5
21
100
AcDbEntity
  8
0
100
AcDbBlockEnd
  0
BLOCK
  5
1C
100
AcDbEntity
  8
0
100
AcDbBlockBegin
  2
*Paper_Space
 70
0
 10
0.0
 20
0.0
 30
0.0
  3
*Paper_Space
  1

  0
ENDBLK
  5
1D
100
AcDbEntity
  8
0
100
AcDbBlockEnd
  0
BLOCK
  5
209
100
AcDbEntity
  8
0
100
AcDbBlockBegin
  2
_FILLED
 70
64
 10
0.0
 20
0.0
  3
_FILLED
  1

  0
SOLID
  5
20A
100
AcDbEntity
  8
0
  6
BYBLOCK
 62
0
100
AcDbTrace
 10
0.0
 20
0.0
 11
-1.0
 21
0.2
 12
-1.0
 22
-0.2
 13
-1.0
 23
-0.2
  0
ENDBLK
  5
20B
100
AcDbEntity
  8
0
  6
BYBLOCK
 62
0
100
AcDbBlockEnd
  0
ENDSEC
  0
SECTION
  2
ENTITIES
  0
LINE
  5
20C
100
AcDbEntity
  8
0
100
AcDbLine
 62
7
  6
CONTINUOUS
 10
9.9879982724
 20
9.1732168922
 11
9.9879982724
 21
9.7732168922
  0
LINE
  5
20D
100
AcDbEntity
  8
0
100
AcDbLine
 62
7
  6
CONTINUOUS
 10
10.2262983925
 20
9.1732168922
 11
10.2262983925
 21
9.7732168922
  0
LINE
  5
20E
100
AcDbEntity
  8
0
100
AcDbLine
 62
7
  6
CONTINUOUS
 10
10.2562983925
 20
9.1732168922
 11
10.2562983925
 21
9.7732168922
  0
LINE
  5
20F
100
AcDbEntity
  8
0
100
AcDbLine
 62
9
  6
CONTINUOUS
 10
10.6338925164
 20
9.0011458613
 11
10.6338925164
 21
9.9452879232
  0
LINE
  5
210
100
AcDbEntity
  8
0
100
AcDbLine
 62
9
  6
CONTINUOUS
 10
10.7584932322
 20
8.9898835589
 11
10.7584932322
 21
9.9565502256
  0
LINE
  5
211
100
AcDbEntity
  8
0
100
AcDbLine
 62
9
  6
CONTINUOUS
 10
10.8290127179
 20
8.973931178
 11
10.8290127179
 21
9.9725026065
  0
LINE
  5
212
100
AcDbEntity
  8
0
100
AcDbLine
 62
9
  6
CONTINUOUS
 10
11.0434174467
 20
8.973931178
 11
11.0434174467
 21
9.9725026065
  0
LINE
  5
213
100
AcDbEntity
  8
0
100
AcDbLine
 62
9
  6
CONTINUOUS
 10
11.0862983925
 20
8.9982168922
 11
11.0862983925
 21
9.9482168922
  0
LINE
  5
214
100
AcDbEntity
  8
0
100
AcDbLine
 62
7
  6
CONTINUOUS
 10
11.5488382841
 20
4.7976523438
 11
11.5488382841
 21
4.8181913736
  0
LINE
  5
215
100
AcDbEntity
  8
0
100
AcDbLine
 62
7
  6
CONTINUOUS
 10
12.1402219529
 20
4.9075790265
 11
12.1475609968
 21
4.8748292658
  0
LINE
  5
216
100
AcDbEntity
  8
0
100
AcDbLine
 62
7
  6
CONTINUOUS
 10
11.6113382841
 20
9.4732168922
 11
11.6113382841
 21
4.852393388
  0
LINE
  5
217
100
AcDbEntity
  8
0
100
AcDbLine
 62
7
  6
CONTINUOUS
 10
12.1113382841
 20
9.4732168922
 11
12.1113382841
 21
4.852393388
  0
LINE
  5
218
100
AcDbEntity
  8
0
100
AcDbLine
 62
7
  6
CONTINUOUS
 10
12.1738382841
 20
4.7976523438
 11
12.1738382841
 21
4.8181913736
  0
LINE
  5
219
100
AcDbEntity
  8
0
100
AcDbLine
 62
7
  6
CONTINUOUS
 10
11.5824546152
 20
4.9075790265
 11
11.5751155713
 21
4.8748292658
  0
LINE
  5
21A
100
AcDbEntity
  8
0
100
AcDbLine
 62
7
  6
CONTINUOUS
 10
11.0862983925
 20
8.9982168922
 11
11.2164933377
 21
8.9982168922
  0
LINE
  5
21B
100
AcDbEntity
  8
0
100
AcDbLine
 62
7
  6
CONTINUOUS
 10
9.9879982724
 20
9.1732168922
 11
10.2262983925
 21
9.1732168922
  0
LINE
  5
21C
100
AcDbEntity
  8
0
100
AcDbLine
 62
7
  6
CONTINUOUS
 10
10.2262983925
 20
9.3232168922
 11
10.2562983925
 21
9.3232168922
  0
LINE
  5
21D
100
AcDbEntity
  8
0
100
AcDbLine
 62
7
  6
CONTINUOUS
 10
10.2262983925
 20
9.6232168922
 11
10.2562983925
 21
9.6232168922
  0
LINE
  5
21E
100
AcDbEntity
  8
0
100
AcDbLine
 62
7
  6
CONTINUOUS
 10
9.9879982724
 20
9.7732168922
 11
10.2262983925
 21
9.7732168922
  0
LINE
  5
21F
100
AcDbEntity
  8
0
100
AcDbLine
 62
7
  6
CONTINUOUS
 10
11.0862983925
 20
9.9482168922
 11
11.2164933441
 21
9.9482168922
  0
ARC
  5
220
100
AcDbEntity
  8
0
100
AcDbCircle
 62
7
  6
CONTINUOUS
 10
10.200619792
 20
8.5507019178
 40
0.625
100
AcDbArc
 50
46.1131560923
 51
84.888986226
  0
ARC
  5
221
100
AcDbEntity
  8
0
100
AcDbCircle
 62
7
  6
CONTINUOUS
 10
10.200619792
 20
10.3957318667
 40
0.625
100
AcDbArc
 50
275.111013774
 51
313.8868439077
  0
ARC
  5
222
100
AcDbEntity
  8
0
100
AcDbCircle
 62
7
  6
CONTINUOUS
 10
9.6132983925
 20
9.4732168922
 40
0.48
100
AcDbArc
 50
38.6821874535
 51
321.3178125465
  0
CIRCLE
  5
223
100
AcDbEntity
  8
0
100
AcDbCircle
 62
7
  6
CONTINUOUS
 10
9.6132983925
 20
9.4732168922
 40
0.305
  0
ARC
  5
224
100
AcDbEntity
  8
0
100
AcDbCircle
 62
7
  6
CONTINUOUS
 10
10.7032161524
 20
9.0732168922
 40
0.1
100
AcDbArc
 50
226.1131560923
 51
303.5573097619
  0
ARC
  5
225
100
AcDbEntity
  8
0
100
AcDbCircle
 62
7
  6
CONTINUOUS
 10
10.7032161524
 20
9.8732168922
 40
0.1
100
AcDbArc
 50
56.4426902381
 51
133.8868439077
  0
ARC
  5
226
100
AcDbEntity
  8
0
100
AcDbCircle
 62
7
  6
CONTINUOUS
 10
11.8277565692
 20
4.8181615058
 40
0.2589182868
100
AcDbArc
 50
167.3577134223
 51
179.9933905746
  0
ARC
  5
227
100
AcDbEntity
  8
0
100
AcDbCircle
 62
7
  6
CONTINUOUS
 10
11.894919999
 20
4.8181615058
 40
0.2589182868
100
AcDbArc
 50
0.0066094254
 51
12.6422865777
  0
ARC
  5
228
100
AcDbEntity
  8
0
100
AcDbCircle
 62
7
  6
CONTINUOUS
 10
11.8339795097
 20
4.8509663381
 40
0.2578199535
100
AcDbArc
 50
149.7554435688
 51
167.3153694313
  0
ARC
  5
229
100
AcDbEntity
  8
0
100
AcDbCircle
 62
7
  6
CONTINUOUS
 10
11.8886970564
 20
4.8509663434
 40
0.2578199535
100
AcDbArc
 50
12.684629326
 51
30.2445551881
  0
ARC
  5
22A
100
AcDbEntity
  8
0
100
AcDbCircle
 62
7
  6
CONTINUOUS
 10
11.8286176258
 20
4.8523642869
 40
0.2522793434
100
AcDbArc
 50
167.3577129788
 51
179.9933907815
  0
ARC
  5
22B
100
AcDbEntity
  8
0
100
AcDbCircle
 62
7
  6
CONTINUOUS
 10
11.8940589423
 20
4.8523642869
 40
0.2522793434
100
AcDbArc
 50
0.0066092185
 51
12.6422870212
  0
ARC
  5
22C
100
AcDbEntity
  8
0
100
AcDbCircle
 62
7
  6
CONTINUOUS
 10
11.8613382841
 20
9.4732168922
 40
1.1
100
AcDbArc
 50
210.5073542616
 51
256.8554609955
  0
ARC
  5
22D
100
AcDbEntity
  8
0
100
AcDbCircle
 62
7
  6
CONTINUOUS
 10
11.8613382841
 20
9.4732168922
 40
1.1
100
AcDbArc
 50
283.1445390045
 51
149.4926457384
  0
ARC
  5
22E
100
AcDbEntity
  8
0
100
AcDbCircle
 62
7
  6
CONTINUOUS
 10
11.8613382841
 20
9.4732168922
 40
0.9500926608
100
AcDbArc
 50
285.2600953083
 51
148.8022889262
  0
ARC
  5
22F
100
AcDbEntity
  8
0
100
AcDbCircle
 62
7
  6
CONTINUOUS
 10
11.8613382841
 20
9.4732168922
 40
0.9500926608
100
AcDbArc
 50
211.1977110739
 51
254.7399046918
  0
ARC
  5
230
100
AcDbEntity
  8
0
100
AcDbCircle
 62
7
  6
CONTINUOUS
 10
11.8613382841
 20
9.4732168922
 40
0.81
100
AcDbArc
 50
215.9063540988
 51
252.0222705507
  0
ARC
  5
231
100
AcDbEntity
  8
0
100
AcDbCircle
 62
7
  6
CONTINUOUS
 10
11.8613382841
 20
9.4732168922
 40
0.81
100
AcDbArc
 50
287.9777294493
 51
144.0936459012
  0
ARC
  5
232
100
AcDbEntity
  8
0
100
AcDbCircle
 62
7
  6
CONTINUOUS
 10
11.8613382841
 20
9.4732168922
 40
0.805
100
AcDbArc
 50
141.7759553706
 51
143.8011687372
  0
ARC
  5
233
100
AcDbEntity
  8
0
100
AcDbCircle
 62
7
  6
CONTINUOUS
 10
11.8613382841
 20
9.4732168922
 40
0.805
100
AcDbArc
 50
216.1988312628
 51
218.2240442067
  0
ARC
  5
234
100
AcDbEntity
  8
0
100
AcDbCircle
 62
7
  6
CONTINUOUS
 10
11.8613382841
 20
9.4732168922
 40
0.805
100
AcDbArc
 50
288.0984278537
 51
141.6021762933
  0
ARC
  5
235
100
AcDbEntity
  8
0
100
AcDbCircle
 62
7
  6
CONTINUOUS
 10
11.8613382841
 20
9.4732168922
 40
0.805
100
AcDbArc
 50
218.3978237067
 51
251.9015721463
  0
ARC
  5
236
100
AcDbEntity
  8
0
100
AcDbCircle
 62
7
  6
CONTINUOUS
 10
11.8613382841
 20
9.4732168922
 40
0.7
100
AcDbArc
 50
290.9367363171
 51
249.0632636829
  0
ARC
  5
237
100
AcDbEntity
  8
0
100
AcDbCircle
 62
7
  6
CONTINUOUS
 10
11.8613382841
 20
9.4732168922
 40
0.5255
100
AcDbArc
 50
298.4388158287
 51
241.5611841713
  0
ARC
  5
238
100
AcDbEntity
  8
0
100
AcDbCircle
 62
7
  6
CONTINUOUS
 10
11.8613382841
 20
9.4732168922
 40
0.375
100
AcDbArc
 50
311.8438342932
 51
228.1561657068
  0
ARC
  5
239
100
AcDbEntity
  8
0
100
AcDbCircle
 62
7
  6
CONTINUOUS
 10
11.8613382841
 20
9.4732168922
 40
0.325
100
AcDbArc
 50
320.3346267116
 51
219.6653732884
  0
ARC
  5
23A
100
AcDbEntity
  8
0
100
AcDbCircle
 62
7
  6
CONTINUOUS
 10
11.8613382841
 20
9.4732168922
 40
0.25
100
AcDbArc
 50
0.0
 51
180.0
  0
ARC
  5
23B
100
AcDbEntity
  8
0
100
AcDbCircle
 62
7
  6
CONTINUOUS
 10
10.9362150823
 20
9.0382168922
 40
0.125
100
AcDbArc
 50
210.9497230789
 51
329.0502769211
  0
ARC
  5
23C
100
AcDbEntity
  8
0
100
AcDbCircle
 62
7
  6
CONTINUOUS
 10
10.9362150823
 20
9.9082168922
 40
0.125
100
AcDbArc
 50
30.9497230789
 51
149.0502769211
  0
ARC
  5
23D
100
AcDbEntity
  8
0
100
AcDbCircle
 62
7
  6
CONTINUOUS
 10
10.7861317721
 20
8.9482168922
 40
0.05
100
AcDbArc
 50
30.9497230789
 51
123.5573097619
  0
ARC
  5
23E
100
AcDbEntity
  8
0
100
AcDbCircle
 62
7
  6
CONTINUOUS
 10
11.0862983925
 20
8.9482168922
 40
0.05
100
AcDbArc
 50
90.0
 51
149.0502769211
  0
ARC
  5
23F
100
AcDbEntity
  8
0
100
AcDbCircle
 62
7
  6
CONTINUOUS
 10
10.7861317721
 20
9.9982168922
 40
0.05
100
AcDbArc
 50
236.4426902381
 51
329.0502769211
  0
ARC
  5
240
100
AcDbEntity
  8
0
100
AcDbCircle
 62
7
  6
CONTINUOUS
 10
11.0862983925
 20
9.9982168922
 40
0.05
100
AcDbArc
 50
210.9497230789
 51
270.0
  0
SPLINE
  5
241
100
AcDbEntity
  8
0
100
AcDbSpline
 62
7
  6
CONTINUOUS
 70
0
 71
3
 72
52
 73
48
 74
0
 42
0.0000001
 43
0.0000001
 44
0.0000000001
 40
0.0
 40
0.0
 40
0.0
 40
0.0
 40
0.0952936727
 40
0.189644084
 40
0.282155574
 40
0.3719980408
 40
0.4584295098
 40
0.5407856628
 40
0.6184600888
 40
0.6908727814
 40
0.7249246969
 40
0.7574378797
 40
0.7883318096
 40
0.8175223567
 40
0.8449199087
 40
0.8704308881
 40
0.8939564895
 40
0.9153947878
 40
0.9346413634
 40
0.9434099049
 40
0.9515915929
 40
0.9591737698
 40
0.9661437721
 40
0.9724899983
 40
0.9782017493
 40
0.9832683136
 40
0.9876795114
 40
0.9896368678
 40
0.9914275291
 40
0.993050594
 40
0.9945051605
 40
0.9957903253
 40
0.9969052668
 40
0.9978495524
 40
0.9982575997
 40
0.9986228637
 40
0.9989453046
 40
0.9992248826
 40
0.9994615579
 40
0.9996552907
 40
0.9998060411
 40
0.9998652855
 40
0.9999137694
 40
0.9999514877
 40
0.9999784356
 40
0.999994608
 40
1.0
 40
1.0
 40
1.0
 40
1.0
 10
11.0982983925
 20
9.4732168922
 30
0.0
 10
11.0982983925
 20
9.456601167
 30
0.0
 10
11.0991000433
 20
9.4235285489
 30
0.0
 10
11.1026657502
 20
9.3744422659
 30
0.0
 10
11.1084526168
 20
9.3265250888
 30
0.0
 10
11.1162410671
 20
9.2802936264
 30
0.0
 10
11.1257459529
 20
9.2361957317
 30
0.0
 10
11.1366330638
 20
9.194610049
 30
0.0
 10
11.1485309501
 20
9.1558546592
 30
0.0
 10
11.1591633305
 20
9.125550085
 30
0.0
 10
11.1678305606
 20
9.1029193034
 30
0.0
 10
11.1741902964
 20
9.0871599801
 30
0.0
 10
11.1804867589
 20
9.0722918955
 30
0.0
 10
11.1866626448
 20
9.0583437028
 30
0.0
 10
11.1926586893
 20
9.0453443232
 30
0.0
 10
11.1984150097
 20
9.0333237757
 30
0.0
 10
11.2038709456
 20
9.0223127834
 30
0.0
 10
11.2089654745
 20
9.0123427823
 30
0.0
 10
11.2129754082
 20
9.0047088287
 30
0.0
 10
11.2159535001
 20
8.9991442131
 30
0.0
 10
11.2179897132
 20
8.9953823743
 30
0.0
 10
11.2198920207
 20
8.9919046961
 30
0.0
 10
11.221653573
 20
8.988714849
 30
0.0
 10
11.2232681727
 20
8.9858164365
 30
0.0
 10
11.2247301779
 20
8.9832129528
 30
0.0
 10
11.2260340312
 20
8.9809076311
 30
0.0
 10
11.2270200004
 20
8.9791746068
 30
0.0
 10
11.2277257453
 20
8.9779393295
 30
0.0
 10
11.2281912171
 20
8.9771266758
 30
0.0
 10
11.2286138612
 20
8.9763905225
 30
0.0
 10
11.2289932145
 20
8.9757311487
 30
0.0
 10
11.2293288262
 20
8.9751488244
 30
0.0
 10
11.2296202737
 20
8.9746437403
 30
0.0
 10
11.2298354704
 20
8.9742712294
 30
0.0
 10
11.2299853827
 20
8.9740119647
 30
0.0
 10
11.2300810621
 20
8.9738465894
 30
0.0
 10
11.2301655599
 20
8.9737006239
 30
0.0
 10
11.2302388581
 20
8.9735740826
 30
0.0
 10
11.23030093
 20
8.973466972
 30
0.0
 10
11.2303517734
 20
8.9733793212
 30
0.0
 10
11.23038708
 20
8.9733184121
 30
0.0
 10
11.2304097405
 20
8.9732794662
 30
0.0
 10
11.2304224038
 20
8.9732574676
 30
0.0
 10
11.2304324972
 20
8.973240581
 30
0.0
 10
11.2304391611
 20
8.9732280003
 30
0.0
 10
11.2304441428
 20
8.9732213765
 30
0.0
 10
11.2304452751
 20
8.9732174118
 30
0.0
 10
11.2304460587
 20
8.9732168922
 30
0.0
  0
SPLINE
  5
242
100
AcDbEntity
  8
0
100
AcDbSpline
 62
7
  6
CONTINUOUS
 70
0
 71
3
 72
39
 73
35
 74
0
 42
0.0000001
 43
0.0000001
 44
0.0000000001
 40
0.0
 40
0.0
 40
0.0
 40
0.0
 40
0.030541035
 40
0.0611086722
 40
0.0917298489
 40
0.1224282353
 40
0.1532251144
 40
0.1841379286
 40
0.2151797496
 40
0.2463586862
 40
0.2776776217
 40
0.3091339985
 40
0.3407199826
 40
0.3724226896
 40
0.404224739
 40
0.4361048639
 40
0.4680387913
 40
0.5000001486
 40
0.5319615032
 40
0.5638954225
 40
0.5957755343
 40
0.6275775657
 40
0.659280251
 40
0.6908662101
 40
0.7223225594
 40
0.753641466
 40
0.7848203736
 40
0.8158621664
 40
0.8467749543
 40
0.8775718101
 40
0.9082701775
 40
0.9388913396
 40
0.9694589679
 40
1.0
 40
1.0
 40
1.0
 40
1.0
 10
12.2313382841
 20
4.7771489564
 30
0.0
 10
12.2313382841
 20
4.7656262695
 30
0.0
 10
12.230137602
 20
4.7425529178
 30
0.0
 10
12.2247540735
 20
4.7083060204
 30
0.0
 10
12.2158446602
 20
4.674738078
 30
0.0
 10
12.2035019838
 20
4.6421843801
 30
0.0
 10
12.1878537846
 20
4.6109617438
 30
0.0
 10
12.1690603061
 20
4.5813725385
 30
0.0
 10
12.1473117689
 20
4.553699935
 30
0.0
 10
12.1228256557
 20
4.5282060683
 30
0.0
 10
12.0958440367
 20
4.5051299438
 30
0.0
 10
12.0666308907
 20
4.4846857446
 30
0.0
 10
12.0354692548
 20
4.4670616872
 30
0.0
 10
12.002658549
 20
4.4524189187
 30
0.0
 10
11.9685119442
 20
4.440890611
 30
0.0
 10
11.9333536992
 20
4.4325810375
 30
0.0
 10
11.897516379
 20
4.4275651557
 30
0.0
 10
11.8613381164
 20
4.4258881521
 30
0.0
 10
11.825159858
 20
4.4275651833
 30
0.0
 10
11.7893225513
 20
4.4325810972
 30
0.0
 10
11.7541643283
 20
4.440890699
 30
0.0
 10
11.7200177511
 20
4.4524190253
 30
0.0
 10
11.6872070765
 20
4.467061804
 30
0.0
 10
11.656045478
 20
4.4846858707
 30
0.0
 10
11.626832371
 20
4.5051300714
 30
0.0
 10
11.5998507881
 20
4.5282061883
 30
0.0
 10
11.5753647065
 20
4.5537000402
 30
0.0
 10
11.5536161998
 20
4.5813726275
 30
0.0
 10
11.5348227459
 20
4.6109618134
 30
0.0
 10
11.5191745638
 20
4.6421844291
 30
0.0
 10
11.5068318985
 20
4.6747381081
 30
0.0
 10
11.4979224918
 20
4.7083060357
 30
0.0
 10
11.4925389658
 20
4.7425529234
 30
0.0
 10
11.4913382841
 20
4.7656262706
 30
0.0
 10
11.4913382841
 20
4.7771489564
 30
0.0
  0
SPLINE
  5
243
100
AcDbEntity
  8
0
100
AcDbSpline
 62
7
  6
CONTINUOUS
 70
0
 71
3
 72
31
 73
27
 74
0
 42
0.0000001
 43
0.0000001
 44
0.0000000001
 40
0.0
 40
0.0
 40
0.0
 40
0.0
 40
0.0305312379
 40
0.0611740735
 40
0.091930085
 40
0.1227992567
 40
0.1537799952
 40
0.1848691709
 40
0.2160621539
 40
0.2473529248
 40
0.3101719737
 40
0.3732796299
 40
0.4365883877
 40
0.5000003285
 40
0.5634122556
 40
0.6267209731
 40
0.6898285645
 40
0.7526475273
 40
0.7839382487
 40
0.8151311786
 40
0.8462202984
 40
0.8772009791
 40
0.9080700916
 40
0.9388260436
 40
0.96946882
 40
1.0
 40
1.0
 40
1.0
 40
1.0
 10
11.6325964412
 20
4.5015551837
 30
0.0
 10
11.6358442081
 20
4.4973003751
 30
0.0
 10
11.642611124
 20
4.4889698248
 30
0.0
 10
11.6535104495
 20
4.4770846131
 30
0.0
 10
11.6651401016
 20
4.4658269405
 30
0.0
 10
11.677458684
 20
4.4552369031
 30
0.0
 10
11.6904231297
 20
4.4453515621
 30
0.0
 10
11.7039876305
 20
4.4362056718
 30
0.0
 10
11.7181051026
 20
4.4278309694
 30
0.0
 10
11.7376197091
 20
4.4177212662
 30
0.0
 10
11.7631494399
 20
4.4071600298
 30
0.0
 10
11.7951064085
 20
4.3979965871
 30
0.0
 10
11.8279916453
 20
4.3924465512
 30
0.0
 10
11.8613426727
 20
4.3905885298
 30
0.0
 10
11.8946936388
 20
4.3924475261
 30
0.0
 10
11.9275786922
 20
4.3979985235
 30
0.0
 10
11.9595353583
 20
4.4071629005
 30
0.0
 10
11.985064742
 20
4.4177248847
 30
0.0
 10
12.0045790153
 20
4.4278351593
 30
0.0
 10
12.01869621
 20
4.4362102749
 30
0.0
 10
12.032260408
 20
4.4453565622
 30
0.0
 10
12.0452245264
 20
4.4552422824
 30
0.0
 10
12.0575427581
 20
4.4658326803
 30
0.0
 10
12.0691720373
 20
4.4770906934
 30
0.0
 10
12.0800709693
 20
4.4889762241
 30
0.0
 10
12.086837609
 20
4.4973069723
 30
0.0
 10
12.0900852349
 20
4.5015618757
 30
0.0
  0
SPLINE
  5
244
100
AcDbEntity
  8
0
100
AcDbSpline
 62
7
  6
CONTINUOUS
 70
0
 71
3
 72
16
 73
12
 74
0
 42
0.0000001
 43
0.0000001
 44
0.0000000001
 40
0.0
 40
0.0
 40
0.0
 40
0.0
 40
0.1238699798
 40
0.2478595503
 40
0.3720885271
 40
0.4966621226
 40
0.6216728706
 40
0.7471947255
 40
0.8732801707
 40
0.9365653449
 40
1.0
 40
1.0
 40
1.0
 40
1.0
 10
11.4913382841
 20
4.7771489564
 30
0.0
 10
11.4913382841
 20
4.7892717193
 30
0.0
 10
11.4926676509
 20
4.8135498376
 30
0.0
 10
11.4986257158
 20
4.8495440098
 30
0.0
 10
11.5084785499
 20
4.8847478868
 30
0.0
 10
11.522112692
 20
4.9187723284
 30
0.0
 10
11.539372483
 20
4.9512519793
 30
0.0
 10
11.5600607952
 20
4.9818376591
 30
0.0
 10
11.5799500281
 20
5.0054580456
 30
0.0
 10
11.5973146778
 20
5.0230936929
 30
0.0
 10
11.6064652443
 20
5.0314744903
 30
0.0
 10
11.6111493557
 20
5.0355488263
 30
0.0
  0
SPLINE
  5
245
100
AcDbEntity
  8
0
100
AcDbSpline
 62
7
  6
CONTINUOUS
 70
0
 71
3
 72
16
 73
12
 74
0
 42
0.0000001
 43
0.0000001
 44
0.0000000001
 40
0.0
 40
0.0
 40
0.0
 40
0.0
 40
0.0634346501
 40
0.1267198174
 40
0.2528052437
 40
0.3783270781
 40
0.5033378093
 40
0.6279113973
 40
0.7521403785
 40
0.8761299735
 40
1.0
 40
1.0
 40
1.0
 40
1.0
 10
12.1115251418
 20
5.0355506283
 30
0.0
 10
12.1162093263
 20
5.0314762889
 30
0.0
 10
12.1253600412
 20
5.0230954835
 30
0.0
 10
12.1427249695
 20
5.00545979
 30
0.0
 10
12.1626145379
 20
4.9818393141
 30
0.0
 10
12.1833032062
 20
4.9512534639
 30
0.0
 10
12.2005633026
 20
4.91877359
 30
0.0
 10
12.2141976941
 20
4.8847488804
 30
0.0
 10
12.2240507129
 20
4.849544697
 30
0.0
 10
12.2300088915
 20
4.8135501895
 30
0.0
 10
12.2313382841
 20
4.789271837
 30
0.0
 10
12.2313382841
 20
4.7771489564
 30
0.0
  0
SPLINE
  5
246
100
AcDbEntity
  8
0
100
AcDbSpline
 62
7
  6
CONTINUOUS
 70
0
 71
3
 72
15
 73
11
 74
0
 42
0.0000001
 43
0.0000001
 44
0.0000000001
 40
0.0
 40
0.0
 40
0.0
 40
0.0
 40
0.1239828688
 40
0.2480718218
 40
0.3723679035
 40
0.4969685779
 40
0.6219614902
 40
0.7474239605
 40
0.8734201724
 40
1.0
 40
1.0
 40
1.0
 40
1.0
 10
11.5488382841
 20
4.8181913736
 30
0.0
 10
11.5488382841
 20
4.8260539194
 30
0.0
 10
11.5495116353
 20
4.8417940179
 30
0.0
 10
11.5525346425
 20
4.8652414729
 30
0.0
 10
11.5575511901
 20
4.8883863728
 30
0.0
 10
11.5645285768
 20
4.9110768081
 30
0.0
 10
11.5734214268
 20
4.9331666722
 30
0.0
 10
11.5841722949
 20
4.9545135695
 30
0.0
 10
11.5967101121
 20
4.9749781819
 30
0.0
 10
11.6061863319
 20
4.9879180548
 30
0.0
 10
11.6111886419
 20
4.9941960645
 30
0.0
  0
SPLINE
  5
247
100
AcDbEntity
  8
0
100
AcDbSpline
 62
7
  6
CONTINUOUS
 70
0
 71
3
 72
15
 73
11
 74
0
 42
0.0000001
 43
0.0000001
 44
0.0000000001
 40
0.0
 40
0.0
 40
0.0
 40
0.0
 40
0.1265798276
 40
0.2525760395
 40
0.3780385098
 40
0.5030314221
 40
0.6276320965
 40
0.7519281782
 40
0.8760171312
 40
1.0
 40
1.0
 40
1.0
 40
1.0
 10
12.1114879262
 20
4.9941960645
 30
0.0
 10
12.1164902362
 20
4.9879180548
 30
0.0
 10
12.125966456
 20
4.9749781819
 30
0.0
 10
12.1385042732
 20
4.9545135695
 30
0.0
 10
12.1492551413
 20
4.9331666722
 30
0.0
 10
12.1581479914
 20
4.9110768081
 30
0.0
 10
12.1651253781
 20
4.8883863728
 30
0.0
 10
12.1701419256
 20
4.8652414729
 30
0.0
 10
12.1731649328
 20
4.8417940179
 30
0.0
 10
12.1738382841
 20
4.8260539194
 30
0.0
 10
12.1738382841
 20
4.8181913736
 30
0.0
  0
SPLINE
  5
248
100
AcDbEntity
  8
0
100
AcDbSpline
 62
7
  6
CONTINUOUS
 70
0
 71
3
 72
52
 73
48
 74
0
 42
0.0000001
 43
0.0000001
 44
0.0000000001
 40
0.0
 40
0.0
 40
0.0
 40
0.0
 40
0.000005392
 40
0.0000215644
 40
0.0000485124
 40
0.0000862308
 40
0.0001347147
 40
0.0001939591
 40
0.0003447096
 40
0.0005384425
 40
0.0007751179
 40
0.001054696
 40
0.0013771369
 40
0.001742401
 40
0.0021504483
 40
0.0030947337
 40
0.0042096749
 40
0.0054948393
 40
0.0069494054
 40
0.0085724702
 40
0.0103631313
 40
0.0123204877
 40
0.0167316855
 40
0.0217982496
 40
0.0275100006
 40
0.0338562268
 40
0.0408262293
 40
0.0484084067
 40
0.0565900952
 40
0.065358637
 40
0.0846052123
 40
0.1060435102
 40
0.1295691117
 40
0.1550800918
 40
0.1824776445
 40
0.2116681924
 40
0.242562123
 40
0.2750753076
 40
0.3091272267
 40
0.3815399223
 40
0.4592143467
 40
0.5415705017
 40
0.6280019697
 40
0.7178444352
 40
0.8103559237
 40
0.9047063307
 40
1.0
 40
1.0
 40
1.0
 40
1.0
 10
11.2304460587
 20
9.9732168922
 30
0.0
 10
11.2304453378
 20
9.9732162888
 30
0.0
 10
11.2304440528
 20
9.9732125285
 30
0.0
 10
11.2304392186
 20
9.9732057072
 30
0.0
 10
11.2304324706
 20
9.973193239
 30
0.0
 10
11.2304224144
 20
9.9731763027
 30
0.0
 10
11.2304097366
 20
9.9731543233
 30
0.0
 10
11.230387083
 20
9.9731153682
 30
0.0
 10
11.2303517718
 20
9.9730544651
 30
0.0
 10
11.2303009303
 20
9.9729668117
 30
0.0
 10
11.2302388577
 20
9.9728597019
 30
0.0
 10
11.2301655597
 20
9.9727331603
 30
0.0
 10
11.2300810618
 20
9.9725871949
 30
0.0
 10
11.2299853824
 20
9.9724218195
 30
0.0
 10
11.2298354702
 20
9.9721625549
 30
0.0
 10
11.2296202735
 20
9.9717900441
 30
0.0
 10
11.2293288262
 20
9.97128496
 30
0.0
 10
11.2289932146
 20
9.9707026358
 30
0.0
 10
11.2286138615
 20
9.9700432622
 30
0.0
 10
11.2281912174
 20
9.969307109
 30
0.0
 10
11.2277257456
 20
9.9684944553
 30
0.0
 10
11.2270200007
 20
9.9672591781
 30
0.0
 10
11.2260340314
 20
9.9655261538
 30
0.0
 10
11.2247301782
 20
9.9632208322
 30
0.0
 10
11.2232681729
 20
9.9606173485
 30
0.0
 10
11.2216535732
 20
9.957718936
 30
0.0
 10
11.2198920209
 20
9.9545290887
 30
0.0
 10
11.2179897133
 20
9.9510514104
 30
0.0
 10
11.2159535
 20
9.9472895714
 30
0.0
 10
11.2129754081
 20
9.9417249557
 30
0.0
 10
11.2089654745
 20
9.9340910021
 30
0.0
 10
11.2038709456
 20
9.9241210011
 30
0.0
 10
11.1984150097
 20
9.9131100088
 30
0.0
 10
11.1926586892
 20
9.9010894611
 30
0.0
 10
11.1866626446
 20
9.8880900811
 30
0.0
 10
11.1804867585
 20
9.874141888
 30
0.0
 10
11.1741902958
 20
9.8592738029
 30
0.0
 10
11.1678305596
 20
9.8435144786
 30
0.0
 10
11.1591633293
 20
9.8208836955
 30
0.0
 10
11.1485309484
 20
9.7905791206
 30
0.0
 10
11.1366330623
 20
9.7518237301
 30
0.0
 10
11.1257459518
 20
9.7102380474
 30
0.0
 10
11.116241066
 20
9.6661401527
 30
0.0
 10
11.1084526162
 20
9.6199086909
 30
0.0
 10
11.10266575
 20
9.571991515
 30
0.0
 10
11.0991000433
 20
9.5229052337
 30
0.0
 10
11.0982983925
 20
9.4898326169
 30
0.0
 10
11.0982983925
 20
9.4732168922
 30
0.0
  0
SPLINE
  5
249
100
AcDbEntity
  8
0
100
AcDbSpline
 62
7
  6
CONTINUOUS
 70
0
 71
3
 72
23
 73
19
 74
0
 42
0.0000001
 43
0.0000001
 44
0.0000000001
 40
0.0
 40
0.0
 40
0.0
 40
0.0
 40
0.0605518242
 40
0.1211802696
 40
0.1819587325
 40
0.2429543309
 40
0.3042251782
 40
0.3658181118
 40
0.4277669656
 40
0.4900914393
 40
0.5527965748
 40
0.6158728244
 40
0.6792966635
 40
0.7430317272
 40
0.8070301721
 40
0.8712351882
 40
0.935580959
 40
1.0
 40
1.0
 40
1.0
 40
1.0
 10
12.1113382841
 20
4.852393388
 30
0.0
 10
12.1113382841
 20
4.8447074076
 30
0.0
 10
12.1105332469
 20
4.8293136434
 30
0.0
 10
12.1069231382
 20
4.8064607753
 30
0.0
 10
12.1009454442
 20
4.7840494484
 30
0.0
 10
12.0926584204
 20
4.7622994443
 30
0.0
 10
12.0821427126
 20
4.7414197301
 30
0.0
 10
12.0695004878
 20
4.7216117391
 30
0.0
 10
12.0548543583
 20
4.7030660064
 30
0.0
 10
12.038346122
 20
4.6859607554
 30
0.0
 10
12.0201353405
 20
4.6704601323
 30
0.0
 10
12.0003977755
 20
4.6567126994
 30
0.0
 10
11.9793236828
 20
4.6448500692
 30
0.0
 10
11.9571159037
 20
4.6349857479
 30
0.0
 10
11.9339882194
 20
4.6272139663
 30
0.0
 10
11.9101622797
 20
4.6216091473
 30
0.0
 10
11.8858696004
 20
4.6182245716
 30
0.0
 10
11.869515139
 20
4.6174702328
 30
0.0
 10
11.8613382841
 20
4.6174702328
 30
0.0
  0
SPLINE
  5
24A
100
AcDbEntity
  8
0
100
AcDbSpline
 62
7
  6
CONTINUOUS
 70
0
 71
3
 72
23
 73
19
 74
0
 42
0.0000001
 43
0.0000001
 44
0.0000000001
 40
0.0
 40
0.0
 40
0.0
 40
0.0
 40
0.064419041
 40
0.1287648118
 40
0.1929698279
 40
0.2569682728
 40
0.3207033365
 40
0.3841271756
 40
0.4472034252
 40
0.5099085607
 40
0.5722330344
 40
0.6341818882
 40
0.6957748218
 40
0.7570456691
 40
0.8180412675
 40
0.8788197304
 40
0.9394481758
 40
1.0
 40
1.0
 40
1.0
 40
1.0
 10
11.8613382841
 20
4.6174702328
 30
0.0
 10
11.8531614291
 20
4.6174702328
 30
0.0
 10
11.8368069677
 20
4.6182245716
 30
0.0
 10
11.8125142884
 20
4.6216091473
 30
0.0
 10
11.7886883487
 20
4.6272139663
 30
0.0
 10
11.7655606644
 20
4.6349857479
 30
0.0
 10
11.7433528854
 20
4.6448500692
 30
0.0
 10
11.7222787926
 20
4.6567126994
 30
0.0
 10
11.7025412276
 20
4.6704601323
 30
0.0
 10
11.6843304462
 20
4.6859607554
 30
0.0
 10
11.6678222098
 20
4.7030660064
 30
0.0
 10
11.6531760804
 20
4.7216117391
 30
0.0
 10
11.6405338555
 20
4.7414197301
 30
0.0
 10
11.6300181477
 20
4.7622994443
 30
0.0
 10
11.6217311239
 20
4.7840494484
 30
0.0
 10
11.61575343
 20
4.8064607753
 30
0.0
 10
11.6121433212
 20
4.8293136434
 30
0.0
 10
11.6113382841
 20
4.8447074076
 30
0.0
 10
11.6113382841
 20
4.852393388
 30
0.0
  0
SPLINE
  5
24B
100
AcDbEntity
  8
0
100
AcDbSpline
 62
9
  6
CONTINUOUS
 70
0
 71
3
 72
23
 73
19
 74
0
 42
0.0000001
 43
0.0000001
 44
0.0000000001
 40
0.0
 40
0.0
 40
0.0
 40
0.0
 40
0.064419041
 40
0.1287648118
 40
0.1929698279
 40
0.2569682728
 40
0.3207033365
 40
0.3841271756
 40
0.4472034252
 40
0.5099085607
 40
0.5722330344
 40
0.6341818882
 40
0.6957748218
 40
0.7570456691
 40
0.8180412675
 40
0.8788197304
 40
0.9394481758
 40
1.0
 40
1.0
 40
1.0
 40
1.0
 10
11.8613382841
 20
4.8739853403
 30
0.0
 10
11.8531614291
 20
4.8739853403
 30
0.0
 10
11.8368069677
 20
4.8747396791
 30
0.0
 10
11.8125142884
 20
4.8781242548
 30
0.0
 10
11.7886883487
 20
4.8837290738
 30
0.0
 10
11.7655606644
 20
4.8915008554
 30
0.0
 10
11.7433528854
 20
4.9013651767
 30
0.0
 10
11.7222787926
 20
4.9132278069
 30
0.0
 10
11.7025412276
 20
4.9269752397
 30
0.0
 10
11.6843304462
 20
4.9424758629
 30
0.0
 10
11.6678222098
 20
4.9595811139
 30
0.0
 10
11.6531760804
 20
4.9781268466
 30
0.0
 10
11.6405338555
 20
4.9979348375
 30
0.0
 10
11.6300181477
 20
5.0188145518
 30
0.0
 10
11.6217311239
 20
5.0405645559
 30
0.0
 10
11.61575343
 20
5.0629758828
 30
0.0
 10
11.6121433212
 20
5.0858287509
 30
0.0
 10
11.6113382841
 20
5.1012225151
 30
0.0
 10
11.6113382841
 20
5.1089084955
 30
0.0
  0
SPLINE
  5
24C
100
AcDbEntity
  8
0
100
AcDbSpline
 62
9
  6
CONTINUOUS
 70
0
 71
3
 72
23
 73
19
 74
0
 42
0.0000001
 43
0.0000001
 44
0.0000000001
 40
0.0
 40
0.0
 40
0.0
 40
0.0
 40
0.0605518242
 40
0.1211802696
 40
0.1819587325
 40
0.2429543309
 40
0.3042251782
 40
0.3658181118
 40
0.4277669656
 40
0.4900914393
 40
0.5527965748
 40
0.6158728244
 40
0.6792966635
 40
0.7430317272
 40
0.8070301721
 40
0.8712351882
 40
0.935580959
 40
1.0
 40
1.0
 40
1.0
 40
1.0
 10
12.1113382841
 20
5.1089084955
 30
0.0
 10
12.1113382841
 20
5.1012225151
 30
0.0
 10
12.1105332469
 20
5.0858287509
 30
0.0
 10
12.1069231382
 20
5.0629758828
 30
0.0
 10
12.1009454442
 20
5.0405645559
 30
0.0
 10
12.0926584204
 20
5.0188145518
 30
0.0
 10
12.0821427126
 20
4.9979348375
 30
0.0
 10
12.0695004878
 20
4.9781268466
 30
0.0
 10
12.0548543583
 20
4.9595811139
 30
0.0
 10
12.038346122
 20
4.9424758629
 30
0.0
 10
12.0201353405
 20
4.9269752397
 30
0.0
 10
12.0003977755
 20
4.9132278069
 30
0.0
 10
11.9793236828
 20
4.9013651767
 30
0.0
 10
11.9571159037
 20
4.8915008554
 30
0.0
 10
11.9339882194
 20
4.8837290738
 30
0.0
 10
11.9101622797
 20
4.8781242548
 30
0.0
 10
11.8858696004
 20
4.8747396791
 30
0.0
 10
11.869515139
 20
4.8739853403
 30
0.0
 10
11.8613382841
 20
4.8739853403
 30
0.0
  0
SPLINE
  5
24D
100
AcDbEntity
  8
0
100
AcDbSpline
 62
7
  6
CONTINUOUS
 70
0
 71
3
 72
39
 73
35
 74
0
 42
0.0000001
 43
0.0000001
 44
0.0000000001
 40
0.0
 40
0.0
 40
0.0
 40
0.0
 40
0.030276167
 40
0.0605900482
 40
0.0909793859
 40
0.1214771614
 40
0.1521125908
 40
0.1829090566
 40
0.2138834887
 40
0.2450457223
 40
0.2763982899
 40
0.3079364089
 40
0.3396483333
 40
0.3715158562
 40
0.4035151167
 40
0.4356174979
 40
0.4677907227
 40
0.5
 40
0.5322092773
 40
0.5643825021
 40
0.5964848833
 40
0.6284841438
 40
0.6603516667
 40
0.6920635911
 40
0.7236017101
 40
0.7549542777
 40
0.7861165113
 40
0.8170909434
 40
0.8478874092
 40
0.8785228386
 40
0.9090206141
 40
0.9394099518
 40
0.969723833
 40
1.0
 40
1.0
 40
1.0
 40
1.0
 10
11.5488382841
 20
4.8181913736
 30
0.0
 10
11.5488382841
 20
4.8085838172
 30
0.0
 10
11.5498445372
 20
4.7893416334
 30
0.0
 10
11.5543572872
 20
4.7607755614
 30
0.0
 10
11.5618293014
 20
4.7327614624
 30
0.0
 10
11.5721880996
 20
4.7055739315
 30
0.0
 10
11.5853327044
 20
4.6794742805
 30
0.0
 10
11.6011355108
 20
4.6547143012
 30
0.0
 10
11.6194432073
 20
4.6315321621
 30
0.0
 10
11.6400785182
 20
4.6101506137
 30
0.0
 10
11.662841979
 20
4.5907748209
 30
0.0
 10
11.6875139066
 20
4.5735904919
 30
0.0
 10
11.7138565232
 20
4.5587621906
 30
0.0
 10
11.7416162204
 20
4.546431787
 30
0.0
 10
11.7705259658
 20
4.5367171275
 30
0.0
 10
11.8003078856
 20
4.5297110242
 30
0.0
 10
11.8306758712
 20
4.5254804023
 30
0.0
 10
11.8613382841
 20
4.5240656793
 30
0.0
 10
11.8920006969
 20
4.5254804023
 30
0.0
 10
11.9223686825
 20
4.5297110242
 30
0.0
 10
11.9521506023
 20
4.5367171275
 30
0.0
 10
11.9810603477
 20
4.546431787
 30
0.0
 10
12.0088200449
 20
4.5587621906
 30
0.0
 10
12.0351626615
 20
4.5735904919
 30
0.0
 10
12.0598345891
 20
4.5907748209
 30
0.0
 10
12.0825980499
 20
4.6101506137
 30
0.0
 10
12.1032333608
 20
4.6315321621
 30
0.0
 10
12.1215410573
 20
4.6547143012
 30
0.0
 10
12.1373438637
 20
4.6794742805
 30
0.0
 10
12.1504884685
 20
4.7055739315
 30
0.0
 10
12.1608472667
 20
4.7327614624
 30
0.0
 10
12.1683192809
 20
4.7607755614
 30
0.0
 10
12.1728320309
 20
4.7893416334
 30
0.0
 10
12.1738382841
 20
4.8085838172
 30
0.0
 10
12.1738382841
 20
4.8181913736
 30
0.0
  0
SPLINE
  5
24E
100
AcDbEntity
  8
0
100
AcDbSpline
 62
9
  6
CONTINUOUS
 70
0
 71
3
 72
39
 73
35
 74
0
 42
0.0000001
 43
0.0000001
 44
0.0000000001
 40
0.0
 40
0.0
 40
0.0
 40
0.0
 40
0.0302761666
 40
0.0605900489
 40
0.0909793851
 40
0.1214771623
 40
0.1521125896
 40
0.1829090582
 40
0.2138834871
 40
0.2450457236
 40
0.2763982887
 40
0.3079364106
 40
0.3396483316
 40
0.3715158571
 40
0.4035151163
 40
0.4356174986
 40
0.4677907218
 40
0.5
 40
0.5322092782
 40
0.5643825014
 40
0.5964848837
 40
0.6284841429
 40
0.6603516684
 40
0.6920635894
 40
0.7236017113
 40
0.7549542764
 40
0.7861165129
 40
0.8170909418
 40
0.8478874104
 40
0.8785228377
 40
0.9090206149
 40
0.9394099511
 40
0.9697238334
 40
1.0
 40
1.0
 40
1.0
 40
1.0
 10
11.5488382841
 20
4.7976523438
 30
0.0
 10
11.5488382841
 20
4.7880447874
 30
0.0
 10
11.5498445375
 20
4.7688026035
 30
0.0
 10
11.5543572867
 20
4.7402365315
 30
0.0
 10
11.5618293018
 20
4.7122224324
 30
0.0
 10
11.5721880994
 20
4.6850349019
 30
0.0
 10
11.5853327046
 20
4.6589352503
 30
0.0
 10
11.6011355105
 20
4.6341752716
 30
0.0
 10
11.6194432078
 20
4.6109931321
 30
0.0
 10
11.6400785179
 20
4.5896115841
 30
0.0
 10
11.6628419793
 20
4.5702357905
 30
0.0
 10
11.6875139063
 20
4.5530514624
 30
0.0
 10
11.7138565234
 20
4.5382231605
 30
0.0
 10
11.7416162201
 20
4.5258927573
 30
0.0
 10
11.7705259661
 20
4.5161780972
 30
0.0
 10
11.8003078855
 20
4.5091719948
 30
0.0
 10
11.8306758711
 20
4.5049413721
 30
0.0
 10
11.8613382841
 20
4.5035266495
 30
0.0
 10
11.892000697
 20
4.5049413721
 30
0.0
 10
11.9223686826
 20
4.5091719948
 30
0.0
 10
11.952150602
 20
4.5161780972
 30
0.0
 10
11.981060348
 20
4.5258927573
 30
0.0
 10
12.0088200447
 20
4.5382231605
 30
0.0
 10
12.0351626618
 20
4.5530514624
 30
0.0
 10
12.0598345888
 20
4.5702357905
 30
0.0
 10
12.0825980502
 20
4.5896115841
 30
0.0
 10
12.1032333604
 20
4.6109931321
 30
0.0
 10
12.1215410577
 20
4.6341752716
 30
0.0
 10
12.1373438635
 20
4.6589352503
 30
0.0
 10
12.1504884688
 20
4.6850349019
 30
0.0
 10
12.1608472663
 20
4.7122224324
 30
0.0
 10
12.1683192814
 20
4.7402365315
 30
0.0
 10
12.1728320306
 20
4.7688026035
 30
0.0
 10
12.1738382841
 20
4.7880447874
 30
0.0
 10
12.1738382841
 20
4.7976523438
 30
0.0
  0
SPLINE
  5
24F
100
AcDbEntity
  8
0
100
AcDbSpline
 62
9
  6
CONTINUOUS
 70
0
 71
3
 72
11
 73
7
 74
0
 42
0.0000001
 43
0.0000001
 44
0.0000000001
 40
0.0
 40
0.0
 40
0.0
 40
0.0
 40
0.2491079609
 40
0.4985791764
 40
0.7487728158
 40
1.0
 40
1.0
 40
1.0
 40
1.0
 10
11.5392549507
 20
4.7942351125
 30
0.0
 10
11.5392549507
 20
4.8049499212
 30
0.0
 10
11.5404697692
 20
4.8264147022
 30
0.0
 10
11.5459152714
 20
4.858224534
 30
0.0
 10
11.5549194711
 20
4.8893100184
 30
0.0
 10
11.5632119036
 20
4.9092762284
 30
0.0
 10
11.5679003268
 20
4.9190121159
 30
0.0
  0
SPLINE
  5
250
100
AcDbEntity
  8
0
100
AcDbSpline
 62
9
  6
CONTINUOUS
 70
0
 71
3
 72
11
 73
7
 74
0
 42
0.0000001
 43
0.0000001
 44
0.0000000001
 40
0.0
 40
0.0
 40
0.0
 40
0.0
 40
0.2512271842
 40
0.5014208236
 40
0.7508920391
 40
1.0
 40
1.0
 40
1.0
 40
1.0
 10
12.1547762414
 20
4.9190121159
 30
0.0
 10
12.1594646645
 20
4.9092762284
 30
0.0
 10
12.1677570971
 20
4.8893100184
 30
0.0
 10
12.1767612968
 20
4.858224534
 30
0.0
 10
12.1822067989
 20
4.8264147022
 30
0.0
 10
12.1834216174
 20
4.8049499212
 30
0.0
 10
12.1834216174
 20
4.7942351125
 30
0.0
  0
SPLINE
  5
251
100
AcDbEntity
  8
0
100
AcDbSpline
 62
9
  6
CONTINUOUS
 70
0
 71
3
 72
39
 73
35
 74
0
 42
0.0000001
 43
0.0000001
 44
0.0000000001
 40
0.0
 40
0.0
 40
0.0
 40
0.0
 40
0.0302761666
 40
0.0605900489
 40
0.0909793851
 40
0.1214771623
 40
0.1521125896
 40
0.1829090582
 40
0.2138834871
 40
0.2450457236
 40
0.2763982887
 40
0.3079364106
 40
0.3396483316
 40
0.3715158571
 40
0.4035151163
 40
0.4356174986
 40
0.4677907218
 40
0.5
 40
0.5322092782
 40
0.5643825014
 40
0.5964848837
 40
0.6284841429
 40
0.6603516684
 40
0.6920635894
 40
0.7236017113
 40
0.7549542764
 40
0.7861165129
 40
0.8170909418
 40
0.8478874104
 40
0.8785228377
 40
0.9090206149
 40
0.9394099511
 40
0.9697238334
 40
1.0
 40
1.0
 40
1.0
 40
1.0
 10
11.5392549507
 20
4.7942351125
 30
0.0
 10
11.5392549507
 20
4.7843329245
 30
0.0
 10
11.5402920626
 20
4.7645006469
 30
0.0
 10
11.5449432028
 20
4.7350585487
 30
0.0
 10
11.5526443597
 20
4.7061853505
 30
0.0
 10
11.563320827
 20
4.6781640692
 30
0.0
 10
11.5768685335
 20
4.6512640282
 30
0.0
 10
11.5931559587
 20
4.6257447435
 30
0.0
 10
11.6120250921
 20
4.601851685
 30
0.0
 10
11.6332932184
 20
4.5798144363
 30
0.0
 10
11.6567547593
 20
4.5598444517
 30
0.0
 10
11.6821832921
 20
4.5421331375
 30
0.0
 10
11.7093337494
 20
4.526850101
 30
0.0
 10
11.7379447435
 20
4.5141415655
 30
0.0
 10
11.7677410551
 20
4.5041289891
 30
0.0
 10
11.7984362866
 20
4.4969080328
 30
0.0
 10
11.8297355571
 20
4.4925476711
 30
0.0
 10
11.8613382841
 20
4.4910895637
 30
0.0
 10
11.892941011
 20
4.4925476711
 30
0.0
 10
11.9242402815
 20
4.4969080328
 30
0.0
 10
11.9549355131
 20
4.5041289891
 30
0.0
 10
11.9847318246
 20
4.5141415655
 30
0.0
 10
12.0133428187
 20
4.526850101
 30
0.0
 10
12.040493276
 20
4.5421331375
 30
0.0
 10
12.0659218088
 20
4.5598444517
 30
0.0
 10
12.0893833497
 20
4.5798144363
 30
0.0
 10
12.110651476
 20
4.601851685
 30
0.0
 10
12.1295206094
 20
4.6257447435
 30
0.0
 10
12.1458080346
 20
4.6512640282
 30
0.0
 10
12.1593557411
 20
4.6781640692
 30
0.0
 10
12.1700322084
 20
4.7061853505
 30
0.0
 10
12.1777333653
 20
4.7350585487
 30
0.0
 10
12.1823845055
 20
4.7645006469
 30
0.0
 10
12.1834216174
 20
4.7843329245
 30
0.0
 10
12.1834216174
 20
4.7942351125
 30
0.0
  0
SPLINE
  5
252
100
AcDbEntity
  8
0
100
AcDbSpline
 62
7
  6
CONTINUOUS
 70
0
 71
3
 72
39
 73
35
 74
0
 42
0.0000001
 43
0.0000001
 44
0.0000000001
 40
0.0
 40
0.0
 40
0.0
 40
0.0
 40
0.0302761575
 40
0.0605900433
 40
0.0909793898
 40
0.1214771615
 40
0.1521125896
 40
0.1829090573
 40
0.2138834856
 40
0.2450457222
 40
0.2763982901
 40
0.3079364127
 40
0.3396483316
 40
0.3715158565
 40
0.403515115
 40
0.4356174978
 40
0.467790723
 40
0.5
 40
0.532209277
 40
0.5643825022
 40
0.596484885
 40
0.6284841435
 40
0.6603516684
 40
0.6920635873
 40
0.7236017099
 40
0.7549542778
 40
0.7861165144
 40
0.8170909427
 40
0.8478874104
 40
0.8785228385
 40
0.9090206102
 40
0.9394099567
 40
0.9697238425
 40
1.0
 40
1.0
 40
1.0
 40
1.0
 10
11.5763382841
 20
4.852393388
 30
0.0
 10
11.5763382841
 20
4.8436312993
 30
0.0
 10
11.5772559847
 20
4.8260824292
 30
0.0
 10
11.5813716127
 20
4.8000301705
 30
0.0
 10
11.5881860924
 20
4.7744813098
 30
0.0
 10
11.5976333326
 20
4.7496862868
 30
0.0
 10
11.6096212134
 20
4.725883408
 30
0.0
 10
11.6240333507
 20
4.7033022948
 30
0.0
 10
11.6407299542
 20
4.6821601703
 30
0.0
 10
11.6595493664
 20
4.6626602058
 30
0.0
 10
11.6803096592
 20
4.6449894992
 30
0.0
 10
11.7028104714
 20
4.6293174136
 30
0.0
 10
11.7268349326
 20
4.6157939968
 30
0.0
 10
11.7521517575
 20
4.6045486313
 30
0.0
 10
11.7785174389
 20
4.595688838
 30
0.0
 10
11.8056785556
 20
4.5892992926
 30
0.0
 10
11.8333741638
 20
4.5854410008
 30
0.0
 10
11.8613382841
 20
4.5841508003
 30
0.0
 10
11.8893024043
 20
4.5854410008
 30
0.0
 10
11.9169980126
 20
4.5892992926
 30
0.0
 10
11.9441591292
 20
4.595688838
 30
0.0
 10
11.9705248107
 20
4.6045486313
 30
0.0
 10
11.9958416355
 20
4.6157939968
 30
0.0
 10
12.0198660967
 20
4.6293174136
 30
0.0
 10
12.0423669089
 20
4.6449894992
 30
0.0
 10
12.0631272018
 20
4.6626602058
 30
0.0
 10
12.0819466139
 20
4.6821601703
 30
0.0
 10
12.0986432174
 20
4.7033022948
 30
0.0
 10
12.1130553547
 20
4.725883408
 30
0.0
 10
12.1250432355
 20
4.7496862868
 30
0.0
 10
12.1344904757
 20
4.7744813098
 30
0.0
 10
12.1413049554
 20
4.8000301705
 30
0.0
 10
12.1454205834
 20
4.8260824292
 30
0.0
 10
12.1463382841
 20
4.8436312993
 30
0.0
 10
12.1463382841
 20
4.852393388
 30
0.0
  0
SPLINE
  5
253
100
AcDbEntity
  8
0
100
AcDbSpline
 62
7
  6
CONTINUOUS
 70
0
 71
3
 72
39
 73
35
 74
0
 42
0.0000001
 43
0.0000001
 44
0.0000000001
 40
0.0
 40
0.0
 40
0.0
 40
0.0
 40
0.0302761579
 40
0.0605900432
 40
0.0909793914
 40
0.1214771592
 40
0.1521125916
 40
0.1829090557
 40
0.2138834862
 40
0.2450457233
 40
0.2763982894
 40
0.3079364136
 40
0.3396483303
 40
0.3715158574
 40
0.4035151133
 40
0.4356175002
 40
0.4677907221
 40
0.5
 40
0.5322092779
 40
0.5643824998
 40
0.5964848867
 40
0.6284841426
 40
0.6603516697
 40
0.6920635864
 40
0.7236017106
 40
0.7549542767
 40
0.7861165138
 40
0.8170909443
 40
0.8478874084
 40
0.8785228408
 40
0.9090206086
 40
0.9394099568
 40
0.9697238421
 40
1.0
 40
1.0
 40
1.0
 40
1.0
 10
11.5688382841
 20
4.8181913736
 30
0.0
 10
11.5688382841
 20
4.8091987036
 30
0.0
 10
11.5697801349
 20
4.7911880211
 30
0.0
 10
11.5740040685
 20
4.7644501761
 30
0.0
 10
11.5809978774
 20
4.7382289781
 30
0.0
 10
11.5906937279
 20
4.7127814533
 30
0.0
 10
11.6029970802
 20
4.6883521845
 30
0.0
 10
11.617788484
 20
4.6651768302
 30
0.0
 10
11.6349244721
 20
4.6434783346
 30
0.0
 10
11.6542391314
 20
4.6234652122
 30
0.0
 10
11.675545749
 20
4.6053294884
 30
0.0
 10
11.6986386861
 20
4.5892449782
 30
0.0
 10
11.7232953711
 20
4.5753656831
 30
0.0
 10
11.7492784272
 20
4.5638243866
 30
0.0
 10
11.7763379435
 20
4.5547314407
 30
0.0
 10
11.8042138257
 20
4.5481737491
 30
0.0
 10
11.8326382664
 20
4.5442139241
 30
0.0
 10
11.8613382841
 20
4.5428897701
 30
0.0
 10
11.8900383018
 20
4.5442139241
 30
0.0
 10
11.9184627424
 20
4.5481737491
 30
0.0
 10
11.9463386246
 20
4.5547314407
 30
0.0
 10
11.9733981409
 20
4.5638243866
 30
0.0
 10
11.999381197
 20
4.5753656831
 30
0.0
 10
12.0240378821
 20
4.5892449782
 30
0.0
 10
12.0471308191
 20
4.6053294884
 30
0.0
 10
12.0684374367
 20
4.6234652122
 30
0.0
 10
12.087752096
 20
4.6434783346
 30
0.0
 10
12.1048880841
 20
4.6651768302
 30
0.0
 10
12.1196794879
 20
4.6883521845
 30
0.0
 10
12.1319828402
 20
4.7127814533
 30
0.0
 10
12.1416786907
 20
4.7382289781
 30
0.0
 10
12.1486724996
 20
4.7644501761
 30
0.0
 10
12.1528964332
 20
4.7911880211
 30
0.0
 10
12.1538382841
 20
4.8091987036
 30
0.0
 10
12.1538382841
 20
4.8181913736
 30
0.0
  0
ENDSEC
  0
SECTION
  2
OBJECTS
  0
DICTIONARY
  5
C
100
AcDbDictionary
280
0
281
1
  3
ACAD_GROUP
350
D
  3
ACAD_MLINESTYLE
350
17
  3
ACAD_LAYOUT
350
1A
  3
ACAD_PLOTSETTINGS
350
19
  3
ACAD_PLOTSTYLENAME
350
E
  0
DICTIONARY
  5
D
102
{ACAD_REACTORS
330
C
102
}
100
AcDbDictionary
280
0
281
1
  0
ACDBDICTIONARYWDFLT
  5
E
102
{ACAD_REACTORS
330
C
102
}
100
AcDbDictionary
281
1
  3
Normal
350
F
100
AcDbDictionaryWithDefault
340
F
  0
DICTIONARY
  5
17
102
{ACAD_REACTORS
330
C
102
}
100
AcDbDictionary
280
0
281
1
  3
Standard
350
18
  0
DICTIONARY
  5
19
102
{ACAD_REACTORS
330
C
102
}
100
AcDbDictionary
281
1
  0
DICTIONARY
  5
1A
102
{ACAD_REACTORS
330
C
102
}
100
AcDbDictionary
281
1
  3
Model
350
254
  3
Layout1
350
255
  0
ACDBPLACEHOLDER
  5
F
102
{ACAD_REACTORS
330
E
102
}
  0
MLINESTYLE
  5
18
102
{ACAD_REACTORS
330
17
102
}
100
AcDbMlineStyle
  2
STANDARD
 70
0
  3

 62
256
 51
90.0
 52
90.0
 71
2
 49
0.5
 62
256
  6
BYLAYER
 49
-0.5
 62
256
  6
BYLAYER
  0
LAYOUT
  5
254
102
{ACAD_REACTORS
330
1A
102
}
100
AcDbPlotSettings
  1

  2
none_device
  4
ANSI_C_(22.00_x_17.00_Inches)
  6

 40
0.0
 41
0.0
 42
0.0
 43
0.0
 44
558.8
 45
431.8
 46
0.0
 47
0.0
 48
0.0
 49
0.0
140
0.0
141
0.0
142
1.0
143
1.0
 70
1024
 72
0
 73
0
 74
0
  7

 75
0
147
1.0
148
0.0
149
0.0
100
AcDbLayout
  1
Model
 70
0
 71
0
 10
0.0
 20
0.0
 11
22.0
 21
17.0
 12
0.0
 22
0.0
 32
0.0
 14
0.0
 24
0.0
 34
0.0
 15
0.0
 25
0.0
 35
0.0
146
0.0
 13
0.0
 23
0.0
 33
0.0
 16
1.0
 26
0.0
 36
0.0
 17
0.0
 27
1.0
 37
0.0
 76
0
330
205
345
0
346
0
  0
LAYOUT
  5
255
102
{ACAD_REACTORS
330
1A
102
}
100
AcDbPlotSettings
  1

  2
none_device
  4
ANSI_C_(22.00_x_17.00_Inches)
  6

 40
0.0
 41
0.0
 42
0.0
 43
0.0
 44
558.8
 45
431.8
 46
0.0
 47
0.0
 48
0.0
 49
0.0
140
0.0
141
0.0
142
1.0
143
1.0
 70
0
 72
0
 73
0
 74
0
  7

 75
0
147
1.0
148
0.0
149
0.0
100
AcDbLayout
  1
Layout1
 70
0
 71
1
 10
0.0
 20
0.0
 11
22.0
 21
17.0
 12
0.0
 22
0.0
 32
0.0
 14
0.0
 24
0.0
 34
0.0
 15
0.0
 25
0.0
 35
0.0
146
0.0
 13
0.0
 23
0.0
 33
0.0
 16
1.0
 26
0.0
 36
0.0
 17
0.0
 27
1.0
 37
0.0
 76
0
330
206
345
0
346
0
  0
ENDSEC
  0
EOF
