  0
SECTION
  2
HEADER
  9
$ACADVER
  1
AC1015
  9
$DWGCODEPAGE
  3
ANSI_1252
  9
$EXTMAX
 10
11.6929133858
 20
8.2677165354
 30
0.0
  9
$EXTMIN
 10
0.0
 20
0.0
 30
0.0
  9
$LIMMIN
 10
0.0
 20
0.0
  9
$LIMMAX
 10
11.6929133858
 20
8.2677165354
  9
$VIEWCTR
 10
5.8464566929
 20
4.1338582677
  9
$VIEWSIZE
 40
8.2677165354
  9
$CLAYER
  8
0
  9
$LTSCALE
 40
0.6431102362
  9
$CELTYPE
  6
BYLAYER
  9
$DIMSCALE
 40
1.0
  9
$DIMASZ
 40
0.1875
  9
$DIMEXO
 40
0.0730807087
  9
$DIMDLI
 40
0.4443307087
  9
$DIMEXE
 40
0.2104724409
  9
$DIMCEN
 40
0.1052362205
  9
$DIMLFAC
 40
1.0
  9
$DIMBLK
  1
_CLOSED
  9
$DIMTXT
 40
0.15625
  9
$DIMTOL
 70
0
  9
$DIMLIM
 70
0
  9
$DIMTFAC
 40
1.0
  9
$PDMODE
 70
3
  9
$PDSIZE
 40
0.3125
  9
$HANDSEED
  5
26A
  9
$TILEMODE
 70
1
  9
$MEASUREMENT
 70
0
  9
$INSUNITS
 70
1
  0
ENDSEC
  0
SECTION
  2
CLASSES
  0
CLASS
  1
ACDBDICTIONARYWDFLT
  2
AcDbDictionaryWithDefault
  3
AutoCAD 2000
 90
0
280
0
281
0
  0
CLASS
  1
ACDBPLACEHOLDER
  2
AcDbPlaceHolder
  3
AutoCAD 2000
 90
0
280
0
281
0
  0
CLASS
  1
LAYOUT
  2
AcDbLayout
  3
AutoCAD 2000
 90
0
280
0
281
0
  0
ENDSEC
  0
SECTION
  2
TABLES
  0
TABLE
  2
VPORT
  5
8
100
AcDbSymbolTable
 70
2
  0
VPORT
  5
1F4
100
AcDbSymbolTableRecord
100
AcDbViewportTableRecord
  2
*ACTIVE
 70
0
 10
0.0
 20
0.0
 11
1.0
 21
1.0
 12
5.8464566929
 22
4.1338582677
 13
0.0
 23
0.0
 14
1.0
 24
1.0
 15
0.0
 25
0.0
 16
0.0
 26
0.0
 36
1.0
 17
0.0
 27
0.0
 37
0.0
 40
8.2677165354
 41
1.4142857143
 42
50.0
 43
0.0
 44
0.0
 50
0.0
 51
0.0
 71
0
 72
100
 73
1
 74
1
 75
0
 76
0
 77
0
 78
0
  0
ENDTAB
  0
TABLE
  2
LTYPE
  5
5
100
AcDbSymbolTable
 70
6
  0
LTYPE
  5
14
100
AcDbSymbolTableRecord
100
AcDbLinetypeTableRecord
  2
BYBLOCK
 70
0
  3

 72
65
 73
0
 40
0.0
  0
LTYPE
  5
15
100
AcDbSymbolTableRecord
100
AcDbLinetypeTableRecord
  2
BYLAYER
 70
0
  3

 72
65
 73
0
 40
0.0
  0
LTYPE
  5
16
100
AcDbSymbolTableRecord
100
AcDbLinetypeTableRecord
  2
CONTINUOUS
 70
64
  3
Solid line
 72
65
 73
0
 40
0.0
  0
LTYPE
  5
1F5
100
AcDbSymbolTableRecord
100
AcDbLinetypeTableRecord
  2
CENTER
 70
64
  3
____ _ ____ _ ____ _ ____ _ ____ _ ____ _ ____
 72
65
 73
4
 40
0.6
 49
0.375
 74
0
 49
-0.075
 74
0
 49
0.075
 74
0
 49
-0.075
 74
0
  0
LTYPE
  5
1F6
100
AcDbSymbolTableRecord
100
AcDbLinetypeTableRecord
  2
HIDDEN
 70
64
  3
- - - - - - - - - - - - - - - - - - - -
 72
65
 73
2
 40
0.2
 49
0.1
 74
0
 49
-0.1
 74
0
  0
LTYPE
  5
1F7
100
AcDbSymbolTableRecord
100
AcDbLinetypeTableRecord
  2
PHANTOM
 70
64
  3
_____ _ _ _____ _ _ _____ _ _ _____
 72
65
 73
6
 40
0.8
 49
0.45
 74
0
 49
-0.05
 74
0
 49
0.1
 74
0
 49
-0.05
 74
0
 49
0.1
 74
0
 49
-0.05
 74
0
  0
LTYPE
  5
1F8
100
AcDbSymbolTableRecord
100
AcDbLinetypeTableRecord
  2
DOT
 70
64
  3
. . . . . . . . . . . . . . . . . . . .
 72
65
 73
2
 40
0.2
 49
0.1
 74
0
 49
-0.1
 74
0
  0
LTYPE
  5
1F9
100
AcDbSymbolTableRecord
100
AcDbLinetypeTableRecord
  2
DASHED
 70
64
  3
- - - - - - - - - - - - - - - - - - - -
 72
65
 73
2
 40
0.2
 49
0.1
 74
0
 49
-0.1
 74
0
  0
ENDTAB
  0
TABLE
  2
LAYER
  5
2
100
AcDbSymbolTable
 70
36
  0
LAYER
  5
10
100
AcDbSymbolTableRecord
100
AcDbLayerTableRecord
  2
0
 70
0
 62
7
  6
CONTINUOUS
370
-3
390
F
  0
LAYER
  5
1FA
100
AcDbSymbolTableRecord
100
AcDbLayerTableRecord
  2
DEFAULT_1
 70
0
 62
7
  6
CENTER
370
-3
390
F
  0
LAYER
  5
1FB
100
AcDbSymbolTableRecord
100
AcDbLayerTableRecord
  2
DEFAULT_2
 70
0
 62
8
  6
HIDDEN
370
-3
390
F
  0
LAYER
  5
1FC
100
AcDbSymbolTableRecord
100
AcDbLayerTableRecord
  2
DEFAULT_3
 70
0
 62
7
  6
PHANTOM
370
-3
390
F
  0
LAYER
  5
1FD
100
AcDbSymbolTableRecord
100
AcDbLayerTableRecord
  2
DEFAULT_COORDINATE_SYSTEM
 70
0
 62
7
  6
CONTINUOUS
370
-3
390
F
  0
LAYER
  5
1FE
100
AcDbSymbolTableRecord
100
AcDbLayerTableRecord
  2
DEFAULT_DATUM_AXES
 70
0
 62
7
  6
CONTINUOUS
370
-3
390
F
  0
LAYER
  5
1FF
100
AcDbSymbolTableRecord
100
AcDbLayerTableRecord
  2
DEFAULT_DATUM_CURVES
 70
0
 62
7
  6
CONTINUOUS
370
-3
390
F
  0
LAYER
  5
200
100
AcDbSymbolTableRecord
100
AcDbLayerTableRecord
  2
DEFAULT_DATUM_PLANES
 70
0
 62
7
  6
CONTINUOUS
370
-3
390
F
  0
ENDTAB
  0
TABLE
  2
STYLE
  5
3
100
AcDbSymbolTable
 70
1
  0
STYLE
  5
11
100
AcDbSymbolTableRecord
100
AcDbTextStyleTableRecord
  2
STANDARD
 70
0
 40
0.0
 41
0.8
 50
0.0
 71
0
 42
0.2
  3
txt
  4

  0
STYLE
  5
201
100
AcDbSymbolTableRecord
100
AcDbTextStyleTableRecord
  2
TEXTSTYLE_1
 70
0
 40
0.0
 41
0.8
 50
0.0
 71
0
 42
0.2
  3
gdt
  4

  0
ENDTAB
  0
TABLE
  2
VIEW
  5
6
100
AcDbSymbolTable
 70
0
  0
ENDTAB
  0
TABLE
  2
UCS
  5
7
100
AcDbSymbolTable
 70
0
  0
ENDTAB
  0
TABLE
  2
APPID
  5
9
100
AcDbSymbolTable
 70
1
  0
APPID
  5
202
100
AcDbSymbolTableRecord
100
AcDbRegAppTableRecord
  2
ACAD
 70
0
  0
ENDTAB
  0
TABLE
  2
BLOCK_RECORD
  5
1
100
AcDbSymbolTable
 70
0
  0
BLOCK_RECORD
  5
203
100
AcDbSymbolTableRecord
100
AcDbBlockTableRecord
  2
*Model_Space
  0
BLOCK_RECORD
  5
204
100
AcDbSymbolTableRecord
100
AcDbBlockTableRecord
  2
*Paper_Space
  0
ENDTAB
  0
TABLE
  2
DIMSTYLE
  5
A
100
AcDbSymbolTable
 70
1
100
AcDbDimStyleTable
 71
0
  0
DIMSTYLE
105
205
100
AcDbSymbolTableRecord
100
AcDbDimStyleTableRecord
  2
STANDARD
 70
0
  3

  4

 40
1.0
 41
0.1875
 42
0.0625
 43
0.38
 44
0.18
 45
0.0
 46
0.0
 47
0.01
 48
0.01
140
0.15625
141
0.09
142
0.0
143
25.4
144
1.0
145
0.0
146
1.0
147
0.09
 71
0.0
 72
0.0
 73
1
 74
1
 75
0
 76
0
 77
0
 78
4
170
0
171
2
172
0
173
0
174
0
175
0
176
0
177
0
178
0
270
2
271
2
272
2
273
2
274
2
275
0
280
0
281
0
282
0
283
1
284
4
285
0
286
0
287
3
288
0
340
11
  0
ENDTAB
  0
ENDSEC
  0
SECTION
  2
BLOCKS
  0
BLOCK
  5
20
100
AcDbEntity
  8
0
100
AcDbBlockBegin
  2
*Model_Space
 70
0
 10
0.0
 20
0.0
 30
0.0
  3
*Model_Space
  1

  0
ENDBLK
  5
21
100
AcDbEntity
  8
0
100
AcDbBlockEnd
  0
BLOCK
  5
1C
100
AcDbEntity
  8
0
100
AcDbBlockBegin
  2
*Paper_Space
 70
0
 10
0.0
 20
0.0
 30
0.0
  3
*Paper_Space
  1

  0
ENDBLK
  5
1D
100
AcDbEntity
  8
0
100
AcDbBlockEnd
  0
ENDSEC
  0
SECTION
  2
ENTITIES
  0
LINE
  5
206
100
AcDbEntity
  8
0
100
AcDbLine
 62
6
  6
CONTINUOUS
 10
4.4981364775
 20
4.0250121561
 11
4.4981364775
 21
4.3450120069
  0
LINE
  5
207
100
AcDbEntity
  8
0
100
AcDbLine
 62
6
  6
CONTINUOUS
 10
4.5052075453
 20
4.0179410883
 11
4.5052075453
 21
4.3520830747
  0
LINE
  5
208
100
AcDbEntity
  8
0
100
AcDbLine
 62
6
  6
CONTINUOUS
 10
4.5641364775
 20
3.9130120815
 11
4.5641364775
 21
4.4570120815
  0
LINE
  5
209
100
AcDbEntity
  8
0
100
AcDbLine
 62
9
  6
CONTINUOUS
 10
4.5881364775
 20
3.8895155164
 11
4.5881364775
 21
4.4805086466
  0
LINE
  5
20A
100
AcDbEntity
  8
0
100
AcDbLine
 62
9
  6
CONTINUOUS
 10
4.6231364775
 20
3.8545155164
 11
4.6231364775
 21
4.5155086466
  0
LINE
  5
20B
100
AcDbEntity
  8
0
100
AcDbLine
 62
6
  6
CONTINUOUS
 10
4.7061364775
 20
3.8545155164
 11
4.7061364775
 21
4.5155086466
  0
LINE
  5
20C
100
AcDbEntity
  8
0
100
AcDbLine
 62
6
  6
CONTINUOUS
 10
4.5052075453
 20
4.3520830747
 11
4.4981364775
 21
4.3450120069
  0
LINE
  5
20D
100
AcDbEntity
  8
0
100
AcDbLine
 62
6
  6
CONTINUOUS
 10
4.4981364775
 20
4.0250121561
 11
4.5052075453
 21
4.0179410883
  0
LINE
  5
20E
100
AcDbEntity
  8
0
100
AcDbLine
 62
6
  6
CONTINUOUS
 10
7.8171364775
 20
3.0150120815
 11
7.8311364775
 21
3.0150120815
  0
LINE
  5
20F
100
AcDbEntity
  8
0
100
AcDbLine
 62
9
  6
CONTINUOUS
 10
5.3938421371
 20
3.8066777331
 11
5.3938421371
 21
4.5570120815
  0
LINE
  5
210
100
AcDbEntity
  8
0
100
AcDbLine
 62
6
  6
CONTINUOUS
 10
5.8875919187
 20
3.7751468482
 11
6.0282414674
 21
3.7503465379
  0
LINE
  5
211
100
AcDbEntity
  8
0
100
AcDbLine
 62
6
  6
CONTINUOUS
 10
5.7791364775
 20
3.8325120815
 11
5.7791364775
 21
4.5375120815
  0
LINE
  5
212
100
AcDbEntity
  8
0
100
AcDbLine
 62
7
  6
CONTINUOUS
 10
5.8231364775
 20
3.8325120815
 11
5.8231364775
 21
4.5375120815
  0
LINE
  5
213
100
AcDbEntity
  8
0
100
AcDbLine
 62
9
  6
CONTINUOUS
 10
5.8875919187
 20
3.7751468482
 11
5.8875919187
 21
4.5948773148
  0
LINE
  5
214
100
AcDbEntity
  8
0
100
AcDbLine
 62
6
  6
CONTINUOUS
 10
5.8231364775
 20
3.8325120815
 11
5.7791364775
 21
3.8325120815
  0
LINE
  5
215
100
AcDbEntity
  8
0
100
AcDbLine
 62
6
  6
CONTINUOUS
 10
4.7061364775
 20
3.8545155164
 11
4.6231364775
 21
3.8545155164
  0
LINE
  5
216
100
AcDbEntity
  8
0
100
AcDbLine
 62
6
  6
CONTINUOUS
 10
4.5881364775
 20
3.9130120815
 11
4.5641364775
 21
3.9130120815
  0
LINE
  5
217
100
AcDbEntity
  8
0
100
AcDbLine
 62
9
  6
CONTINUOUS
 10
6.0282414674
 20
3.7503465379
 11
6.0282414674
 21
4.6196776251
  0
LINE
  5
218
100
AcDbEntity
  8
0
100
AcDbLine
 62
9
  6
CONTINUOUS
 10
6.2186419976
 20
3.660516981
 11
6.2186419976
 21
4.709507182
  0
LINE
  5
219
100
AcDbEntity
  8
0
100
AcDbLine
 62
6
  6
CONTINUOUS
 10
4.5881364775
 20
4.4570120815
 11
4.5641364775
 21
4.4570120815
  0
LINE
  5
21A
100
AcDbEntity
  8
0
100
AcDbLine
 62
6
  6
CONTINUOUS
 10
4.7061364775
 20
4.5155086466
 11
4.6231364775
 21
4.5155086466
  0
LINE
  5
21B
100
AcDbEntity
  8
0
100
AcDbLine
 62
6
  6
CONTINUOUS
 10
5.8231364775
 20
4.5375120815
 11
5.7791364775
 21
4.5375120815
  0
LINE
  5
21C
100
AcDbEntity
  8
0
100
AcDbLine
 62
6
  6
CONTINUOUS
 10
5.4015881352
 20
4.5570120815
 11
4.7480836142
 21
4.5570120815
  0
LINE
  5
21D
100
AcDbEntity
  8
0
100
AcDbLine
 62
6
  6
CONTINUOUS
 10
5.8875919187
 20
4.5948773148
 11
6.0282414674
 21
4.6196776251
  0
LINE
  5
21E
100
AcDbEntity
  8
0
100
AcDbLine
 62
9
  6
CONTINUOUS
 10
4.9024973003
 20
4.6862044475
 11
5.2477756548
 21
4.6862044475
  0
LINE
  5
21F
100
AcDbEntity
  8
0
100
AcDbLine
 62
9
  6
CONTINUOUS
 10
4.9061364775
 20
4.7116202683
 11
5.2441364775
 21
4.7116202683
  0
LINE
  5
220
100
AcDbEntity
  8
0
100
AcDbLine
 62
9
  6
CONTINUOUS
 10
4.9081364775
 20
4.7362188361
 11
5.2421364775
 21
4.7362188361
  0
LINE
  5
221
100
AcDbEntity
  8
0
100
AcDbLine
 62
9
  6
CONTINUOUS
 10
6.7571364775
 20
3.397264518
 11
6.7571364775
 21
4.972759645
  0
LINE
  5
222
100
AcDbEntity
  8
0
100
AcDbLine
 62
9
  6
CONTINUOUS
 10
4.9122981317
 20
4.7586435069
 11
5.2379748234
 21
4.7586435069
  0
LINE
  5
223
100
AcDbEntity
  8
0
100
AcDbLine
 62
6
  6
CONTINUOUS
 10
4.9154593802
 20
5.0572891579
 11
5.2348135749
 21
5.0572891579
  0
LINE
  5
224
100
AcDbEntity
  8
0
100
AcDbLine
 62
9
  6
CONTINUOUS
 10
7.1621364775
 20
3.369541519
 11
7.1621364775
 21
5.000482644
  0
LINE
  5
225
100
AcDbEntity
  8
0
100
AcDbLine
 62
6
  6
CONTINUOUS
 10
7.8171364775
 20
5.3550120815
 11
7.8311364775
 21
5.3550120815
  0
LINE
  5
226
100
AcDbEntity
  8
0
100
AcDbLine
 62
9
  6
CONTINUOUS
 10
7.4511364775
 20
3.2431883113
 11
7.4511364775
 21
5.1268358517
  0
LINE
  5
227
100
AcDbEntity
  8
0
100
AcDbLine
 62
9
  6
CONTINUOUS
 10
7.4661364775
 20
3.2330639279
 11
7.4661364775
 21
5.1369602351
  0
LINE
  5
228
100
AcDbEntity
  8
0
100
AcDbLine
 62
9
  6
CONTINUOUS
 10
7.5011364775
 20
3.2056685244
 11
7.5011364775
 21
5.1643556386
  0
LINE
  5
229
100
AcDbEntity
  8
0
100
AcDbLine
 62
9
  6
CONTINUOUS
 10
7.5571364775
 20
3.1685415752
 11
7.5571364775
 21
5.2014825878
  0
LINE
  5
22A
100
AcDbEntity
  8
0
100
AcDbLine
 62
9
  6
CONTINUOUS
 10
7.5981364775
 20
3.1442661539
 11
7.5981364775
 21
5.2257580091
  0
LINE
  5
22B
100
AcDbEntity
  8
0
100
AcDbLine
 62
9
  6
CONTINUOUS
 10
7.6561364775
 20
3.1130897119
 11
7.6561364775
 21
5.2569344511
  0
LINE
  5
22C
100
AcDbEntity
  8
0
100
AcDbLine
 62
9
  6
CONTINUOUS
 10
7.7071364775
 20
3.0806403711
 11
7.7071364775
 21
5.2893837919
  0
LINE
  5
22D
100
AcDbEntity
  8
0
100
AcDbLine
 62
9
  6
CONTINUOUS
 10
7.8171364775
 20
3.0150120815
 11
7.8171364775
 21
5.3550120815
  0
LINE
  5
22E
100
AcDbEntity
  8
0
100
AcDbLine
 62
6
  6
CONTINUOUS
 10
7.8311364775
 20
3.0150189106
 11
7.8311364775
 21
5.3550052524
  0
ARC
  5
22F
100
AcDbEntity
  8
0
100
AcDbCircle
 62
6
  6
CONTINUOUS
 10
5.9587821964
 20
3.3564234367
 40
0.4
100
AcDbArc
 50
49.4848188736
 51
80.0
  0
ARC
  5
230
100
AcDbEntity
  8
0
100
AcDbCircle
 62
6
  6
CONTINUOUS
 10
5.6040622076
 20
3.5575120815
 40
0.326
100
AcDbArc
 50
57.5177951966
 51
130.1541931822
  0
ARC
  5
231
100
AcDbEntity
  8
0
100
AcDbCircle
 62
6
  6
CONTINUOUS
 10
5.9011364775
 20
3.8519618527
 40
0.078
100
AcDbArc
 50
179.9999972512
 51
259.9999992849
  0
ARC
  5
232
100
AcDbEntity
  8
0
100
AcDbCircle
 62
6
  6
CONTINUOUS
 10
4.5071364775
 20
3.960973736
 40
0.057
100
AcDbArc
 50
0.0
 51
91.9393119103
  0
ARC
  5
233
100
AcDbEntity
  8
0
100
AcDbCircle
 62
6
  6
CONTINUOUS
 10
4.6231364775
 20
3.8895155164
 40
0.035
100
AcDbArc
 50
180.0
 51
270.0
  0
ARC
  5
234
100
AcDbEntity
  8
0
100
AcDbCircle
 62
6
  6
CONTINUOUS
 10
4.5071364775
 20
4.409050427
 40
0.057
100
AcDbArc
 50
268.0606880897
 51
360.0
  0
ARC
  5
235
100
AcDbEntity
  8
0
100
AcDbCircle
 62
6
  6
CONTINUOUS
 10
4.6231364775
 20
4.4805086466
 40
0.035
100
AcDbArc
 50
90.0
 51
180.0
  0
ARC
  5
236
100
AcDbEntity
  8
0
100
AcDbCircle
 62
6
  6
CONTINUOUS
 10
5.0746429503
 20
4.1850120815
 40
0.495
100
AcDbArc
 50
221.8874747945
 51
310.1541931822
  0
ARC
  5
237
100
AcDbEntity
  8
0
100
AcDbCircle
 62
6
  6
CONTINUOUS
 10
5.0746429503
 20
4.1850120815
 40
0.495
100
AcDbArc
 50
131.2782040134
 51
138.1125252055
  0
ARC
  5
238
100
AcDbEntity
  8
0
100
AcDbCircle
 62
6
  6
CONTINUOUS
 10
5.0126807679
 20
4.4266209283
 40
0.282
100
AcDbArc
 50
112.9994017123
 51
152.4592100474
  0
ARC
  5
239
100
AcDbEntity
  8
0
100
AcDbCircle
 62
6
  6
CONTINUOUS
 10
5.1375921871
 20
4.4266209283
 40
0.282
100
AcDbArc
 50
27.5407899526
 51
67.0005982877
  0
ARC
  5
23A
100
AcDbEntity
  8
0
100
AcDbCircle
 62
6
  6
CONTINUOUS
 10
4.8966364775
 20
4.7000120815
 40
0.015
100
AcDbArc
 50
292.9994017123
 51
50.7035197608
  0
ARC
  5
23B
100
AcDbEntity
  8
0
100
AcDbCircle
 62
6
  6
CONTINUOUS
 10
4.9156364775
 20
4.723228455
 40
0.015
100
AcDbArc
 50
120.0
 51
230.7035197608
  0
ARC
  5
23C
100
AcDbEntity
  8
0
100
AcDbCircle
 62
6
  6
CONTINUOUS
 10
4.9006364775
 20
4.7492092171
 40
0.015
100
AcDbArc
 50
300.0
 51
38.9728930869
  0
ARC
  5
23D
100
AcDbEntity
  8
0
100
AcDbCircle
 62
6
  6
CONTINUOUS
 10
5.0751364775
 20
4.8257620815
 40
0.28125
100
AcDbArc
 50
55.4071660164
 51
124.5928339836
  0
ARC
  5
23E
100
AcDbEntity
  8
0
100
AcDbCircle
 62
6
  6
CONTINUOUS
 10
5.0945114775
 20
4.906054284
 40
0.234375
100
AcDbArc
 50
139.8141682044
 51
218.9728930869
  0
ARC
  5
23F
100
AcDbEntity
  8
0
100
AcDbCircle
 62
6
  6
CONTINUOUS
 10
5.0557614775
 20
4.906054284
 40
0.234375
100
AcDbArc
 50
321.0271069131
 51
40.1858317956
  0
ARC
  5
240
100
AcDbEntity
  8
0
100
AcDbCircle
 62
6
  6
CONTINUOUS
 10
5.9011364775
 20
4.5180623103
 40
0.078
100
AcDbArc
 50
100.0000007151
 51
180.0000027488
  0
ARC
  5
241
100
AcDbEntity
  8
0
100
AcDbCircle
 62
6
  6
CONTINUOUS
 10
5.2346364775
 20
4.723228455
 40
0.015
100
AcDbArc
 50
309.2964802392
 51
60.0
  0
ARC
  5
242
100
AcDbEntity
  8
0
100
AcDbCircle
 62
6
  6
CONTINUOUS
 10
5.2536364775
 20
4.7000120815
 40
0.015
100
AcDbArc
 50
129.2964802392
 51
247.0005982877
  0
ARC
  5
243
100
AcDbEntity
  8
0
100
AcDbCircle
 62
6
  6
CONTINUOUS
 10
5.2496364775
 20
4.7492092171
 40
0.015
100
AcDbArc
 50
141.0271069131
 51
240.0
  0
ARC
  5
244
100
AcDbEntity
  8
0
100
AcDbCircle
 62
6
  6
CONTINUOUS
 10
5.6040622076
 20
4.8125120815
 40
0.326
100
AcDbArc
 50
283.0373200085
 51
302.4822048034
  0
ARC
  5
245
100
AcDbEntity
  8
0
100
AcDbCircle
 62
6
  6
CONTINUOUS
 10
5.6040622076
 20
4.8125120815
 40
0.326
100
AcDbArc
 50
231.6045084453
 51
254.9161535758
  0
ARC
  5
246
100
AcDbEntity
  8
0
100
AcDbCircle
 62
6
  6
CONTINUOUS
 10
5.6010576698
 20
4.7440415561
 40
0.266011399
100
AcDbArc
 50
282.3782244135
 51
282.5972646069
  0
ARC
  5
247
100
AcDbEntity
  8
0
100
AcDbCircle
 62
6
  6
CONTINUOUS
 10
5.6107943395
 20
4.7101469979
 40
0.2316431977
100
AcDbArc
 50
256.986290931
 51
263.4629134057
  0
ARC
  5
248
100
AcDbEntity
  8
0
100
AcDbCircle
 62
6
  6
CONTINUOUS
 10
5.6117813946
 20
4.6656832509
 40
0.1878850354
100
AcDbArc
 50
249.9014502431
 51
252.6694286082
  0
ARC
  5
249
100
AcDbEntity
  8
0
100
AcDbCircle
 62
6
  6
CONTINUOUS
 10
5.6041757359
 20
4.6331522691
 40
0.1544098591
100
AcDbArc
 50
262.650261655
 51
268.8374319455
  0
ARC
  5
24A
100
AcDbEntity
  8
0
100
AcDbCircle
 62
6
  6
CONTINUOUS
 10
5.9587821964
 20
5.0136007263
 40
0.4
100
AcDbArc
 50
280.0
 51
310.5151811264
  0
ARC
  5
24B
100
AcDbEntity
  8
0
100
AcDbCircle
 62
6
  6
CONTINUOUS
 10
7.0625107145
 20
3.4837510569
 40
1.52
100
AcDbArc
 50
86.2419535375
 51
101.5898335018
  0
ARC
  5
24C
100
AcDbEntity
  8
0
100
AcDbCircle
 62
6
  6
CONTINUOUS
 10
6.9982214014
 20
3.7972265491
 40
1.2
100
AcDbArc
 50
101.5898335018
 51
130.5151811264
  0
ARC
  5
24D
100
AcDbEntity
  8
0
100
AcDbCircle
 62
6
  6
CONTINUOUS
 10
7.1846178175
 20
3.0272790622
 40
0.343
100
AcDbArc
 50
39.0112542963
 51
93.7580464625
  0
ARC
  5
24E
100
AcDbEntity
  8
0
100
AcDbCircle
 62
6
  6
CONTINUOUS
 10
7.8171364775
 20
3.1400120815
 40
0.125
100
AcDbArc
 50
208.3576365763
 51
270.0
  0
ARC
  5
24F
100
AcDbEntity
  8
0
100
AcDbCircle
 62
6
  6
CONTINUOUS
 10
7.6606151872
 20
3.1909610234
 40
0.078
100
AcDbArc
 50
216.7734275126
 51
266.708302835
  0
ARC
  5
250
100
AcDbEntity
  8
0
100
AcDbCircle
 62
6
  6
CONTINUOUS
 10
7.5680345421
 20
3.2457764908
 40
0.078
100
AcDbArc
 50
210.9443106101
 51
261.96842665
  0
ARC
  5
251
100
AcDbEntity
  8
0
100
AcDbCircle
 62
6
  6
CONTINUOUS
 10
7.6525764775
 20
3.0511920027
 40
0.062
100
AcDbArc
 50
28.3576365763
 51
86.708302835
  0
ARC
  5
252
100
AcDbEntity
  8
0
100
AcDbCircle
 62
6
  6
CONTINUOUS
 10
7.5484739134
 20
3.1071497192
 40
0.062
100
AcDbArc
 50
36.7734275126
 51
81.96842665
  0
ARC
  5
253
100
AcDbEntity
  8
0
100
AcDbCircle
 62
6
  6
CONTINUOUS
 10
7.4479610929
 20
3.1737878332
 40
0.062
100
AcDbArc
 50
30.9443106101
 51
72.9532818349
  0
ARC
  5
254
100
AcDbEntity
  8
0
100
AcDbCircle
 62
6
  6
CONTINUOUS
 10
7.4752241698
 20
3.2627019752
 40
0.031
100
AcDbArc
 50
219.0112542963
 51
252.9532818349
  0
ARC
  5
255
100
AcDbEntity
  8
0
100
AcDbCircle
 62
6
  6
CONTINUOUS
 10
7.0625107145
 20
4.8862731061
 40
1.52
100
AcDbArc
 50
258.4101664982
 51
273.7580464625
  0
ARC
  5
256
100
AcDbEntity
  8
0
100
AcDbCircle
 62
6
  6
CONTINUOUS
 10
6.9982214014
 20
4.5727976139
 40
1.2
100
AcDbArc
 50
229.4848188736
 51
258.4101664982
  0
ARC
  5
257
100
AcDbEntity
  8
0
100
AcDbCircle
 62
6
  6
CONTINUOUS
 10
7.1846178175
 20
5.3427451008
 40
0.343
100
AcDbArc
 50
266.2419535375
 51
320.9887457037
  0
ARC
  5
258
100
AcDbEntity
  8
0
100
AcDbCircle
 62
6
  6
CONTINUOUS
 10
7.8171364775
 20
5.2300120815
 40
0.125
100
AcDbArc
 50
90.0
 51
151.6423634237
  0
ARC
  5
259
100
AcDbEntity
  8
0
100
AcDbCircle
 62
6
  6
CONTINUOUS
 10
7.6606151872
 20
5.1790631396
 40
0.078
100
AcDbArc
 50
93.291697165
 51
143.2265724874
  0
ARC
  5
25A
100
AcDbEntity
  8
0
100
AcDbCircle
 62
6
  6
CONTINUOUS
 10
7.5680345421
 20
5.1242476722
 40
0.078
100
AcDbArc
 50
98.03157335
 51
149.0556893899
  0
ARC
  5
25B
100
AcDbEntity
  8
0
100
AcDbCircle
 62
6
  6
CONTINUOUS
 10
7.6525764775
 20
5.3188321603
 40
0.062
100
AcDbArc
 50
273.291697165
 51
331.6423634237
  0
ARC
  5
25C
100
AcDbEntity
  8
0
100
AcDbCircle
 62
6
  6
CONTINUOUS
 10
7.5484739134
 20
5.2628744438
 40
0.062
100
AcDbArc
 50
278.03157335
 51
323.2265724874
  0
ARC
  5
25D
100
AcDbEntity
  8
0
100
AcDbCircle
 62
6
  6
CONTINUOUS
 10
7.4479610929
 20
5.1962363298
 40
0.062
100
AcDbArc
 50
287.0467181651
 51
329.0556893899
  0
ARC
  5
25E
100
AcDbEntity
  8
0
100
AcDbCircle
 62
6
  6
CONTINUOUS
 10
7.4752241698
 20
5.1073221878
 40
0.031
100
AcDbArc
 50
107.0467181651
 51
140.9887457037
  0
SPLINE
  5
25F
100
AcDbEntity
  8
0
100
AcDbSpline
 62
6
  6
CONTINUOUS
 70
0
 71
3
 72
17
 73
13
 74
11
 42
0.0000001
 43
0.0000001
 44
0.0000000001
 12
0.05741115
 22
-0.0020277568
 32
0.0
 13
0.0561115399
 23
0.0123145047
 33
0.0
 40
0.0
 40
0.0
 40
0.0
 40
0.0
 40
0.1253080205
 40
0.2510867994
 40
0.3140359469
 40
0.3769606595
 40
0.4398291703
 40
0.5026226633
 40
0.6279024587
 40
0.6903511457
 40
0.7526438332
 40
1.0
 40
1.0
 40
1.0
 40
1.0
 10
5.6010428785
 20
4.4787743186
 30
0.0
 10
5.6034409043
 20
4.4786896205
 30
0.0
 10
5.6082492364
 20
4.4786023684
 30
0.0
 10
5.6142631482
 20
4.4786956117
 30
0.0
 10
5.6190782673
 20
4.4788910746
 30
0.0
 10
5.6226867227
 20
4.4790982473
 30
0.0
 10
5.6262882619
 20
4.4793651302
 30
0.0
 10
5.6310741569
 20
4.4797981313
 30
0.0
 10
5.6358410993
 20
4.4803446757
 30
0.0
 10
5.6405838656
 20
4.4809999489
 30
0.0
 10
5.6476265811
 20
4.4820821321
 30
0.0
 10
5.653454458
 20
4.4831985499
 30
0.0
 10
5.6580809698
 20
4.4842139062
 30
0.0
 11
5.6010428785
 21
4.4787743186
 31
0.0
 11
5.608240241
 21
4.4786428316
 31
0.0
 11
5.6154649853
 21
4.4787544865
 31
0.0
 11
5.6190782446
 21
4.4789011967
 31
0.0
 11
5.6226871395
 21
4.4791083036
 31
0.0
 11
5.6262888833
 21
4.4793749972
 31
0.0
 11
5.6298815188
 21
4.4796998736
 31
0.0
 11
5.6370317544
 21
4.4805184728
 31
0.0
 11
5.6405854995
 21
4.4810093448
 31
0.0
 11
5.6441225419
 21
4.4815526418
 31
0.0
 11
5.6580809698
 21
4.4842139062
 31
0.0
  0
SPLINE
  5
260
100
AcDbEntity
  8
0
100
AcDbSpline
 62
6
  6
CONTINUOUS
 70
0
 71
3
 72
31
 73
27
 74
25
 42
0.0000001
 43
0.0000001
 44
0.0000000001
 12
-0.0853311046
 22
-0.030096841
 32
0.0
 13
-0.0881563248
 23
0.0203882231
 33
0.0
 40
0.0
 40
0.0
 40
0.0
 40
0.0
 40
0.0535292247
 40
0.1094553576
 40
0.167529909
 40
0.2275175692
 40
0.2891933633
 40
0.3205996844
 40
0.3523468169
 40
0.3843980641
 40
0.4167165314
 40
0.4820089498
 40
0.5149147471
 40
0.5479388168
 40
0.5810384841
 40
0.61417124
 40
0.6472948564
 40
0.6803681192
 40
0.7133533267
 40
0.7462133075
 40
0.7789102065
 40
0.8114055893
 40
0.8436606132
 40
0.875637536
 40
0.9386048831
 40
1.0
 40
1.0
 40
1.0
 40
1.0
 10
5.6581141089
 20
4.4839223627
 30
0.0
 10
5.6565915396
 20
4.4833853425
 30
0.0
 10
5.6534639741
 20
4.4823271655
 30
0.0
 10
5.6486350014
 20
4.4808375069
 30
0.0
 10
5.6435766875
 20
4.479437447
 30
0.0
 10
5.6383084194
 20
4.478155483
 30
0.0
 10
5.6337879633
 20
4.4772126395
 30
0.0
 10
5.6300832302
 20
4.476540821
 30
0.0
 10
5.6272488741
 20
4.476079592
 30
0.0
 10
5.624379319
 20
4.4756663131
 30
0.0
 10
5.6204986516
 20
4.4751808496
 30
0.0
 10
5.6165790506
 20
4.4748036349
 30
0.0
 10
5.6126297461
 20
4.4745413497
 30
0.0
 10
5.6096459523
 20
4.474402085
 30
0.0
 10
5.6066531657
 20
4.4743213985
 30
0.0
 10
5.6036563607
 20
4.4742998605
 30
0.0
 10
5.6006605125
 20
4.4743380125
 30
0.0
 10
5.5976704951
 20
4.47443656
 30
0.0
 10
5.5946909784
 20
4.4745941316
 30
0.0
 10
5.5917264405
 20
4.4748091159
 30
0.0
 10
5.5887813255
 20
4.4750799796
 30
0.0
 10
5.5858600704
 20
4.475405117
 30
0.0
 10
5.5829670812
 20
4.4757831404
 30
0.0
 10
5.5791727762
 20
4.476351636
 30
0.0
 10
5.5745291147
 20
4.4771767909
 30
0.0
 10
5.57086014
 20
4.4779604057
 30
0.0
 10
5.5690560173
 20
4.4783776515
 30
0.0
 11
5.6581141089
 21
4.4839223627
 31
0.0
 11
5.6535259015
 21
4.4823706463
 31
0.0
 11
5.6486901196
 21
4.4808797949
 31
0.0
 11
5.643625505
 21
4.4794789645
 31
0.0
 11
5.638351358
 21
4.4781962977
 31
0.0
 11
5.6328880622
 21
4.4770579729
 31
0.0
 11
5.630091896
 21
4.476551047
 31
0.0
 11
5.6272566059
 21
4.4760896728
 31
0.0
 11
5.6243861125
 21
4.4756763304
 31
0.0
 11
5.6214844363
 21
4.4753134434
 31
0.0
 11
5.615603618
 21
4.4747487299
 31
0.0
 11
5.6126327465
 21
4.4745513168
 31
0.0
 11
5.6096478721
 21
4.4744119781
 31
0.0
 11
5.6066539941
 21
4.4743312864
 31
0.0
 11
5.6036561118
 21
4.4743098142
 31
0.0
 11
5.6006592245
 21
4.4743481341
 31
0.0
 11
5.5976682679
 21
4.4744465718
 31
0.0
 11
5.5946878172
 21
4.4746040588
 31
0.0
 11
5.5917223217
 21
4.4748190378
 31
0.0
 11
5.5887762302
 21
4.475089951
 31
0.0
 11
5.5858539916
 21
4.4754152404
 31
0.0
 11
5.5829600447
 21
4.4757933171
 31
0.0
 11
5.5800985779
 21
4.4762218385
 31
0.0
 11
5.5744887975
 21
4.4772177068
 31
0.0
 11
5.5690560173
 21
4.4783776515
 31
0.0
  0
LINE
  5
261
100
AcDbEntity
  8
0
100
AcDbLine
 62
6
  6
CONTINUOUS
 10
5.5205852044
 20
4.4970144164
 11
5.5192264779
 21
4.4977440733
  0
SPLINE
  5
262
100
AcDbEntity
  8
0
100
AcDbSpline
 62
6
  6
CONTINUOUS
 70
0
 71
3
 72
15
 73
11
 74
9
 42
0.0000001
 43
0.0000001
 44
0.0000000001
 12
-0.0269654853
 22
0.0065595874
 32
0.0
 13
-0.0263298541
 23
0.0087695137
 33
0.0
 40
0.0
 40
0.0
 40
0.0
 40
0.0
 40
0.1414591635
 40
0.2795373139
 40
0.4137465677
 40
0.5435296132
 40
0.6681222575
 40
0.7867009545
 40
0.897961778
 40
1.0
 40
1.0
 40
1.0
 40
1.0
 10
5.5472173468
 20
4.4892398599
 30
0.0
 10
5.5459458418
 20
4.4895491644
 30
0.0
 10
5.5434376162
 20
4.4901785939
 30
0.0
 10
5.5397382583
 20
4.4911607484
 30
0.0
 10
5.536155731
 20
4.4921608236
 30
0.0
 10
5.5327050616
 20
4.4931682668
 30
0.0
 10
5.5294036903
 20
4.4941703957
 30
0.0
 10
5.5262756123
 20
4.4951529472
 30
0.0
 10
5.5233543222
 20
4.4960971877
 30
0.0
 10
5.5214807549
 20
4.4967161412
 30
0.0
 10
5.5205852044
 20
4.4970144164
 30
0.0
 11
5.5472173468
 21
4.4892398599
 31
0.0
 11
5.5434095451
 21
4.4901949491
 31
0.0
 11
5.5397058312
 21
4.4911778801
 31
0.0
 11
5.5361183468
 21
4.4921790163
 31
0.0
 11
5.5326608341
 21
4.4931879746
 31
0.0
 11
5.5293521366
 21
4.494191993
 31
0.0
 11
5.5262124528
 21
4.4951776972
 31
0.0
 11
5.5232742185
 21
4.496126716
 31
0.0
 11
5.5205852044
 21
4.4970144164
 31
0.0
  0
SPLINE
  5
263
100
AcDbEntity
  8
0
100
AcDbSpline
 62
6
  6
CONTINUOUS
 70
0
 71
3
 72
15
 73
11
 74
9
 42
0.0000001
 43
0.0000001
 44
0.0000000001
 12
-0.0134865902
 22
0.0075341782
 32
0.0
 13
-0.0129541637
 23
0.0084167451
 33
0.0
 40
0.0
 40
0.0
 40
0.0
 40
0.0
 40
0.1480526213
 40
0.2899908175
 40
0.4256266933
 40
0.5547422351
 40
0.6770589196
 40
0.7922859537
 40
0.9000696388
 40
1.0
 40
1.0
 40
1.0
 40
1.0
 10
5.5690560173
 20
4.4783776515
 30
0.0
 10
5.5683904423
 20
4.4787494698
 30
0.0
 10
5.5670902052
 20
4.4794839011
 30
0.0
 10
5.5651916196
 20
4.4805789968
 30
0.0
 10
5.5633862907
 20
4.4816404484
 30
0.0
 10
5.5616759081
 20
4.4826639103
 30
0.0
 10
5.5600632372
 20
4.4836458807
 30
0.0
 10
5.5585515016
 20
4.4845823021
 30
0.0
 10
5.5571447532
 20
4.4854691999
 30
0.0
 10
5.5562449037
 20
4.4860474589
 30
0.0
 10
5.555813399
 20
4.4863278217
 30
0.0
 11
5.5690560173
 21
4.4783776515
 31
0.0
 11
5.567064531
 21
4.4795024327
 31
0.0
 11
5.5651650747
 21
4.4805979032
 31
0.0
 11
5.5633587547
 21
4.48165984
 31
0.0
 11
5.5616472267
 21
4.4826841428
 31
0.0
 11
5.560033352
 21
4.4836669801
 31
0.0
 11
5.558520205
 21
4.4846045475
 31
0.0
 11
5.5571118803
 21
4.4854928708
 31
0.0
 11
5.555813399
 21
4.4863278217
 31
0.0
  0
SPLINE
  5
264
100
AcDbEntity
  8
0
100
AcDbSpline
 62
6
  6
CONTINUOUS
 70
0
 71
3
 72
26
 73
22
 74
20
 42
0.0000001
 43
0.0000001
 44
0.0000000001
 12
-0.0218206471
 22
-0.0050526662
 32
0.0
 13
-0.0193500635
 23
-0.0112802978
 33
0.0
 40
0.0
 40
0.0
 40
0.0
 40
0.0
 40
0.0090734268
 40
0.0196371205
 40
0.0317102921
 40
0.0453026305
 40
0.0604181168
 40
0.0770571273
 40
0.0952176614
 40
0.1148960934
 40
0.1587862583
 40
0.2086668003
 40
0.2643941144
 40
0.3257964134
 40
0.39269902
 40
0.4649255212
 40
0.5422983449
 40
0.62463709
 40
0.7117591273
 40
0.803481801
 40
1.0
 40
1.0
 40
1.0
 40
1.0
 10
5.6776031358
 20
4.4949152744
 30
0.0
 10
5.6775371398
 20
4.4948999927
 30
0.0
 10
5.6773957017
 20
4.4948608841
 30
0.0
 10
5.6771712858
 20
4.4947852447
 30
0.0
 10
5.676918692
 20
4.494688324
 30
0.0
 10
5.676637987
 20
4.4945702987
 30
0.0
 10
5.6763292258
 20
4.4944313458
 30
0.0
 10
5.6759924835
 20
4.4942716625
 30
0.0
 10
5.6756278336
 20
4.4940914579
 30
0.0
 10
5.6750844519
 20
4.4938138159
 30
0.0
 10
5.6743368244
 20
4.493415597
 30
0.0
 10
5.6733598737
 20
4.4928757632
 30
0.0
 10
5.6722751559
 20
4.4922607944
 30
0.0
 10
5.6710851724
 20
4.4915739201
 30
0.0
 10
5.6697925828
 20
4.4908184494
 30
0.0
 10
5.6684000338
 20
4.4899977348
 30
0.0
 10
5.6669102194
 20
4.4891150886
 30
0.0
 10
5.6653256663
 20
4.4881741739
 30
0.0
 10
5.6636487791
 20
4.4871789193
 30
0.0
 10
5.6612371072
 20
4.4857514705
 30
0.0
 10
5.6593816555
 20
4.4846612906
 30
0.0
 10
5.6581141089
 20
4.4839223627
 30
0.0
 11
5.6776031358
 21
4.4949152744
 31
0.0
 11
5.6774069617
 21
4.4948622013
 31
0.0
 11
5.6771824859
 21
4.4947874163
 31
0.0
 11
5.6769297885
 21
4.4946911448
 31
0.0
 11
5.6766489497
 21
4.4945736122
 31
0.0
 11
5.6763400495
 21
4.4944350437
 31
0.0
 11
5.6760031681
 21
4.4942756649
 31
0.0
 11
5.6756383856
 21
4.4940957009
 31
0.0
 11
5.6752457822
 21
4.4938953771
 31
0.0
 11
5.6743774329
 21
4.4934345518
 31
0.0
 11
5.6733990229
 21
4.4928951972
 31
0.0
 11
5.6723127768
 21
4.4922803617
 31
0.0
 11
5.6711213363
 21
4.4915934212
 31
0.0
 11
5.6698273431
 21
4.4908377519
 31
0.0
 11
5.6684334389
 21
4.4900167298
 31
0.0
 11
5.6669422599
 21
4.4891337461
 31
0.0
 11
5.6653563398
 21
4.4881924628
 31
0.0
 11
5.663678123
 21
4.4871967774
 31
0.0
 11
5.6619100512
 21
4.4861505953
 31
0.0
 11
5.6581141089
 21
4.4839223627
 31
0.0
  0
LINE
  5
265
100
AcDbEntity
  8
0
100
AcDbLine
 62
6
  6
CONTINUOUS
 10
5.6302156649
 20
4.4765903559
 11
5.6010428785
 21
4.4787743186
  0
LINE
  5
266
100
AcDbEntity
  8
0
100
AcDbLine
 62
6
  6
CONTINUOUS
 10
5.5628749549
 20
4.481790824
 11
5.5844227303
 21
4.4800108585
  0
LINE
  5
267
100
AcDbEntity
  8
0
100
AcDbLine
 62
6
  6
CONTINUOUS
 10
5.6058994729
 20
4.4745049689
 11
5.5794798996
 21
4.476479395
  0
ENDSEC
  0
SECTION
  2
OBJECTS
  0
DICTIONARY
  5
C
100
AcDbDictionary
280
0
281
1
  3
ACAD_GROUP
350
D
  3
ACAD_MLINESTYLE
350
17
  3
ACAD_LAYOUT
350
1A
  3
ACAD_PLOTSETTINGS
350
19
  3
ACAD_PLOTSTYLENAME
350
E
  0
DICTIONARY
  5
D
102
{ACAD_REACTORS
330
C
102
}
100
AcDbDictionary
280
0
281
1
  0
ACDBDICTIONARYWDFLT
  5
E
102
{ACAD_REACTORS
330
C
102
}
100
AcDbDictionary
281
1
  3
Normal
350
F
100
AcDbDictionaryWithDefault
340
F
  0
DICTIONARY
  5
17
102
{ACAD_REACTORS
330
C
102
}
100
AcDbDictionary
280
0
281
1
  3
Standard
350
18
  0
DICTIONARY
  5
19
102
{ACAD_REACTORS
330
C
102
}
100
AcDbDictionary
281
1
  0
DICTIONARY
  5
1A
102
{ACAD_REACTORS
330
C
102
}
100
AcDbDictionary
281
1
  3
Model
350
268
  3
Layout1
350
269
  0
ACDBPLACEHOLDER
  5
F
102
{ACAD_REACTORS
330
E
102
}
  0
MLINESTYLE
  5
18
102
{ACAD_REACTORS
330
17
102
}
100
AcDbMlineStyle
  2
STANDARD
 70
0
  3

 62
256
 51
90.0
 52
90.0
 71
2
 49
0.5
 62
256
  6
BYLAYER
 49
-0.5
 62
256
  6
BYLAYER
  0
LAYOUT
  5
268
102
{ACAD_REACTORS
330
1A
102
}
100
AcDbPlotSettings
  1

  2
none_device
  4
ISO_A4_(297.00_x_210.00_MM)
  6

 40
0.0
 41
0.0
 42
0.0
 43
0.0
 44
297.0
 45
210.0
 46
0.0
 47
0.0
 48
0.0
 49
0.0
140
0.0
141
0.0
142
1.0
143
1.0
 70
1024
 72
0
 73
0
 74
0
  7

 75
0
147
1.0
148
0.0
149
0.0
100
AcDbLayout
  1
Model
 70
0
 71
0
 10
0.0
 20
0.0
 11
11.6929133858
 21
8.2677165354
 12
0.0
 22
0.0
 32
0.0
 14
0.0
 24
0.0
 34
0.0
 15
0.0
 25
0.0
 35
0.0
146
0.0
 13
0.0
 23
0.0
 33
0.0
 16
1.0
 26
0.0
 36
0.0
 17
0.0
 27
1.0
 37
0.0
 76
0
330
203
345
0
346
0
  0
LAYOUT
  5
269
102
{ACAD_REACTORS
330
1A
102
}
100
AcDbPlotSettings
  1

  2
none_device
  4
ISO_A4_(297.00_x_210.00_MM)
  6

 40
0.0
 41
0.0
 42
0.0
 43
0.0
 44
297.0
 45
210.0
 46
0.0
 47
0.0
 48
0.0
 49
0.0
140
0.0
141
0.0
142
1.0
143
1.0
 70
0
 72
0
 73
0
 74
0
  7

 75
0
147
1.0
148
0.0
149
0.0
100
AcDbLayout
  1
Layout1
 70
0
 71
1
 10
0.0
 20
0.0
 11
11.6929133858
 21
8.2677165354
 12
0.0
 22
0.0
 32
0.0
 14
0.0
 24
0.0
 34
0.0
 15
0.0
 25
0.0
 35
0.0
146
0.0
 13
0.0
 23
0.0
 33
0.0
 16
1.0
 26
0.0
 36
0.0
 17
0.0
 27
1.0
 37
0.0
 76
0
330
204
345
0
346
0
  0
ENDSEC
  0
EOF
