  0
SECTION
  2
HEADER
  9
$ACADVER
  1
AC1015
  9
$DWGCODEPAGE
  3
ANSI_1252
  9
$EXTMAX
 10
11.6929133858
 20
8.2677165354
 30
0.0
  9
$EXTMIN
 10
0.0
 20
0.0
 30
0.0
  9
$LIMMIN
 10
0.0
 20
0.0
  9
$LIMMAX
 10
11.6929133858
 20
8.2677165354
  9
$VIEWCTR
 10
5.8464566929
 20
4.1338582677
  9
$VIEWSIZE
 40
8.2677165354
  9
$CLAYER
  8
0
  9
$LTSCALE
 40
0.6431102362
  9
$CELTYPE
  6
BYLAYER
  9
$DIMSCALE
 40
1.0
  9
$DIMASZ
 40
0.1875
  9
$DIMEXO
 40
0.0730807087
  9
$DIMDLI
 40
0.4443307087
  9
$DIMEXE
 40
0.2104724409
  9
$DIMCEN
 40
0.1052362205
  9
$DIMLFAC
 40
1.0
  9
$DIMBLK
  1
_CLOSED
  9
$DIMTXT
 40
0.15625
  9
$DIMTOL
 70
0
  9
$DIMLIM
 70
0
  9
$DIMTFAC
 40
1.0
  9
$PDMODE
 70
3
  9
$PDSIZE
 40
0.3125
  9
$HANDSEED
  5
262
  9
$TILEMODE
 70
1
  9
$MEASUREMENT
 70
0
  9
$INSUNITS
 70
1
  0
ENDSEC
  0
SECTION
  2
CLASSES
  0
CLASS
  1
ACDBDICTIONARYWDFLT
  2
AcDbDictionaryWithDefault
  3
AutoCAD 2000
 90
0
280
0
281
0
  0
CLASS
  1
ACDBPLACEHOLDER
  2
AcDbPlaceHolder
  3
AutoCAD 2000
 90
0
280
0
281
0
  0
CLASS
  1
LAYOUT
  2
AcDbLayout
  3
AutoCAD 2000
 90
0
280
0
281
0
  0
ENDSEC
  0
SECTION
  2
TABLES
  0
TABLE
  2
VPORT
  5
8
100
AcDbSymbolTable
 70
2
  0
VPORT
  5
1F4
100
AcDbSymbolTableRecord
100
AcDbViewportTableRecord
  2
*ACTIVE
 70
0
 10
0.0
 20
0.0
 11
1.0
 21
1.0
 12
5.8464566929
 22
4.1338582677
 13
0.0
 23
0.0
 14
1.0
 24
1.0
 15
0.0
 25
0.0
 16
0.0
 26
0.0
 36
1.0
 17
0.0
 27
0.0
 37
0.0
 40
8.2677165354
 41
1.4142857143
 42
50.0
 43
0.0
 44
0.0
 50
0.0
 51
0.0
 71
0
 72
100
 73
1
 74
1
 75
0
 76
0
 77
0
 78
0
  0
ENDTAB
  0
TABLE
  2
LTYPE
  5
5
100
AcDbSymbolTable
 70
6
  0
LTYPE
  5
14
100
AcDbSymbolTableRecord
100
AcDbLinetypeTableRecord
  2
BYBLOCK
 70
0
  3

 72
65
 73
0
 40
0.0
  0
LTYPE
  5
15
100
AcDbSymbolTableRecord
100
AcDbLinetypeTableRecord
  2
BYLAYER
 70
0
  3

 72
65
 73
0
 40
0.0
  0
LTYPE
  5
16
100
AcDbSymbolTableRecord
100
AcDbLinetypeTableRecord
  2
CONTINUOUS
 70
64
  3
Solid line
 72
65
 73
0
 40
0.0
  0
LTYPE
  5
1F5
100
AcDbSymbolTableRecord
100
AcDbLinetypeTableRecord
  2
CENTER
 70
64
  3
____ _ ____ _ ____ _ ____ _ ____ _ ____ _ ____
 72
65
 73
4
 40
0.6
 49
0.375
 74
0
 49
-0.075
 74
0
 49
0.075
 74
0
 49
-0.075
 74
0
  0
LTYPE
  5
1F6
100
AcDbSymbolTableRecord
100
AcDbLinetypeTableRecord
  2
HIDDEN
 70
64
  3
- - - - - - - - - - - - - - - - - - - -
 72
65
 73
2
 40
0.2
 49
0.1
 74
0
 49
-0.1
 74
0
  0
LTYPE
  5
1F7
100
AcDbSymbolTableRecord
100
AcDbLinetypeTableRecord
  2
PHANTOM
 70
64
  3
_____ _ _ _____ _ _ _____ _ _ _____
 72
65
 73
6
 40
0.8
 49
0.45
 74
0
 49
-0.05
 74
0
 49
0.1
 74
0
 49
-0.05
 74
0
 49
0.1
 74
0
 49
-0.05
 74
0
  0
LTYPE
  5
1F8
100
AcDbSymbolTableRecord
100
AcDbLinetypeTableRecord
  2
DOT
 70
64
  3
. . . . . . . . . . . . . . . . . . . .
 72
65
 73
2
 40
0.2
 49
0.1
 74
0
 49
-0.1
 74
0
  0
LTYPE
  5
1F9
100
AcDbSymbolTableRecord
100
AcDbLinetypeTableRecord
  2
DASHED
 70
64
  3
- - - - - - - - - - - - - - - - - - - -
 72
65
 73
2
 40
0.2
 49
0.1
 74
0
 49
-0.1
 74
0
  0
ENDTAB
  0
TABLE
  2
LAYER
  5
2
100
AcDbSymbolTable
 70
36
  0
LAYER
  5
10
100
AcDbSymbolTableRecord
100
AcDbLayerTableRecord
  2
0
 70
0
 62
7
  6
CONTINUOUS
370
-3
390
F
  0
LAYER
  5
1FA
100
AcDbSymbolTableRecord
100
AcDbLayerTableRecord
  2
DEFAULT_1
 70
0
 62
7
  6
CENTER
370
-3
390
F
  0
LAYER
  5
1FB
100
AcDbSymbolTableRecord
100
AcDbLayerTableRecord
  2
DEFAULT_2
 70
0
 62
8
  6
HIDDEN
370
-3
390
F
  0
LAYER
  5
1FC
100
AcDbSymbolTableRecord
100
AcDbLayerTableRecord
  2
DEFAULT_3
 70
0
 62
7
  6
PHANTOM
370
-3
390
F
  0
LAYER
  5
1FD
100
AcDbSymbolTableRecord
100
AcDbLayerTableRecord
  2
DEFAULT_COORDINATE_SYSTEM
 70
0
 62
7
  6
CONTINUOUS
370
-3
390
F
  0
LAYER
  5
1FE
100
AcDbSymbolTableRecord
100
AcDbLayerTableRecord
  2
DEFAULT_DATUM_AXES
 70
0
 62
7
  6
CONTINUOUS
370
-3
390
F
  0
LAYER
  5
1FF
100
AcDbSymbolTableRecord
100
AcDbLayerTableRecord
  2
DEFAULT_DATUM_CURVES
 70
0
 62
7
  6
CONTINUOUS
370
-3
390
F
  0
LAYER
  5
200
100
AcDbSymbolTableRecord
100
AcDbLayerTableRecord
  2
DEFAULT_DATUM_PLANES
 70
0
 62
7
  6
CONTINUOUS
370
-3
390
F
  0
ENDTAB
  0
TABLE
  2
STYLE
  5
3
100
AcDbSymbolTable
 70
1
  0
STYLE
  5
11
100
AcDbSymbolTableRecord
100
AcDbTextStyleTableRecord
  2
STANDARD
 70
0
 40
0.0
 41
0.8
 50
0.0
 71
0
 42
0.2
  3
txt
  4

  0
STYLE
  5
201
100
AcDbSymbolTableRecord
100
AcDbTextStyleTableRecord
  2
TEXTSTYLE_1
 70
0
 40
0.0
 41
0.8
 50
0.0
 71
0
 42
0.2
  3
gdt
  4

  0
ENDTAB
  0
TABLE
  2
VIEW
  5
6
100
AcDbSymbolTable
 70
0
  0
ENDTAB
  0
TABLE
  2
UCS
  5
7
100
AcDbSymbolTable
 70
0
  0
ENDTAB
  0
TABLE
  2
APPID
  5
9
100
AcDbSymbolTable
 70
1
  0
APPID
  5
202
100
AcDbSymbolTableRecord
100
AcDbRegAppTableRecord
  2
ACAD
 70
0
  0
ENDTAB
  0
TABLE
  2
BLOCK_RECORD
  5
1
100
AcDbSymbolTable
 70
0
  0
BLOCK_RECORD
  5
203
100
AcDbSymbolTableRecord
100
AcDbBlockTableRecord
  2
*Model_Space
  0
BLOCK_RECORD
  5
204
100
AcDbSymbolTableRecord
100
AcDbBlockTableRecord
  2
*Paper_Space
  0
ENDTAB
  0
TABLE
  2
DIMSTYLE
  5
A
100
AcDbSymbolTable
 70
1
100
AcDbDimStyleTable
 71
0
  0
DIMSTYLE
105
205
100
AcDbSymbolTableRecord
100
AcDbDimStyleTableRecord
  2
STANDARD
 70
0
  3

  4

 40
1.0
 41
0.1875
 42
0.0625
 43
0.38
 44
0.18
 45
0.0
 46
0.0
 47
0.01
 48
0.01
140
0.15625
141
0.09
142
0.0
143
25.4
144
1.0
145
0.0
146
1.0
147
0.09
 71
0.0
 72
0.0
 73
1
 74
1
 75
0
 76
0
 77
0
 78
4
170
0
171
2
172
0
173
0
174
0
175
0
176
0
177
0
178
0
270
2
271
2
272
2
273
2
274
2
275
0
280
0
281
0
282
0
283
1
284
4
285
0
286
0
287
3
288
0
340
11
  0
ENDTAB
  0
ENDSEC
  0
SECTION
  2
BLOCKS
  0
BLOCK
  5
20
100
AcDbEntity
  8
0
100
AcDbBlockBegin
  2
*Model_Space
 70
0
 10
0.0
 20
0.0
 30
0.0
  3
*Model_Space
  1

  0
ENDBLK
  5
21
100
AcDbEntity
  8
0
100
AcDbBlockEnd
  0
BLOCK
  5
1C
100
AcDbEntity
  8
0
100
AcDbBlockBegin
  2
*Paper_Space
 70
0
 10
0.0
 20
0.0
 30
0.0
  3
*Paper_Space
  1

  0
ENDBLK
  5
1D
100
AcDbEntity
  8
0
100
AcDbBlockEnd
  0
ENDSEC
  0
SECTION
  2
ENTITIES
  0
LINE
  5
206
100
AcDbEntity
  8
0
100
AcDbLine
 62
6
  6
CONTINUOUS
 10
4.3159579147
 20
5.6436614912
 11
4.3059579147
 21
5.6336614912
  0
LINE
  5
207
100
AcDbEntity
  8
0
100
AcDbLine
 62
6
  6
CONTINUOUS
 10
4.3059579147
 20
5.2936614912
 11
4.3059579147
 21
5.6336614912
  0
LINE
  5
208
100
AcDbEntity
  8
0
100
AcDbLine
 62
6
  6
CONTINUOUS
 10
4.3159579147
 20
5.2836614912
 11
4.3159579147
 21
5.6436614912
  0
LINE
  5
209
100
AcDbEntity
  8
0
100
AcDbLine
 62
6
  6
CONTINUOUS
 10
4.3719579147
 20
5.1911614912
 11
4.3719579147
 21
5.7361614912
  0
LINE
  5
20A
100
AcDbEntity
  8
0
100
AcDbLine
 62
9
  6
CONTINUOUS
 10
4.3959579147
 20
5.1681614912
 11
4.3959579147
 21
5.7591614912
  0
LINE
  5
20B
100
AcDbEntity
  8
0
100
AcDbLine
 62
9
  6
CONTINUOUS
 10
4.4309579147
 20
5.1331614912
 11
4.4309579147
 21
5.7941614912
  0
LINE
  5
20C
100
AcDbEntity
  8
0
100
AcDbLine
 62
6
  6
CONTINUOUS
 10
4.5139609954
 20
5.1331614912
 11
4.5139609954
 21
5.7941614912
  0
LINE
  5
20D
100
AcDbEntity
  8
0
100
AcDbLine
 62
6
  6
CONTINUOUS
 10
4.6949643875
 20
5.4636614912
 11
4.6949643875
 21
1.5886614912
  0
LINE
  5
20E
100
AcDbEntity
  8
0
100
AcDbLine
 62
9
  6
CONTINUOUS
 10
5.0699643875
 20
2.6511614912
 11
4.6949643875
 21
2.6511614912
  0
LINE
  5
20F
100
AcDbEntity
  8
0
100
AcDbLine
 62
6
  6
CONTINUOUS
 10
5.0699643875
 20
5.4636614912
 11
5.0699643875
 21
1.5886614912
  0
LINE
  5
210
100
AcDbEntity
  8
0
100
AcDbLine
 62
9
  6
CONTINUOUS
 10
5.2016635743
 20
5.0853271429
 11
5.2016635743
 21
5.8419958396
  0
LINE
  5
211
100
AcDbEntity
  8
0
100
AcDbLine
 62
6
  6
CONTINUOUS
 10
5.5869579147
 20
5.1111614912
 11
5.5869579147
 21
5.8161614912
  0
LINE
  5
212
100
AcDbEntity
  8
0
100
AcDbLine
 62
7
  6
CONTINUOUS
 10
5.6309579147
 20
5.1111614912
 11
5.6309579147
 21
5.8161614912
  0
LINE
  5
213
100
AcDbEntity
  8
0
100
AcDbLine
 62
9
  6
CONTINUOUS
 10
5.6954133559
 20
5.0537962579
 11
5.6954133559
 21
5.8735267245
  0
LINE
  5
214
100
AcDbEntity
  8
0
100
AcDbLine
 62
6
  6
CONTINUOUS
 10
4.3059579147
 20
5.2936614912
 11
4.3159579147
 21
5.2836614912
  0
LINE
  5
215
100
AcDbEntity
  8
0
100
AcDbLine
 62
9
  6
CONTINUOUS
 10
5.8360629046
 20
5.0289959476
 11
5.8360629046
 21
5.8983270348
  0
LINE
  5
216
100
AcDbEntity
  8
0
100
AcDbLine
 62
9
  6
CONTINUOUS
 10
6.0264634348
 20
4.9391663907
 11
6.0264634348
 21
5.9881565917
  0
LINE
  5
217
100
AcDbEntity
  8
0
100
AcDbLine
 62
6
  6
CONTINUOUS
 10
7.6249579147
 20
4.2936614912
 11
7.6389579147
 21
4.2936614912
  0
LINE
  5
218
100
AcDbEntity
  8
0
100
AcDbLine
 62
9
  6
CONTINUOUS
 10
5.0699643875
 20
4.4011614912
 11
4.6949643875
 21
4.4011614912
  0
LINE
  5
219
100
AcDbEntity
  8
0
100
AcDbLine
 62
9
  6
CONTINUOUS
 10
6.5649579147
 20
4.6759139277
 11
6.5649579147
 21
6.2514090547
  0
LINE
  5
21A
100
AcDbEntity
  8
0
100
AcDbLine
 62
9
  6
CONTINUOUS
 10
6.9699579147
 20
4.6481909287
 11
6.9699579147
 21
6.2791320537
  0
LINE
  5
21B
100
AcDbEntity
  8
0
100
AcDbLine
 62
6
  6
CONTINUOUS
 10
5.6954133559
 20
5.0537962579
 11
5.8360629046
 21
5.0289959476
  0
LINE
  5
21C
100
AcDbEntity
  8
0
100
AcDbLine
 62
6
  6
CONTINUOUS
 10
5.6309579147
 20
5.1111614912
 11
5.5869579147
 21
5.1111614912
  0
LINE
  5
21D
100
AcDbEntity
  8
0
100
AcDbLine
 62
6
  6
CONTINUOUS
 10
4.5139609954
 20
5.1331614912
 11
4.4309579147
 21
5.1331614912
  0
LINE
  5
21E
100
AcDbEntity
  8
0
100
AcDbLine
 62
6
  6
CONTINUOUS
 10
5.4556913289
 20
5.1636614912
 11
5.3591020834
 21
5.1636614912
  0
LINE
  5
21F
100
AcDbEntity
  8
0
100
AcDbLine
 62
7
  6
CONTINUOUS
 10
5.4494724924
 20
5.1667514909
 11
5.4447105138
 21
5.1667514909
  0
LINE
  5
220
100
AcDbEntity
  8
0
100
AcDbLine
 62
6
  6
CONTINUOUS
 10
4.3959579147
 20
5.1911614912
 11
4.3719579147
 21
5.1911614912
  0
LINE
  5
221
100
AcDbEntity
  8
0
100
AcDbLine
 62
9
  6
CONTINUOUS
 10
7.2589579147
 20
4.521837721
 11
7.2589579147
 21
6.4054852614
  0
LINE
  5
222
100
AcDbEntity
  8
0
100
AcDbLine
 62
9
  6
CONTINUOUS
 10
7.2739579147
 20
4.5117133376
 11
7.2739579147
 21
6.4156096448
  0
LINE
  5
223
100
AcDbEntity
  8
0
100
AcDbLine
 62
9
  6
CONTINUOUS
 10
7.3089579147
 20
4.4843179342
 11
7.3089579147
 21
6.4430050483
  0
LINE
  5
224
100
AcDbEntity
  8
0
100
AcDbLine
 62
9
  6
CONTINUOUS
 10
7.3649579147
 20
4.4471909849
 11
7.3649579147
 21
6.4801319975
  0
LINE
  5
225
100
AcDbEntity
  8
0
100
AcDbLine
 62
9
  6
CONTINUOUS
 10
7.4059579147
 20
4.4229155636
 11
7.4059579147
 21
6.5044074188
  0
LINE
  5
226
100
AcDbEntity
  8
0
100
AcDbLine
 62
9
  6
CONTINUOUS
 10
7.4639579147
 20
4.3917391216
 11
7.4639579147
 21
6.5355838609
  0
LINE
  5
227
100
AcDbEntity
  8
0
100
AcDbLine
 62
9
  6
CONTINUOUS
 10
7.5149579147
 20
4.3592897808
 11
7.5149579147
 21
6.5680332016
  0
LINE
  5
228
100
AcDbEntity
  8
0
100
AcDbLine
 62
9
  6
CONTINUOUS
 10
7.6249579147
 20
4.2936614912
 11
7.6249579147
 21
6.6336614912
  0
LINE
  5
229
100
AcDbEntity
  8
0
100
AcDbLine
 62
6
  6
CONTINUOUS
 10
7.6389579147
 20
4.2936683203
 11
7.6389579147
 21
6.6336546621
  0
LINE
  5
22A
100
AcDbEntity
  8
0
100
AcDbLine
 62
6
  6
CONTINUOUS
 10
5.6954133559
 20
5.8735267245
 11
5.8360629046
 21
5.8983270348
  0
LINE
  5
22B
100
AcDbEntity
  8
0
100
AcDbLine
 62
6
  6
CONTINUOUS
 10
4.3959579147
 20
5.7361614912
 11
4.3719579147
 21
5.7361614912
  0
LINE
  5
22C
100
AcDbEntity
  8
0
100
AcDbLine
 62
6
  6
CONTINUOUS
 10
4.5139609954
 20
5.7941614912
 11
4.4309579147
 21
5.7941614912
  0
LINE
  5
22D
100
AcDbEntity
  8
0
100
AcDbLine
 62
6
  6
CONTINUOUS
 10
5.6309579147
 20
5.8161614912
 11
5.5869579147
 21
5.8161614912
  0
LINE
  5
22E
100
AcDbEntity
  8
0
100
AcDbLine
 62
6
  6
CONTINUOUS
 10
7.6249579147
 20
6.6336614912
 11
7.6389579147
 21
6.6336614912
  0
ARC
  5
22F
100
AcDbEntity
  8
0
100
AcDbCircle
 62
6
  6
CONTINUOUS
 10
4.882464379
 20
2.2083336576
 40
0.3125000085
100
AcDbArc
 50
306.8723399714
 51
53.1206498717
  0
ARC
  5
230
100
AcDbEntity
  8
0
100
AcDbCircle
 62
6
  6
CONTINUOUS
 10
4.882464396
 20
2.2083336487
 40
0.3125000085
100
AcDbArc
 50
126.8723399714
 51
233.1206498717
  0
ARC
  5
231
100
AcDbEntity
  8
0
100
AcDbCircle
 62
9
  6
CONTINUOUS
 10
4.8824643875
 20
1.5886614912
 40
0.1875
100
AcDbArc
 50
180.0
 51
360.0
  0
ARC
  5
232
100
AcDbEntity
  8
0
100
AcDbCircle
 62
7
  6
CONTINUOUS
 10
4.9765103504
 20
2.0320797613
 40
0.0944540376
100
AcDbArc
 50
0.0059100755
 51
5.755261587
  0
ARC
  5
233
100
AcDbEntity
  8
0
100
AcDbCircle
 62
7
  6
CONTINUOUS
 10
4.7884184246
 20
2.0320797613
 40
0.0944540376
100
AcDbArc
 50
174.2447384129
 51
179.9940899245
  0
ARC
  5
234
100
AcDbEntity
  8
0
100
AcDbCircle
 62
7
  6
CONTINUOUS
 10
4.9765103504
 20
2.0320992472
 40
0.0944540376
100
AcDbArc
 50
354.2447384129
 51
359.9940899245
  0
ARC
  5
235
100
AcDbEntity
  8
0
100
AcDbCircle
 62
7
  6
CONTINUOUS
 10
4.7884184246
 20
2.0320992472
 40
0.0944540376
100
AcDbArc
 50
180.0059100755
 51
185.755261587
  0
ARC
  5
236
100
AcDbEntity
  8
0
100
AcDbCircle
 62
6
  6
CONTINUOUS
 10
4.3159579147
 20
5.2276614912
 40
0.056
100
AcDbArc
 50
0.0
 51
90.0
  0
ARC
  5
237
100
AcDbEntity
  8
0
100
AcDbCircle
 62
6
  6
CONTINUOUS
 10
4.4309579147
 20
5.1681614912
 40
0.035
100
AcDbArc
 50
180.0
 51
270.0
  0
ARC
  5
238
100
AcDbEntity
  8
0
100
AcDbCircle
 62
6
  6
CONTINUOUS
 10
4.8824643875
 20
5.4636614912
 40
0.495
100
AcDbArc
 50
221.8880088583
 51
247.7377825585
  0
ARC
  5
239
100
AcDbEntity
  8
0
100
AcDbCircle
 62
6
  6
CONTINUOUS
 10
4.8824643875
 20
5.4636614912
 40
0.495
100
AcDbArc
 50
292.2602698734
 51
310.1541931822
  0
ARC
  5
23A
100
AcDbEntity
  8
0
100
AcDbCircle
 62
6
  6
CONTINUOUS
 10
4.8824643875
 20
5.4636614912
 40
0.495
100
AcDbArc
 50
49.8458068178
 51
138.1119911417
  0
ARC
  5
23B
100
AcDbEntity
  8
0
100
AcDbCircle
 62
9
  6
CONTINUOUS
 10
4.8824643875
 20
5.4636614912
 40
0.1875
100
AcDbArc
 50
0.0
 51
180.0
  0
ARC
  5
23C
100
AcDbEntity
  8
0
100
AcDbCircle
 62
6
  6
CONTINUOUS
 10
4.3159579147
 20
5.6996614912
 40
0.056
100
AcDbArc
 50
270.0
 51
360.0
  0
ARC
  5
23D
100
AcDbEntity
  8
0
100
AcDbCircle
 62
6
  6
CONTINUOUS
 10
4.4309579147
 20
5.7591614912
 40
0.035
100
AcDbArc
 50
90.0
 51
180.0
  0
ARC
  5
23E
100
AcDbEntity
  8
0
100
AcDbCircle
 62
6
  6
CONTINUOUS
 10
5.7666036336
 20
4.6350728464
 40
0.4
100
AcDbArc
 50
49.4848188736
 51
80.0
  0
ARC
  5
23F
100
AcDbEntity
  8
0
100
AcDbCircle
 62
6
  6
CONTINUOUS
 10
5.4118836448
 20
4.8361614912
 40
0.326
100
AcDbArc
 50
57.5177951966
 51
75.4164071695
  0
ARC
  5
240
100
AcDbEntity
  8
0
100
AcDbCircle
 62
6
  6
CONTINUOUS
 10
5.4118836448
 20
4.8361614912
 40
0.326
100
AcDbArc
 50
102.517499102
 51
130.1541931822
  0
ARC
  5
241
100
AcDbEntity
  8
0
100
AcDbCircle
 62
7
  6
CONTINUOUS
 10
5.4046138334
 20
4.9839639259
 40
0.1868433109
100
AcDbArc
 50
69.1879873803
 51
74.5027202226
  0
ARC
  5
242
100
AcDbEntity
  8
0
100
AcDbCircle
 62
6
  6
CONTINUOUS
 10
5.7089579147
 20
5.1306112624
 40
0.078
100
AcDbArc
 50
179.9999972512
 51
259.9999992849
  0
ARC
  5
243
100
AcDbEntity
  8
0
100
AcDbCircle
 62
7
  6
CONTINUOUS
 10
5.1672234126
 20
6.6330233649
 40
1.4922976579
100
AcDbArc
 50
280.7163037909
 51
280.8545074091
  0
ARC
  5
244
100
AcDbEntity
  8
0
100
AcDbCircle
 62
6
  6
CONTINUOUS
 10
5.7666036336
 20
6.292250136
 40
0.4
100
AcDbArc
 50
280.0
 51
310.5151811264
  0
ARC
  5
245
100
AcDbEntity
  8
0
100
AcDbCircle
 62
6
  6
CONTINUOUS
 10
5.4118836448
 20
6.0911614912
 40
0.326
100
AcDbArc
 50
229.8458068178
 51
302.4822048034
  0
ARC
  5
246
100
AcDbEntity
  8
0
100
AcDbCircle
 62
6
  6
CONTINUOUS
 10
5.7089579147
 20
5.79671172
 40
0.078
100
AcDbArc
 50
100.0000007151
 51
180.0000027488
  0
ARC
  5
247
100
AcDbEntity
  8
0
100
AcDbCircle
 62
6
  6
CONTINUOUS
 10
6.8703321517
 20
4.7624004666
 40
1.52
100
AcDbArc
 50
86.2419535375
 51
101.5898335018
  0
ARC
  5
248
100
AcDbEntity
  8
0
100
AcDbCircle
 62
6
  6
CONTINUOUS
 10
6.8703321517
 20
6.1649225158
 40
1.52
100
AcDbArc
 50
258.4101664982
 51
273.7580464625
  0
ARC
  5
249
100
AcDbEntity
  8
0
100
AcDbCircle
 62
6
  6
CONTINUOUS
 10
6.8060428387
 20
5.0758759588
 40
1.2
100
AcDbArc
 50
101.5898335018
 51
130.5151811264
  0
ARC
  5
24A
100
AcDbEntity
  8
0
100
AcDbCircle
 62
6
  6
CONTINUOUS
 10
6.8060428387
 20
5.8514470236
 40
1.2
100
AcDbArc
 50
229.4848188736
 51
258.4101664982
  0
ARC
  5
24B
100
AcDbEntity
  8
0
100
AcDbCircle
 62
6
  6
CONTINUOUS
 10
6.9924392547
 20
6.6213945105
 40
0.343
100
AcDbArc
 50
266.2419535375
 51
320.9887457037
  0
ARC
  5
24C
100
AcDbEntity
  8
0
100
AcDbCircle
 62
6
  6
CONTINUOUS
 10
6.9924392547
 20
4.3059284719
 40
0.343
100
AcDbArc
 50
39.0112542963
 51
93.7580464625
  0
ARC
  5
24D
100
AcDbEntity
  8
0
100
AcDbCircle
 62
6
  6
CONTINUOUS
 10
7.6249579147
 20
6.5086614912
 40
0.125
100
AcDbArc
 50
90.0
 51
151.6423634237
  0
ARC
  5
24E
100
AcDbEntity
  8
0
100
AcDbCircle
 62
6
  6
CONTINUOUS
 10
7.6249579147
 20
4.4186614912
 40
0.125
100
AcDbArc
 50
208.3576365763
 51
270.0
  0
ARC
  5
24F
100
AcDbEntity
  8
0
100
AcDbCircle
 62
6
  6
CONTINUOUS
 10
7.4684366244
 20
6.4577125493
 40
0.078
100
AcDbArc
 50
93.291697165
 51
143.2265724874
  0
ARC
  5
250
100
AcDbEntity
  8
0
100
AcDbCircle
 62
6
  6
CONTINUOUS
 10
7.3758559793
 20
6.4028970819
 40
0.078
100
AcDbArc
 50
98.03157335
 51
149.0556893899
  0
ARC
  5
251
100
AcDbEntity
  8
0
100
AcDbCircle
 62
6
  6
CONTINUOUS
 10
7.4684366244
 20
4.4696104331
 40
0.078
100
AcDbArc
 50
216.7734275126
 51
266.708302835
  0
ARC
  5
252
100
AcDbEntity
  8
0
100
AcDbCircle
 62
6
  6
CONTINUOUS
 10
7.3758559793
 20
4.5244259005
 40
0.078
100
AcDbArc
 50
210.9443106101
 51
261.96842665
  0
ARC
  5
253
100
AcDbEntity
  8
0
100
AcDbCircle
 62
6
  6
CONTINUOUS
 10
7.4603979147
 20
6.59748157
 40
0.062
100
AcDbArc
 50
273.291697165
 51
331.6423634237
  0
ARC
  5
254
100
AcDbEntity
  8
0
100
AcDbCircle
 62
6
  6
CONTINUOUS
 10
7.3562953506
 20
6.5415238535
 40
0.062
100
AcDbArc
 50
278.03157335
 51
323.2265724874
  0
ARC
  5
255
100
AcDbEntity
  8
0
100
AcDbCircle
 62
6
  6
CONTINUOUS
 10
7.2557825301
 20
6.4748857395
 40
0.062
100
AcDbArc
 50
287.0467181651
 51
329.0556893899
  0
ARC
  5
256
100
AcDbEntity
  8
0
100
AcDbCircle
 62
6
  6
CONTINUOUS
 10
7.4603979147
 20
4.3298414124
 40
0.062
100
AcDbArc
 50
28.3576365763
 51
86.708302835
  0
ARC
  5
257
100
AcDbEntity
  8
0
100
AcDbCircle
 62
6
  6
CONTINUOUS
 10
7.3562953506
 20
4.3857991289
 40
0.062
100
AcDbArc
 50
36.7734275126
 51
81.96842665
  0
ARC
  5
258
100
AcDbEntity
  8
0
100
AcDbCircle
 62
6
  6
CONTINUOUS
 10
7.2557825301
 20
4.452437243
 40
0.062
100
AcDbArc
 50
30.9443106101
 51
72.9532818349
  0
ARC
  5
259
100
AcDbEntity
  8
0
100
AcDbCircle
 62
6
  6
CONTINUOUS
 10
7.2830456071
 20
6.3859715975
 40
0.031
100
AcDbArc
 50
107.0467181651
 51
140.9887457037
  0
ARC
  5
25A
100
AcDbEntity
  8
0
100
AcDbCircle
 62
6
  6
CONTINUOUS
 10
7.2830456071
 20
4.5413513849
 40
0.031
100
AcDbArc
 50
219.0112542963
 51
252.9532818349
  0
SPLINE
  5
25B
100
AcDbEntity
  8
0
100
AcDbSpline
 62
7
  6
CONTINUOUS
 70
0
 71
3
 72
11
 73
7
 74
5
 42
0.0000001
 43
0.0000001
 44
0.0000000001
 12
0.0130409562
 22
-0.0060546768
 32
0.0
 13
0.0125238164
 23
-0.0070625542
 33
0.0
 40
0.0
 40
0.0
 40
0.0
 40
0.0
 40
0.2829481758
 40
0.5443410014
 40
0.7837465898
 40
1.0
 40
1.0
 40
1.0
 40
1.0
 10
5.4417528923
 20
5.1705862581
 30
0.0
 10
5.4429828639
 20
5.1700152049
 30
0.0
 10
5.4453356775
 20
5.168887424
 30
0.0
 10
5.4486860158
 20
5.1671885393
 30
0.0
 10
5.451722434
 20
5.1655787536
 30
0.0
 10
5.4536340325
 20
5.1645226409
 30
0.0
 10
5.4545368051
 20
5.1640135404
 30
0.0
 11
5.4417528923
 21
5.1705862581
 31
0.0
 11
5.4454218541
 21
5.1688286726
 31
0.0
 11
5.4487745236
 21
5.1671303241
 31
0.0
 11
5.4518155246
 21
5.1655176242
 31
0.0
 11
5.4545368051
 21
5.1640135404
 31
0.0
  0
SPLINE
  5
25C
100
AcDbEntity
  8
0
100
AcDbSpline
 62
7
  6
CONTINUOUS
 70
0
 71
3
 72
29
 73
25
 74
23
 42
0.0000001
 43
0.0000001
 44
0.0000000001
 12
0.0763259823
 22
0.0245847277
 32
0.0
 13
0.0786792944
 23
-0.0154800852
 33
0.0
 40
0.0
 40
0.0
 40
0.0
 40
0.0
 40
0.0544600521
 40
0.1110152311
 40
0.1694530954
 40
0.2295712835
 40
0.2911661728
 40
0.3540392782
 40
0.3858974846
 40
0.4180020182
 40
0.48281235
 40
0.5154523596
 40
0.5482034616
 40
0.5810327399
 40
0.6139078273
 40
0.6467964669
 40
0.6796660563
 40
0.7452138563
 40
0.7778281057
 40
0.8102906766
 40
0.8425685418
 40
0.8746286273
 40
0.9379573518
 40
1.0
 40
1.0
 40
1.0
 40
1.0
 10
5.3626052892
 20
5.1655253491
 30
0.0
 10
5.3639908616
 20
5.1659716443
 30
0.0
 10
5.3668263431
 20
5.1668475655
 30
0.0
 10
5.3711864343
 20
5.1680759686
 30
0.0
 10
5.375724405
 20
5.169225024
 30
0.0
 10
5.3804248065
 20
5.1702737906
 30
0.0
 10
5.3852707699
 20
5.1712047813
 30
0.0
 10
5.3893974617
 20
5.1718655011
 30
0.0
 10
5.3927572732
 20
5.1723196316
 30
0.0
 10
5.3961756033
 20
5.1727237074
 30
0.0
 10
5.3996244524
 20
5.1730439141
 30
0.0
 10
5.4030969025
 20
5.1732777081
 30
0.0
 10
5.4057191084
 20
5.173409064
 30
0.0
 10
5.4083494821
 20
5.1734948998
 30
0.0
 10
5.4109846441
 20
5.1735339748
 30
0.0
 10
5.4136211693
 20
5.1735266561
 30
0.0
 10
5.4171302949
 20
5.1734558371
 30
0.0
 10
5.4206297873
 20
5.1732946031
 30
0.0
 10
5.4241124109
 20
5.1730440618
 30
0.0
 10
5.4267044461
 20
5.1728125624
 30
0.0
 10
5.4292773908
 20
5.1725382238
 30
0.0
 10
5.4326642145
 20
5.1721198633
 30
0.0
 10
5.4368274268
 20
5.1715022447
 30
0.0
 10
5.440125735
 20
5.1709063999
 30
0.0
 10
5.4417528923
 20
5.1705862581
 30
0.0
 11
5.3626052892
 21
5.1655253491
 31
0.0
 11
5.36677788
 21
5.166813913
 31
0.0
 11
5.3711431216
 21
5.1680432019
 31
0.0
 11
5.3756859488
 21
5.1691926749
 31
0.0
 11
5.3803910776
 21
5.1702420935
 31
0.0
 11
5.3852416274
 21
5.1711734277
 31
0.0
 11
5.3902200095
 21
5.1719696266
 31
0.0
 11
5.3927516356
 21
5.1723117271
 31
0.0
 11
5.3953082171
 21
5.172613994
 31
0.0
 11
5.4004829658
 21
5.1730942903
 31
0.0
 11
5.403094385
 21
5.1732700423
 31
0.0
 11
5.4057173356
 21
5.1734013451
 31
0.0
 11
5.4083484435
 21
5.1734870602
 31
0.0
 11
5.4109843295
 21
5.1735262367
 31
0.0
 11
5.4136215833
 21
5.1735190035
 31
0.0
 11
5.416256784
 21
5.1734658745
 31
0.0
 11
5.4215073413
 21
5.1732239856
 31
0.0
 11
5.4241158557
 21
5.1730362542
 31
0.0
 11
5.4267086347
 21
5.1728046979
 31
0.0
 11
5.4292823499
 21
5.1725304343
 31
0.0
 11
5.4318337944
 21
5.1722153677
 31
0.0
 11
5.4368570765
 21
5.1714706629
 31
0.0
 11
5.4417528923
 21
5.1705862581
 31
0.0
  0
SPLINE
  5
25D
100
AcDbEntity
  8
0
100
AcDbSpline
 62
7
  6
CONTINUOUS
 70
0
 71
3
 72
26
 73
22
 74
20
 42
0.0000001
 43
0.0000001
 44
0.0000000001
 12
0.023538612
 22
0.0052259276
 32
0.0
 13
0.0214212217
 23
0.0110683258
 33
0.0
 40
0.0
 40
0.0
 40
0.0
 40
0.0
 40
0.0089356553
 40
0.0193612087
 40
0.031296675
 40
0.0447533971
 40
0.0597375404
 40
0.0762520098
 40
0.0942975662
 40
0.1138734034
 40
0.1575797506
 40
0.2072546637
 40
0.2627641504
 40
0.3239700721
 40
0.3907247575
 40
0.4628645481
 40
0.5402233819
 40
0.6226351825
 40
0.7099449361
 40
0.8020241526
 40
1.0
 40
1.0
 40
1.0
 40
1.0
 10
5.3412271281
 20
5.1544124247
 30
0.0
 10
5.3412972391
 20
5.1544279904
 30
0.0
 10
5.3414477848
 20
5.1544678856
 30
0.0
 10
5.3416872551
 20
5.1545450886
 30
0.0
 10
5.3419576235
 20
5.1546441256
 30
0.0
 10
5.3422588917
 20
5.1547648331
 30
0.0
 10
5.3425910733
 20
5.1549070466
 30
0.0
 10
5.3429541615
 20
5.155070582
 30
0.0
 10
5.3433481519
 20
5.1552552395
 30
0.0
 10
5.3439365404
 20
5.155539979
 30
0.0
 10
5.3447475263
 20
5.1559481575
 30
0.0
 10
5.3458092123
 20
5.1565003282
 30
0.0
 10
5.3469900244
 20
5.1571281379
 30
0.0
 10
5.3482878442
 20
5.1578282159
 30
0.0
 10
5.3497004665
 20
5.1585969777
 30
0.0
 10
5.3512257646
 20
5.1594302811
 30
0.0
 10
5.3528614663
 20
5.1603239738
 30
0.0
 10
5.3546053446
 20
5.1612739628
 30
0.0
 10
5.3564555668
 20
5.1622760515
 30
0.0
 10
5.3591282737
 20
5.1637097862
 30
0.0
 10
5.3611916611
 20
5.1647949287
 30
0.0
 10
5.3626052892
 20
5.1655253491
 30
0.0
 11
5.3412271281
 21
5.1544124247
 31
0.0
 11
5.3414356884
 21
5.1544664909
 31
0.0
 11
5.3416752003
 21
5.1545428135
 31
0.0
 11
5.3419456526
 21
5.154641179
 31
0.0
 11
5.3422470341
 21
5.1547613739
 31
0.0
 11
5.3425793337
 21
5.1549031846
 31
0.0
 11
5.3429425402
 21
5.1550663978
 31
0.0
 11
5.3433366424
 21
5.1552507999
 31
0.0
 11
5.3437616272
 21
5.1554561757
 31
0.0
 11
5.344703673
 21
5.1559285328
 31
0.0
 11
5.3457668105
 21
5.1564802047
 31
0.0
 11
5.3469489943
 21
5.1571077705
 31
0.0
 11
5.3482481788
 21
5.1578078078
 31
0.0
 11
5.3496622487
 21
5.1585766573
 31
0.0
 11
5.3511889486
 21
5.1594101787
 31
0.0
 11
5.3528260059
 21
5.1603041737
 31
0.0
 11
5.3545711494
 21
5.1612544433
 31
0.0
 11
5.3564225082
 21
5.1622565911
 31
0.0
 11
5.3583791677
 21
5.1633057492
 31
0.0
 11
5.3626052892
 21
5.1655253491
 31
0.0
  0
LINE
  5
25E
100
AcDbEntity
  8
0
100
AcDbLine
 62
7
  6
CONTINUOUS
 10
5.4927953326
 20
5.1522674081
 11
5.4939679136
 21
5.1516581993
  0
SPLINE
  5
25F
100
AcDbEntity
  8
0
100
AcDbSpline
 62
6
  6
CONTINUOUS
 70
0
 71
3
 72
14
 73
10
 74
8
 42
0.0000001
 43
0.0000001
 44
0.0000000001
 12
0.0220136555
 22
-0.0055614496
 32
0.0
 13
0.0216056448
 23
-0.0069804632
 33
0.0
 40
0.0
 40
0.0
 40
0.0
 40
0.0
 40
0.2814561424
 40
0.4161488426
 40
0.5460727171
 40
0.6704448683
 40
0.7884241792
 40
0.8988325305
 40
1.0
 40
1.0
 40
1.0
 40
1.0
 10
5.4709999684
 20
5.1586163447
 30
0.0
 10
5.4730652612
 20
5.1580945767
 30
0.0
 10
5.4761102222
 20
5.1572881924
 30
0.0
 10
5.4800886391
 20
5.1561685972
 30
0.0
 10
5.482914971
 20
5.1553443043
 30
0.0
 10
5.4856131013
 20
5.1545326444
 30
0.0
 10
5.4881639255
 20
5.1537443183
 30
0.0
 10
5.490542199
 20
5.1529926578
 30
0.0
 10
5.4920667364
 20
5.1525028067
 30
0.0
 10
5.4927953326
 20
5.1522674081
 30
0.0
 11
5.4709999684
 21
5.1586163447
 31
0.0
 11
5.4771780954
 21
5.156982382
 31
0.0
 11
5.4801220344
 21
5.156154103
 31
0.0
 11
5.4829541027
 21
5.1553284773
 31
0.0
 11
5.4856583735
 21
5.1545152296
 31
0.0
 11
5.4882177919
 21
5.1537245899
 31
0.0
 11
5.490608254
 21
5.1529695979
 31
0.0
 11
5.4927953326
 21
5.1522674081
 31
0.0
  0
ENDSEC
  0
SECTION
  2
OBJECTS
  0
DICTIONARY
  5
C
100
AcDbDictionary
280
0
281
1
  3
ACAD_GROUP
350
D
  3
ACAD_MLINESTYLE
350
17
  3
ACAD_LAYOUT
350
1A
  3
ACAD_PLOTSETTINGS
350
19
  3
ACAD_PLOTSTYLENAME
350
E
  0
DICTIONARY
  5
D
102
{ACAD_REACTORS
330
C
102
}
100
AcDbDictionary
280
0
281
1
  0
ACDBDICTIONARYWDFLT
  5
E
102
{ACAD_REACTORS
330
C
102
}
100
AcDbDictionary
281
1
  3
Normal
350
F
100
AcDbDictionaryWithDefault
340
F
  0
DICTIONARY
  5
17
102
{ACAD_REACTORS
330
C
102
}
100
AcDbDictionary
280
0
281
1
  3
Standard
350
18
  0
DICTIONARY
  5
19
102
{ACAD_REACTORS
330
C
102
}
100
AcDbDictionary
281
1
  0
DICTIONARY
  5
1A
102
{ACAD_REACTORS
330
C
102
}
100
AcDbDictionary
281
1
  3
Model
350
260
  3
Layout1
350
261
  0
ACDBPLACEHOLDER
  5
F
102
{ACAD_REACTORS
330
E
102
}
  0
MLINESTYLE
  5
18
102
{ACAD_REACTORS
330
17
102
}
100
AcDbMlineStyle
  2
STANDARD
 70
0
  3

 62
256
 51
90.0
 52
90.0
 71
2
 49
0.5
 62
256
  6
BYLAYER
 49
-0.5
 62
256
  6
BYLAYER
  0
LAYOUT
  5
260
102
{ACAD_REACTORS
330
1A
102
}
100
AcDbPlotSettings
  1

  2
none_device
  4
ISO_A4_(297.00_x_210.00_MM)
  6

 40
0.0
 41
0.0
 42
0.0
 43
0.0
 44
297.0
 45
210.0
 46
0.0
 47
0.0
 48
0.0
 49
0.0
140
0.0
141
0.0
142
1.0
143
1.0
 70
1024
 72
0
 73
0
 74
0
  7

 75
0
147
1.0
148
0.0
149
0.0
100
AcDbLayout
  1
Model
 70
0
 71
0
 10
0.0
 20
0.0
 11
11.6929133858
 21
8.2677165354
 12
0.0
 22
0.0
 32
0.0
 14
0.0
 24
0.0
 34
0.0
 15
0.0
 25
0.0
 35
0.0
146
0.0
 13
0.0
 23
0.0
 33
0.0
 16
1.0
 26
0.0
 36
0.0
 17
0.0
 27
1.0
 37
0.0
 76
0
330
203
345
0
346
0
  0
LAYOUT
  5
261
102
{ACAD_REACTORS
330
1A
102
}
100
AcDbPlotSettings
  1

  2
none_device
  4
ISO_A4_(297.00_x_210.00_MM)
  6

 40
0.0
 41
0.0
 42
0.0
 43
0.0
 44
297.0
 45
210.0
 46
0.0
 47
0.0
 48
0.0
 49
0.0
140
0.0
141
0.0
142
1.0
143
1.0
 70
0
 72
0
 73
0
 74
0
  7

 75
0
147
1.0
148
0.0
149
0.0
100
AcDbLayout
  1
Layout1
 70
0
 71
1
 10
0.0
 20
0.0
 11
11.6929133858
 21
8.2677165354
 12
0.0
 22
0.0
 32
0.0
 14
0.0
 24
0.0
 34
0.0
 15
0.0
 25
0.0
 35
0.0
146
0.0
 13
0.0
 23
0.0
 33
0.0
 16
1.0
 26
0.0
 36
0.0
 17
0.0
 27
1.0
 37
0.0
 76
0
330
204
345
0
346
0
  0
ENDSEC
  0
EOF
