999
DXF file: E:\BT Custom\CADOUTPUT\_RIGHT.dxf
999
Pro/ENGINEER 2018400 by Parametric Technology Corporation
  0
SECTION
  2
HEADER
  9
$ACADVER
  1
AC1018
  9
$DWGCODEPAGE
  3
ANSI_1252
  9
$EXTMAX
 10
22.0
 20
17.0
 30
0.0
  9
$EXTMIN
 10
0.0
 20
0.0
 30
0.0
  9
$LIMMIN
 10
0.0
 20
0.0
  9
$LIMMAX
 10
22.0
 20
17.0
  9
$VIEWCTR
 10
11.0
 20
8.5
  9
$VIEWSIZE
 40
17.0
  9
$CLAYER
  8
0
  9
$LTSCALE
 40
1.21
  9
$CELTYPE
  6
BYLAYER
  9
$DIMSCALE
 40
1.0
  9
$DIMASZ
 40
0.1
  9
$DIMEXO
 40
0.0625
  9
$DIMDLI
 40
0.836
  9
$DIMEXE
 40
0.125
  9
$DIMCEN
 40
0.198
  9
$DIMLFAC
 40
1.0
  9
$DIMBLK
  1
_FILLED
  9
$DIMALT
 70
1
  9
$DIMALTD
 70
2
  9
$DIMALTTD
 70
2
  9
$DIMALTF
 40
25.4
  9
$DIMTXT
 40
0.08
  9
$DIMTOL
 70
1
  9
$DIMLIM
 70
0
  9
$DIMTFAC
 40
1.0
  9
$DIMTP
 40
0.001
  9
$DIMTM
 40
0.001
  9
$DIMGAP
 40
0.09
  9
$DIMDSEP
 70
46
  9
$AUNITS
 70
0
  9
$PDMODE
 70
3
  9
$PDSIZE
 40
0.06
  9
$HANDSEED
  5
2B4
  9
$TILEMODE
 70
1
  9
$MEASUREMENT
 70
0
  9
$INSUNITS
 70
1
  0
ENDSEC
  0
SECTION
  2
CLASSES
  0
CLASS
  1
ACDBDICTIONARYWDFLT
  2
AcDbDictionaryWithDefault
  3
AutoCAD 2000
 90
0
 91
1
280
0
281
0
  0
CLASS
  1
ACDBPLACEHOLDER
  2
AcDbPlaceHolder
  3
AutoCAD 2000
 90
0
 91
1
280
0
281
0
  0
CLASS
  1
LAYOUT
  2
AcDbLayout
  3
AutoCAD 2000
 90
0
 91
0
280
0
281
0
  0
ENDSEC
  0
SECTION
  2
TABLES
  0
TABLE
  2
VPORT
  5
8
100
AcDbSymbolTable
 70
2
  0
VPORT
  5
1F4
100
AcDbSymbolTableRecord
100
AcDbViewportTableRecord
  2
*ACTIVE
 70
0
 10
0.0
 20
0.0
 11
1.0
 21
1.0
 12
11.0
 22
8.5
 13
0.0
 23
0.0
 14
1.0
 24
1.0
 15
0.0
 25
0.0
 16
0.0
 26
0.0
 36
1.0
 17
0.0
 27
0.0
 37
0.0
 40
17.0
 41
1.2941176471
 42
50.0
 43
0.0
 44
0.0
 50
0.0
 51
0.0
 71
0
 72
100
 73
1
 74
1
 75
0
 76
0
 77
0
 78
0
  0
ENDTAB
  0
TABLE
  2
LTYPE
  5
5
100
AcDbSymbolTable
 70
6
  0
LTYPE
  5
14
100
AcDbSymbolTableRecord
100
AcDbLinetypeTableRecord
  2
BYBLOCK
 70
0
  3

 72
65
 73
0
 40
0.0
  0
LTYPE
  5
15
100
AcDbSymbolTableRecord
100
AcDbLinetypeTableRecord
  2
BYLAYER
 70
0
  3

 72
65
 73
0
 40
0.0
  0
LTYPE
  5
16
100
AcDbSymbolTableRecord
100
AcDbLinetypeTableRecord
  2
CONTINUOUS
 70
64
  3
Solid line
 72
65
 73
0
 40
0.0
  0
LTYPE
  5
1F5
100
AcDbSymbolTableRecord
100
AcDbLinetypeTableRecord
  2
CENTER
 70
64
  3
____ _ ____ _ ____ _ ____ _ ____ _ ____ _ ____
 72
65
 73
4
 40
0.6
 49
0.375
 74
0
 49
-0.075
 74
0
 49
0.075
 74
0
 49
-0.075
 74
0
  0
LTYPE
  5
1F6
100
AcDbSymbolTableRecord
100
AcDbLinetypeTableRecord
  2
HIDDEN
 70
64
  3
- - - - - - - - - - - - - - - - - - - -
 72
65
 73
2
 40
0.2
 49
0.1
 74
0
 49
-0.1
 74
0
  0
LTYPE
  5
1F7
100
AcDbSymbolTableRecord
100
AcDbLinetypeTableRecord
  2
PHANTOM
 70
64
  3
_____ _ _ _____ _ _ _____ _ _ _____
 72
65
 73
6
 40
0.8
 49
0.45
 74
0
 49
-0.05
 74
0
 49
0.1
 74
0
 49
-0.05
 74
0
 49
0.1
 74
0
 49
-0.05
 74
0
  0
LTYPE
  5
1F8
100
AcDbSymbolTableRecord
100
AcDbLinetypeTableRecord
  2
DOT
 70
64
  3
. . . . . . . . . . . . . . . . . . . .
 72
65
 73
2
 40
0.2
 49
0.1
 74
0
 49
-0.1
 74
0
  0
LTYPE
  5
1F9
100
AcDbSymbolTableRecord
100
AcDbLinetypeTableRecord
  2
DASHED
 70
64
  3
- - - - - - - - - - - - - - - - - - - -
 72
65
 73
2
 40
0.2
 49
0.1
 74
0
 49
-0.1
 74
0
  0
ENDTAB
  0
TABLE
  2
LAYER
  5
2
100
AcDbSymbolTable
 70
36
  0
LAYER
  5
10
100
AcDbSymbolTableRecord
100
AcDbLayerTableRecord
  2
0
 70
0
 62
7
  6
CONTINUOUS
370
-3
390
F
  0
LAYER
  5
1FA
100
AcDbSymbolTableRecord
100
AcDbLayerTableRecord
  2
DEFAULT_1
 70
0
 62
7
  6
CENTER
370
-3
390
F
  0
LAYER
  5
1FB
100
AcDbSymbolTableRecord
100
AcDbLayerTableRecord
  2
DEFAULT_2
 70
0
 62
8
  6
HIDDEN
370
-3
390
F
  0
LAYER
  5
1FC
100
AcDbSymbolTableRecord
100
AcDbLayerTableRecord
  2
DEFAULT_3
 70
0
 62
7
  6
PHANTOM
370
-3
390
F
  0
LAYER
  5
1FD
100
AcDbSymbolTableRecord
100
AcDbLayerTableRecord
  2
ALL_FEATURES
 70
0
 62
7
  6
CONTINUOUS
370
-3
390
F
  0
LAYER
  5
1FE
100
AcDbSymbolTableRecord
100
AcDbLayerTableRecord
  2
AXES_FEATURES
 70
0
 62
7
  6
CONTINUOUS
370
-3
390
F
  0
LAYER
  5
1FF
100
AcDbSymbolTableRecord
100
AcDbLayerTableRecord
  2
DEFAULT_COORDINATE_SYSTEM
 70
0
 62
7
  6
CONTINUOUS
370
-3
390
F
  0
LAYER
  5
200
100
AcDbSymbolTableRecord
100
AcDbLayerTableRecord
  2
DEFAULT_DATUM_AXES
 70
0
 62
7
  6
CONTINUOUS
370
-3
390
F
  0
LAYER
  5
201
100
AcDbSymbolTableRecord
100
AcDbLayerTableRecord
  2
DEFAULT_DATUM_PLANES
 70
0
 62
7
  6
CONTINUOUS
370
-3
390
F
  0
LAYER
  5
202
100
AcDbSymbolTableRecord
100
AcDbLayerTableRecord
  2
DIMENSIONS
 70
0
 62
7
  6
CONTINUOUS
370
-3
390
F
  0
ENDTAB
  0
TABLE
  2
STYLE
  5
3
100
AcDbSymbolTable
 70
1
  0
STYLE
  5
11
100
AcDbSymbolTableRecord
100
AcDbTextStyleTableRecord
  2
STANDARD
 70
0
 40
0.0
 41
0.8
 50
0.0
 71
0
 42
0.2
  3
txt
  4

  0
STYLE
  5
203
100
AcDbSymbolTableRecord
100
AcDbTextStyleTableRecord
  2
TEXTSTYLE_1
 70
0
 40
0.0
 41
0.8
 50
0.0
 71
0
 42
0.2
  3
gdt
  4

  0
ENDTAB
  0
TABLE
  2
VIEW
  5
6
100
AcDbSymbolTable
 70
0
  0
ENDTAB
  0
TABLE
  2
UCS
  5
7
100
AcDbSymbolTable
 70
0
  0
ENDTAB
  0
TABLE
  2
APPID
  5
9
100
AcDbSymbolTable
 70
1
  0
APPID
  5
204
100
AcDbSymbolTableRecord
100
AcDbRegAppTableRecord
  2
ACAD
 70
0
  0
ENDTAB
  0
TABLE
  2
BLOCK_RECORD
  5
1
100
AcDbSymbolTable
 70
0
  0
BLOCK_RECORD
  5
205
100
AcDbSymbolTableRecord
100
AcDbBlockTableRecord
  2
*Model_Space
  0
BLOCK_RECORD
  5
206
100
AcDbSymbolTableRecord
100
AcDbBlockTableRecord
  2
*Paper_Space
  0
BLOCK_RECORD
  5
207
100
AcDbSymbolTableRecord
100
AcDbBlockTableRecord
  2
_FILLED
  0
ENDTAB
  0
TABLE
  2
DIMSTYLE
  5
A
100
AcDbSymbolTable
 70
1
100
AcDbDimStyleTable
 71
0
  0
DIMSTYLE
105
208
100
AcDbSymbolTableRecord
100
AcDbDimStyleTableRecord
  2
STANDARD
 70
0
  3

  4

 40
1.0
 41
0.1
 42
0.0625
 43
0.38
 44
0.125
 45
0.0
 46
0.0
 47
0.001
 48
0.001
140
0.08
141
0.09
142
0.0
143
25.4
144
1.0
145
0.0
146
1.0
147
0.09
 71
1.0
 72
0.0
 73
1
 74
1
 75
0
 76
0
 77
0
 78
4
 79
1
170
1
171
2
172
0
173
0
174
0
175
0
176
0
177
0
178
0
270
2
179
3
271
3
272
3
273
2
274
2
275
0
280
0
281
0
282
0
283
1
284
4
285
0
286
0
287
3
288
0
340
11
278
46
341
207
342
207
343
207
344
207
  0
ENDTAB
  0
ENDSEC
  0
SECTION
  2
BLOCKS
  0
BLOCK
  5
20
100
AcDbEntity
  8
0
100
AcDbBlockBegin
  2
*Model_Space
 70
0
 10
0.0
 20
0.0
 30
0.0
  3
*Model_Space
  1

  0
ENDBLK
  5
21
100
AcDbEntity
  8
0
100
AcDbBlockEnd
  0
BLOCK
  5
1C
100
AcDbEntity
  8
0
100
AcDbBlockBegin
  2
*Paper_Space
 70
0
 10
0.0
 20
0.0
 30
0.0
  3
*Paper_Space
  1

  0
ENDBLK
  5
1D
100
AcDbEntity
  8
0
100
AcDbBlockEnd
  0
BLOCK
  5
209
100
AcDbEntity
  8
0
100
AcDbBlockBegin
  2
_FILLED
 70
64
 10
0.0
 20
0.0
  3
_FILLED
  1

  0
SOLID
  5
20A
100
AcDbEntity
  8
0
  6
BYBLOCK
 62
0
100
AcDbTrace
 10
0.0
 20
0.0
 11
-1.0
 21
0.2
 12
-1.0
 22
-0.2
 13
-1.0
 23
-0.2
  0
ENDBLK
  5
20B
100
AcDbEntity
  8
0
  6
BYBLOCK
 62
0
100
AcDbBlockEnd
  0
ENDSEC
  0
SECTION
  2
ENTITIES
  0
LINE
  5
20C
100
AcDbEntity
  8
0
100
AcDbLine
 62
7
  6
CONTINUOUS
 10
11.4558780555
 20
3.964976419
 11
13.8158780555
 21
3.964976419
  0
LINE
  5
20D
100
AcDbEntity
  8
0
100
AcDbLine
 62
9
  6
CONTINUOUS
 10
11.4558780555
 20
4.244976419
 11
13.8158780555
 21
4.244976419
  0
LINE
  5
20E
100
AcDbEntity
  8
0
100
AcDbLine
 62
7
  6
CONTINUOUS
 10
11.5058780555
 20
4.294976419
 11
13.7658780555
 21
4.294976419
  0
LINE
  5
20F
100
AcDbEntity
  8
0
100
AcDbLine
 62
7
  6
CONTINUOUS
 10
11.5363780555
 20
4.321976419
 11
13.7353780555
 21
4.321976419
  0
LINE
  5
210
100
AcDbEntity
  8
0
100
AcDbLine
 62
9
  6
CONTINUOUS
 10
11.5544963609
 20
4.3635446576
 11
13.7172597502
 21
4.3635446576
  0
LINE
  5
211
100
AcDbEntity
  8
0
100
AcDbLine
 62
7
  6
CONTINUOUS
 10
7.7017290252
 20
11.7685525753
 11
7.7012245745
 21
11.7676859168
  0
LINE
  5
212
100
AcDbEntity
  8
0
100
AcDbLine
 62
7
  6
CONTINUOUS
 10
8.0366465036
 20
12.4100267774
 11
7.8040728061
 21
11.7710357952
  0
LINE
  5
213
100
AcDbEntity
  8
0
100
AcDbLine
 62
7
  6
CONTINUOUS
 10
7.6691324369
 20
11.4995236773
 11
7.6785749281
 21
11.5239683611
  0
LINE
  5
214
100
AcDbEntity
  8
0
100
AcDbLine
 62
7
  6
CONTINUOUS
 10
8.2027648112
 20
11.305297377
 11
8.2112441832
 21
11.3300926076
  0
LINE
  5
215
100
AcDbEntity
  8
0
100
AcDbLine
 62
7
  6
CONTINUOUS
 10
8.506492814
 20
12.2390167057
 11
8.2739191165
 21
11.6000257236
  0
LINE
  5
216
100
AcDbEntity
  8
0
100
AcDbLine
 62
7
  6
CONTINUOUS
 10
8.3086776592
 20
11.481014629
 11
8.3184581006
 21
11.4869769677
  0
LINE
  5
217
100
AcDbEntity
  8
0
100
AcDbLine
 62
7
  6
CONTINUOUS
 10
8.3211401573
 20
11.4885506042
 11
8.3184581007
 21
11.4869769674
  0
LINE
  5
218
100
AcDbEntity
  8
0
100
AcDbLine
 62
7
  6
CONTINUOUS
 10
8.3507228182
 20
11.5323381524
 11
8.3505521724
 21
11.5313499988
  0
LWPOLYLINE
  5
219
100
AcDbEntity
  8
0
100
AcDbPolyline
 62
7
  6
CONTINUOUS
 90
9
 70
0
 10
13.7021929941
 20
4.388021524
 10
13.675241537
 20
4.4057800223
 10
13.6481343564
 20
4.4260785342
 10
13.6223277706
 20
4.4480068492
 10
13.5979196542
 20
4.471481803
 10
13.5750025718
 20
4.496414359
 10
13.5536634261
 20
4.5227099469
 10
13.5339831278
 20
4.5502688216
 10
13.5160362888
 20
4.5789864406
  0
LINE
  5
21A
100
AcDbEntity
  8
0
100
AcDbLine
 62
7
  6
CONTINUOUS
 10
7.6962445648
 20
11.7159939995
 11
7.697287625
 21
11.713064531
  0
LINE
  5
21B
100
AcDbEntity
  8
0
100
AcDbLine
 62
7
  6
CONTINUOUS
 10
7.7009473606
 20
11.7022103681
 11
7.6972876254
 21
11.7130645311
  0
LWPOLYLINE
  5
21C
100
AcDbEntity
  8
0
100
AcDbPolyline
 62
7
  6
CONTINUOUS
 90
15
 70
0
 10
11.9617829657
 20
7.204976419
 10
11.9577675878
 20
7.2047064703
 10
11.9538244629
 20
7.2039014794
 10
11.9500245553
 20
7.2025759297
 10
11.9464362528
 20
7.200753673
 10
11.9431241346
 20
7.1984675004
 10
11.9401478099
 20
7.1957585513
 10
11.9375608459
 20
7.1926755733
 10
11.9354098046
 20
7.1892740474
 10
11.9337334053
 20
7.1856151914
 10
11.9325618239
 20
7.1817648568
 10
11.9319161494
 20
7.1777923423
 10
11.9318080043
 20
7.1737691454
 10
11.9322393356
 20
7.1697676761
 10
11.9325906466
 20
7.1680650803
  0
LINE
  5
21D
100
AcDbEntity
  8
0
100
AcDbLine
 62
7
  6
CONTINUOUS
 10
13.3099733622
 20
7.204976419
 11
11.9617827213
 21
7.204976419
  0
LINE
  5
21E
100
AcDbEntity
  8
0
100
AcDbLine
 62
9
  6
CONTINUOUS
 10
11.9658780555
 20
7.2591506641
 11
13.3058780555
 21
7.2591506641
  0
LINE
  5
21F
100
AcDbEntity
  8
0
100
AcDbLine
 62
9
  6
CONTINUOUS
 10
13.2834477029
 20
7.300862947
 11
11.9883084082
 21
7.3008629469
  0
LINE
  5
220
100
AcDbEntity
  8
0
100
AcDbLine
 62
9
  6
CONTINUOUS
 10
13.2691020224
 20
7.3153152723
 11
12.0026540887
 21
7.3153152723
  0
LINE
  5
221
100
AcDbEntity
  8
0
100
AcDbLine
 62
9
  6
CONTINUOUS
 10
12.2767453647
 20
8.0934190463
 11
12.9950107464
 21
8.0934190463
  0
LINE
  5
222
100
AcDbEntity
  8
0
100
AcDbLine
 62
9
  6
CONTINUOUS
 10
12.2665834325
 20
8.1289935216
 11
13.0051726786
 21
8.1289935216
  0
LINE
  5
223
100
AcDbEntity
  8
0
100
AcDbLine
 62
7
  6
CONTINUOUS
 10
12.2480358902
 20
8.189976419
 11
13.0237202209
 21
8.189976419
  0
LINE
  5
224
100
AcDbEntity
  8
0
100
AcDbLine
 62
9
  6
CONTINUOUS
 10
12.2478414426
 20
8.1931303517
 11
13.0239146685
 21
8.1931303517
  0
LINE
  5
225
100
AcDbEntity
  8
0
100
AcDbLine
 62
7
  6
CONTINUOUS
 10
12.2777845893
 20
8.224976419
 11
12.9939715218
 21
8.224976419
  0
LINE
  5
226
100
AcDbEntity
  8
0
100
AcDbLine
 62
7
  6
CONTINUOUS
 10
13.5160362888
 20
4.5789864406
 11
13.5033929442
 21
4.6022971622
  0
LINE
  5
227
100
AcDbEntity
  8
0
100
AcDbLine
 62
7
  6
CONTINUOUS
 10
11.4558780555
 20
3.964976419
 11
11.4558780555
 21
4.244976419
  0
LINE
  5
228
100
AcDbEntity
  8
0
100
AcDbLine
 62
7
  6
CONTINUOUS
 10
11.5363780555
 20
4.294976419
 11
11.5363780555
 21
4.321976419
  0
LWPOLYLINE
  5
229
100
AcDbEntity
  8
0
100
AcDbPolyline
 62
7
  6
CONTINUOUS
 90
3
 70
0
 10
13.508276001
 20
4.5904197132
 10
13.5062130319
 20
4.5952203654
 10
13.4945535603
 20
4.6244789273
  0
LINE
  5
22A
100
AcDbEntity
  8
0
100
AcDbLine
 62
7
  6
CONTINUOUS
 10
11.9325893735
 20
7.1680668208
 11
11.9668542208
 21
7.0105660337
  0
LWPOLYLINE
  5
22B
100
AcDbEntity
  8
0
100
AcDbPolyline
 62
7
  6
CONTINUOUS
 90
3
 70
0
 10
12.0184195626
 20
6.6898127559
 10
12.0353006275
 20
6.5286446783
 10
12.046227878
 20
6.3673158578
  0
LINE
  5
22C
100
AcDbEntity
  8
0
100
AcDbLine
 62
7
  6
CONTINUOUS
 10
8.1422238588
 20
11.1797206575
 11
7.6347900911
 21
11.3644114448
  0
LINE
  5
22D
100
AcDbEntity
  8
0
100
AcDbLine
 62
9
  6
CONTINUOUS
 10
7.6209011366
 20
11.3710420484
 11
8.1571257317
 21
11.1758722569
  0
LINE
  5
22E
100
AcDbEntity
  8
0
100
AcDbLine
 62
9
  6
CONTINUOUS
 10
7.607194209
 20
11.3872706145
 11
8.1780573686
 21
11.1794934166
  0
LINE
  5
22F
100
AcDbEntity
  8
0
100
AcDbLine
 62
9
  6
CONTINUOUS
 10
7.6102800605
 20
11.426476
 11
8.2008942052
 21
11.2115100313
  0
LINE
  5
230
100
AcDbEntity
  8
0
100
AcDbLine
 62
9
  6
CONTINUOUS
 10
8.2001310311
 20
11.2335616362
 11
7.6250391842
 21
11.4428779505
  0
LWPOLYLINE
  5
231
100
AcDbEntity
  8
0
100
AcDbPolyline
 62
7
  6
CONTINUOUS
 90
3
 70
0
 10
13.5028070714
 20
4.6033773445
 10
13.498387939
 20
4.6144128883
 10
13.4945536729
 20
4.6244792847
  0
LINE
  5
232
100
AcDbEntity
  8
0
100
AcDbLine
 62
7
  6
CONTINUOUS
 10
13.4945541502
 20
4.6244789504
 11
13.4414306086
 21
4.7759239932
  0
LINE
  5
233
100
AcDbEntity
  8
0
100
AcDbLine
 62
7
  6
CONTINUOUS
 10
11.9668467798
 20
7.0106035323
 11
11.9956009687
 21
6.8505003586
  0
LINE
  5
234
100
AcDbEntity
  8
0
100
AcDbLine
 62
7
  6
CONTINUOUS
 10
11.9955923716
 20
6.8505539268
 11
12.0184258907
 21
6.6897612691
  0
LINE
  5
235
100
AcDbEntity
  8
0
100
AcDbLine
 62
7
  6
CONTINUOUS
 10
12.2478414426
 20
8.1931303517
 11
12.2480358902
 21
8.189976419
  0
LINE
  5
236
100
AcDbEntity
  8
0
100
AcDbLine
 62
7
  6
CONTINUOUS
 10
12.0462282903
 20
6.3673083876
 11
12.0512142786
 21
6.2061094174
  0
LINE
  5
237
100
AcDbEntity
  8
0
100
AcDbLine
 62
7
  6
CONTINUOUS
 10
11.9658780555
 20
7.2591506641
 11
11.9658780555
 21
7.204976419
  0
LINE
  5
238
100
AcDbEntity
  8
0
100
AcDbLine
 62
7
  6
CONTINUOUS
 10
12.0512142786
 20
6.2061094174
 11
12.0502822609
 21
6.0450592733
  0
LINE
  5
239
100
AcDbEntity
  8
0
100
AcDbLine
 62
7
  6
CONTINUOUS
 10
12.0502837227
 20
6.0451217028
 11
12.0434387995
 21
5.8842711839
  0
LINE
  5
23A
100
AcDbEntity
  8
0
100
AcDbLine
 62
7
  6
CONTINUOUS
 10
12.0434445936
 20
5.8843653158
 11
12.0306793564
 21
5.7237600675
  0
LINE
  5
23B
100
AcDbEntity
  8
0
100
AcDbLine
 62
9
  6
CONTINUOUS
 10
7.6691324369
 20
11.4995236773
 11
8.2027648112
 21
11.305297377
  0
LINE
  5
23C
100
AcDbEntity
  8
0
100
AcDbLine
 62
9
  6
CONTINUOUS
 10
7.6785749299
 20
11.5239683605
 11
8.2112441814
 21
11.3300926083
  0
LINE
  5
23D
100
AcDbEntity
  8
0
100
AcDbLine
 62
9
  6
CONTINUOUS
 10
7.7040169706
 20
11.609556463
 11
8.2467694194
 21
11.4120107271
  0
LINE
  5
23E
100
AcDbEntity
  8
0
100
AcDbLine
 62
9
  6
CONTINUOUS
 10
7.7009473606
 20
11.7022103681
 11
8.3086776592
 21
11.481014629
  0
LINE
  5
23F
100
AcDbEntity
  8
0
100
AcDbLine
 62
9
  6
CONTINUOUS
 10
7.697287625
 20
11.713064531
 11
8.3184581007
 21
11.4869769674
  0
LINE
  5
240
100
AcDbEntity
  8
0
100
AcDbLine
 62
9
  6
CONTINUOUS
 10
7.6962445644
 20
11.7159939993
 11
8.3211401575
 21
11.488550604
  0
LINE
  5
241
100
AcDbEntity
  8
0
100
AcDbLine
 62
9
  6
CONTINUOUS
 10
7.7012245745
 20
11.7676859168
 11
8.3505521724
 21
11.5313499988
  0
LINE
  5
242
100
AcDbEntity
  8
0
100
AcDbLine
 62
9
  6
CONTINUOUS
 10
7.7017290304
 20
11.7685525722
 11
8.3507228122
 21
11.5323381534
  0
LINE
  5
243
100
AcDbEntity
  8
0
100
AcDbLine
 62
9
  6
CONTINUOUS
 10
7.7147739188
 20
11.7820092062
 11
8.3493796055
 21
11.5510316258
  0
LINE
  5
244
100
AcDbEntity
  8
0
100
AcDbLine
 62
7
  6
CONTINUOUS
 10
8.3176148247
 20
11.5841217864
 11
7.7603770979
 21
11.7869397324
  0
LWPOLYLINE
  5
245
100
AcDbEntity
  8
0
100
AcDbPolyline
 62
7
  6
CONTINUOUS
 90
5
 70
0
 10
13.4414421277
 20
4.7758911546
 10
13.3934195593
 20
4.9308755291
 10
13.3511930288
 20
5.0874327227
 10
13.31480969
 20
5.2453000489
 10
13.2843135633
 20
5.4041795269
  0
LWPOLYLINE
  5
246
100
AcDbEntity
  8
0
100
AcDbPolyline
 62
7
  6
CONTINUOUS
 90
4
 70
0
 10
13.3934495699
 20
4.9307721725
 10
13.351223139
 20
5.0873118517
 10
13.3148367444
 20
5.2451705803
 10
13.2843378686
 20
5.4040393648
  0
LINE
  5
247
100
AcDbEntity
  8
0
100
AcDbLine
 62
7
  6
CONTINUOUS
 10
12.3858780555
 20
8.224976419
 11
12.3858780555
 21
11.554976419
  0
LINE
  5
248
100
AcDbEntity
  8
0
100
AcDbLine
 62
7
  6
CONTINUOUS
 10
12.0306909085
 20
5.723877123
 11
12.0120076744
 21
5.5636398512
  0
LINE
  5
249
100
AcDbEntity
  8
0
100
AcDbLine
 62
7
  6
CONTINUOUS
 10
12.0120252376
 20
5.5637699586
 11
11.987419466
 21
5.4040457239
  0
LINE
  5
24A
100
AcDbEntity
  8
0
100
AcDbLine
 62
7
  6
CONTINUOUS
 10
11.9874424499
 20
5.4041790104
 11
11.9569196457
 21
5.2451732216
  0
LWPOLYLINE
  5
24B
100
AcDbEntity
  8
0
100
AcDbPolyline
 62
7
  6
CONTINUOUS
 90
4
 70
0
 10
13.2843378686
 20
5.4040393648
 10
13.2597305064
 20
5.5637724215
 10
13.2410646628
 20
5.7238827971
 10
13.2283110437
 20
5.8843743744
  0
LWPOLYLINE
  5
24C
100
AcDbEntity
  8
0
100
AcDbPolyline
 62
7
  6
CONTINUOUS
 90
4
 70
0
 10
13.2283236323
 20
5.8841536147
 10
13.2214720918
 20
6.0451332944
 10
13.2205419588
 20
6.2061221457
 10
13.2255284116
 20
6.3673203806
  0
LINE
  5
24D
100
AcDbEntity
  8
0
100
AcDbLine
 62
7
  6
CONTINUOUS
 10
12.8858780555
 20
8.224976419
 11
12.8858780555
 21
11.554976419
  0
LINE
  5
24E
100
AcDbEntity
  8
0
100
AcDbLine
 62
7
  6
CONTINUOUS
 10
13.0239146685
 20
8.1931303517
 11
13.0237202209
 21
8.189976419
  0
LINE
  5
24F
100
AcDbEntity
  8
0
100
AcDbLine
 62
7
  6
CONTINUOUS
 10
11.9569463995
 20
5.2452998284
 11
11.9205353873
 21
5.0873221172
  0
LINE
  5
250
100
AcDbEntity
  8
0
100
AcDbLine
 62
7
  6
CONTINUOUS
 10
11.920562893
 20
5.0874319169
 11
11.8783120783
 21
4.9307910287
  0
LINE
  5
251
100
AcDbEntity
  8
0
100
AcDbLine
 62
7
  6
CONTINUOUS
 10
11.8783361198
 20
4.9308740607
 11
11.83030975
 21
4.7758762166
  0
LINE
  5
252
100
AcDbEntity
  8
0
100
AcDbLine
 62
9
  6
CONTINUOUS
 10
8.506492814
 20
12.2390167057
 11
8.0366465036
 21
12.4100267774
  0
LWPOLYLINE
  5
253
100
AcDbEntity
  8
0
100
AcDbPolyline
 62
7
  6
CONTINUOUS
 90
3
 70
0
 10
13.2597530474
 20
5.5636085916
 10
13.241083608
 20
5.7236872737
 10
13.2283236323
 20
5.8841536147
  0
LWPOLYLINE
  5
254
100
AcDbEntity
  8
0
100
AcDbPolyline
 62
7
  6
CONTINUOUS
 90
3
 70
0
 10
13.2214778038
 20
6.0449065089
 10
13.2205396891
 20
6.2059121176
 10
13.225519965
 20
6.3671516934
  0
LINE
  5
255
100
AcDbEntity
  8
0
100
AcDbLine
 62
7
  6
CONTINUOUS
 10
13.3058780555
 20
7.2591506641
 11
13.3058780555
 21
7.204976419
  0
LINE
  5
256
100
AcDbEntity
  8
0
100
AcDbLine
 62
7
  6
CONTINUOUS
 10
13.225519965
 20
6.3671516934
 11
13.2364533371
 21
6.5286192215
  0
LINE
  5
257
100
AcDbEntity
  8
0
100
AcDbLine
 62
7
  6
CONTINUOUS
 10
13.2364429087
 20
6.5285115961
 11
13.25333096
 21
6.6897672799
  0
LINE
  5
258
100
AcDbEntity
  8
0
100
AcDbLine
 62
7
  6
CONTINUOUS
 10
11.8303250225
 20
4.7759225436
 11
11.7772021321
 21
4.6244794131
  0
LWPOLYLINE
  5
259
100
AcDbEntity
  8
0
100
AcDbPolyline
 62
7
  6
CONTINUOUS
 90
5
 70
0
 10
11.7772024381
 20
4.6244792845
 10
11.773368172
 20
4.614412888
 10
11.7688616333
 20
4.6031590717
 10
11.7642428309
 20
4.5921834803
 10
11.7634587469
 20
4.5903707581
  0
LINE
  5
25A
100
AcDbEntity
  8
0
100
AcDbLine
 62
9
  6
CONTINUOUS
 10
12.3858780555
 20
11.554976419
 11
12.8858780555
 21
11.554976419
  0
LINE
  5
25B
100
AcDbEntity
  8
0
100
AcDbLine
 62
7
  6
CONTINUOUS
 10
13.7353780555
 20
4.294976419
 11
13.7353780555
 21
4.321976419
  0
LINE
  5
25C
100
AcDbEntity
  8
0
100
AcDbLine
 62
7
  6
CONTINUOUS
 10
13.8158780555
 20
3.964976419
 11
13.8158780555
 21
4.244976419
  0
LINE
  5
25D
100
AcDbEntity
  8
0
100
AcDbLine
 62
7
  6
CONTINUOUS
 10
13.2533257128
 20
6.6897233131
 11
13.2761569413
 21
6.8505092315
  0
LWPOLYLINE
  5
25E
100
AcDbEntity
  8
0
100
AcDbPolyline
 62
7
  6
CONTINUOUS
 90
3
 70
0
 10
13.2761555305
 20
6.8505030179
 10
13.304901969
 20
7.0105663833
 10
13.3391666286
 20
7.1680663636
  0
LWPOLYLINE
  5
25F
100
AcDbEntity
  8
0
100
AcDbPolyline
 62
7
  6
CONTINUOUS
 90
15
 70
0
 10
13.3391661532
 20
7.1680658463
 10
13.3395172836
 20
7.1697676545
 10
13.3399486224
 20
7.1737691009
 10
13.339840484
 20
7.1777922756
 10
13.3391948148
 20
7.181764771
 10
13.3380232362
 20
7.1856150919
 10
13.3363468349
 20
7.1892739414
 10
13.3341957843
 20
7.1926754697
 10
13.3316088002
 20
7.1957584587
 10
13.3286324429
 20
7.1984674253
 10
13.3253202795
 20
7.2007536183
 10
13.3217319196
 20
7.2025758952
 10
13.3179319437
 20
7.2039014625
 10
13.3139887407
 20
7.2047064657
 10
13.3099732771
 20
7.204976419
  0
LWPOLYLINE
  5
260
100
AcDbEntity
  8
0
100
AcDbPolyline
 62
7
  6
CONTINUOUS
 90
10
 70
0
 10
11.7689490397
 20
4.6033773445
 10
11.7557198223
 20
4.5789864406
 10
11.7377729833
 20
4.5502688216
 10
11.718092685
 20
4.5227099469
 10
11.6967535393
 20
4.4964143591
 10
11.6738364569
 20
4.471481803
 10
11.6494283405
 20
4.4480068492
 10
11.6236217547
 20
4.4260785342
 10
11.5965145741
 20
4.4057800223
 10
11.569563117
 20
4.388021524
  0
ARC
  5
261
100
AcDbEntity
  8
0
100
AcDbCircle
 62
7
  6
CONTINUOUS
 10
8.642856879
 20
7.8146099444
 40
4.2768940287
100
AcDbArc
 50
5.507062781
 51
7.1545350311
  0
ARC
  5
262
100
AcDbEntity
  8
0
100
AcDbCircle
 62
7
  6
CONTINUOUS
 10
10.3858780555
 20
11.554976419
 40
2.5
100
AcDbArc
 50
0.0
 51
160.0
  0
ARC
  5
263
100
AcDbEntity
  8
0
100
AcDbCircle
 62
7
  6
CONTINUOUS
 10
10.3858780555
 20
11.554976419
 40
2.0
100
AcDbArc
 50
0.0
 51
160.0
  0
ARC
  5
264
100
AcDbEntity
  8
0
100
AcDbCircle
 62
7
  6
CONTINUOUS
 10
10.535617612
 20
8.2694137871
 40
1.75
100
AcDbArc
 50
326.9617260116
 51
354.2280962507
  0
ARC
  5
265
100
AcDbEntity
  8
0
100
AcDbCircle
 62
7
  6
CONTINUOUS
 10
6.9803833123
 20
11.7780893259
 40
0.743
100
AcDbArc
 50
340.0000000876
 51
346.8896325181
  0
ARC
  5
266
100
AcDbEntity
  8
0
100
AcDbCircle
 62
7
  6
CONTINUOUS
 10
8.9094357982
 20
11.0759716407
 40
0.743
100
AcDbArc
 50
153.1103674819
 51
159.9999999124
  0
ARC
  5
267
100
AcDbEntity
  8
0
100
AcDbCircle
 62
7
  6
CONTINUOUS
 10
7.5296826157
 20
11.6501585931
 40
0.1790000008
100
AcDbArc
 50
346.8896325181
 51
16.9053801535
  0
ARC
  5
268
100
AcDbEntity
  8
0
100
AcDbCircle
 62
7
  6
CONTINUOUS
 10
8.4064158294
 20
11.3310537999
 40
0.1790000008
100
AcDbArc
 50
123.0946198465
 51
153.1103674819
  0
ARC
  5
269
100
AcDbEntity
  8
0
100
AcDbCircle
 62
7
  6
CONTINUOUS
 10
7.5460277176
 20
11.5498648106
 40
0.1330000004
100
AcDbArc
 50
306.446446623
 51
337.7589061849
  0
ARC
  5
26A
100
AcDbEntity
  8
0
100
AcDbCircle
 62
7
  6
CONTINUOUS
 10
8.3294271541
 20
11.2647307342
 40
0.1330000004
100
AcDbArc
 50
162.2410938151
 51
193.553553377
  0
ARC
  5
26B
100
AcDbEntity
  8
0
100
AcDbCircle
 62
7
  6
CONTINUOUS
 10
7.6621517025
 20
11.4395868544
 40
0.08
100
AcDbArc
 50
238.9602859501
 51
250.0
  0
ARC
  5
26C
100
AcDbEntity
  8
0
100
AcDbCircle
 62
7
  6
CONTINUOUS
 10
8.1695857169
 20
11.2548959774
 40
0.08
100
AcDbArc
 50
250.0
 51
261.0397140499
  0
ARC
  5
26D
100
AcDbEntity
  8
0
100
AcDbCircle
 62
7
  6
CONTINUOUS
 10
11.4837588508
 20
4.3696442204
 40
0.071
100
AcDbArc
 50
317.8265310779
 51
355.0716827572
  0
ARC
  5
26E
100
AcDbEntity
  8
0
100
AcDbCircle
 62
7
  6
CONTINUOUS
 10
7.7558702533
 20
11.7363355024
 40
0.0629999962
100
AcDbArc
 50
150.1569580478
 51
198.8372465634
  0
ARC
  5
26F
100
AcDbEntity
  8
0
100
AcDbCircle
 62
7
  6
CONTINUOUS
 10
8.2885394959
 20
11.5424597534
 40
0.0629999962
100
AcDbArc
 50
301.1627534366
 51
349.8430419522
  0
ARC
  5
270
100
AcDbEntity
  8
0
100
AcDbCircle
 62
7
  6
CONTINUOUS
 10
7.6577130998
 20
11.3986352628
 40
0.0549999988
100
AcDbArc
 50
126.446446623
 51
149.5892732909
  0
ARC
  5
271
100
AcDbEntity
  8
0
100
AcDbCircle
 62
7
  6
CONTINUOUS
 10
8.1466627082
 20
11.2206721593
 40
0.0549999988
100
AcDbArc
 50
350.4107267091
 51
13.553553377
  0
ARC
  5
272
100
AcDbEntity
  8
0
100
AcDbCircle
 62
7
  6
CONTINUOUS
 10
7.7425920504
 20
11.7380757161
 40
0.052
100
AcDbArc
 50
70.0
 51
122.3414746971
  0
ARC
  5
273
100
AcDbEntity
  8
0
100
AcDbCircle
 62
7
  6
CONTINUOUS
 10
8.2998297773
 20
11.5352577701
 40
0.052
100
AcDbArc
 50
17.6585253029
 51
70.0
  0
ARC
  5
274
100
AcDbEntity
  8
0
100
AcDbCircle
 62
7
  6
CONTINUOUS
 10
11.5058780555
 20
4.244976419
 40
0.05
100
AcDbArc
 50
90.0
 51
180.0
  0
ARC
  5
275
100
AcDbEntity
  8
0
100
AcDbCircle
 62
7
  6
CONTINUOUS
 10
7.6490889233
 20
11.4036972077
 40
0.0450000005
100
AcDbArc
 50
149.5892732909
 51
201.4097613307
  0
ARC
  5
276
100
AcDbEntity
  8
0
100
AcDbCircle
 62
7
  6
CONTINUOUS
 10
8.1565229662
 20
11.2190063203
 40
0.0450000005
100
AcDbArc
 50
298.5902386693
 51
350.4107267091
  0
ARC
  5
277
100
AcDbEntity
  8
0
100
AcDbCircle
 62
7
  6
CONTINUOUS
 10
7.7361724818
 20
11.7482142136
 40
0.0400000021
100
AcDbArc
 50
122.3414746971
 51
149.438765149
  0
ARC
  5
278
100
AcDbEntity
  8
0
100
AcDbCircle
 62
7
  6
CONTINUOUS
 10
8.3112643527
 20
11.5388978906
 40
0.0400000021
100
AcDbArc
 50
350.561234851
 51
17.6585253029
  0
ARC
  5
279
100
AcDbEntity
  8
0
100
AcDbCircle
 62
7
  6
CONTINUOUS
 10
7.6379169953
 20
11.3993167812
 40
0.0329999994
100
AcDbArc
 50
201.4097613307
 51
238.9602859501
  0
ARC
  5
27A
100
AcDbEntity
  8
0
100
AcDbCircle
 62
7
  6
CONTINUOUS
 10
8.1622654756
 20
11.208469542
 40
0.0329999994
100
AcDbArc
 50
261.0397140499
 51
298.5902386693
  0
ARC
  5
27B
100
AcDbEntity
  8
0
100
AcDbCircle
 62
7
  6
CONTINUOUS
 10
11.5863780555
 20
4.3607955589
 40
0.032
100
AcDbArc
 50
121.6997559759
 51
175.0716827572
  0
ARC
  5
27C
100
AcDbEntity
  8
0
100
AcDbCircle
 62
7
  6
CONTINUOUS
 10
16.6288996465
 20
7.8146098989
 40
4.2768944456
100
AcDbArc
 50
172.8454567457
 51
174.492937247
  0
ARC
  5
27D
100
AcDbEntity
  8
0
100
AcDbCircle
 62
7
  6
CONTINUOUS
 10
14.7361384991
 20
8.2694137871
 40
1.75
100
AcDbArc
 50
185.7719037493
 51
213.0382739866
  0
ARC
  5
27E
100
AcDbEntity
  8
0
100
AcDbCircle
 62
7
  6
CONTINUOUS
 10
12.9339204437
 20
8.183976419
 40
0.09
100
AcDbArc
 50
322.3438669317
 51
3.8225537293
  0
ARC
  5
27F
100
AcDbEntity
  8
0
100
AcDbCircle
 62
7
  6
CONTINUOUS
 10
12.3378356674
 20
8.183976419
 40
0.09
100
AcDbArc
 50
176.1774462707
 51
217.6561330683
  0
ARC
  5
280
100
AcDbEntity
  8
0
100
AcDbCircle
 62
7
  6
CONTINUOUS
 10
13.7879972603
 20
4.3696442204
 40
0.071
100
AcDbArc
 50
184.9283172428
 51
222.1734689221
  0
ARC
  5
281
100
AcDbEntity
  8
0
100
AcDbCircle
 62
7
  6
CONTINUOUS
 10
13.0447572536
 20
8.0984474675
 40
0.05
100
AcDbArc
 50
142.3438669317
 51
185.7719037493
  0
ARC
  5
282
100
AcDbEntity
  8
0
100
AcDbCircle
 62
7
  6
CONTINUOUS
 10
12.2269988575
 20
8.0984474675
 40
0.05
100
AcDbArc
 50
354.2280962507
 51
37.6561330683
  0
ARC
  5
283
100
AcDbEntity
  8
0
100
AcDbCircle
 62
7
  6
CONTINUOUS
 10
13.3110173503
 20
7.3425752299
 40
0.05
100
AcDbArc
 50
213.0382739866
 51
236.5373724321
  0
ARC
  5
284
100
AcDbEntity
  8
0
100
AcDbCircle
 62
7
  6
CONTINUOUS
 10
11.9607387608
 20
7.3425752298
 40
0.05
100
AcDbArc
 50
303.4626275879
 51
326.9617260116
  0
ARC
  5
285
100
AcDbEntity
  8
0
100
AcDbCircle
 62
7
  6
CONTINUOUS
 10
13.2558780555
 20
7.2591506641
 40
0.05
100
AcDbArc
 50
0.0
 51
56.5373724321
  0
ARC
  5
286
100
AcDbEntity
  8
0
100
AcDbCircle
 62
7
  6
CONTINUOUS
 10
12.0158780555
 20
7.2591506641
 40
0.05
100
AcDbArc
 50
123.4626275879
 51
180.0
  0
ARC
  5
287
100
AcDbEntity
  8
0
100
AcDbCircle
 62
7
  6
CONTINUOUS
 10
13.7658780555
 20
4.244976419
 40
0.05
100
AcDbArc
 50
0.0
 51
90.0
  0
ARC
  5
288
100
AcDbEntity
  8
0
100
AcDbCircle
 62
7
  6
CONTINUOUS
 10
13.6853780555
 20
4.3607955589
 40
0.032
100
AcDbArc
 50
4.9283172428
 51
58.3002440277
  0
ARC
  5
289
100
AcDbEntity
  8
0
100
AcDbCircle
 62
7
  6
CONTINUOUS
 10
12.9939715218
 20
8.194976419
 40
0.03
100
AcDbArc
 50
356.4720421107
 51
90.0
  0
ARC
  5
28A
100
AcDbEntity
  8
0
100
AcDbCircle
 62
7
  6
CONTINUOUS
 10
12.2777845893
 20
8.194976419
 40
0.03
100
AcDbArc
 50
90.0
 51
183.5279578893
  0
ARC
  5
28B
100
AcDbEntity
  8
0
100
AcDbCircle
 62
9
  6
CONTINUOUS
 10
12.635878191
 20
67.5701195971
 40
60.4026716731
100
AcDbArc
 50
269.7372520897
 51
270.2627476602
  0
ARC
  5
28C
100
AcDbEntity
  8
0
100
AcDbCircle
 62
9
  6
CONTINUOUS
 10
13.1330731862
 20
37.3685529092
 40
30.2011052746
100
AcDbArc
 50
269.6286180675
 51
270.3717892558
  0
ARC
  5
28D
100
AcDbEntity
  8
0
100
AcDbCircle
 62
9
  6
CONTINUOUS
 10
12.1386832869
 20
37.368535485
 40
30.2010878504
100
AcDbArc
 50
269.6282098459
 51
270.3713814673
  0
SPLINE
  5
28E
100
AcDbEntity
  8
0
100
AcDbSpline
 62
9
  6
CONTINUOUS
 70
0
 71
3
 72
73
 73
69
 74
0
 42
0.0000001
 43
0.0000001
 44
0.0000000001
 40
0.0
 40
0.0
 40
0.0
 40
0.0
 40
0.0019469187
 40
0.0038805705
 40
0.0058053969
 40
0.0077243798
 40
0.0096391774
 40
0.0115508286
 40
0.0153673888
 40
0.0191781108
 40
0.0229853178
 40
0.0267903359
 40
0.0305943232
 40
0.0382018689
 40
0.0458117481
 40
0.0534266016
 40
0.0610476855
 40
0.0686763351
 40
0.0763131102
 40
0.0916129412
 40
0.1069497809
 40
0.1223246885
 40
0.137737837
 40
0.1531889888
 40
0.1686774211
 40
0.184202252
 40
0.2153564091
 40
0.2466409745
 40
0.2780438657
 40
0.3095519578
 40
0.3411513488
 40
0.3728275916
 40
0.4045658104
 40
0.4363508164
 40
0.4999994426
 40
0.563648331
 40
0.5954334907
 40
0.627171808
 40
0.6588481235
 40
0.6904475732
 40
0.7219557062
 40
0.7533586406
 40
0.7846432407
 40
0.8157974437
 40
0.8313222983
 40
0.8468107519
 40
0.8622619312
 40
0.8776750983
 40
0.8930500383
 40
0.9083869045
 40
0.9236867572
 40
0.9313235703
 40
0.9389521507
 40
0.9465733386
 40
0.9541881081
 40
0.9617980789
 40
0.9694055354
 40
0.9732095642
 40
0.9770146221
 40
0.9808217541
 40
0.9846324988
 40
0.9884490412
 40
0.9903606645
 40
0.9922754405
 40
0.9941944028
 40
0.9961192117
 40
0.9980527452
 40
1.0
 40
1.0
 40
1.0
 40
1.0
 10
13.0484409781
 20
4.3752183925
 30
0.0
 10
13.0479428469
 20
4.3754169364
 30
0.0
 10
13.0469255615
 20
4.3757501796
 30
0.0
 10
13.0453832873
 20
4.3761725192
 30
0.0
 10
13.0438330225
 20
4.3765331655
 30
0.0
 10
13.0422798249
 20
4.376854891
 30
0.0
 10
13.0407244189
 20
4.3771467505
 30
0.0
 10
13.038649836
 20
4.3775043172
 30
0.0
 10
13.0360529101
 20
4.3779041091
 30
0.0
 10
13.0329324742
 20
4.3783310012
 30
0.0
 10
13.0298100529
 20
4.3787178949
 30
0.0
 10
13.0266856261
 20
4.379071907
 30
0.0
 10
13.0225173758
 20
4.3795093233
 30
0.0
 10
13.0173013327
 20
4.3800016545
 30
0.0
 10
13.0110344507
 20
4.3805260755
 30
0.0
 10
13.0047598541
 20
4.381000339
 30
0.0
 10
12.9984769693
 20
4.3814312602
 30
0.0
 10
12.9921858079
 20
4.3818281896
 30
0.0
 10
12.9837813837
 20
4.3823170793
 30
0.0
 10
12.9732537576
 20
4.3828632449
 30
0.0
 10
12.9605937074
 20
4.3834373283
 30
0.0
 10
12.9478996238
 20
4.3839455997
 30
0.0
 10
12.9351719594
 20
4.3843986183
 30
0.0
 10
12.9224114477
 20
4.3848050766
 30
0.0
 10
12.909618937
 20
4.3851708345
 30
0.0
 10
12.8925017942
 20
4.3856118811
 30
0.0
 10
12.8710333723
 20
4.3860845066
 30
0.0
 10
12.8451906804
 20
4.3865507241
 30
0.0
 10
12.8192491371
 20
4.3869336768
 30
0.0
 10
12.793219942
 20
4.3872461501
 30
0.0
 10
12.7671147983
 20
4.3874974821
 30
0.0
 10
12.7409458093
 20
4.3876947948
 30
0.0
 10
12.7147253758
 20
4.3878433762
 30
0.0
 10
12.6796986233
 20
4.3879814784
 30
0.0
 10
12.6358824156
 20
4.3880483327
 30
0.0
 10
12.5920661655
 20
4.3879815106
 30
0.0
 10
12.5570392713
 20
4.3878434191
 30
0.0
 10
12.5308187482
 20
4.3876948497
 30
0.0
 10
12.5046496956
 20
4.3874975675
 30
0.0
 10
12.4785445046
 20
4.3872462221
 30
0.0
 10
12.4525152695
 20
4.3869338052
 30
0.0
 10
12.4265736936
 20
4.3865508486
 30
0.0
 10
12.4007309665
 20
4.3860846927
 30
0.0
 10
12.3792625154
 20
4.3856120834
 30
0.0
 10
12.3621453472
 20
4.3851710542
 30
0.0
 10
12.3493528152
 20
4.3848053403
 30
0.0
 10
12.3365922852
 20
4.3843988772
 30
0.0
 10
12.3238645966
 20
4.3839459307
 30
0.0
 10
12.3111704908
 20
4.3834376678
 30
0.0
 10
12.2985104206
 20
4.3828635632
 30
0.0
 10
12.2879827556
 20
4.3823176495
 30
0.0
 10
12.2795783563
 20
4.3818284058
 30
0.0
 10
12.2732871278
 20
4.3814321972
 30
0.0
 10
12.2670043147
 20
4.3810004506
 30
0.0
 10
12.2607296123
 20
4.3805271666
 30
0.0
 10
12.2544628249
 20
4.3800018923
 30
0.0
 10
12.24924669
 20
4.3795104259
 30
0.0
 10
12.2450784602
 20
4.3790728077
 30
0.0
 10
12.2419540646
 20
4.3787185288
 30
0.0
 10
12.2388315642
 20
4.3783322985
 30
0.0
 10
12.2357111787
 20
4.3779051635
 30
0.0
 10
12.2331142378
 20
4.377505535
 30
0.0
 10
12.2310396323
 20
4.3771482006
 30
0.0
 10
12.2294842212
 20
4.3768564917
 30
0.0
 10
12.2279309894
 20
4.3765349499
 30
0.0
 10
12.2263808548
 20
4.3761741064
 30
0.0
 10
12.2248379201
 20
4.3757536916
 30
0.0
 10
12.2238215534
 20
4.3754175218
 30
0.0
 10
12.2233233725
 20
4.3752188529
 30
0.0
  0
SPLINE
  5
28F
100
AcDbEntity
  8
0
100
AcDbSpline
 62
9
  6
CONTINUOUS
 70
0
 71
3
 72
71
 73
67
 74
0
 42
0.0000001
 43
0.0000001
 44
0.0000000001
 40
0.0
 40
0.0
 40
0.0
 40
0.0
 40
0.002416883
 40
0.0048566094
 40
0.0073101286
 40
0.0097731073
 40
0.0122425656
 40
0.014716935
 40
0.0196756224
 40
0.0246427203
 40
0.02961461
 40
0.034588748
 40
0.0395633345
 40
0.0495097459
 40
0.0594467503
 40
0.0693702633
 40
0.0792770632
 40
0.0891651139
 40
0.0990324248
 40
0.1187001217
 40
0.1382713129
 40
0.1577393287
 40
0.1770989222
 40
0.1963451645
 40
0.2154740953
 40
0.234481733
 40
0.2721193282
 40
0.3092316344
 40
0.3457942704
 40
0.3817844516
 40
0.4171804548
 40
0.4519616656
 40
0.4861082632
 40
0.5196014368
 40
0.584556654
 40
0.6466944943
 40
0.6766697911
 40
0.7058987375
 40
0.7343701167
 40
0.7620743715
 40
0.789003918
 40
0.8151534626
 40
0.8405208068
 40
0.8651081601
 40
0.8889240197
 40
0.9005481402
 40
0.9119877283
 40
0.9232486872
 40
0.9343389116
 40
0.9452705422
 40
0.956063688
 40
0.9614173204
 40
0.9667512595
 40
0.9720736305
 40
0.977399702
 40
0.9827521771
 40
0.9854516141
 40
0.9881775207
 40
0.9909451149
 40
0.9937818428
 40
0.9952412623
 40
0.9967443265
 40
0.9975196799
 40
0.9983148889
 40
0.9991364282
 40
1.0
 40
1.0
 40
1.0
 40
1.0
 10
13.0484409781
 20
4.3752183925
 30
0.0
 10
13.0488673997
 20
4.3754194942
 30
0.0
 10
13.0497545511
 20
4.3757584027
 30
0.0
 10
13.0511180896
 20
4.3761763563
 30
0.0
 10
13.0525075373
 20
4.3765366661
 30
0.0
 10
13.0539122392
 20
4.3768575537
 30
0.0
 10
13.0553274687
 20
4.3771490956
 30
0.0
 10
13.057225857
 20
4.3775065931
 30
0.0
 10
13.0596117714
 20
4.377906162
 30
0.0
 10
13.0624864744
 20
4.3783329183
 30
0.0
 10
13.0653699418
 20
4.3787189522
 30
0.0
 10
13.0682589441
 20
4.3790730345
 30
0.0
 10
13.0721151957
 20
4.3795106187
 30
0.0
 10
13.076939497
 20
4.3800016323
 30
0.0
 10
13.0827302667
 20
4.380526842
 30
0.0
 10
13.0885177523
 20
4.3809999698
 30
0.0
 10
13.0942988708
 20
4.3814317375
 30
0.0
 10
13.1000715389
 20
4.3818279129
 30
0.0
 10
13.1077463212
 20
4.3823163166
 30
0.0
 10
13.1173100889
 20
4.3828613844
 30
0.0
 10
13.1287477398
 20
4.3834356395
 30
0.0
 10
13.1401283309
 20
4.383944054
 30
0.0
 10
13.1514478043
 20
4.384397135
 30
0.0
 10
13.1627028453
 20
4.3848037433
 30
0.0
 10
13.1738905875
 20
4.3851695703
 30
0.0
 10
13.1886653924
 20
4.3856088203
 30
0.0
 10
13.2069487432
 20
4.3860800359
 30
0.0
 10
13.2286575838
 20
4.3865468974
 30
0.0
 10
13.2500466306
 20
4.3869305132
 30
0.0
 10
13.2711019803
 20
4.3872434739
 30
0.0
 10
13.2918106144
 20
4.3874953445
 30
0.0
 10
13.3121601861
 20
4.387693093
 30
0.0
 10
13.3321389749
 20
4.3878421087
 30
0.0
 10
13.3580040181
 20
4.3879793206
 30
0.0
 10
13.3893296977
 20
4.3880482405
 30
0.0
 10
13.4199691751
 20
4.3879838365
 30
0.0
 10
13.4436390713
 20
4.3878448685
 30
0.0
 10
13.4607413972
 20
4.387696887
 30
0.0
 10
13.4774001955
 20
4.3875002553
 30
0.0
 10
13.4936096832
 20
4.3872497197
 30
0.0
 10
13.5093651223
 20
4.3869382026
 30
0.0
 10
13.524663035
 20
4.3865563145
 30
0.0
 10
13.5395015893
 20
4.3860915187
 30
0.0
 10
13.5538811318
 20
4.3855263923
 30
0.0
 10
13.5655766925
 20
4.3849474257
 30
0.0
 10
13.5747052942
 20
4.3844016208
 30
0.0
 10
13.5813857878
 20
4.383948845
 30
0.0
 10
13.5879578902
 20
4.3834408861
 30
0.0
 10
13.5944251453
 20
4.382866946
 30
0.0
 10
13.600793056
 20
4.3822121703
 30
0.0
 10
13.606037421
 20
4.3815775591
 30
0.0
 10
13.6101879476
 20
4.3810010866
 30
0.0
 10
13.6132749047
 20
4.3805267245
 30
0.0
 10
13.6163482564
 20
4.3800016187
 30
0.0
 10
13.6194131424
 20
4.3794094381
 30
0.0
 10
13.6219614767
 20
4.378844569
 30
0.0
 10
13.6240000227
 20
4.3783295981
 30
0.0
 10
13.625540004
 20
4.3779014249
 30
0.0
 10
13.6270919835
 20
4.3774188807
 30
0.0
 10
13.6283904883
 20
4.3769558882
 30
0.0
 10
13.6294385154
 20
4.3765295541
 30
0.0
 10
13.630103217
 20
4.376229137
 30
0.0
 10
13.6306392191
 20
4.375960286
 30
0.0
 10
13.6310502544
 20
4.3757392552
 30
0.0
 10
13.6314685904
 20
4.3754959055
 30
0.0
 10
13.6317437216
 20
4.3753155878
 30
0.0
 10
13.6318816355
 20
4.3752188527
 30
0.0
  0
SPLINE
  5
290
100
AcDbEntity
  8
0
100
AcDbSpline
 62
9
  6
CONTINUOUS
 70
0
 71
3
 72
59
 73
55
 74
0
 42
0.0000001
 43
0.0000001
 44
0.0000000001
 40
0.0
 40
0.0
 40
0.0
 40
0.0
 40
0.0044282974
 40
0.0085992253
 40
0.0165479774
 40
0.0241942367
 40
0.0316789664
 40
0.046379831
 40
0.0608813598
 40
0.0752552344
 40
0.0895283553
 40
0.1178113717
 40
0.145754839
 40
0.1733560846
 40
0.2005969136
 40
0.2274705376
 40
0.2800518794
 40
0.3310276101
 40
0.3803320202
 40
0.4279178538
 40
0.4737477879
 40
0.517787476
 40
0.6003907082
 40
0.6755461198
 40
0.7431109404
 40
0.8029677473
 40
0.8299753794
 40
0.8550216158
 40
0.8780968103
 40
0.8991926514
 40
0.918301483
 40
0.9354167635
 40
0.9505323783
 40
0.9636431863
 40
0.9694452971
 40
0.9747444549
 40
0.9795402606
 40
0.9838323562
 40
0.9876203833
 40
0.9909039832
 40
0.9936828151
 40
0.9948828778
 40
0.9959566838
 40
0.9969042174
 40
0.9977254628
 40
0.9984204042
 40
0.9989890259
 40
0.9994313121
 40
0.9996050744
 40
0.999747247
 40
0.9998578278
 40
0.9999368149
 40
0.9999842063
 40
1.0
 40
1.0
 40
1.0
 40
1.0
 10
11.6398769427
 20
4.3752188638
 30
0.0
 10
11.6398297783
 20
4.3753145872
 30
0.0
 10
11.6397253077
 20
4.375494388
 30
0.0
 10
11.6394866381
 20
4.3758143374
 30
0.0
 10
11.6391640474
 20
4.3761666856
 30
0.0
 10
11.638742432
 20
4.376530673
 30
0.0
 10
11.6381642076
 20
4.3769585575
 30
0.0
 10
11.637409336
 20
4.3774216543
 30
0.0
 10
11.6364753845
 20
4.3779028446
 30
0.0
 10
11.635527037
 20
4.3783301132
 30
0.0
 10
11.6342549204
 20
4.378844395
 30
0.0
 10
11.6326510236
 20
4.3794070518
 30
0.0
 10
11.6307191114
 20
4.3799984255
 30
0.0
 10
11.6287940736
 20
4.3805228561
 30
0.0
 10
11.6268827639
 20
4.3809972394
 30
0.0
 10
11.624375625
 20
4.3815678297
 30
0.0
 10
11.6212957058
 20
4.382196795
 30
0.0
 10
11.6176706693
 20
4.3828523152
 30
0.0
 10
11.6141539788
 20
4.383427213
 30
0.0
 10
11.6107525126
 20
4.3839360827
 30
0.0
 10
11.6074712923
 20
4.3843896775
 30
0.0
 10
11.6033491256
 20
4.3849208821
 30
0.0
 10
11.5985191205
 20
4.3854868706
 30
0.0
 10
11.5931191689
 20
4.3860561259
 30
0.0
 10
11.5882599678
 20
4.3865242973
 30
0.0
 10
11.5845532919
 20
4.3868552661
 30
0.0
 10
11.5818661734
 20
4.3870835491
 30
0.0
 10
11.5800618551
 20
4.3872323445
 30
0.0
 10
11.5783992243
 20
4.387365842
 30
0.0
 10
11.5768789787
 20
4.3874849367
 30
0.0
 10
11.5755017366
 20
4.3875905092
 30
0.0
 10
11.5742680417
 20
4.3876832047
 30
0.0
 10
11.5731783766
 20
4.3877636869
 30
0.0
 10
11.5723605257
 20
4.3878231714
 30
0.0
 10
11.5717785754
 20
4.3878650701
 30
0.0
 10
11.5713964698
 20
4.387892429
 30
0.0
 10
11.5710506501
 20
4.3879170597
 30
0.0
 10
11.5707411455
 20
4.387938995
 30
0.0
 10
11.5704679845
 20
4.3879582685
 30
0.0
 10
11.5702311947
 20
4.387974912
 30
0.0
 10
11.5700566135
 20
4.3879871518
 30
0.0
 10
11.5699351519
 20
4.3879956529
 30
0.0
 10
11.5698577126
 20
4.3880010665
 30
0.0
 10
11.5697893783
 20
4.3880058387
 30
0.0
 10
11.5697301544
 20
4.3880099684
 30
0.0
 10
11.5696800298
 20
4.3880134637
 30
0.0
 10
11.569639041
 20
4.3880163071
 30
0.0
 10
11.5696105178
 20
4.3880183099
 30
0.0
 10
11.5695923575
 20
4.3880195397
 30
0.0
 10
11.5695819631
 20
4.3880203261
 30
0.0
 10
11.5695743521
 20
4.3880206856
 30
0.0
 10
11.569567832
 20
4.3880215179
 30
0.0
 10
11.5695658584
 20
4.388020987
 30
0.0
 10
11.5695628446
 20
4.3880218861
 30
0.0
 10
11.5695630787
 20
4.388021586
 30
0.0
  0
SPLINE
  5
291
100
AcDbEntity
  8
0
100
AcDbSpline
 62
9
  6
CONTINUOUS
 70
0
 71
3
 72
72
 73
68
 74
0
 42
0.0000001
 43
0.0000001
 44
0.0000000001
 40
0.0
 40
0.0
 40
0.0
 40
0.0
 40
0.000864532
 40
0.0016873822
 40
0.0032575058
 40
0.00476025
 40
0.0062196841
 40
0.0090561117
 40
0.0118236042
 40
0.0145495794
 40
0.0172486466
 40
0.0226015184
 40
0.0279270337
 40
0.0332497585
 40
0.0385832628
 40
0.0439373451
 40
0.0493179752
 40
0.0547303547
 40
0.0656620307
 40
0.076752238
 40
0.0880132327
 40
0.0994528023
 40
0.111076981
 40
0.1348928489
 40
0.1594802107
 40
0.1848475733
 40
0.2109971125
 40
0.2379266444
 40
0.2656308959
 40
0.2941022137
 40
0.3233310748
 40
0.3533062211
 40
0.4154437359
 40
0.4803990677
 40
0.5138923326
 40
0.5480389654
 40
0.5828201564
 40
0.6182161431
 40
0.6542062315
 40
0.6907687948
 40
0.7278809808
 40
0.7655184658
 40
0.7845260639
 40
0.8036549075
 40
0.8229011101
 40
0.8422606206
 40
0.8617285779
 40
0.8812996915
 40
0.9009673209
 40
0.9108346135
 40
0.9207224783
 40
0.9306294346
 40
0.9405527193
 40
0.9504898363
 40
0.9604359773
 40
0.9654106479
 40
0.9703848128
 40
0.9753565492
 40
0.9803236476
 40
0.985282276
 40
0.987756594
 40
0.9902259751
 40
0.9926889889
 40
0.9951423194
 40
0.9963639493
 40
0.9975822932
 40
1.0
 40
1.0
 40
1.0
 40
1.0
 10
11.6398769427
 20
4.3752188638
 30
0.0
 10
11.6400149935
 20
4.3753157327
 30
0.0
 10
11.6402902965
 20
4.3754965884
 30
0.0
 10
11.6408391629
 20
4.3758171236
 30
0.0
 10
11.6415146173
 20
4.3761665031
 30
0.0
 10
11.6423205288
 20
4.3765307502
 30
0.0
 10
11.643368471
 20
4.3769570783
 30
0.0
 10
11.6446670069
 20
4.3774197713
 30
0.0
 10
11.6462189668
 20
4.3779022015
 30
0.0
 10
11.647758846
 20
4.3783305164
 30
0.0
 10
11.6497975809
 20
4.3788448875
 30
0.0
 10
11.6523456633
 20
4.3794105175
 30
0.0
 10
11.6554108136
 20
4.3800017088
 30
0.0
 10
11.6584839415
 20
4.3805275385
 30
0.0
 10
11.6615711253
 20
4.381001098
 30
0.0
 10
11.6646757763
 20
4.3814330341
 30
0.0
 10
11.6678006641
 20
4.3818293449
 30
0.0
 10
11.6720101258
 20
4.3823198827
 30
0.0
 10
11.6773339899
 20
4.3828672284
 30
0.0
 10
11.683801305
 20
4.3834411194
 30
0.0
 10
11.6903734734
 20
4.3839490945
 30
0.0
 10
11.6970540481
 20
4.3844018011
 30
0.0
 10
11.7061827429
 20
4.3849476517
 30
0.0
 10
11.7178784321
 20
4.3855265477
 30
0.0
 10
11.7322581176
 20
4.3860916503
 30
0.0
 10
11.7470968163
 20
4.3865564288
 30
0.0
 10
11.7623948733
 20
4.3869382895
 30
0.0
 10
11.7781504564
 20
4.3872497793
 30
0.0
 10
11.794360081
 20
4.3875003226
 30
0.0
 10
11.811019007
 20
4.387696926
 30
0.0
 10
11.8281214357
 20
4.3878449056
 30
0.0
 10
11.851791445
 20
4.3879838618
 30
0.0
 10
11.8824311399
 20
4.3880482386
 30
0.0
 10
11.9137570907
 20
4.3879792918
 30
0.0
 10
11.9396224239
 20
4.387842069
 30
0.0
 10
11.9596014214
 20
4.3876930482
 30
0.0
 10
11.9799511837
 20
4.3874952655
 30
0.0
 10
12.0006599877
 20
4.3872434207
 30
0.0
 10
12.0217154988
 20
4.386930392
 30
0.0
 10
12.0431046912
 20
4.3865467891
 30
0.0
 10
12.0648136759
 20
4.3860798759
 30
0.0
 10
12.0830971445
 20
4.3856086096
 30
0.0
 10
12.0978720433
 20
4.3851693939
 30
0.0
 10
12.1090598552
 20
4.3848034752
 30
0.0
 10
12.1203149628
 20
4.3843969133
 30
0.0
 10
12.1316345042
 20
4.3839437494
 30
0.0
 10
12.1430151592
 20
4.3834353319
 30
0.0
 10
12.1544528776
 20
4.3828610503
 30
0.0
 10
12.1640166937
 20
4.3823158378
 30
0.0
 10
12.171691511
 20
4.381827654
 30
0.0
 10
12.1774641789
 20
4.3814308452
 30
0.0
 10
12.1832453644
 20
4.3809998961
 30
0.0
 10
12.1890328324
 20
4.3805258044
 30
0.0
 10
12.1948236642
 20
4.3800014895
 30
0.0
 10
12.1996478912
 20
4.3795094314
 30
0.0
 10
12.2035041899
 20
4.379072241
 30
0.0
 10
12.2063932346
 20
4.378718322
 30
0.0
 10
12.2092766268
 20
4.3783317131
 30
0.0
 10
12.2121513425
 20
4.3779051458
 30
0.0
 10
12.2145372307
 20
4.3775054061
 30
0.0
 10
12.2164355727
 20
4.3771477471
 30
0.0
 10
12.2178507339
 20
4.3768559296
 30
0.0
 10
12.2192554366
 20
4.3765350962
 30
0.0
 10
12.2204147411
 20
4.3762345321
 30
0.0
 10
12.2213300907
 20
4.3759631899
 30
0.0
 10
12.2222312939
 20
4.3756709821
 30
0.0
 10
12.2228967263
 20
4.3754198654
 30
0.0
 10
12.2233233725
 20
4.3752188529
 30
0.0
  0
SPLINE
  5
292
100
AcDbEntity
  8
0
100
AcDbSpline
 62
9
  6
CONTINUOUS
 70
0
 71
3
 72
19
 73
15
 74
0
 42
0.0000001
 43
0.0000001
 44
0.0000000001
 40
0.0
 40
0.0
 40
0.0
 40
0.0
 40
0.2081223606
 40
0.3936802504
 40
0.5551389086
 40
0.6915748
 40
0.750263999
 40
0.8025858755
 40
0.8486170739
 40
0.8885616532
 40
0.9227864208
 40
0.9519324933
 40
0.9770999269
 40
1.0
 40
1.0
 40
1.0
 40
1.0
 10
13.4844932397
 20
4.6243871196
 30
0.0
 10
13.4852000704
 20
4.6245337539
 30
0.0
 10
13.4865408704
 20
4.6247935044
 30
0.0
 10
13.4884430637
 20
4.6250954777
 30
0.0
 10
13.4901096531
 20
4.625285948
 30
0.0
 10
13.4913458011
 20
4.6253549043
 30
0.0
 10
13.4922043464
 20
4.6253452677
 30
0.0
 10
13.4927482257
 20
4.6253097685
 30
0.0
 10
13.4932241151
 20
4.625245828
 30
0.0
 10
13.4936314347
 20
4.6251535519
 30
0.0
 10
13.4939700524
 20
4.6250328339
 30
0.0
 10
13.4942400419
 20
4.6248824824
 30
0.0
 10
13.4944405919
 20
4.6247004732
 30
0.0
 10
13.4945263838
 20
4.6245534982
 30
0.0
 10
13.4945540889
 20
4.6244790568
 30
0.0
  0
SPLINE
  5
293
100
AcDbEntity
  8
0
100
AcDbSpline
 62
9
  6
CONTINUOUS
 70
0
 71
3
 72
14
 73
10
 74
0
 42
0.0000001
 43
0.0000001
 44
0.0000000001
 40
0.0
 40
0.0
 40
0.0
 40
0.0
 40
0.1038733289
 40
0.2159187638
 40
0.3350947251
 40
0.460404217
 40
0.5907319738
 40
0.7249131913
 40
1.0
 40
1.0
 40
1.0
 40
1.0
 10
12.9373158782
 20
7.1680830412
 30
0.0
 10
12.9364736881
 20
7.1679883231
 30
0.0
 10
12.9347193196
 20
7.1678238014
 30
0.0
 10
12.9319902755
 20
7.1676529517
 30
0.0
 10
12.9290827931
 20
7.1675512897
 30
0.0
 10
12.9260246148
 20
7.1675185559
 30
0.0
 10
12.9228440484
 20
7.1675545616
 30
0.0
 10
12.9184435094
 20
7.1676948405
 30
0.0
 10
12.9151097005
 20
7.1679030745
 30
0.0
 10
12.9128725013
 20
7.1680830381
 30
0.0
  0
SPLINE
  5
294
100
AcDbEntity
  8
0
100
AcDbSpline
 62
9
  6
CONTINUOUS
 70
0
 71
3
 72
13
 73
9
 74
0
 42
0.0000001
 43
0.0000001
 44
0.0000000001
 40
0.0
 40
0.0
 40
0.0
 40
0.0
 40
0.2738237866
 40
0.5371308382
 40
0.6622282707
 40
0.7816321954
 40
0.8945045378
 40
1.0
 40
1.0
 40
1.0
 40
1.0
 10
12.9772978378
 20
4.6243871147
 30
0.0
 10
12.9795077852
 20
4.6247009091
 30
0.0
 10
12.9838642979
 20
4.6251744806
 30
0.0
 10
12.9892634042
 20
4.6253890624
 30
0.0
 10
12.9934031437
 20
4.625310454
 30
0.0
 10
12.9963118701
 20
4.6251322362
 30
0.0
 10
12.9990502698
 20
4.6248356342
 30
0.0
 10
13.0008085876
 20
4.6245509583
 30
0.0
 10
13.0016527125
 20
4.6243866807
 30
0.0
  0
SPLINE
  5
295
100
AcDbEntity
  8
0
100
AcDbSpline
 62
9
  6
CONTINUOUS
 70
0
 71
3
 72
13
 73
9
 74
0
 42
0.0000001
 43
0.0000001
 44
0.0000000001
 40
0.0
 40
0.0
 40
0.0
 40
0.0
 40
0.2750904416
 40
0.5395905478
 40
0.6649033984
 40
0.7840800728
 40
0.8961292527
 40
1.0
 40
1.0
 40
1.0
 40
1.0
 10
12.3588836171
 20
7.1680830395
 30
0.0
 10
12.35664644
 20
7.1679028447
 30
0.0
 10
12.3522513494
 20
7.1676285814
 30
0.0
 10
12.3468261529
 20
7.1675067607
 30
0.0
 10
12.3426733096
 20
7.1675518274
 30
0.0
 10
12.3397657975
 20
7.1676533279
 30
0.0
 10
12.3370367677
 20
7.1678240049
 30
0.0
 10
12.3352824083
 20
7.1679884329
 30
0.0
 10
12.3344402395
 20
7.16808304
 30
0.0
  0
SPLINE
  5
296
100
AcDbEntity
  8
0
100
AcDbSpline
 62
9
  6
CONTINUOUS
 70
0
 71
3
 72
13
 73
9
 74
0
 42
0.0000001
 43
0.0000001
 44
0.0000000001
 40
0.0
 40
0.0
 40
0.0
 40
0.0
 40
0.1054944801
 40
0.2183661403
 40
0.3377696745
 40
0.4628669988
 40
0.7261746346
 40
1.0
 40
1.0
 40
1.0
 40
1.0
 10
12.2701033585
 20
4.6243871295
 30
0.0
 10
12.2709474756
 20
4.6245513702
 30
0.0
 10
12.2727057775
 20
4.6248359716
 30
0.0
 10
12.2754441508
 20
4.6251324624
 30
0.0
 10
12.2783528515
 20
4.6253105663
 30
0.0
 10
12.2824925622
 20
4.6253890193
 30
0.0
 10
12.287891635
 20
4.6251742445
 30
0.0
 10
12.2922481152
 20
4.6247005305
 30
0.0
 10
12.2944580479
 20
4.6243866654
 30
0.0
  0
SPLINE
  5
297
100
AcDbEntity
  8
0
100
AcDbSpline
 62
9
  6
CONTINUOUS
 70
0
 71
3
 72
22
 73
18
 74
0
 42
0.0000001
 43
0.0000001
 44
0.0000000001
 40
0.0
 40
0.0
 40
0.0
 40
0.0
 40
0.2174037346
 40
0.4107027325
 40
0.5780475217
 40
0.6515619388
 40
0.718109585
 40
0.7775769172
 40
0.829865943
 40
0.8749285507
 40
0.9128023538
 40
0.9436177145
 40
0.9676977689
 40
0.9774439665
 40
0.9858684558
 40
0.9932494611
 40
1.0
 40
1.0
 40
1.0
 40
1.0
 10
11.942710969
 20
7.1680830412
 30
0.0
 10
11.9419702458
 20
7.16799757
 30
0.0
 10
11.9405697754
 20
7.1678456803
 30
0.0
 10
11.9385948917
 20
7.167669928
 30
0.0
 10
11.9371085552
 20
7.1675758318
 30
0.0
 10
11.9360548601
 20
7.1675376666
 30
0.0
 10
11.9353705422
 20
7.1675273258
 30
0.0
 10
11.9347589604
 20
7.1675338182
 30
0.0
 10
11.9342214821
 20
7.167557002
 30
0.0
 10
11.9337592418
 20
7.1675967442
 30
0.0
 10
11.9333727749
 20
7.1676529012
 30
0.0
 10
11.9330626184
 20
7.1677253895
 30
0.0
 10
11.9328537811
 20
7.1678040108
 30
0.0
 10
11.9327292472
 20
7.1678789412
 30
0.0
 10
11.9326618126
 20
7.1679356663
 30
0.0
 10
11.9326138295
 20
7.1679972391
 30
0.0
 10
11.9325950954
 20
7.1680428096
 30
0.0
 10
11.9325896977
 20
7.1680653242
 30
0.0
  0
SPLINE
  5
298
100
AcDbEntity
  8
0
100
AcDbSpline
 62
9
  6
CONTINUOUS
 70
0
 71
3
 72
59
 73
55
 74
0
 42
0.0000001
 43
0.0000001
 44
0.0000000001
 40
0.0
 40
0.0
 40
0.0
 40
0.0
 40
0.0000158041
 40
0.0000632035
 40
0.0001421965
 40
0.0002527813
 40
0.0003949559
 40
0.0005687188
 40
0.0010110015
 40
0.0015796152
 40
0.0022745452
 40
0.0030957771
 40
0.0040432964
 40
0.0051170888
 40
0.0063171397
 40
0.0090959589
 40
0.0123795665
 40
0.0161676147
 40
0.0204597347
 40
0.025255558
 40
0.0305547162
 40
0.0363568057
 40
0.049467504
 40
0.0645829032
 40
0.0816979278
 40
0.1008066949
 40
0.1219027876
 40
0.1449780571
 40
0.170023827
 40
0.1970310697
 40
0.2568880773
 40
0.3244521933
 40
0.3996076495
 40
0.4822105713
 40
0.5262497467
 40
0.5720796535
 40
0.6196650244
 40
0.6689694702
 40
0.7199446557
 40
0.746038985
 40
0.7725285122
 40
0.7993995763
 40
0.8266424929
 40
0.8542418085
 40
0.882187269
 40
0.910468661
 40
0.939110239
 40
0.9536116277
 40
0.9683121572
 40
0.9757965636
 40
0.9834423137
 40
0.9913884927
 40
0.9955654962
 40
1.0
 40
1.0
 40
1.0
 40
1.0
 10
13.7021930324
 20
4.388021586
 30
0.0
 10
13.7021927982
 20
4.3880212857
 30
0.0
 10
13.7021909241
 20
4.3880218465
 30
0.0
 10
13.7021878484
 20
4.3880209657
 30
0.0
 10
13.7021819563
 20
4.3880209374
 30
0.0
 10
13.7021740675
 20
4.3880202217
 30
0.0
 10
13.7021637808
 20
4.3880195727
 30
0.0
 10
13.7021455697
 20
4.3880182766
 30
0.0
 10
13.702117081
 20
4.3880163165
 30
0.0
 10
13.7020760791
 20
4.3880134543
 30
0.0
 10
13.7020259617
 20
4.388009966
 30
0.0
 10
13.7019667383
 20
4.3880058344
 30
0.0
 10
13.7018984072
 20
4.3880010637
 30
0.0
 10
13.7018209704
 20
4.3879956507
 30
0.0
 10
13.7016995124
 20
4.387987151
 30
0.0
 10
13.7015249356
 20
4.387974913
 30
0.0
 10
13.7012881508
 20
4.387958272
 30
0.0
 10
13.7010149947
 20
4.3879390012
 30
0.0
 10
13.7007054956
 20
4.3879170684
 30
0.0
 10
13.7003596827
 20
4.38789244
 30
0.0
 10
13.6999775861
 20
4.3878650824
 30
0.0
 10
13.6993956525
 20
4.3878231851
 30
0.0
 10
13.698577829
 20
4.3877637012
 30
0.0
 10
13.6974882037
 20
4.3876832135
 30
0.0
 10
13.6962545512
 20
4.3875905095
 30
0.0
 10
13.6948773427
 20
4.3874849398
 30
0.0
 10
13.693357124
 20
4.3873658755
 30
0.0
 10
13.6916945338
 20
4.3872323968
 30
0.0
 10
13.6898902786
 20
4.3870835766
 30
0.0
 10
13.6872032404
 20
4.386855275
 30
0.0
 10
13.6834966653
 20
4.3865243901
 30
0.0
 10
13.6786375949
 20
4.3860561587
 30
0.0
 10
13.6732377854
 20
4.3854869854
 30
0.0
 10
13.6684079066
 20
4.3849210446
 30
0.0
 10
13.6642858637
 20
4.3843897943
 30
0.0
 10
13.6610047353
 20
4.3839362791
 30
0.0
 10
13.6576033636
 20
4.3834273665
 30
0.0
 10
13.6540867804
 20
4.382852563
 30
0.0
 10
13.6510899037
 20
4.3823106425
 30
0.0
 10
13.6486420156
 20
4.3818253153
 30
0.0
 10
13.646768769
 20
4.3814290253
 30
0.0
 10
13.644874994
 20
4.3809970911
 30
0.0
 10
13.6429635197
 20
4.3805237563
 30
0.0
 10
13.6410387892
 20
4.3799983194
 30
0.0
 10
13.6391064391
 20
4.3794082515
 30
0.0
 10
13.6371766091
 20
4.3787295837
 30
0.0
 10
13.6355882921
 20
4.3780609471
 30
0.0
 10
13.6343484354
 20
4.3774225426
 30
0.0
 10
13.6335935014
 20
4.3769596541
 30
0.0
 10
13.6330151541
 20
4.3765319486
 30
0.0
 10
13.6325939147
 20
4.376167798
 30
0.0
 10
13.6322699501
 20
4.3758165196
 30
0.0
 10
13.6320327982
 20
4.3754950934
 30
0.0
 10
13.6319288219
 20
4.3753147293
 30
0.0
 10
13.6318816355
 20
4.3752188527
 30
0.0
  0
SPLINE
  5
299
100
AcDbEntity
  8
0
100
AcDbSpline
 62
9
  6
CONTINUOUS
 70
0
 71
3
 72
23
 73
19
 74
0
 42
0.0000001
 43
0.0000001
 44
0.0000000001
 40
0.0
 40
0.0
 40
0.0
 40
0.0
 40
0.0599550283
 40
0.1206277944
 40
0.1819437781
 40
0.2438285474
 40
0.30620306
 40
0.368985663
 40
0.4320922314
 40
0.4954360173
 40
0.5589276728
 40
0.6224762768
 40
0.6859910673
 40
0.7493822271
 40
0.8125619975
 40
0.8754452497
 40
0.9379514409
 40
1.0
 40
1.0
 40
1.0
 40
1.0
 10
12.2701157428
 20
4.6244695295
 30
0.0
 10
12.2776710129
 20
4.6748761126
 30
0.0
 10
12.2920148324
 20
4.7764231023
 30
0.0
 10
12.3111504429
 20
4.9299173466
 30
0.0
 10
12.328020844
 20
5.0853275717
 30
0.0
 10
12.3425970024
 20
5.2424224258
 30
0.0
 10
12.354862003
 20
5.4009650048
 30
0.0
 10
12.3648070069
 20
5.5607105672
 30
0.0
 10
12.372413005
 20
5.7214094629
 30
0.0
 10
12.377658714
 20
5.8828057826
 30
0.0
 10
12.3805357757
 20
6.0446374708
 30
0.0
 10
12.3810497359
 20
6.2066392244
 30
0.0
 10
12.3792062362
 20
6.3685458705
 30
0.0
 10
12.3750049071
 20
6.5300948828
 30
0.0
 10
12.3684561737
 20
6.6910284279
 30
0.0
 10
12.3595789393
 20
6.8510970087
 30
0.0
 10
12.3483867666
 20
7.0100560863
 30
0.0
 10
12.3393502548
 20
7.1155626322
 30
0.0
 10
12.3344402085
 20
7.1680830468
 30
0.0
  0
SPLINE
  5
29A
100
AcDbEntity
  8
0
100
AcDbSpline
 62
9
  6
CONTINUOUS
 70
0
 71
3
 72
34
 73
30
 74
0
 42
0.0000001
 43
0.0000001
 44
0.0000000001
 40
0.0
 40
0.0
 40
0.0
 40
0.0
 40
0.0286528307
 40
0.0574143151
 40
0.0862990095
 40
0.1153112792
 40
0.1444655653
 40
0.1737750053
 40
0.2032486992
 40
0.2328914414
 40
0.2627036764
 40
0.292681976
 40
0.3228233252
 40
0.3531298606
 40
0.414243192
 40
0.4760333676
 40
0.5385174966
 40
0.6017166303
 40
0.6335965127
 40
0.6656707042
 40
0.6979462547
 40
0.730434154
 40
0.7961062617
 40
0.8293295896
 40
0.8628298956
 40
0.8966217124
 40
0.9307233636
 40
0.9651673363
 40
1.0
 40
1.0
 40
1.0
 40
1.0
 10
12.2701157428
 20
4.6244695295
 30
0.0
 10
12.2657810867
 20
4.6262383987
 30
0.0
 10
12.2570080175
 20
4.6295718989
 30
0.0
 10
12.2436220432
 20
4.6340149758
 30
0.0
 10
12.2300269714
 20
4.6379822513
 30
0.0
 10
12.2162532721
 20
4.6415398008
 30
0.0
 10
12.2023125509
 20
4.6447025242
 30
0.0
 10
12.1882156177
 20
4.647491219
 30
0.0
 10
12.1739723642
 20
4.6499250828
 30
0.0
 10
12.1595940732
 20
4.6520303765
 30
0.0
 10
12.1450918794
 20
4.6538333046
 30
0.0
 10
12.1304764502
 20
4.6553614105
 30
0.0
 10
12.1157557957
 20
4.6566368056
 30
0.0
 10
12.0959403332
 20
4.6580117349
 30
0.0
 10
12.070927323
 20
4.6591296445
 30
0.0
 10
12.0406351606
 20
4.6595730216
 30
0.0
 10
12.0100024073
 20
4.6591188053
 30
0.0
 10
11.9842780665
 20
4.6579980543
 30
0.0
 10
11.9635465484
 20
4.6566290502
 30
0.0
 10
11.9478745637
 20
4.6553523385
 30
0.0
 10
11.9321253117
 20
4.6538225902
 30
0.0
 10
11.9109495597
 20
4.651407894
 30
0.0
 10
11.8896888718
 20
4.6483904115
 30
0.0
 10
11.8683749273
 20
4.6446832975
 30
0.0
 10
11.8522578417
 20
4.6415179669
 30
0.0
 10
11.8360764017
 20
4.6379577941
 30
0.0
 10
11.8198319088
 20
4.6339860628
 30
0.0
 10
11.803534638
 20
4.6295376911
 30
0.0
 10
11.7927080984
 20
4.6262261543
 30
0.0
 10
11.7872942292
 20
4.6244704952
 30
0.0
  0
SPLINE
  5
29B
100
AcDbEntity
  8
0
100
AcDbSpline
 62
9
  6
CONTINUOUS
 70
0
 71
3
 72
26
 73
22
 74
0
 42
0.0000001
 43
0.0000001
 44
0.0000000001
 40
0.0
 40
0.0
 40
0.0
 40
0.0
 40
0.0621088116
 40
0.1243278376
 40
0.1866444167
 40
0.2178373959
 40
0.2490505101
 40
0.3115282041
 40
0.374067689
 40
0.4366563053
 40
0.4992811777
 40
0.5619290379
 40
0.6245864858
 40
0.6872402027
 40
0.7185628801
 40
0.7498796259
 40
0.7811888668
 40
0.812488965
 40
0.875052346
 40
0.937560658
 40
1.0
 40
1.0
 40
1.0
 40
1.0
 10
11.7872942292
 20
4.6244704952
 30
0.0
 10
11.8061310627
 20
4.6746001627
 30
0.0
 10
11.8419929008
 20
4.7756531341
 30
0.0
 10
11.8902158563
 20
4.9292234149
 30
0.0
 10
11.9257034436
 20
5.0587573598
 30
0.0
 10
11.9512291872
 20
5.1632287971
 30
0.0
 10
11.9748410478
 20
5.2682918222
 30
0.0
 10
12.0007068605
 20
5.4005257476
 30
0.0
 10
12.0258164921
 20
5.560361289
 30
0.0
 10
12.0449234539
 20
5.7211543495
 30
0.0
 10
12.0579546211
 20
5.882647286
 30
0.0
 10
12.064857217
 20
6.0445779199
 30
0.0
 10
12.065626992
 20
6.2066772411
 30
0.0
 10
12.0611694305
 20
6.3416925758
 30
0.0
 10
12.0545601181
 20
6.4495266355
 30
0.0
 10
12.0480873883
 20
6.5302776864
 30
0.0
 10
12.0401074674
 20
6.6108741524
 30
0.0
 10
12.0274715354
 20
6.7180644053
 30
0.0
 10
12.0079627801
 20
6.8515079206
 30
0.0
 10
11.9787019913
 20
7.0105493006
 30
0.0
 10
11.9553401982
 20
7.1157483878
 30
0.0
 10
11.9427109386
 20
7.1680830481
 30
0.0
  0
SPLINE
  5
29C
100
AcDbEntity
  8
0
100
AcDbSpline
 62
9
  6
CONTINUOUS
 70
0
 71
3
 72
20
 73
16
 74
0
 42
0.0000001
 43
0.0000001
 44
0.0000000001
 40
0.0
 40
0.0
 40
0.0
 40
0.0
 40
0.1420759944
 40
0.2842432669
 40
0.4229516604
 40
0.4900651837
 40
0.5552116924
 40
0.6181529065
 40
0.6787457778
 40
0.7369553681
 40
0.7928697551
 40
0.8467089112
 40
0.8988338529
 40
0.9497528279
 40
1.0
 40
1.0
 40
1.0
 40
1.0
 10
11.9427112079
 20
7.1680831236
 30
0.0
 10
11.9423444726
 20
7.1702934718
 30
0.0
 10
11.9419712239
 20
7.1747832084
 30
0.0
 10
11.9424650996
 20
7.1814601842
 30
0.0
 10
11.9437451267
 20
7.1868260322
 30
0.0
 10
11.9452751139
 20
7.1908212304
 30
0.0
 10
11.9466372606
 20
7.193587133
 30
0.0
 10
11.9482098587
 20
7.19611913
 30
0.0
 10
11.9499734262
 20
7.1983857385
 30
0.0
 10
11.9519067258
 20
7.2003580495
 30
0.0
 10
11.953986512
 20
7.2020102362
 30
0.0
 10
11.956186816
 20
7.2033208671
 30
0.0
 10
11.9584811018
 20
7.2042713834
 30
0.0
 10
11.9608386279
 20
7.2048471162
 30
0.0
 10
11.9624368836
 20
7.2049764179
 30
0.0
 10
11.9632292911
 20
7.204976419
 30
0.0
  0
SPLINE
  5
29D
100
AcDbEntity
  8
0
100
AcDbSpline
 62
9
  6
CONTINUOUS
 70
0
 71
3
 72
20
 73
16
 74
0
 42
0.0000001
 43
0.0000001
 44
0.0000000001
 40
0.0
 40
0.0
 40
0.0
 40
0.0
 40
0.1415328751
 40
0.2831542417
 40
0.421415346
 40
0.4883734145
 40
0.5534235371
 40
0.6163365639
 40
0.6769764149
 40
0.7353123304
 40
0.7914327202
 40
0.8455527782
 40
0.8980229857
 40
0.9493348983
 40
1.0
 40
1.0
 40
1.0
 40
1.0
 10
12.3344402196
 20
7.1680830468
 30
0.0
 10
12.3340690407
 20
7.1702928684
 30
0.0
 10
12.3336910196
 20
7.1747831521
 30
0.0
 10
12.3341913475
 20
7.1814622231
 30
0.0
 10
12.3354877673
 20
7.1868282876
 30
0.0
 10
12.3370365036
 20
7.1908225064
 30
0.0
 10
12.3384157641
 20
7.1935885871
 30
0.0
 10
12.3400081066
 20
7.1961206818
 30
0.0
 10
12.3417937819
 20
7.1983872945
 30
0.0
 10
12.3437512453
 20
7.200359487
 30
0.0
 10
12.3458568918
 20
7.2020114202
 30
0.0
 10
12.3480843604
 20
7.2033216901
 30
0.0
 10
12.3504067084
 20
7.2042718052
 30
0.0
 10
12.3527928274
 20
7.2048472162
 30
0.0
 10
12.3544101627
 20
7.2049764201
 30
0.0
 10
12.3552123031
 20
7.2049764193
 30
0.0
  0
LINE
  5
29E
100
AcDbEntity
  8
0
100
AcDbLine
 62
9
  6
CONTINUOUS
 10
12.35888362
 20
7.1680831236
 11
12.3587042142
 21
7.204976419
  0
LINE
  5
29F
100
AcDbEntity
  8
0
100
AcDbLine
 62
9
  6
CONTINUOUS
 10
12.9128724975
 20
7.1680830468
 11
12.9130519042
 21
7.2049764193
  0
SPLINE
  5
2A0
100
AcDbEntity
  8
0
100
AcDbSpline
 62
9
  6
CONTINUOUS
 70
0
 71
3
 72
20
 73
16
 74
0
 42
0.0000001
 43
0.0000001
 44
0.0000000001
 40
0.0
 40
0.0
 40
0.0
 40
0.0
 40
0.1415328703
 40
0.2831543204
 40
0.4214156829
 40
0.4883739396
 40
0.5534242737
 40
0.6163375152
 40
0.6769775546
 40
0.7353135939
 40
0.7914339937
 40
0.8455539121
 40
0.8980238297
 40
0.9493353529
 40
1.0
 40
1.0
 40
1.0
 40
1.0
 10
12.9373156156
 20
7.1680831236
 30
0.0
 10
12.9376867723
 20
7.1702929306
 30
0.0
 10
12.9380647578
 20
7.1747831811
 30
0.0
 10
12.9375644092
 20
7.1814622005
 30
0.0
 10
12.9362680014
 20
7.1868282292
 30
0.0
 10
12.9347192907
 20
7.1908224317
 30
0.0
 10
12.9333400548
 20
7.1935885074
 30
0.0
 10
12.9317477415
 20
7.1961206033
 30
0.0
 10
12.9299620986
 20
7.1983872223
 30
0.0
 10
12.9280046704
 20
7.2003594252
 30
0.0
 10
12.925899062
 20
7.2020113716
 30
0.0
 10
12.9236716339
 20
7.2033216562
 30
0.0
 10
12.9213493274
 20
7.2042717858
 30
0.0
 10
12.9189632497
 20
7.2048472084
 30
0.0
 10
12.917345941
 20
7.2049764179
 30
0.0
 10
12.9165438143
 20
7.204976419
 30
0.0
  0
SPLINE
  5
2A1
100
AcDbEntity
  8
0
100
AcDbSpline
 62
9
  6
CONTINUOUS
 70
0
 71
3
 72
20
 73
16
 74
0
 42
0.0000001
 43
0.0000001
 44
0.0000000001
 40
0.0
 40
0.0
 40
0.0
 40
0.0
 40
0.1420763596
 40
0.2842441217
 40
0.4229529465
 40
0.4900666144
 40
0.5552132053
 40
0.618154438
 40
0.6787472693
 40
0.7369567598
 40
0.7928709765
 40
0.8467098873
 40
0.8988345181
 40
0.9497531607
 40
1.0
 40
1.0
 40
1.0
 40
1.0
 10
13.3290451875
 20
7.1680830462
 30
0.0
 10
13.3294119236
 20
7.1702934109
 30
0.0
 10
13.329785163
 20
7.1747831842
 30
0.0
 10
13.3292912462
 20
7.1814602102
 30
0.0
 10
13.3280111686
 20
7.1868260909
 30
0.0
 10
13.3264811366
 20
7.190821305
 30
0.0
 10
13.3251189573
 20
7.1935872122
 30
0.0
 10
13.323546328
 20
7.1961192076
 30
0.0
 10
13.3217827325
 20
7.1983858092
 30
0.0
 10
13.3198494098
 20
7.200358109
 30
0.0
 10
13.3177696073
 20
7.2020102822
 30
0.0
 10
13.3155692942
 20
7.203320899
 30
0.0
 10
13.3132750057
 20
7.2042714023
 30
0.0
 10
13.310917481
 20
7.204847124
 30
0.0
 10
13.3093192279
 20
7.2049764202
 30
0.0
 10
13.3085268219
 20
7.2049764193
 30
0.0
  0
SPLINE
  5
2A2
100
AcDbEntity
  8
0
100
AcDbSpline
 62
9
  6
CONTINUOUS
 70
0
 71
3
 72
23
 73
19
 74
0
 42
0.0000001
 43
0.0000001
 44
0.0000000001
 40
0.0
 40
0.0
 40
0.0
 40
0.0
 40
0.0600084552
 40
0.1207215855
 40
0.1820642511
 40
0.2439621979
 40
0.3063369832
 40
0.3691081875
 40
0.432193878
 40
0.4955101191
 40
0.5589706968
 40
0.62248818
 40
0.685975423
 40
0.749345991
 40
0.8125151131
 40
0.8754000558
 40
0.937921699
 40
1.0
 40
1.0
 40
1.0
 40
1.0
 10
12.9772846004
 20
4.6244695316
 30
0.0
 10
12.969234635
 20
4.6748705606
 30
0.0
 10
12.9539127395
 20
4.7764058887
 30
0.0
 10
12.9333824557
 20
4.9298995067
 30
0.0
 10
12.9152228955
 20
5.0853102036
 30
0.0
 10
12.8994934673
 20
5.2424059285
 30
0.0
 10
12.8862506363
 20
5.4009501324
 30
0.0
 10
12.8755477622
 20
5.5606985686
 30
0.0
 10
12.8674309819
 20
5.7214010734
 30
0.0
 10
12.861936741
 20
5.8828013388
 30
0.0
 10
12.8590961072
 20
6.0446374443
 30
0.0
 10
12.8589159293
 20
6.206643784
 30
0.0
 10
12.8613896411
 20
6.3685547079
 30
0.0
 10
12.8664948123
 20
6.5301075245
 30
0.0
 10
12.8742011842
 20
6.6910441904
 30
0.0
 10
12.8844621548
 20
6.8511146491
 30
0.0
 10
12.8972160465
 20
7.0100744887
 30
0.0
 10
12.9073831503
 20
7.1155688315
 30
0.0
 10
12.912872503
 20
7.168083047
 30
0.0
  0
SPLINE
  5
2A3
100
AcDbEntity
  8
0
100
AcDbSpline
 62
9
  6
CONTINUOUS
 70
0
 71
3
 72
33
 73
29
 74
0
 42
0.0000001
 43
0.0000001
 44
0.0000000001
 40
0.0
 40
0.0
 40
0.0
 40
0.0
 40
0.0311270289
 40
0.0622911767
 40
0.0934829103
 40
0.1246908383
 40
0.1559139946
 40
0.1871519103
 40
0.2496649295
 40
0.2809397688
 40
0.3122224932
 40
0.3435101949
 40
0.3748024284
 40
0.437397179
 40
0.5000000709
 40
0.5626029553
 40
0.6251976875
 40
0.6564899031
 40
0.6877775781
 40
0.719060286
 40
0.750335148
 40
0.8128481878
 40
0.8440860813
 40
0.8753092163
 40
0.9065171201
 40
0.9377088411
 40
0.9688729911
 40
1.0
 40
1.0
 40
1.0
 40
1.0
 10
12.9772846004
 20
4.6244695316
 30
0.0
 10
12.9703681386
 20
4.6262368846
 30
0.0
 10
12.9564731001
 20
4.6295656203
 30
0.0
 10
12.9354968702
 20
4.6340078114
 30
0.0
 10
12.9144071635
 20
4.6379749369
 30
0.0
 10
12.893231124
 20
4.6415323862
 30
0.0
 10
12.8719818796
 20
4.6446953181
 30
0.0
 10
12.8435614111
 20
4.6484148751
 30
0.0
 10
12.8150407839
 20
4.6514244091
 30
0.0
 10
12.7864574497
 20
4.6538288964
 30
0.0
 10
12.764988673
 20
4.655357733
 30
0.0
 10
12.7434995121
 20
4.6566337356
 30
0.0
 10
12.7148241311
 20
4.6580058335
 30
0.0
 10
12.6789490835
 20
4.6591247908
 30
0.0
 10
12.6358780915
 20
4.6595730124
 30
0.0
 10
12.5928071146
 20
4.6591238962
 30
0.0
 10
12.5569320922
 20
4.6580046041
 30
0.0
 10
12.5282567202
 20
4.6566326351
 30
0.0
 10
12.5067675631
 20
4.6553568087
 30
0.0
 10
12.4852987723
 20
4.6538282462
 30
0.0
 10
12.4567153728
 20
4.6514244844
 30
0.0
 10
12.4281946513
 20
4.6484157465
 30
0.0
 10
12.3997741663
 20
4.6446963371
 30
0.0
 10
12.3785249474
 20
4.6415333342
 30
0.0
 10
12.3573489416
 20
4.6379757691
 30
0.0
 10
12.3362592221
 20
4.6340087643
 30
0.0
 10
12.3152829476
 20
4.6295668156
 30
0.0
 10
12.3013879273
 20
4.6262380021
 30
0.0
 10
12.2944715111
 20
4.6244704889
 30
0.0
  0
SPLINE
  5
2A4
100
AcDbEntity
  8
0
100
AcDbSpline
 62
9
  6
CONTINUOUS
 70
0
 71
3
 72
23
 73
19
 74
0
 42
0.0000001
 43
0.0000001
 44
0.0000000001
 40
0.0
 40
0.0
 40
0.0
 40
0.0
 40
0.0600084604
 40
0.1207215949
 40
0.1820642625
 40
0.2439622103
 40
0.3063369957
 40
0.3691082007
 40
0.4321938917
 40
0.4955101316
 40
0.5589707077
 40
0.6224881896
 40
0.6859754309
 40
0.749345998
 40
0.8125151187
 40
0.8754000602
 40
0.9379217011
 40
1.0
 40
1.0
 40
1.0
 40
1.0
 10
12.2944715111
 20
4.6244704889
 30
0.0
 10
12.3025214669
 20
4.6748715047
 30
0.0
 10
12.3178436133
 20
4.7764067642
 30
0.0
 10
12.3383737987
 20
4.9299003499
 30
0.0
 10
12.3565331698
 20
5.0853110155
 30
0.0
 10
12.3722626675
 20
5.2424066759
 30
0.0
 10
12.3855056601
 20
5.4009508091
 30
0.0
 10
12.3962084583
 20
5.5606991938
 30
0.0
 10
12.4043249909
 20
5.7214016505
 30
0.0
 10
12.409819323
 20
5.8828018495
 30
0.0
 10
12.4126600904
 20
6.0446378896
 30
0.0
 10
12.4128402441
 20
6.2066441665
 30
0.0
 10
12.4103663613
 20
6.3685550241
 30
0.0
 10
12.4052612317
 20
6.5301077774
 30
0.0
 10
12.3975549717
 20
6.6910443863
 30
0.0
 10
12.3872939615
 20
6.8511147792
 30
0.0
 10
12.3745400626
 20
7.0100745536
 30
0.0
 10
12.3643729759
 20
7.115568855
 30
0.0
 10
12.3588836154
 20
7.1680830482
 30
0.0
  0
SPLINE
  5
2A5
100
AcDbEntity
  8
0
100
AcDbSpline
 62
9
  6
CONTINUOUS
 70
0
 71
3
 72
26
 73
22
 74
0
 42
0.0000001
 43
0.0000001
 44
0.0000000001
 40
0.0
 40
0.0
 40
0.0
 40
0.0
 40
0.062108803
 40
0.1243278281
 40
0.1866444105
 40
0.2178373896
 40
0.2490505028
 40
0.3115281947
 40
0.3740676807
 40
0.4366562989
 40
0.4992811719
 40
0.5619290327
 40
0.6245864814
 40
0.6872401988
 40
0.7185628764
 40
0.7498796225
 40
0.7811888641
 40
0.8124889627
 40
0.8750523435
 40
0.937560657
 40
1.0
 40
1.0
 40
1.0
 40
1.0
 10
13.4844621366
 20
4.6244695248
 30
0.0
 10
13.4656252935
 20
4.6745992028
 30
0.0
 10
13.4297635876
 20
4.7756522567
 30
0.0
 10
13.3815405286
 20
4.9292225604
 30
0.0
 10
13.3460528108
 20
5.0587565267
 30
0.0
 10
13.320527044
 20
5.1632280034
 30
0.0
 10
13.296915217
 20
5.2682910762
 30
0.0
 10
13.2710494716
 20
5.4005250652
 30
0.0
 10
13.2459397487
 20
5.5603606535
 30
0.0
 10
13.2268325863
 20
5.7211537581
 30
0.0
 10
13.2138015154
 20
5.8826467699
 30
0.0
 10
13.2068989619
 20
6.0445774683
 30
0.0
 10
13.2061291363
 20
6.2066768525
 30
0.0
 10
13.2105866165
 20
6.3416922436
 30
0.0
 10
13.2171959203
 20
6.4495263469
 30
0.0
 10
13.2236686871
 20
6.5302774274
 30
0.0
 10
13.2316486472
 20
6.6108739221
 30
0.0
 10
13.2442845796
 20
6.7180642172
 30
0.0
 10
13.2637933024
 20
6.8515077917
 30
0.0
 10
13.2930541189
 20
7.0105492325
 30
0.0
 10
13.3164159144
 20
7.1157483636
 30
0.0
 10
13.3290451741
 20
7.1680830462
 30
0.0
  0
SPLINE
  5
2A6
100
AcDbEntity
  8
0
100
AcDbSpline
 62
9
  6
CONTINUOUS
 70
0
 71
3
 72
36
 73
32
 74
0
 42
0.0000001
 43
0.0000001
 44
0.0000000001
 40
0.0
 40
0.0
 40
0.0
 40
0.0
 40
0.0348324141
 40
0.0692763724
 40
0.1033779793
 40
0.1371696385
 40
0.1706698003
 40
0.2038931177
 40
0.2695655893
 40
0.3020536667
 40
0.3343293089
 40
0.3664035175
 40
0.3982833381
 40
0.4614820446
 40
0.5239654775
 40
0.585754969
 40
0.6163963161
 40
0.6468697509
 40
0.6771761847
 40
0.7073174745
 40
0.7372957798
 40
0.7671081256
 40
0.7967509806
 40
0.8262247027
 40
0.8555340523
 40
0.884688189
 40
0.9137003044
 40
0.9281586245
 40
0.9425859194
 40
0.971347316
 40
1.0
 40
1.0
 40
1.0
 40
1.0
 10
13.4844621366
 20
4.6244695248
 30
0.0
 10
13.4790482398
 20
4.6262250381
 30
0.0
 10
13.4682216825
 20
4.6295365036
 30
0.0
 10
13.4519244579
 20
4.6339850996
 30
0.0
 10
13.4356799622
 20
4.6379569519
 30
0.0
 10
13.4194984906
 20
4.6415170199
 30
0.0
 10
13.4033813801
 20
4.6446822849
 30
0.0
 10
13.3820673457
 20
4.6483895531
 30
0.0
 10
13.3608066033
 20
4.6514078133
 30
0.0
 10
13.3396307445
 20
4.6538232356
 30
0.0
 10
13.3238814099
 20
4.6553532601
 30
0.0
 10
13.3082093694
 20
4.656630149
 30
0.0
 10
13.2874778613
 20
4.6579992783
 30
0.0
 10
13.2617535505
 20
4.659119713
 30
0.0
 10
13.2311211351
 20
4.6595729889
 30
0.0
 10
13.2058076674
 20
4.6592018893
 30
0.0
 10
13.1857391401
 20
4.6584539091
 30
0.0
 10
13.170821698
 20
4.6576640454
 30
0.0
 10
13.1560006716
 20
4.6566356874
 30
0.0
 10
13.1412799909
 20
4.6553604891
 30
0.0
 10
13.1266644625
 20
4.6538326493
 30
0.0
 10
13.1121621091
 20
4.6520302704
 30
0.0
 10
13.0977836334
 20
4.6499255485
 30
0.0
 10
13.0835402433
 20
4.6474921273
 30
0.0
 10
13.0694432376
 20
4.644703561
 30
0.0
 10
13.0555026408
 20
4.6415406875
 30
0.0
 10
13.0440112789
 20
4.6385728432
 30
0.0
 10
13.0349094108
 20
4.6359926777
 30
0.0
 10
13.0258913376
 20
4.6332718953
 30
0.0
 10
13.0147477304
 20
4.6295730042
 30
0.0
 10
13.0059747033
 20
4.6262395175
 30
0.0
 10
13.0016401191
 20
4.6244704875
 30
0.0
  0
SPLINE
  5
2A7
100
AcDbEntity
  8
0
100
AcDbSpline
 62
9
  6
CONTINUOUS
 70
0
 71
3
 72
22
 73
18
 74
0
 42
0.0000001
 43
0.0000001
 44
0.0000000001
 40
0.0
 40
0.0
 40
0.0
 40
0.0
 40
0.0067576507
 40
0.0141382129
 40
0.0225561126
 40
0.032291806
 40
0.0563474527
 40
0.0871437848
 40
0.1250038308
 40
0.1700544551
 40
0.2223305592
 40
0.2817861147
 40
0.3483270131
 40
0.4218426665
 40
0.5892096551
 40
0.7825384683
 40
1.0
 40
1.0
 40
1.0
 40
1.0
 10
13.3391665451
 20
7.1680659835
 30
0.0
 10
13.3391611812
 20
7.1680434339
 30
0.0
 10
13.3391425468
 20
7.167997797
 30
0.0
 10
13.3390947133
 20
7.1679360979
 30
0.0
 10
13.3390274365
 20
7.1678792652
 30
0.0
 10
13.3389031346
 20
7.1678041998
 30
0.0
 10
13.3386945286
 20
7.1677254216
 30
0.0
 10
13.3383845909
 20
7.1676527497
 30
0.0
 10
13.3379982685
 20
7.1675964401
 30
0.0
 10
13.3375361283
 20
7.1675566459
 30
0.0
 10
13.3369987277
 20
7.1675335956
 30
0.0
 10
13.3363872051
 20
7.1675273563
 30
0.0
 10
13.3357028997
 20
7.1675379485
 30
0.0
 10
13.334649076
 20
7.1675762837
 30
0.0
 10
13.3331624341
 20
7.1676701702
 30
0.0
 10
13.331187011
 20
7.1678458198
 30
0.0
 10
13.329786128
 20
7.1679976617
 30
0.0
 10
13.3290451383
 20
7.1680830403
 30
0.0
  0
SPLINE
  5
2A8
100
AcDbEntity
  8
0
100
AcDbSpline
 62
9
  6
CONTINUOUS
 70
0
 71
3
 72
23
 73
19
 74
0
 42
0.0000001
 43
0.0000001
 44
0.0000000001
 40
0.0
 40
0.0
 40
0.0
 40
0.0
 40
0.0599550165
 40
0.1206277884
 40
0.1819437835
 40
0.2438285509
 40
0.3062030581
 40
0.3689856647
 40
0.4320922393
 40
0.4954360237
 40
0.5589276773
 40
0.6224762808
 40
0.6859910696
 40
0.7493822296
 40
0.8125620017
 40
0.8754452532
 40
0.9379514423
 40
1.0
 40
1.0
 40
1.0
 40
1.0
 10
13.0016401191
 20
4.6244704875
 30
0.0
 10
12.9940848499
 20
4.6748770407
 30
0.0
 10
12.9797412392
 20
4.7764240153
 30
0.0
 10
12.9606055948
 20
4.929918198
 30
0.0
 10
12.9437350997
 20
5.0853283662
 30
0.0
 10
12.9291590176
 20
5.2424231706
 30
0.0
 10
12.9168941455
 20
5.4009656948
 30
0.0
 10
12.9069491155
 20
5.5607111966
 30
0.0
 10
12.8993429828
 20
5.7214100314
 30
0.0
 10
12.8940973477
 20
5.8828062945
 30
0.0
 10
12.8912203817
 20
6.0446379185
 30
0.0
 10
12.8907064187
 20
6.2066396056
 30
0.0
 10
12.8925498173
 20
6.368546189
 30
0.0
 10
12.8967511764
 20
6.5300951392
 30
0.0
 10
12.903299983
 20
6.6910286199
 30
0.0
 10
12.9121771909
 20
6.8510971392
 30
0.0
 10
12.9233693526
 20
7.0100561528
 30
0.0
 10
12.932405871
 20
7.1155626541
 30
0.0
 10
12.9373159064
 20
7.1680830481
 30
0.0
  0
SPLINE
  5
2A9
100
AcDbEntity
  8
0
100
AcDbSpline
 62
9
  6
CONTINUOUS
 70
0
 71
3
 72
19
 73
15
 74
0
 42
0.0000001
 43
0.0000001
 44
0.0000000001
 40
0.0
 40
0.0
 40
0.0
 40
0.0
 40
0.0228954461
 40
0.0480580663
 40
0.0771997795
 40
0.1114209394
 40
0.1513627593
 40
0.197392055
 40
0.2497128672
 40
0.3084018115
 40
0.4448394856
 40
0.6063027808
 40
0.7918679562
 40
1.0
 40
1.0
 40
1.0
 40
1.0
 10
11.7772021512
 20
4.624479406
 30
0.0
 10
11.7772298392
 20
4.6245538331
 30
0.0
 10
11.7773155983
 20
4.624700783
 30
0.0
 10
11.7775161067
 20
4.6248827523
 30
0.0
 10
11.7777860558
 20
4.6250330601
 30
0.0
 10
11.7781246348
 20
4.6251537327
 30
0.0
 10
11.7785319181
 20
4.6252459622
 30
0.0
 10
11.7790077741
 20
4.6253098548
 30
0.0
 10
11.7795516231
 20
4.625345305
 30
0.0
 10
11.7804101357
 20
4.6253548713
 30
0.0
 10
11.7816462494
 20
4.6252858248
 30
0.0
 10
11.7833128056
 20
4.625095248
 30
0.0
 10
11.7852149779
 20
4.6247931659
 30
0.0
 10
11.7865557678
 20
4.6245333462
 30
0.0
 10
11.7872625954
 20
4.6243866765
 30
0.0
  0
SPLINE
  5
2AA
100
AcDbEntity
  8
0
100
AcDbSpline
 62
9
  6
CONTINUOUS
 70
0
 71
3
 72
44
 73
40
 74
0
 42
0.0000001
 43
0.0000001
 44
0.0000000001
 40
0.0
 40
0.0
 40
0.0
 40
0.0
 40
0.0020614827
 40
0.0041192469
 40
0.0061678048
 40
0.0082085236
 40
0.012269977
 40
0.0163075578
 40
0.0203248163
 40
0.0243225533
 40
0.0283039011
 40
0.0322707792
 40
0.040164591
 40
0.0480128547
 40
0.0558216046
 40
0.0635965385
 40
0.0790607014
 40
0.0944301769
 40
0.1097251454
 40
0.1249604808
 40
0.1401469006
 40
0.1552946732
 40
0.1855074759
 40
0.2156507477
 40
0.2457642768
 40
0.2758816906
 40
0.3060290326
 40
0.3362266637
 40
0.3664934747
 40
0.3968459069
 40
0.4272974994
 40
0.4578588175
 40
0.4885395606
 40
0.5502947676
 40
0.6126205416
 40
0.6755556608
 40
0.7391287438
 40
0.868245551
 40
1.0
 40
1.0
 40
1.0
 40
1.0
 10
13.0484370587
 20
4.3752194688
 30
0.0
 10
13.0483819482
 20
4.3753890983
 30
0.0
 10
13.0482650929
 20
4.3757258432
 30
0.0
 10
13.0480840547
 20
4.376227815
 30
0.0
 10
13.0479054521
 20
4.3767287687
 30
0.0
 10
13.0476680479
 20
4.3773927977
 30
0.0
 10
13.0473722225
 20
4.3782186977
 30
0.0
 10
13.0470191971
 20
4.3792057556
 30
0.0
 10
13.0466666972
 20
4.3801871468
 30
0.0
 10
13.0463183869
 20
4.3811648693
 30
0.0
 10
13.0459711846
 20
4.3821383586
 30
0.0
 10
13.0455100928
 20
4.3834291107
 30
0.0
 10
13.0449378975
 20
4.3850354406
 30
0.0
 10
13.0442534315
 20
4.3869546316
 30
0.0
 10
13.0435734485
 20
4.3888645015
 30
0.0
 10
13.0426719923
 20
4.3913949559
 30
0.0
 10
13.0415507334
 20
4.3945415226
 30
0.0
 10
13.0402131364
 20
4.3983016982
 30
0.0
 10
13.0388830866
 20
4.4020435449
 30
0.0
 10
13.0375595578
 20
4.4057709012
 30
0.0
 10
13.0362441421
 20
4.4094876223
 30
0.0
 10
13.0345012973
 20
4.414427664
 30
0.0
 10
13.0323372933
 20
4.4205913434
 30
0.0
 10
13.0297653434
 20
4.4279840783
 30
0.0
 10
13.0272232171
 20
4.4353784002
 30
0.0
 10
13.0247095242
 20
4.442782809
 30
0.0
 10
13.0222241825
 20
4.4502044629
 30
0.0
 10
13.0197709032
 20
4.457650395
 30
0.0
 10
13.0173505942
 20
4.4651257651
 30
0.0
 10
13.0149631081
 20
4.4726347428
 30
0.0
 10
13.0126079278
 20
4.4801806158
 30
0.0
 10
13.0102881869
 20
4.4877671783
 30
0.0
 10
13.0072386724
 20
4.4979625336
 30
0.0
 10
13.0035207333
 20
4.5108262213
 30
0.0
 10
12.9992234626
 20
4.5264260338
 30
0.0
 10
12.9950932605
 20
4.5422336214
 30
0.0
 10
12.9897960468
 20
4.563706893
 30
0.0
 10
12.9836362558
 20
4.5910971358
 30
0.0
 10
12.9793074994
 20
4.6132520902
 30
0.0
 10
12.9772813949
 20
4.6244698472
 30
0.0
  0
SPLINE
  5
2AB
100
AcDbEntity
  8
0
100
AcDbSpline
 62
9
  6
CONTINUOUS
 70
0
 71
3
 72
43
 73
39
 74
0
 42
0.0000001
 43
0.0000001
 44
0.0000000001
 40
0.0
 40
0.0
 40
0.0
 40
0.0
 40
0.0020598664
 40
0.0041168946
 40
0.0061649004
 40
0.0082053373
 40
0.012266761
 40
0.0163043246
 40
0.0203216055
 40
0.0243193744
 40
0.0283007666
 40
0.0322676804
 40
0.0401615206
 40
0.0480097649
 40
0.055818718
 40
0.0635938038
 40
0.0790574906
 40
0.0944277166
 40
0.10972266
 40
0.124957304
 40
0.1552928072
 40
0.1855047814
 40
0.2156485214
 40
0.2457625201
 40
0.2758796723
 40
0.3060268009
 40
0.3362246573
 40
0.3664918111
 40
0.3968444682
 40
0.427295786
 40
0.4578568575
 40
0.488537761
 40
0.5502937212
 40
0.6126193534
 40
0.7391249846
 40
0.8033543329
 40
0.8682453298
 40
1.0
 40
1.0
 40
1.0
 40
1.0
 10
12.2233232665
 20
4.3752182952
 30
0.0
 10
12.2233773088
 20
4.3753881217
 30
0.0
 10
12.2234929135
 20
4.3757250986
 30
0.0
 10
12.2236730293
 20
4.376227133
 30
0.0
 10
12.2238508611
 20
4.3767282185
 30
0.0
 10
12.2240878263
 20
4.3773923264
 30
0.0
 10
12.224383757
 20
4.3782181603
 30
0.0
 10
12.2247366776
 20
4.3792052555
 30
0.0
 10
12.2250892059
 20
4.3801866419
 30
0.0
 10
12.2254375157
 20
4.3811643757
 30
0.0
 10
12.2257847528
 20
4.3821378649
 30
0.0
 10
12.2262458684
 20
4.383428621
 30
0.0
 10
12.2268180949
 20
4.3850349472
 30
0.0
 10
12.2275024109
 20
4.3869542151
 30
0.0
 10
12.2281826084
 20
4.3888640433
 30
0.0
 10
12.2290844022
 20
4.3913943715
 30
0.0
 10
12.23020451
 20
4.3945413938
 30
0.0
 10
12.2315434004
 20
4.3983011395
 30
0.0
 10
12.2328734738
 20
4.4020429891
 30
0.0
 10
12.2346338115
 20
4.4070060446
 30
0.0
 10
12.2368210858
 20
4.4131870608
 30
0.0
 10
12.2394181593
 20
4.4205913389
 30
0.0
 10
12.2419908591
 20
4.4279838349
 30
0.0
 10
12.2445336218
 20
4.4353780167
 30
0.0
 10
12.2470468473
 20
4.4427825997
 30
0.0
 10
12.2495317178
 20
4.4502044028
 30
0.0
 10
12.2519851713
 20
4.4576503241
 30
0.0
 10
12.2544057522
 20
4.4651256928
 30
0.0
 10
12.2567936977
 20
4.4726345669
 30
0.0
 10
12.2591484241
 20
4.4801805711
 30
0.0
 10
12.2614675906
 20
4.4877672919
 30
0.0
 10
12.2645169377
 20
4.4979627719
 30
0.0
 10
12.2682360493
 20
4.5108262403
 30
0.0
 10
12.2739942645
 20
4.5317286376
 30
0.0
 10
12.2793831848
 20
4.5529529699
 30
0.0
 10
12.2843874148
 20
4.5744965389
 30
0.0
 10
12.2891855
 20
4.5965518887
 30
0.0
 10
12.2924484058
 20
4.6132527833
 30
0.0
 10
12.2944743409
 20
4.6244706114
 30
0.0
  0
SPLINE
  5
2AC
100
AcDbEntity
  8
0
100
AcDbSpline
 62
9
  6
CONTINUOUS
 70
0
 71
3
 72
40
 73
36
 74
0
 42
0.0000001
 43
0.0000001
 44
0.0000000001
 40
0.0
 40
0.0
 40
0.0
 40
0.0
 40
0.0019975305
 40
0.0039813822
 40
0.0059574993
 40
0.0079270474
 40
0.0118490899
 40
0.0157516472
 40
0.0196373975
 40
0.0235102926
 40
0.0273707697
 40
0.0312197615
 40
0.0388893684
 40
0.0465256147
 40
0.0541342332
 40
0.0617185936
 40
0.0768270935
 40
0.0918728833
 40
0.1068701675
 40
0.121830432
 40
0.1516803831
 40
0.1814814682
 40
0.2411057892
 40
0.2709911289
 40
0.3009550477
 40
0.3611972721
 40
0.3915038116
 40
0.4219478085
 40
0.4832920553
 40
0.5452961178
 40
0.6080002781
 40
0.6714384211
 40
0.7356329805
 40
0.866308576
 40
1.0
 40
1.0
 40
1.0
 40
1.0
 10
12.2233233195
 20
4.3752188222
 30
0.0
 10
12.2233334583
 20
4.3753874637
 30
0.0
 10
12.2233484713
 20
4.3757238841
 30
0.0
 10
12.2233695404
 20
4.3762273109
 30
0.0
 10
12.2233972005
 20
4.3767280651
 30
0.0
 10
12.2234388132
 20
4.3773921947
 30
0.0
 10
12.2234992145
 20
4.3782183821
 30
0.0
 10
12.2235834351
 20
4.3792052398
 30
0.0
 10
12.2236757596
 20
4.380187201
 30
0.0
 10
12.2237791035
 20
4.3811644842
 30
0.0
 10
12.223889256
 20
4.382137883
 30
0.0
 10
12.2240437368
 20
4.3834294089
 30
0.0
 10
12.224252703
 20
4.3850359848
 30
0.0
 10
12.2245218237
 20
4.3869552818
 30
0.0
 10
12.2248079342
 20
4.3888648274
 30
0.0
 10
12.2252063976
 20
4.3913964988
 30
0.0
 10
12.2257335301
 20
4.3945445935
 30
0.0
 10
12.2264045894
 20
4.3983040258
 30
0.0
 10
12.2271040764
 20
4.4020454994
 30
0.0
 10
12.2280664444
 20
4.4070115037
 30
0.0
 10
12.2293216472
 20
4.4131959501
 30
0.0
 10
12.2314017444
 20
4.4230672219
 30
0.0
 10
12.233561798
 20
4.4329244392
 30
0.0
 10
12.2357552553
 20
4.4427882499
 30
0.0
 10
12.2379685131
 20
4.4527012061
 30
0.0
 10
12.2401935508
 20
4.4626480312
 30
0.0
 10
12.2424072398
 20
4.4726389853
 30
0.0
 10
12.2446204796
 20
4.4827254818
 30
0.0
 10
12.2473655429
 20
4.4954399392
 30
0.0
 10
12.2505925169
 20
4.5108414664
 30
0.0
 10
12.2537372146
 20
4.5264407458
 30
0.0
 10
12.2567877818
 20
4.5422474741
 30
0.0
 10
12.2607349886
 20
4.5637352451
 30
0.0
 10
12.2653518484
 20
4.5911399323
 30
0.0
 10
12.2685962826
 20
4.6132648658
 30
0.0
 10
12.27011377
 20
4.6244698481
 30
0.0
  0
SPLINE
  5
2AD
100
AcDbEntity
  8
0
100
AcDbSpline
 62
9
  6
CONTINUOUS
 70
0
 71
3
 72
35
 73
31
 74
0
 42
0.0000001
 43
0.0000001
 44
0.0000000001
 40
0.0
 40
0.0
 40
0.0
 40
0.0
 40
0.0039538117
 40
0.0079061842
 40
0.0118561599
 40
0.015803476
 40
0.0197483766
 40
0.0236903843
 40
0.0315676267
 40
0.0394363486
 40
0.0472975851
 40
0.06300043
 40
0.078681181
 40
0.0943440822
 40
0.10999157
 40
0.1256260317
 40
0.1568642462
 40
0.1880690853
 40
0.2192507684
 40
0.250414636
 40
0.3127105869
 40
0.3749892704
 40
0.4372743835
 40
0.4995825443
 40
0.5619276312
 40
0.6243207192
 40
0.6867688351
 40
0.7492792953
 40
0.8744955594
 40
1.0
 40
1.0
 40
1.0
 40
1.0
 10
11.6398766937
 20
4.3752182952
 30
0.0
 10
11.6400529919
 20
4.375557936
 30
0.0
 10
11.6404210262
 20
4.376228968
 30
0.0
 10
11.6409845354
 20
4.3772285583
 30
0.0
 10
11.641559837
 20
4.3782207385
 30
0.0
 10
11.6421430742
 20
4.3792074067
 30
0.0
 10
11.642733838
 20
4.3801886884
 30
0.0
 10
11.6435279308
 20
4.3814914981
 30
0.0
 10
11.6445340425
 20
4.383109781
 30
0.0
 10
11.6457573414
 20
4.3850395706
 30
0.0
 10
11.6474055241
 20
4.387596682
 30
0.0
 10
11.6494932266
 20
4.3907699114
 30
0.0
 10
11.6520309991
 20
4.3945506065
 30
0.0
 10
11.6545929069
 20
4.3983084882
 30
0.0
 10
11.657172496
 20
4.4020487959
 30
0.0
 10
11.6606284121
 20
4.4070158676
 30
0.0
 10
11.6649740391
 20
4.4131981447
 30
0.0
 10
11.670205645
 20
4.4205968618
 30
0.0
 10
11.6754392635
 20
4.4279853434
 30
0.0
 10
11.6823999318
 20
4.4378380693
 30
0.0
 10
11.6910480127
 20
4.4501837715
 30
0.0
 10
11.7012769678
 20
4.4650988805
 30
0.0
 10
11.7113082887
 20
4.480149322
 30
0.0
 10
11.7211025883
 20
4.495363
 30
0.0
 10
11.7306248084
 20
4.5107609767
 30
0.0
 10
11.7398468599
 20
4.5263565292
 30
0.0
 10
11.7487380683
 20
4.5421617677
 30
0.0
 10
11.7601235634
 20
4.5635332364
 30
0.0
 10
11.7734058065
 20
4.5907993946
 30
0.0
 10
11.7828747897
 20
4.6131570701
 30
0.0
 10
11.787296651
 20
4.6244706177
 30
0.0
  0
SPLINE
  5
2AE
100
AcDbEntity
  8
0
100
AcDbSpline
 62
9
  6
CONTINUOUS
 70
0
 71
3
 72
32
 73
28
 74
0
 42
0.0000001
 43
0.0000001
 44
0.0000000001
 40
0.0
 40
0.0
 40
0.0
 40
0.0
 40
0.0038427552
 40
0.0076793795
 40
0.0115186721
 40
0.0153602962
 40
0.0230481407
 40
0.0307455211
 40
0.0384475076
 40
0.0461543612
 40
0.0615794455
 40
0.0924614923
 40
0.1233777392
 40
0.1543203936
 40
0.1852895857
 40
0.2162821694
 40
0.2472992937
 40
0.2783420592
 40
0.3094098257
 40
0.371620438
 40
0.4339395733
 40
0.4963669607
 40
0.5589073126
 40
0.6215653693
 40
0.7472289066
 40
0.8733749311
 40
1.0
 40
1.0
 40
1.0
 40
1.0
 10
11.6398769187
 20
4.3752188222
 30
0.0
 10
11.6399981885
 20
4.3755130494
 30
0.0
 10
11.6402399114
 20
4.3761013209
 30
0.0
 10
11.6406222916
 20
4.3769753254
 30
0.0
 10
11.6410175073
 20
4.3778434494
 30
0.0
 10
11.6415601507
 20
4.3789947751
 30
0.0
 10
11.6422618975
 20
4.3804241994
 30
0.0
 10
11.6431348834
 20
4.3821253195
 30
0.0
 10
11.644030938
 20
4.383816157
 30
0.0
 10
11.6452526208
 20
4.3860585196
 30
0.0
 10
11.6474493902
 20
4.3899553858
 30
0.0
 10
11.6507082052
 20
4.3954588048
 30
0.0
 10
11.6547381282
 20
4.4019972257
 30
0.0
 10
11.6588474989
 20
4.408494448
 30
0.0
 10
11.6630106075
 20
4.4149647937
 30
0.0
 10
11.6672073256
 20
4.421420715
 30
0.0
 10
11.6714245464
 20
4.4278705281
 30
0.0
 10
11.6756510462
 20
4.434321706
 30
0.0
 10
11.6812884332
 20
4.44293687
 30
0.0
 10
11.6883159047
 20
4.4537378541
 30
0.0
 10
11.696667146
 20
4.4667756165
 30
0.0
 10
11.7049009381
 20
4.4799202386
 30
0.0
 10
11.7129877969
 20
4.493188864
 30
0.0
 10
11.7235476265
 20
4.5110808094
 30
0.0
 10
11.7362504108
 20
4.5338217804
 30
0.0
 10
11.7505205124
 20
4.5617328882
 30
0.0
 10
11.7592825835
 20
4.5807525688
 30
0.0
 10
11.7634591223
 20
4.5903714556
 30
0.0
  0
SPLINE
  5
2AF
100
AcDbEntity
  8
0
100
AcDbSpline
 62
9
  6
CONTINUOUS
 70
0
 71
3
 72
34
 73
30
 74
0
 42
0.0000001
 43
0.0000001
 44
0.0000000001
 40
0.0
 40
0.0
 40
0.0
 40
0.0
 40
0.0038476114
 40
0.0076862973
 40
0.0115258656
 40
0.0153674341
 40
0.0230551687
 40
0.0307523214
 40
0.0384540997
 40
0.0461608595
 40
0.0615854673
 40
0.0770217821
 40
0.0924678283
 40
0.1233826385
 40
0.1543253734
 40
0.1852926916
 40
0.2162859175
 40
0.2473019642
 40
0.3094108861
 40
0.3716208711
 40
0.4339383255
 40
0.496364692
 40
0.5589045935
 40
0.6215609377
 40
0.6843340202
 40
0.7472273027
 40
0.8102419449
 40
0.8733771728
 40
1.0
 40
1.0
 40
1.0
 40
1.0
 10
13.6318819006
 20
4.3752182952
 30
0.0
 10
13.6317595207
 20
4.3755125782
 30
0.0
 10
13.6315170253
 20
4.3761013094
 30
0.0
 10
13.6311336018
 20
4.3769757474
 30
0.0
 10
13.6307382461
 20
4.3778442563
 30
0.0
 10
13.6301954344
 20
4.378995841
 30
0.0
 10
13.6294935058
 20
4.3804255514
 30
0.0
 10
13.6286203435
 20
4.3821270296
 30
0.0
 10
13.6277240971
 20
4.3838182199
 30
0.0
 10
13.6265020644
 20
4.3860609928
 30
0.0
 10
13.6249332939
 20
4.3888442211
 30
0.0
 10
13.6230018497
 20
4.392158392
 30
0.0
 10
13.6203744098
 20
4.3965516776
 30
0.0
 10
13.617014543
 20
4.4020031229
 30
0.0
 10
13.6129039744
 20
4.4085013511
 30
0.0
 10
13.6087404622
 20
4.4149734592
 30
0.0
 10
13.6045422364
 20
4.4214303059
 30
0.0
 10
13.5989161095
 20
4.4300356134
 30
0.0
 10
13.5918605538
 20
4.4407957862
 30
0.0
 10
13.5834294307
 20
4.4537544859
 30
0.0
 10
13.5750767362
 20
4.4667952598
 30
0.0
 10
13.5668412338
 20
4.4799427704
 30
0.0
 10
13.5587528288
 20
4.4932143233
 30
0.0
 10
13.5508392328
 20
4.5066243579
 30
0.0
 10
13.5431239095
 20
4.5201832757
 30
0.0
 10
13.5356276963
 20
4.5338984716
 30
0.0
 10
13.5283708798
 20
4.5477759786
 30
0.0
 10
13.5190312519
 20
4.5665168042
 30
0.0
 10
13.51245242
 20
4.580799231
 30
0.0
 10
13.5082756185
 20
4.5904204589
 30
0.0
  0
SPLINE
  5
2B0
100
AcDbEntity
  8
0
100
AcDbSpline
 62
9
  6
CONTINUOUS
 70
0
 71
3
 72
42
 73
38
 74
0
 42
0.0000001
 43
0.0000001
 44
0.0000000001
 40
0.0
 40
0.0
 40
0.0
 40
0.0
 40
0.0019990065
 40
0.003983581
 40
0.0059603007
 40
0.0079301711
 40
0.011852223
 40
0.0157548055
 40
0.0196405545
 40
0.0235134322
 40
0.0273738561
 40
0.0312227909
 40
0.0388923538
 40
0.0465286504
 40
0.0541370497
 40
0.0617211864
 40
0.0768301907
 40
0.0918751811
 40
0.1068722918
 40
0.1218333752
 40
0.1516817685
 40
0.181483589
 40
0.2112796321
 40
0.2411067318
 40
0.2709921697
 40
0.3009563539
 40
0.3611977393
 40
0.4219477199
 40
0.4832923738
 40
0.5452949836
 40
0.6079984271
 40
0.6714375553
 40
0.735631318
 40
0.8005873968
 40
0.8663069242
 40
0.9327846357
 40
1.0
 40
1.0
 40
1.0
 40
1.0
 10
13.0484371298
 20
4.3752174284
 30
0.0
 10
13.0484258961
 20
4.3753861278
 30
0.0
 10
13.0484097425
 20
4.3757226972
 30
0.0
 10
13.0483879486
 20
4.3762263336
 30
0.0
 10
13.0483593602
 20
4.376727183
 30
0.0
 10
13.0483172053
 20
4.3773913642
 30
0.0
 10
13.048257063
 20
4.3782176108
 30
0.0
 10
13.0481726902
 20
4.3792044733
 30
0.0
 10
13.0480803857
 20
4.3801864496
 30
0.0
 10
13.047977036
 20
4.3811637395
 30
0.0
 10
13.0478669415
 20
4.3821371473
 30
0.0
 10
13.0477125182
 20
4.3834286847
 30
0.0
 10
13.0475035613
 20
4.3850352804
 30
0.0
 10
13.0472342488
 20
4.3869545583
 30
0.0
 10
13.0469484129
 20
4.3888641365
 30
0.0
 10
13.0465502887
 20
4.3913959044
 30
0.0
 10
13.0460219214
 20
4.39454379
 30
0.0
 10
13.045352264
 20
4.3983034788
 30
0.0
 10
13.0446527146
 20
4.4020449875
 30
0.0
 10
13.043688607
 20
4.4070106404
 30
0.0
 10
13.0424363188
 20
4.4131957619
 30
0.0
 10
13.0408739907
 20
4.4205979647
 30
0.0
 10
13.0392758275
 20
4.4279906439
 30
0.0
 10
13.0376481269
 20
4.435384108
 30
0.0
 10
13.0360012205
 20
4.4427878769
 30
0.0
 10
13.0337874193
 20
4.4527008079
 30
0.0
 10
13.0310006035
 20
4.4651605561
 30
0.0
 10
13.0276765047
 20
4.4802197957
 30
0.0
 10
13.0243899735
 20
4.4954397489
 30
0.0
 10
13.0211642384
 20
4.5108416015
 30
0.0
 10
13.0180193617
 20
4.5264409589
 30
0.0
 10
13.0149672699
 20
4.5422475595
 30
0.0
 10
13.0120250037
 20
4.5582687691
 30
0.0
 10
13.0092069036
 20
4.5745080999
 30
0.0
 10
13.0065221814
 20
4.5909658022
 30
0.0
 10
13.0039839687
 20
4.6076400604
 30
0.0
 10
13.0024047067
 20
4.6188370723
 30
0.0
 10
13.0016416984
 20
4.6244706132
 30
0.0
  0
SPLINE
  5
2B1
100
AcDbEntity
  8
0
100
AcDbSpline
 62
9
  6
CONTINUOUS
 70
0
 71
3
 72
35
 73
31
 74
0
 42
0.0000001
 43
0.0000001
 44
0.0000000001
 40
0.0
 40
0.0
 40
0.0
 40
0.0
 40
0.0039544466
 40
0.0079071197
 40
0.0118571025
 40
0.0158044315
 40
0.0197493304
 40
0.0236913276
 40
0.031568541
 40
0.0394372593
 40
0.0472985187
 40
0.0630011984
 40
0.0786822116
 40
0.0943447368
 40
0.1099922204
 40
0.1256271055
 40
0.1568645807
 40
0.1880699222
 40
0.2192513867
 40
0.2504149372
 40
0.3127112532
 40
0.3749896235
 40
0.4372747423
 40
0.4995831537
 40
0.5619276842
 40
0.6243207735
 40
0.6867693675
 40
0.7492795226
 40
0.8744954603
 40
1.0
 40
1.0
 40
1.0
 40
1.0
 10
13.6318816353
 20
4.3752188222
 30
0.0
 10
13.6317043224
 20
4.3755580035
 30
0.0
 10
13.631335862
 20
4.3762288811
 30
0.0
 10
13.6307716516
 20
4.377228187
 30
0.0
 10
13.6301964844
 20
4.3782204756
 30
0.0
 10
13.6296131803
 20
4.3792071073
 30
0.0
 10
13.6290224315
 20
4.3801883968
 30
0.0
 10
13.6282283451
 20
4.3814912049
 30
0.0
 10
13.6272222604
 20
4.3831094982
 30
0.0
 10
13.6259989768
 20
4.3850392955
 30
0.0
 10
13.6243507118
 20
4.3875963344
 30
0.0
 10
13.6222633019
 20
4.3907697687
 30
0.0
 10
13.6197250789
 20
4.3945501264
 30
0.0
 10
13.617163591
 20
4.3983082754
 30
0.0
 10
13.6145840595
 20
4.4020486272
 30
0.0
 10
13.6111275263
 20
4.4070152267
 30
0.0
 10
13.6067828625
 20
4.4131981961
 30
0.0
 10
13.6015505551
 20
4.4205963592
 30
0.0
 10
13.5963171241
 20
4.4279849632
 30
0.0
 10
13.5893568179
 20
4.4378379163
 30
0.0
 10
13.5807082128
 20
4.4501832095
 30
0.0
 10
13.5704795383
 20
4.4650985107
 30
0.0
 10
13.560448362
 20
4.4801490233
 30
0.0
 10
13.5506534385
 20
4.4953622562
 30
0.0
 10
13.5411318305
 20
4.510760574
 30
0.0
 10
13.531910063
 20
4.5263562601
 30
0.0
 10
13.5230177937
 20
4.5421609119
 30
0.0
 10
13.5116328019
 20
4.5635326312
 30
0.0
 10
13.4983509536
 20
4.5907988816
 30
0.0
 10
13.4888815597
 20
4.6131563404
 30
0.0
 10
13.4844595757
 20
4.6244698433
 30
0.0
  0
ENDSEC
  0
SECTION
  2
OBJECTS
  0
DICTIONARY
  5
C
100
AcDbDictionary
280
0
281
1
  3
ACAD_GROUP
350
D
  3
ACAD_MLINESTYLE
350
17
  3
ACAD_LAYOUT
350
1A
  3
ACAD_PLOTSETTINGS
350
19
  3
ACAD_PLOTSTYLENAME
350
E
  0
DICTIONARY
  5
D
102
{ACAD_REACTORS
330
C
102
}
100
AcDbDictionary
280
0
281
1
  0
ACDBDICTIONARYWDFLT
  5
E
102
{ACAD_REACTORS
330
C
102
}
100
AcDbDictionary
281
1
  3
Normal
350
F
100
AcDbDictionaryWithDefault
340
F
  0
DICTIONARY
  5
17
102
{ACAD_REACTORS
330
C
102
}
100
AcDbDictionary
280
0
281
1
  3
Standard
350
18
  0
DICTIONARY
  5
19
102
{ACAD_REACTORS
330
C
102
}
100
AcDbDictionary
281
1
  0
DICTIONARY
  5
1A
102
{ACAD_REACTORS
330
C
102
}
100
AcDbDictionary
281
1
  3
Model
350
2B2
  3
Layout1
350
2B3
  0
ACDBPLACEHOLDER
  5
F
102
{ACAD_REACTORS
330
E
102
}
  0
MLINESTYLE
  5
18
102
{ACAD_REACTORS
330
17
102
}
100
AcDbMlineStyle
  2
STANDARD
 70
0
  3

 62
256
 51
90.0
 52
90.0
 71
2
 49
0.5
 62
256
  6
BYLAYER
 49
-0.5
 62
256
  6
BYLAYER
  0
LAYOUT
  5
2B2
102
{ACAD_REACTORS
330
1A
102
}
100
AcDbPlotSettings
  1

  2
none_device
  4
ANSI_C_(22.00_x_17.00_Inches)
  6

 40
0.0
 41
0.0
 42
0.0
 43
0.0
 44
558.8
 45
431.8
 46
0.0
 47
0.0
 48
0.0
 49
0.0
140
0.0
141
0.0
142
1.0
143
1.0
 70
1024
 72
0
 73
0
 74
0
  7

 75
0
147
1.0
148
0.0
149
0.0
100
AcDbLayout
  1
Model
 70
0
 71
0
 10
0.0
 20
0.0
 11
22.0
 21
17.0
 12
0.0
 22
0.0
 32
0.0
 14
0.0
 24
0.0
 34
0.0
 15
0.0
 25
0.0
 35
0.0
146
0.0
 13
0.0
 23
0.0
 33
0.0
 16
1.0
 26
0.0
 36
0.0
 17
0.0
 27
1.0
 37
0.0
 76
0
330
205
345
0
346
0
  0
LAYOUT
  5
2B3
102
{ACAD_REACTORS
330
1A
102
}
100
AcDbPlotSettings
  1

  2
none_device
  4
ANSI_C_(22.00_x_17.00_Inches)
  6

 40
0.0
 41
0.0
 42
0.0
 43
0.0
 44
558.8
 45
431.8
 46
0.0
 47
0.0
 48
0.0
 49
0.0
140
0.0
141
0.0
142
1.0
143
1.0
 70
0
 72
0
 73
0
 74
0
  7

 75
0
147
1.0
148
0.0
149
0.0
100
AcDbLayout
  1
Layout1
 70
0
 71
1
 10
0.0
 20
0.0
 11
22.0
 21
17.0
 12
0.0
 22
0.0
 32
0.0
 14
0.0
 24
0.0
 34
0.0
 15
0.0
 25
0.0
 35
0.0
146
0.0
 13
0.0
 23
0.0
 33
0.0
 16
1.0
 26
0.0
 36
0.0
 17
0.0
 27
1.0
 37
0.0
 76
0
330
206
345
0
346
0
  0
ENDSEC
  0
EOF
