999
DXF file: E:\BRASSTECH\RAY\EN-4300m\Webdata\1200\CAD\1200_RIGHT.dxf
999
Pro/ENGINEER 2018400 by Parametric Technology Corporation
  0
SECTION
  2
HEADER
  9
$ACADVER
  1
AC1018
  9
$DWGCODEPAGE
  3
ANSI_1252
  9
$EXTMAX
 10
22.0
 20
17.0
 30
0.0
  9
$EXTMIN
 10
0.0
 20
0.0
 30
0.0
  9
$LIMMIN
 10
0.0
 20
0.0
  9
$LIMMAX
 10
22.0
 20
17.0
  9
$VIEWCTR
 10
11.0
 20
8.5
  9
$VIEWSIZE
 40
17.0
  9
$CLAYER
  8
0
  9
$LTSCALE
 40
1.21
  9
$CELTYPE
  6
BYLAYER
  9
$DIMSCALE
 40
1.0
  9
$DIMASZ
 40
0.1
  9
$DIMEXO
 40
0.0625
  9
$DIMDLI
 40
0.836
  9
$DIMEXE
 40
0.125
  9
$DIMCEN
 40
0.198
  9
$DIMLFAC
 40
1.0
  9
$DIMBLK
  1
_FILLED
  9
$DIMALT
 70
1
  9
$DIMALTD
 70
2
  9
$DIMALTTD
 70
2
  9
$DIMALTF
 40
25.4
  9
$DIMTXT
 40
0.08
  9
$DIMTOL
 70
1
  9
$DIMLIM
 70
0
  9
$DIMTFAC
 40
1.0
  9
$DIMTP
 40
0.001
  9
$DIMTM
 40
0.001
  9
$DIMGAP
 40
0.09
  9
$DIMDSEP
 70
46
  9
$AUNITS
 70
0
  9
$PDMODE
 70
3
  9
$PDSIZE
 40
0.06
  9
$HANDSEED
  5
293
  9
$TILEMODE
 70
1
  9
$MEASUREMENT
 70
0
  9
$INSUNITS
 70
1
  0
ENDSEC
  0
SECTION
  2
CLASSES
  0
CLASS
  1
ACDBDICTIONARYWDFLT
  2
AcDbDictionaryWithDefault
  3
AutoCAD 2000
 90
0
 91
1
280
0
281
0
  0
CLASS
  1
ACDBPLACEHOLDER
  2
AcDbPlaceHolder
  3
AutoCAD 2000
 90
0
 91
1
280
0
281
0
  0
CLASS
  1
LAYOUT
  2
AcDbLayout
  3
AutoCAD 2000
 90
0
 91
0
280
0
281
0
  0
ENDSEC
  0
SECTION
  2
TABLES
  0
TABLE
  2
VPORT
  5
8
100
AcDbSymbolTable
 70
2
  0
VPORT
  5
1F4
100
AcDbSymbolTableRecord
100
AcDbViewportTableRecord
  2
*ACTIVE
 70
0
 10
0.0
 20
0.0
 11
1.0
 21
1.0
 12
11.0
 22
8.5
 13
0.0
 23
0.0
 14
1.0
 24
1.0
 15
0.0
 25
0.0
 16
0.0
 26
0.0
 36
1.0
 17
0.0
 27
0.0
 37
0.0
 40
17.0
 41
1.2941176471
 42
50.0
 43
0.0
 44
0.0
 50
0.0
 51
0.0
 71
0
 72
100
 73
1
 74
1
 75
0
 76
0
 77
0
 78
0
  0
ENDTAB
  0
TABLE
  2
LTYPE
  5
5
100
AcDbSymbolTable
 70
6
  0
LTYPE
  5
14
100
AcDbSymbolTableRecord
100
AcDbLinetypeTableRecord
  2
BYBLOCK
 70
0
  3

 72
65
 73
0
 40
0.0
  0
LTYPE
  5
15
100
AcDbSymbolTableRecord
100
AcDbLinetypeTableRecord
  2
BYLAYER
 70
0
  3

 72
65
 73
0
 40
0.0
  0
LTYPE
  5
16
100
AcDbSymbolTableRecord
100
AcDbLinetypeTableRecord
  2
CONTINUOUS
 70
64
  3
Solid line
 72
65
 73
0
 40
0.0
  0
LTYPE
  5
1F5
100
AcDbSymbolTableRecord
100
AcDbLinetypeTableRecord
  2
CENTER
 70
64
  3
____ _ ____ _ ____ _ ____ _ ____ _ ____ _ ____
 72
65
 73
4
 40
0.6
 49
0.375
 74
0
 49
-0.075
 74
0
 49
0.075
 74
0
 49
-0.075
 74
0
  0
LTYPE
  5
1F6
100
AcDbSymbolTableRecord
100
AcDbLinetypeTableRecord
  2
HIDDEN
 70
64
  3
- - - - - - - - - - - - - - - - - - - -
 72
65
 73
2
 40
0.2
 49
0.1
 74
0
 49
-0.1
 74
0
  0
LTYPE
  5
1F7
100
AcDbSymbolTableRecord
100
AcDbLinetypeTableRecord
  2
PHANTOM
 70
64
  3
_____ _ _ _____ _ _ _____ _ _ _____
 72
65
 73
6
 40
0.8
 49
0.45
 74
0
 49
-0.05
 74
0
 49
0.1
 74
0
 49
-0.05
 74
0
 49
0.1
 74
0
 49
-0.05
 74
0
  0
LTYPE
  5
1F8
100
AcDbSymbolTableRecord
100
AcDbLinetypeTableRecord
  2
DOT
 70
64
  3
. . . . . . . . . . . . . . . . . . . .
 72
65
 73
2
 40
0.2
 49
0.1
 74
0
 49
-0.1
 74
0
  0
LTYPE
  5
1F9
100
AcDbSymbolTableRecord
100
AcDbLinetypeTableRecord
  2
DASHED
 70
64
  3
- - - - - - - - - - - - - - - - - - - -
 72
65
 73
2
 40
0.2
 49
0.1
 74
0
 49
-0.1
 74
0
  0
ENDTAB
  0
TABLE
  2
LAYER
  5
2
100
AcDbSymbolTable
 70
36
  0
LAYER
  5
10
100
AcDbSymbolTableRecord
100
AcDbLayerTableRecord
  2
0
 70
0
 62
7
  6
CONTINUOUS
370
-3
390
F
  0
LAYER
  5
1FA
100
AcDbSymbolTableRecord
100
AcDbLayerTableRecord
  2
DEFAULT_1
 70
0
 62
7
  6
CENTER
370
-3
390
F
  0
LAYER
  5
1FB
100
AcDbSymbolTableRecord
100
AcDbLayerTableRecord
  2
DEFAULT_2
 70
0
 62
8
  6
HIDDEN
370
-3
390
F
  0
LAYER
  5
1FC
100
AcDbSymbolTableRecord
100
AcDbLayerTableRecord
  2
DEFAULT_3
 70
0
 62
7
  6
PHANTOM
370
-3
390
F
  0
LAYER
  5
1FD
100
AcDbSymbolTableRecord
100
AcDbLayerTableRecord
  2
ALL_FEATURES
 70
0
 62
7
  6
CONTINUOUS
370
-3
390
F
  0
LAYER
  5
1FE
100
AcDbSymbolTableRecord
100
AcDbLayerTableRecord
  2
AXES_FEATURES
 70
0
 62
7
  6
CONTINUOUS
370
-3
390
F
  0
LAYER
  5
1FF
100
AcDbSymbolTableRecord
100
AcDbLayerTableRecord
  2
DIMENSIONS
 70
0
 62
7
  6
CONTINUOUS
370
-3
390
F
  0
ENDTAB
  0
TABLE
  2
STYLE
  5
3
100
AcDbSymbolTable
 70
1
  0
STYLE
  5
11
100
AcDbSymbolTableRecord
100
AcDbTextStyleTableRecord
  2
STANDARD
 70
0
 40
0.0
 41
0.8
 50
0.0
 71
0
 42
0.2
  3
txt
  4

  0
STYLE
  5
200
100
AcDbSymbolTableRecord
100
AcDbTextStyleTableRecord
  2
TEXTSTYLE_1
 70
0
 40
0.0
 41
0.8
 50
0.0
 71
0
 42
0.2
  3
gdt
  4

  0
ENDTAB
  0
TABLE
  2
VIEW
  5
6
100
AcDbSymbolTable
 70
0
  0
ENDTAB
  0
TABLE
  2
UCS
  5
7
100
AcDbSymbolTable
 70
0
  0
ENDTAB
  0
TABLE
  2
APPID
  5
9
100
AcDbSymbolTable
 70
1
  0
APPID
  5
201
100
AcDbSymbolTableRecord
100
AcDbRegAppTableRecord
  2
ACAD
 70
0
  0
ENDTAB
  0
TABLE
  2
BLOCK_RECORD
  5
1
100
AcDbSymbolTable
 70
0
  0
BLOCK_RECORD
  5
202
100
AcDbSymbolTableRecord
100
AcDbBlockTableRecord
  2
*Model_Space
  0
BLOCK_RECORD
  5
203
100
AcDbSymbolTableRecord
100
AcDbBlockTableRecord
  2
*Paper_Space
  0
BLOCK_RECORD
  5
204
100
AcDbSymbolTableRecord
100
AcDbBlockTableRecord
  2
_FILLED
  0
ENDTAB
  0
TABLE
  2
DIMSTYLE
  5
A
100
AcDbSymbolTable
 70
1
100
AcDbDimStyleTable
 71
0
  0
DIMSTYLE
105
205
100
AcDbSymbolTableRecord
100
AcDbDimStyleTableRecord
  2
STANDARD
 70
0
  3

  4

 40
1.0
 41
0.1
 42
0.0625
 43
0.38
 44
0.125
 45
0.0
 46
0.0
 47
0.001
 48
0.001
140
0.08
141
0.09
142
0.0
143
25.4
144
1.0
145
0.0
146
1.0
147
0.09
 71
1.0
 72
0.0
 73
1
 74
1
 75
0
 76
0
 77
0
 78
4
 79
1
170
1
171
2
172
0
173
0
174
0
175
0
176
0
177
0
178
0
270
2
179
3
271
3
272
3
273
2
274
2
275
0
280
0
281
0
282
0
283
1
284
4
285
0
286
0
287
3
288
0
340
11
278
46
341
204
342
204
343
204
344
204
  0
ENDTAB
  0
ENDSEC
  0
SECTION
  2
BLOCKS
  0
BLOCK
  5
20
100
AcDbEntity
  8
0
100
AcDbBlockBegin
  2
*Model_Space
 70
0
 10
0.0
 20
0.0
 30
0.0
  3
*Model_Space
  1

  0
ENDBLK
  5
21
100
AcDbEntity
  8
0
100
AcDbBlockEnd
  0
BLOCK
  5
1C
100
AcDbEntity
  8
0
100
AcDbBlockBegin
  2
*Paper_Space
 70
0
 10
0.0
 20
0.0
 30
0.0
  3
*Paper_Space
  1

  0
ENDBLK
  5
1D
100
AcDbEntity
  8
0
100
AcDbBlockEnd
  0
BLOCK
  5
206
100
AcDbEntity
  8
0
100
AcDbBlockBegin
  2
_FILLED
 70
64
 10
0.0
 20
0.0
  3
_FILLED
  1

  0
SOLID
  5
207
100
AcDbEntity
  8
0
  6
BYBLOCK
 62
0
100
AcDbTrace
 10
0.0
 20
0.0
 11
-1.0
 21
0.2
 12
-1.0
 22
-0.2
 13
-1.0
 23
-0.2
  0
ENDBLK
  5
208
100
AcDbEntity
  8
0
  6
BYBLOCK
 62
0
100
AcDbBlockEnd
  0
ENDSEC
  0
SECTION
  2
ENTITIES
  0
LINE
  5
209
100
AcDbEntity
  8
0
100
AcDbLine
 62
7
  6
CONTINUOUS
 10
7.1587940772
 20
9.3920811906
 11
7.1109125538
 21
9.2133849127
  0
LWPOLYLINE
  5
20A
100
AcDbEntity
  8
0
100
AcDbPolyline
 62
7
  6
CONTINUOUS
 90
31
 70
0
 10
8.1664287028
 20
9.1220863064
 10
8.1665793753
 20
9.1254266549
 10
8.1682243859
 20
9.1370784249
 10
8.171289971
 20
9.1490379318
 10
8.1755197333
 20
9.1612703324
 10
8.1807420183
 20
9.1737033934
 10
8.186897524
 20
9.1863928019
 10
8.1939418985
 20
9.1993150959
 10
8.2018034673
 20
9.212355256
 10
8.2104517244
 20
9.2254474657
 10
8.2199489824
 20
9.238614238
 10
8.2303355109
 20
9.2517338575
 10
8.2416205498
 20
9.2645971812
 10
8.2538018927
 20
9.2769743307
 10
8.2668675234
 20
9.288617723
 10
8.2808546662
 20
9.2992809628
 10
8.2958846305
 20
9.3087613498
 10
8.3120721128
 20
9.3168429481
 10
8.3293639197
 20
9.323301868
 10
8.3475118573
 20
9.3281870999
 10
8.366425716
 20
9.3316925523
 10
8.3860014251
 20
9.3339734406
 10
8.406087745
 20
9.3351457839
 10
8.426598462
 20
9.3352619817
 10
8.4474854441
 20
9.3343400441
 10
8.46866806
 20
9.3323726064
 10
8.4901605673
 20
9.329335502
 10
8.5120256514
 20
9.3252021047
 10
8.534212596
 20
9.3199551015
 10
8.5565831258
 20
9.3135997275
 10
8.5790598261
 20
9.3062527001
  0
LINE
  5
20B
100
AcDbEntity
  8
0
100
AcDbLine
 62
7
  6
CONTINUOUS
 10
8.0522754665
 20
9.1526735739
 11
8.0043939431
 21
8.973977296
  0
LINE
  5
20C
100
AcDbEntity
  8
0
100
AcDbLine
 62
9
  6
CONTINUOUS
 10
8.6003891084
 20
9.3359565401
 11
8.5963035224
 21
9.3207088496
  0
LINE
  5
20D
100
AcDbEntity
  8
0
100
AcDbLine
 62
9
  6
CONTINUOUS
 10
8.8182546138
 20
10.1490416702
 11
8.8105358541
 21
10.1202348672
  0
LINE
  5
20E
100
AcDbEntity
  8
0
100
AcDbLine
 62
7
  6
CONTINUOUS
 10
8.8077946294
 20
10.1100044024
 11
8.7060218468
 21
9.7301832346
  0
LINE
  5
20F
100
AcDbEntity
  8
0
100
AcDbLine
 62
7
  6
CONTINUOUS
 10
8.5912943843
 20
9.3020144937
 11
8.5963035121
 21
9.3207088527
  0
LINE
  5
210
100
AcDbEntity
  8
0
100
AcDbLine
 62
7
  6
CONTINUOUS
 10
8.6003891315
 20
9.3359565587
 11
8.7024760773
 21
9.7169502273
  0
LINE
  5
211
100
AcDbEntity
  8
0
100
AcDbLine
 62
7
  6
CONTINUOUS
 10
11.9153545053
 20
7.5023773822
 11
14.3553150383
 21
7.5023773822
  0
LINE
  5
212
100
AcDbEntity
  8
0
100
AcDbLine
 62
7
  6
CONTINUOUS
 10
11.8953347718
 20
7.5223773822
 11
11.9478347718
 21
7.5223773822
  0
LINE
  5
213
100
AcDbEntity
  8
0
100
AcDbLine
 62
7
  6
CONTINUOUS
 10
14.3228347718
 20
7.5223773822
 11
14.3753347718
 21
7.5223773822
  0
LINE
  5
214
100
AcDbEntity
  8
0
100
AcDbLine
 62
9
  6
CONTINUOUS
 10
14.3050464172
 20
7.824145509
 11
11.9656231264
 21
7.824145509
  0
LINE
  5
215
100
AcDbEntity
  8
0
100
AcDbLine
 62
7
  6
CONTINUOUS
 10
7.9175736535
 20
8.8212437718
 11
7.1097343681
 21
9.037703656
  0
LINE
  5
216
100
AcDbEntity
  8
0
100
AcDbLine
 62
9
  6
CONTINUOUS
 10
7.9279089781
 20
8.8245799049
 11
7.102451781
 21
9.0457604942
  0
LINE
  5
217
100
AcDbEntity
  8
0
100
AcDbLine
 62
9
  6
CONTINUOUS
 10
7.1109125538
 20
9.2133849127
 11
8.0043939431
 21
8.973977296
  0
LINE
  5
218
100
AcDbEntity
  8
0
100
AcDbLine
 62
7
  6
CONTINUOUS
 10
7.0446322292
 20
9.4226707655
 11
8.1664373215
 21
9.122083997
  0
LINE
  5
219
100
AcDbEntity
  8
0
100
AcDbLine
 62
9
  6
CONTINUOUS
 10
12.4707930878
 20
8.636569232
 11
13.7998764558
 21
8.636569232
  0
LWPOLYLINE
  5
21A
100
AcDbEntity
  8
0
100
AcDbPolyline
 62
7
  6
CONTINUOUS
 90
4
 70
0
 10
8.5912943658
 20
9.3020144993
 10
9.6097729195
 20
8.9919528081
 10
10.6373295801
 20
8.6695949559
 10
11.6493980698
 20
8.3426622292
  0
LWPOLYLINE
  5
21B
100
AcDbEntity
  8
0
100
AcDbPolyline
 62
7
  6
CONTINUOUS
 90
11
 70
0
 10
11.6493980736
 20
8.342662228
 10
11.6818515493
 20
8.3318578143
 10
11.7208239773
 20
8.3182654069
 10
11.7564518939
 20
8.3044955453
 10
11.7904207611
 20
8.2893747447
 10
11.8220142265
 20
8.2724048793
 10
11.8509377971
 20
8.2522076888
 10
11.8748137883
 20
8.2268133498
 10
11.8886781822
 20
8.1954029024
 10
11.8937253542
 20
8.1602182045
 10
11.8951873821
 20
8.1330421646
  0
LINE
  5
21C
100
AcDbEntity
  8
0
100
AcDbLine
 62
7
  6
CONTINUOUS
 10
8.5790598261
 20
9.3062527001
 11
8.5912943658
 21
9.3020144994
  0
LINE
  5
21D
100
AcDbEntity
  8
0
100
AcDbLine
 62
7
  6
CONTINUOUS
 10
12.5579845026
 20
9.0293773822
 11
13.712685041
 21
9.0293773822
  0
LINE
  5
21E
100
AcDbEntity
  8
0
100
AcDbLine
 62
7
  6
CONTINUOUS
 10
11.9153347718
 20
7.5023773822
 11
11.8953347718
 21
7.5223773822
  0
LINE
  5
21F
100
AcDbEntity
  8
0
100
AcDbLine
 62
7
  6
CONTINUOUS
 10
13.5653347718
 20
9.1493773822
 11
12.7053347718
 21
9.1493773822
  0
LINE
  5
220
100
AcDbEntity
  8
0
100
AcDbLine
 62
7
  6
CONTINUOUS
 10
12.6453350424
 20
9.4593773822
 11
12.8945673661
 21
9.4593773822
  0
LINE
  5
221
100
AcDbEntity
  8
0
100
AcDbLine
 62
7
  6
CONTINUOUS
 10
13.3761021776
 20
9.4593773822
 11
13.6253345012
 21
9.4593773822
  0
LINE
  5
222
100
AcDbEntity
  8
0
100
AcDbLine
 62
7
  6
CONTINUOUS
 10
13.6978348445
 20
9.5473773822
 11
13.6253347718
 21
9.5473773822
  0
LINE
  5
223
100
AcDbEntity
  8
0
100
AcDbLine
 62
7
  6
CONTINUOUS
 10
12.6453347718
 20
9.5473773822
 11
12.5727608896
 21
9.5473773822
  0
LINE
  5
224
100
AcDbEntity
  8
0
100
AcDbLine
 62
9
  6
CONTINUOUS
 10
12.5332095167
 20
9.4883064579
 11
12.5735103249
 21
9.4851414031
  0
LWPOLYLINE
  5
225
100
AcDbEntity
  8
0
100
AcDbPolyline
 62
7
  6
CONTINUOUS
 90
13
 70
0
 10
8.8182546117
 20
10.1490416625
 10
8.587495447
 20
10.2021444624
 10
8.3579934711
 20
10.2348227341
 10
8.1423400326
 20
10.2380571115
 10
7.9417130496
 20
10.2144133385
 10
7.7569660181
 20
10.1672681585
 10
7.5915279642
 20
10.0971669095
 10
7.4505163908
 20
10.0042259189
 10
7.3344898634
 20
9.8942312301
 10
7.2379545909
 20
9.7755743933
 10
7.1572148197
 20
9.6564482972
 10
7.0905296826
 20
9.5360815078
 10
7.0446408478
 20
9.4226684562
  0
LWPOLYLINE
  5
226
100
AcDbEntity
  8
0
100
AcDbPolyline
 62
7
  6
CONTINUOUS
 90
4
 70
0
 10
11.9378272267
 20
9.4201576732
 10
10.9025931166
 20
9.6609114133
 10
9.8543155216
 20
9.9058393503
 10
8.818254635
 20
10.1490416652
  0
LINE
  5
227
100
AcDbEntity
  8
0
100
AcDbLine
 62
7
  6
CONTINUOUS
 10
11.9296140564
 20
9.3884786258
 11
11.937693078
 21
9.4201944797
  0
LINE
  5
228
100
AcDbEntity
  8
0
100
AcDbLine
 62
7
  6
CONTINUOUS
 10
11.9272879579
 20
9.3797689295
 11
11.9082626399
 21
9.3087672962
  0
LINE
  5
229
100
AcDbEntity
  8
0
100
AcDbLine
 62
7
  6
CONTINUOUS
 10
11.6501801371
 20
8.3455807836
 11
11.6593386308
 21
8.3797605597
  0
LINE
  5
22A
100
AcDbEntity
  8
0
100
AcDbLine
 62
7
  6
CONTINUOUS
 10
11.9043683579
 20
9.2942449664
 11
11.7985648319
 21
8.8993607401
  0
LINE
  5
22B
100
AcDbEntity
  8
0
100
AcDbLine
 62
9
  6
CONTINUOUS
 10
11.6493980736
 20
8.342662228
 11
11.6501801371
 21
8.3455807836
  0
LINE
  5
22C
100
AcDbEntity
  8
0
100
AcDbLine
 62
7
  6
CONTINUOUS
 10
12.6453347718
 20
9.5698773822
 11
12.6228347718
 21
9.5473773822
  0
LWPOLYLINE
  5
22D
100
AcDbEntity
  8
0
100
AcDbPolyline
 62
7
  6
CONTINUOUS
 90
9
 70
0
 10
12.5332095167
 20
9.4883064579
 10
12.4912865579
 20
9.4497957857
 10
12.4298669071
 20
9.4134684535
 10
12.3590634095
 20
9.388449311
 10
12.2815412498
 20
9.3746557101
 10
12.1985649476
 20
9.3719180772
 10
12.1113720589
 20
9.3804612744
 10
12.0206276686
 20
9.3986505871
 10
11.9378272267
 20
9.4201576732
  0
LINE
  5
22E
100
AcDbEntity
  8
0
100
AcDbLine
 62
7
  6
CONTINUOUS
 10
13.6253347718
 20
10.0843773822
 11
13.3775303256
 21
10.0843773822
  0
LINE
  5
22F
100
AcDbEntity
  8
0
100
AcDbLine
 62
7
  6
CONTINUOUS
 10
12.8931392181
 20
10.0843773822
 11
12.6453347718
 21
10.0843773822
  0
LINE
  5
230
100
AcDbEntity
  8
0
100
AcDbLine
 62
7
  6
CONTINUOUS
 10
11.8953347718
 20
7.5223773822
 11
11.8953347718
 21
8.1330566726
  0
LINE
  5
231
100
AcDbEntity
  8
0
100
AcDbLine
 62
7
  6
CONTINUOUS
 10
11.9478347718
 20
7.5023773822
 11
11.9478347718
 21
7.809124625
  0
LINE
  5
232
100
AcDbEntity
  8
0
100
AcDbLine
 62
9
  6
CONTINUOUS
 10
12.5735103249
 20
9.4851414031
 11
12.5723466985
 21
9.4833118906
  0
LINE
  5
233
100
AcDbEntity
  8
0
100
AcDbLine
 62
9
  6
CONTINUOUS
 10
12.5821985991
 20
9.4731187025
 11
12.5833977158
 21
9.4749120753
  0
LINE
  5
234
100
AcDbEntity
  8
0
100
AcDbLine
 62
7
  6
CONTINUOUS
 10
11.8953347718
 20
8.1330566726
 11
11.9962694741
 21
8.1658885513
  0
LINE
  5
235
100
AcDbEntity
  8
0
100
AcDbLine
 62
7
  6
CONTINUOUS
 10
11.9962694741
 20
8.1658885513
 11
12.3351902548
 21
8.2760647576
  0
LINE
  5
236
100
AcDbEntity
  8
0
100
AcDbLine
 62
7
  6
CONTINUOUS
 10
12.5553347718
 20
10.1273773822
 11
12.7988861519
 21
10.1273773822
  0
LINE
  5
237
100
AcDbEntity
  8
0
100
AcDbLine
 62
7
  6
CONTINUOUS
 10
13.4717833918
 20
10.1273773822
 11
13.7153347718
 21
10.1273773822
  0
LINE
  5
238
100
AcDbEntity
  8
0
100
AcDbLine
 62
7
  6
CONTINUOUS
 10
13.7153347718
 20
10.3373773822
 11
12.5553347718
 21
10.3373773822
  0
LWPOLYLINE
  5
239
100
AcDbEntity
  8
0
100
AcDbPolyline
 62
7
  6
CONTINUOUS
 90
4
 70
0
 10
12.5727386782
 20
9.5473773822
 10
12.5637405915
 20
9.5304955211
 10
12.5458741769
 20
9.5037401718
 10
12.5332095167
 20
9.488306458
  0
LINE
  5
23A
100
AcDbEntity
  8
0
100
AcDbLine
 62
7
  6
CONTINUOUS
 10
13.1429299302
 20
10.5174062259
 11
13.127855001
 21
10.5174062259
  0
LINE
  5
23B
100
AcDbEntity
  8
0
100
AcDbLine
 62
7
  6
CONTINUOUS
 10
14.3228347718
 20
7.809124625
 11
14.3050464172
 21
7.824145509
  0
LINE
  5
23C
100
AcDbEntity
  8
0
100
AcDbLine
 62
7
  6
CONTINUOUS
 10
12.5553347718
 20
10.3373773822
 11
12.5553347718
 21
10.1273773822
  0
LINE
  5
23D
100
AcDbEntity
  8
0
100
AcDbLine
 62
7
  6
CONTINUOUS
 10
12.4707930878
 20
8.636569232
 11
12.5579845026
 21
9.0293773822
  0
LINE
  5
23E
100
AcDbEntity
  8
0
100
AcDbLine
 62
7
  6
CONTINUOUS
 10
11.9478347718
 20
7.809124625
 11
11.9656231264
 21
7.824145509
  0
LINE
  5
23F
100
AcDbEntity
  8
0
100
AcDbLine
 62
7
  6
CONTINUOUS
 10
12.6453347718
 20
9.4593773822
 11
12.6453347718
 21
10.0843773822
  0
LINE
  5
240
100
AcDbEntity
  8
0
100
AcDbLine
 62
7
  6
CONTINUOUS
 10
12.7053347718
 20
9.1493773822
 11
12.7053347718
 21
9.0293773822
  0
LINE
  5
241
100
AcDbEntity
  8
0
100
AcDbLine
 62
7
  6
CONTINUOUS
 10
12.8228347718
 20
9.1493773822
 11
12.8228347718
 21
9.4593773822
  0
LINE
  5
242
100
AcDbEntity
  8
0
100
AcDbLine
 62
7
  6
CONTINUOUS
 10
12.8030639298
 20
8.636569232
 11
12.8466596372
 21
9.0293773822
  0
LINE
  5
243
100
AcDbEntity
  8
0
100
AcDbLine
 62
7
  6
CONTINUOUS
 10
13.7290847718
 20
7.809124625
 11
13.7201905945
 21
7.824145509
  0
LINE
  5
244
100
AcDbEntity
  8
0
100
AcDbLine
 62
9
  6
CONTINUOUS
 10
12.6453347718
 20
9.4908792793
 11
12.6226634684
 21
9.5350378508
  0
LINE
  5
245
100
AcDbEntity
  8
0
100
AcDbLine
 62
7
  6
CONTINUOUS
 10
12.8206453324
 20
9.1493773822
 11
12.6615067683
 21
9.4593773822
  0
LINE
  5
246
100
AcDbEntity
  8
0
100
AcDbLine
 62
7
  6
CONTINUOUS
 10
12.5415847718
 20
7.809124625
 11
12.5504789491
 21
7.824145509
  0
LINE
  5
247
100
AcDbEntity
  8
0
100
AcDbLine
 62
7
  6
CONTINUOUS
 10
13.6253347718
 20
9.5698773822
 11
13.6478347718
 21
9.5473773822
  0
LINE
  5
248
100
AcDbEntity
  8
0
100
AcDbLine
 62
7
  6
CONTINUOUS
 10
13.4478347718
 20
9.1493773822
 11
13.4478347718
 21
9.4593773822
  0
LINE
  5
249
100
AcDbEntity
  8
0
100
AcDbLine
 62
7
  6
CONTINUOUS
 10
13.5653347718
 20
9.1493773822
 11
13.5653347718
 21
9.0293773822
  0
LINE
  5
24A
100
AcDbEntity
  8
0
100
AcDbLine
 62
7
  6
CONTINUOUS
 10
13.6253347718
 20
9.4593773822
 11
13.6253347718
 21
10.0843773822
  0
LINE
  5
24B
100
AcDbEntity
  8
0
100
AcDbLine
 62
7
  6
CONTINUOUS
 10
13.7998764558
 20
8.636569232
 11
13.712685041
 21
9.0293773822
  0
LINE
  5
24C
100
AcDbEntity
  8
0
100
AcDbLine
 62
7
  6
CONTINUOUS
 10
13.4676056138
 20
8.636569232
 11
13.4240099064
 21
9.0293773822
  0
LINE
  5
24D
100
AcDbEntity
  8
0
100
AcDbLine
 62
7
  6
CONTINUOUS
 10
13.7153347718
 20
10.3373773822
 11
13.7153347718
 21
10.1273773822
  0
LINE
  5
24E
100
AcDbEntity
  8
0
100
AcDbLine
 62
7
  6
CONTINUOUS
 10
14.3228347718
 20
7.5023773822
 11
14.3228347718
 21
7.809124625
  0
LINE
  5
24F
100
AcDbEntity
  8
0
100
AcDbLine
 62
7
  6
CONTINUOUS
 10
14.3753347718
 20
7.5223773822
 11
14.3753347718
 21
7.7642729673
  0
LINE
  5
250
100
AcDbEntity
  8
0
100
AcDbLine
 62
7
  6
CONTINUOUS
 10
14.3553347718
 20
7.5023773822
 11
14.3753347718
 21
7.5223773822
  0
ARC
  5
251
100
AcDbEntity
  8
0
100
AcDbCircle
 62
9
  6
CONTINUOUS
 10
236.1958996916
 20
974.4605707855
 40
990.7963395198
100
AcDbArc
 50
256.7323428506
 51
256.9176136765
  0
ARC
  5
252
100
AcDbEntity
  8
0
100
AcDbCircle
 62
7
  6
CONTINUOUS
 10
-28.8614840317
 20
-115.878667795
 40
130.6984854271
100
AcDbArc
 50
71.9387904189
 51
73.3438007603
  0
ARC
  5
253
100
AcDbEntity
  8
0
100
AcDbCircle
 62
9
  6
CONTINUOUS
 10
80.5798537339
 20
40.4415280432
 40
74.7176228563
100
AcDbArc
 50
204.5224756701
 51
204.7592082463
  0
ARC
  5
254
100
AcDbEntity
  8
0
100
AcDbCircle
 62
9
  6
CONTINUOUS
 10
22.7981047722
 20
-19.4778738853
 40
29.7124822896
100
AcDbArc
 50
110.5533638538
 51
111.3411511984
  0
ARC
  5
255
100
AcDbEntity
  8
0
100
AcDbCircle
 62
9
  6
CONTINUOUS
 10
22.0604376409
 20
1.4592180059
 40
12.3692085543
100
AcDbArc
 50
139.6448696136
 51
139.8791121006
  0
ARC
  5
256
100
AcDbEntity
  8
0
100
AcDbCircle
 62
9
  6
CONTINUOUS
 10
3.5519354544
 20
15.2351114887
 40
10.6981758869
100
AcDbArc
 50
327.4882865156
 51
327.873635051
  0
ARC
  5
257
100
AcDbEntity
  8
0
100
AcDbCircle
 62
7
  6
CONTINUOUS
 10
17.5716005383
 20
9.9989732045
 40
3.9
100
AcDbArc
 50
186.6494123575
 51
210.5334484863
  0
ARC
  5
258
100
AcDbEntity
  8
0
100
AcDbCircle
 62
7
  6
CONTINUOUS
 10
17.5716005383
 20
9.9989732045
 40
3.9
100
AcDbArc
 50
210.6260396375
 51
214.9596952263
  0
ARC
  5
259
100
AcDbEntity
  8
0
100
AcDbCircle
 62
9
  6
CONTINUOUS
 10
15.3460351614
 20
7.7782445085
 40
3.2409689293
100
AcDbArc
 50
146.9179785527
 51
147.1745027263
  0
ARC
  5
25A
100
AcDbEntity
  8
0
100
AcDbCircle
 62
9
  6
CONTINUOUS
 10
10.1545904002
 20
11.1042333815
 40
2.9246858271
100
AcDbArc
 50
326.1450324603
 51
327.5518848974
  0
ARC
  5
25B
100
AcDbEntity
  8
0
100
AcDbCircle
 62
7
  6
CONTINUOUS
 10
13.1353347718
 20
8.6666679621
 40
1.5
100
AcDbArc
 50
70.9334198993
 51
88.5748089571
  0
ARC
  5
25C
100
AcDbEntity
  8
0
100
AcDbCircle
 62
7
  6
CONTINUOUS
 10
13.1353347718
 20
8.6666679621
 40
1.5
100
AcDbArc
 50
91.4251910429
 51
109.0665801007
  0
ARC
  5
25D
100
AcDbEntity
  8
0
100
AcDbCircle
 62
7
  6
CONTINUOUS
 10
13.1277396135
 20
9.5174062259
 40
1.0
100
AcDbArc
 50
90.0
 51
124.9180935011
  0
ARC
  5
25E
100
AcDbEntity
  8
0
100
AcDbCircle
 62
7
  6
CONTINUOUS
 10
13.1429299302
 20
9.5174062259
 40
1.0
100
AcDbArc
 50
55.0819064989
 51
90.0
  0
ARC
  5
25F
100
AcDbEntity
  8
0
100
AcDbCircle
 62
7
  6
CONTINUOUS
 10
11.8847588893
 20
9.471502405
 40
0.938
100
AcDbArc
 50
35.710112593
 51
44.3650233311
  0
ARC
  5
260
100
AcDbEntity
  8
0
100
AcDbCircle
 62
7
  6
CONTINUOUS
 10
14.3859106544
 20
9.471502405
 40
0.938
100
AcDbArc
 50
135.6349766689
 51
144.289887407
  0
ARC
  5
261
100
AcDbEntity
  8
0
100
AcDbCircle
 62
7
  6
CONTINUOUS
 10
7.6180236126
 20
9.077504914
 40
0.4
100
AcDbArc
 50
320.779056891
 51
345.0
  0
ARC
  5
262
100
AcDbEntity
  8
0
100
AcDbCircle
 62
7
  6
CONTINUOUS
 10
7.4972828843
 20
9.1098572947
 40
0.4
100
AcDbArc
 50
165.0
 51
189.220943109
  0
CIRCLE
  5
263
100
AcDbEntity
  8
0
100
AcDbCircle
 62
7
  6
CONTINUOUS
 10
13.1353347718
 20
9.7723773822
 40
0.396
  0
CIRCLE
  5
264
100
AcDbEntity
  8
0
100
AcDbCircle
 62
9
  6
CONTINUOUS
 10
13.1353347718
 20
9.7723773822
 40
0.333
  0
CIRCLE
  5
265
100
AcDbEntity
  8
0
100
AcDbCircle
 62
9
  6
CONTINUOUS
 10
13.1353347718
 20
9.7723773822
 40
0.2457641145
  0
CIRCLE
  5
266
100
AcDbEntity
  8
0
100
AcDbCircle
 62
9
  6
CONTINUOUS
 10
13.1353347718
 20
9.7723773822
 40
0.1840783009
  0
ARC
  5
267
100
AcDbEntity
  8
0
100
AcDbCircle
 62
7
  6
CONTINUOUS
 10
7.920161844
 20
8.8309030301
 40
0.01
100
AcDbArc
 50
255.0000048106
 51
320.779056891
  0
ARC
  5
268
100
AcDbEntity
  8
0
100
AcDbCircle
 62
7
  6
CONTINUOUS
 10
7.1123225586
 20
9.0473629142
 40
0.01
100
AcDbArc
 50
189.220943109
 51
254.9999951895
  0
SPLINE
  5
269
100
AcDbEntity
  8
0
100
AcDbSpline
 62
7
  6
CONTINUOUS
 70
0
 71
3
 72
18
 73
14
 74
0
 42
0.0000001
 43
0.0000001
 44
0.0000000001
 40
0.0
 40
0.0
 40
0.0
 40
0.0
 40
0.1249735156
 40
0.2499852439
 40
0.3124925688
 40
0.3749947125
 40
0.4374987882
 40
0.5000080012
 40
0.624997748
 40
0.7499858985
 40
0.8125020655
 40
0.8750283273
 40
1.0
 40
1.0
 40
1.0
 40
1.0
 10
11.9656231264
 20
7.824145509
 30
0.0
 10
11.996612832
 20
7.8503139087
 30
0.0
 10
12.0567372833
 20
7.9049130059
 30
0.0
 10
12.1266262707
 20
7.97854801
 30
0.0
 10
12.1790188149
 20
8.0405348028
 30
0.0
 10
12.2164743711
 20
8.0885213857
 30
0.0
 10
12.2520001937
 20
8.1379554564
 30
0.0
 10
12.2966729578
 20
8.2057111435
 30
0.0
 10
12.3472806908
 20
8.2937424706
 30
0.0
 10
12.3903130372
 20
8.3857254508
 30
0.0
 10
12.4198904665
 20
8.4613165661
 30
0.0
 10
12.4461348304
 20
8.5381167244
 30
0.0
 10
12.4620039664
 20
8.5969731486
 30
0.0
 10
12.4707930878
 20
8.636569232
 30
0.0
  0
SPLINE
  5
26A
100
AcDbEntity
  8
0
100
AcDbSpline
 62
7
  6
CONTINUOUS
 70
0
 71
3
 72
18
 73
14
 74
0
 42
0.0000001
 43
0.0000001
 44
0.0000000001
 40
0.0
 40
0.0
 40
0.0
 40
0.0
 40
0.1249735156
 40
0.2499852439
 40
0.3124925688
 40
0.3749947125
 40
0.4374987882
 40
0.5000080012
 40
0.624997748
 40
0.7499858985
 40
0.8125020655
 40
0.8750283273
 40
1.0
 40
1.0
 40
1.0
 40
1.0
 10
14.3050464172
 20
7.824145509
 30
0.0
 10
14.2740567116
 20
7.8503139087
 30
0.0
 10
14.2139322603
 20
7.9049130059
 30
0.0
 10
14.144043273
 20
7.97854801
 30
0.0
 10
14.0916507288
 20
8.0405348028
 30
0.0
 10
14.0541951725
 20
8.0885213857
 30
0.0
 10
14.0186693499
 20
8.1379554564
 30
0.0
 10
13.9739965859
 20
8.2057111435
 30
0.0
 10
13.9233888529
 20
8.2937424706
 30
0.0
 10
13.8803565064
 20
8.3857254508
 30
0.0
 10
13.8507790772
 20
8.4613165661
 30
0.0
 10
13.8245347132
 20
8.5381167244
 30
0.0
 10
13.8086655773
 20
8.5969731486
 30
0.0
 10
13.7998764558
 20
8.636569232
 30
0.0
  0
SPLINE
  5
26B
100
AcDbEntity
  8
0
100
AcDbSpline
 62
7
  6
CONTINUOUS
 70
0
 71
3
 72
15
 73
11
 74
0
 42
0.0000001
 43
0.0000001
 44
0.0000000001
 40
0.0
 40
0.0
 40
0.0
 40
0.0
 40
0.1090050956
 40
0.2230761147
 40
0.3420591737
 40
0.4657768348
 40
0.5939125563
 40
0.7260392038
 40
0.8616433798
 40
1.0
 40
1.0
 40
1.0
 40
1.0
 10
12.5504789491
 20
7.824145509
 30
0.0
 10
12.5663421359
 20
7.8509359676
 30
0.0
 10
12.5970165247
 20
7.9068382219
 30
0.0
 10
12.6388131579
 20
7.9952051773
 30
0.0
 10
12.6770973492
 20
8.0897009415
 30
0.0
 10
12.7115160706
 20
8.1899253202
 30
0.0
 10
12.7417369598
 20
8.2954031887
 30
0.0
 10
12.7674238591
 20
8.4055638929
 30
0.0
 10
12.7882777851
 20
8.5197056028
 30
0.0
 10
12.7987047716
 20
8.5972921339
 30
0.0
 10
12.8030639298
 20
8.636569232
 30
0.0
  0
SPLINE
  5
26C
100
AcDbEntity
  8
0
100
AcDbSpline
 62
7
  6
CONTINUOUS
 70
0
 71
3
 72
16
 73
12
 74
0
 42
0.0000001
 43
0.0000001
 44
0.0000000001
 40
0.0
 40
0.0
 40
0.0
 40
0.0
 40
0.1090046113
 40
0.2230746909
 40
0.3420556818
 40
0.465771347
 40
0.5939060533
 40
0.7260324501
 40
0.7934401366
 40
0.8616450827
 40
1.0
 40
1.0
 40
1.0
 40
1.0
 10
13.7201905945
 20
7.824145509
 30
0.0
 10
13.7043273226
 20
7.8509361113
 30
0.0
 10
13.6736518729
 20
7.9068380052
 30
0.0
 10
13.6318546535
 20
7.9952047181
 30
0.0
 10
13.5935728822
 20
8.0897009854
 30
0.0
 10
13.5591565767
 20
8.1899259243
 30
0.0
 10
13.5289351716
 20
8.2954029359
 30
0.0
 10
13.5076692637
 20
8.3865881998
 30
0.0
 10
13.4929946855
 20
8.461647572
 30
0.0
 10
13.4798257451
 20
8.5387901391
 30
0.0
 10
13.4719647612
 20
8.597292232
 30
0.0
 10
13.4676056138
 20
8.636569232
 30
0.0
  0
LINE
  5
26D
100
AcDbEntity
  8
0
100
AcDbLine
 62
9
  6
CONTINUOUS
 10
12.6345363002
 20
9.4685690517
 11
12.6453346992
 21
9.4812614463
  0
SPLINE
  5
26E
100
AcDbEntity
  8
0
100
AcDbSpline
 62
7
  6
CONTINUOUS
 70
0
 71
3
 72
11
 73
7
 74
0
 42
0.0000001
 43
0.0000001
 44
0.0000000001
 40
0.0
 40
0.0
 40
0.0
 40
0.0
 40
0.243631442
 40
0.4909263969
 40
0.7428654125
 40
1.0
 40
1.0
 40
1.0
 40
1.0
 10
12.1053902739
 20
7.9579544341
 30
0.0
 10
12.0936541359
 20
7.9730836295
 30
0.0
 10
12.071550417
 20
8.0047947156
 30
0.0
 10
12.0426171185
 20
8.0555810955
 30
0.0
 10
12.0173899107
 20
8.1094678088
 30
0.0
 10
12.0029784477
 20
8.146825868
 30
0.0
 10
11.9962694741
 20
8.1658885513
 30
0.0
  0
SPLINE
  5
26F
100
AcDbEntity
  8
0
100
AcDbSpline
 62
9
  6
CONTINUOUS
 70
0
 71
3
 72
10
 73
6
 74
0
 42
0.0000001
 43
0.0000001
 44
0.0000000001
 40
0.0
 40
0.0
 40
0.0
 40
0.0
 40
0.5628048835
 40
0.8011605694
 40
1.0
 40
1.0
 40
1.0
 40
1.0
 10
12.6226606136
 20
9.5350331983
 30
0.0
 10
12.620862383
 20
9.5364171622
 30
0.0
 10
12.618356391
 20
9.5384628168
 30
0.0
 10
12.6154244045
 20
9.5412324357
 30
0.0
 10
12.6142271037
 20
9.5425296649
 30
0.0
 10
12.6137161636
 20
9.5431474388
 30
0.0
  0
SPLINE
  5
270
100
AcDbEntity
  8
0
100
AcDbSpline
 62
9
  6
CONTINUOUS
 70
0
 71
3
 72
10
 73
6
 74
0
 42
0.0000001
 43
0.0000001
 44
0.0000000001
 40
0.0
 40
0.0
 40
0.0
 40
0.0
 40
0.5789961037
 40
0.8089346807
 40
1.0
 40
1.0
 40
1.0
 40
1.0
 10
12.6137161636
 20
9.5431474388
 30
0.0
 10
12.6133097626
 20
9.5436388151
 30
0.0
 10
12.6127674099
 20
9.5443505073
 30
0.0
 10
12.6122187419
 20
9.5453068171
 30
0.0
 10
12.6120351948
 20
9.5457347828
 30
0.0
 10
12.6119707989
 20
9.5459351118
 30
0.0
  0
LINE
  5
271
100
AcDbEntity
  8
0
100
AcDbLine
 62
9
  6
CONTINUOUS
 10
12.6119708028
 20
9.5459350966
 11
12.6128775992
 21
9.5473773235
  0
SPLINE
  5
272
100
AcDbEntity
  8
0
100
AcDbSpline
 62
9
  6
CONTINUOUS
 70
0
 71
3
 72
26
 73
22
 74
0
 42
0.0000001
 43
0.0000001
 44
0.0000000001
 40
0.0
 40
0.0
 40
0.0
 40
0.0
 40
0.063149841
 40
0.0944295335
 40
0.1254282293
 40
0.1561107692
 40
0.186477861
 40
0.2166546072
 40
0.2467860151
 40
0.2770068661
 40
0.3074143537
 40
0.3380372263
 40
0.3688829609
 40
0.4310383805
 40
0.4936865583
 40
0.5565051312
 40
0.6194569302
 40
0.6825493823
 40
0.7457789013
 40
0.8726200577
 40
1.0
 40
1.0
 40
1.0
 40
1.0
 10
12.5723466938
 20
9.4833119004
 30
0.0
 10
12.5643037426
 20
9.4706703378
 30
0.0
 10
12.5522243293
 20
9.4517939241
 30
0.0
 10
12.5351424448
 20
9.4274168143
 30
0.0
 10
12.5216496087
 20
9.4099544542
 30
0.0
 10
12.5071693447
 20
9.3935775007
 30
0.0
 10
12.491434273
 20
9.378660207
 30
0.0
 10
12.4742422036
 20
9.3656499788
 30
0.0
 10
12.4557383289
 20
9.3546535099
 30
0.0
 10
12.4360733887
 20
9.3457764106
 30
0.0
 10
12.4155125303
 20
9.3388892475
 30
0.0
 10
12.3942785241
 20
9.3338505211
 30
0.0
 10
12.3653099687
 20
9.3291415793
 30
0.0
 10
12.3284328016
 20
9.3262136259
 30
0.0
 10
12.2838864664
 20
9.3263092956
 30
0.0
 10
12.2392384397
 20
9.3289162802
 30
0.0
 10
12.1946614228
 20
9.3336097048
 30
0.0
 10
12.1501951353
 20
9.3399528466
 30
0.0
 10
12.0910133577
 20
9.3502684636
 30
0.0
 10
12.0173246127
 20
9.3659868566
 30
0.0
 10
11.9588286096
 20
9.3807371461
 30
0.0
 10
11.9296140297
 20
9.3884784651
 30
0.0
  0
SPLINE
  5
273
100
AcDbEntity
  8
0
100
AcDbSpline
 62
9
  6
CONTINUOUS
 70
0
 71
3
 72
13
 73
9
 74
0
 42
0.0000001
 43
0.0000001
 44
0.0000000001
 40
0.0
 40
0.0
 40
0.0
 40
0.0
 40
0.0675288328
 40
0.1527812832
 40
0.2555024657
 40
0.3749632556
 40
0.6601874839
 40
1.0
 40
1.0
 40
1.0
 40
1.0
 10
12.5735103249
 20
9.4851414031
 30
0.0
 10
12.5736244586
 20
9.4848397794
 30
0.0
 10
12.5739661216
 20
9.4841899548
 30
0.0
 10
12.5746630165
 20
9.4831870836
 30
0.0
 10
12.5755973969
 20
9.4820527249
 30
0.0
 10
12.5772457732
 20
9.4802753729
 30
0.0
 10
12.5798399513
 20
9.4778385436
 30
0.0
 10
12.582131233
 20
9.4759235664
 30
0.0
 10
12.5833992406
 20
9.474910776
 30
0.0
  0
SPLINE
  5
274
100
AcDbEntity
  8
0
100
AcDbSpline
 62
9
  6
CONTINUOUS
 70
0
 71
3
 72
13
 73
9
 74
0
 42
0.0000001
 43
0.0000001
 44
0.0000000001
 40
0.0
 40
0.0
 40
0.0
 40
0.0
 40
0.0663849564
 40
0.1508775405
 40
0.2534856364
 40
0.3738379624
 40
0.6629197162
 40
1.0
 40
1.0
 40
1.0
 40
1.0
 10
12.5723466598
 20
9.483311847
 30
0.0
 10
12.5724598381
 20
9.4830169543
 30
0.0
 10
12.5727953959
 20
9.48237768
 30
0.0
 10
12.5734802117
 20
9.4813835511
 30
0.0
 10
12.5744068924
 20
9.4802497226
 30
0.0
 10
12.5760618557
 20
9.4784603521
 30
0.0
 10
12.5786600752
 20
9.4760326624
 30
0.0
 10
12.5809460425
 20
9.474120532
 30
0.0
 10
12.5821985317
 20
9.4731187179
 30
0.0
  0
LINE
  5
275
100
AcDbEntity
  8
0
100
AcDbLine
 62
7
  6
CONTINUOUS
 10
11.9272895573
 20
9.379768486
 11
11.9296140116
 21
9.3884784699
  0
SPLINE
  5
276
100
AcDbEntity
  8
0
100
AcDbSpline
 62
9
  6
CONTINUOUS
 70
0
 71
3
 72
39
 73
35
 74
0
 42
0.0000001
 43
0.0000001
 44
0.0000000001
 40
0.0
 40
0.0
 40
0.0
 40
0.0
 40
0.0628676095
 40
0.1256131709
 40
0.1882210523
 40
0.2507138567
 40
0.3131187947
 40
0.3754565396
 40
0.4377607875
 40
0.4689117892
 40
0.5000703457
 40
0.5312377149
 40
0.562421356
 40
0.5936288548
 40
0.624870006
 40
0.6561520252
 40
0.6874833542
 40
0.7031774097
 40
0.7188967952
 40
0.7346361152
 40
0.7503823052
 40
0.7661270783
 40
0.7818673201
 40
0.7975994366
 40
0.8133146351
 40
0.8446590681
 40
0.875899554
 40
0.9070290149
 40
0.9225604256
 40
0.938074101
 40
0.9535735993
 40
0.969060289
 40
0.9845329418
 40
1.0
 40
1.0
 40
1.0
 40
1.0
 10
11.9272879579
 20
9.3797689295
 30
0.0
 10
11.9418576034
 20
9.3755587371
 30
0.0
 10
11.971064079
 20
9.3674749222
 30
0.0
 10
12.0150470091
 20
9.3561889395
 30
0.0
 10
12.059173219
 20
9.3458610069
 30
0.0
 10
12.1034536367
 20
9.3366064271
 30
0.0
 10
12.147902159
 20
9.3285431531
 30
0.0
 10
12.1925431898
 20
9.3219158348
 30
0.0
 10
12.2299119248
 20
9.3177970643
 30
0.0
 10
12.2598925764
 20
9.3155631187
 30
0.0
 10
12.2824187515
 20
9.3144698838
 30
0.0
 10
12.3049762663
 20
9.3140509983
 30
0.0
 10
12.3275479609
 20
9.3143947982
 30
0.0
 10
12.3501086071
 20
9.3156224607
 30
0.0
 10
12.3726136687
 20
9.3179087133
 30
0.0
 10
12.3949869441
 20
9.3214727272
 30
0.0
 10
12.4133997091
 20
9.3257955192
 30
0.0
 10
12.4278782948
 20
9.3302252073
 30
0.0
 10
12.4385849808
 20
9.3340806434
 30
0.0
 10
12.4490930972
 20
9.3384815014
 30
0.0
 10
12.4593609531
 20
9.3434319942
 30
0.0
 10
12.4693431973
 20
9.3489374336
 30
0.0
 10
12.4789919497
 20
9.3550020502
 30
0.0
 10
12.4882858117
 20
9.3615845531
 30
0.0
 10
12.5001703313
 20
9.3709865726
 30
0.0
 10
12.5140528644
 20
9.3838406251
 30
0.0
 10
12.5293351074
 20
9.4005239315
 30
0.0
 10
12.5411584162
 20
9.4151421229
 30
0.0
 10
12.550217055
 20
9.4270967143
 30
0.0
 10
12.5568329749
 20
9.4361694418
 30
0.0
 10
12.5633003162
 20
9.4453350789
 30
0.0
 10
12.569650066
 20
9.4545704666
 30
0.0
 10
12.5759442232
 20
9.4638336649
 30
0.0
 10
12.5801604312
 20
9.4699934516
 30
0.0
 10
12.5821985677
 20
9.4731187715
 30
0.0
  0
LINE
  5
277
100
AcDbEntity
  8
0
100
AcDbLine
 62
9
  6
CONTINUOUS
 10
12.5821985677
 20
9.4731187715
 11
12.6018704958
 21
9.429966327
  0
SPLINE
  5
278
100
AcDbEntity
  8
0
100
AcDbSpline
 62
9
  6
CONTINUOUS
 70
0
 71
3
 72
28
 73
24
 74
0
 42
0.0000001
 43
0.0000001
 44
0.0000000001
 40
0.0
 40
0.0
 40
0.0
 40
0.0
 40
0.0622443646
 40
0.1298825322
 40
0.2014113899
 40
0.2753490571
 40
0.3502391979
 40
0.4246512222
 40
0.4972351611
 40
0.5668161139
 40
0.6001555382
 40
0.6323335237
 40
0.6632173171
 40
0.6927065178
 40
0.7207879616
 40
0.7476566042
 40
0.7735564377
 40
0.7987291965
 40
0.8234210737
 40
0.8479006952
 40
0.8970775379
 40
0.9475553269
 40
1.0
 40
1.0
 40
1.0
 40
1.0
 10
11.92251345
 20
9.3619524307
 30
0.0
 10
11.9372048062
 20
9.3580093044
 30
0.0
 10
11.9679049507
 20
9.3499449624
 30
0.0
 10
12.0156866507
 20
9.338119979
 30
0.0
 10
12.0664654147
 20
9.326540407
 30
0.0
 10
12.1192357719
 20
9.3157773687
 30
0.0
 10
12.1729886385
 20
9.3064013841
 30
0.0
 10
12.2267189438
 20
9.2989868628
 30
0.0
 10
12.2794412432
 20
9.294108873
 30
0.0
 10
12.3223380341
 20
9.2925775244
 30
0.0
 10
12.3553548698
 20
9.2932408169
 30
0.0
 10
12.3788749237
 20
9.294733469
 30
0.0
 10
12.4013559882
 20
9.2973169015
 30
0.0
 10
12.4226585494
 20
9.3010823599
 30
0.0
 10
12.4426837117
 20
9.3061445609
 30
0.0
 10
12.4614270059
 20
9.3124602792
 30
0.0
 10
12.4789476569
 20
9.3199858878
 30
0.0
 10
12.4953182455
 20
9.3286819645
 30
0.0
 10
12.5106183387
 20
9.3385155602
 30
0.0
 10
12.5298214054
 20
9.3530006292
 30
0.0
 10
12.5521888402
 20
9.3735922651
 30
0.0
 10
12.5773641973
 20
9.4009621065
 30
0.0
 10
12.5936116363
 20
9.4201656649
 30
0.0
 10
12.6018704954
 20
9.4299663265
 30
0.0
  0
SPLINE
  5
279
100
AcDbEntity
  8
0
100
AcDbSpline
 62
7
  6
CONTINUOUS
 70
0
 71
3
 72
9
 73
5
 74
0
 42
0.0000001
 43
0.0000001
 44
0.0000000001
 40
0.0
 40
0.0
 40
0.0
 40
0.0
 40
0.2518651779
 40
1.0
 40
1.0
 40
1.0
 40
1.0
 10
11.9962694741
 20
8.1658885513
 30
0.0
 10
11.99534249
 20
8.1685224572
 30
0.0
 10
11.9917052645
 20
8.1789947337
 30
0.0
 10
11.9880881562
 20
8.1894778479
 30
0.0
 10
11.9851294302
 20
8.1972262602
 30
0.0
  0
SPLINE
  5
27A
100
AcDbEntity
  8
0
100
AcDbSpline
 62
9
  6
CONTINUOUS
 70
0
 71
3
 72
10
 73
6
 74
0
 42
0.0000001
 43
0.0000001
 44
0.0000000001
 40
0.0
 40
0.0
 40
0.0
 40
0.0
 40
0.250003066
 40
0.6250046198
 40
1.0
 40
1.0
 40
1.0
 40
1.0
 10
8.8105367278
 20
10.120237873
 30
0.0
 10
9.0704092215
 20
10.059028253
 30
0.0
 10
9.7201219741
 20
9.9061521754
 30
0.0
 10
10.7597879806
 20
9.6621192413
 30
0.0
 10
11.539654568
 20
9.4796084072
 30
0.0
 10
11.9296131985
 20
9.3884759484
 30
0.0
  0
LINE
  5
27B
100
AcDbEntity
  8
0
100
AcDbLine
 62
7
  6
CONTINUOUS
 10
11.9082626399
 20
9.3087672962
 11
11.9043683579
 21
9.2942449664
  0
SPLINE
  5
27C
100
AcDbEntity
  8
0
100
AcDbSpline
 62
9
  6
CONTINUOUS
 70
0
 71
3
 72
11
 73
7
 74
0
 42
0.0000001
 43
0.0000001
 44
0.0000000001
 40
0.0
 40
0.0
 40
0.0
 40
0.0
 40
0.2499122714
 40
0.4998976638
 40
0.7499341952
 40
1.0
 40
1.0
 40
1.0
 40
1.0
 10
11.7985648319
 20
8.8993607401
 30
0.0
 10
11.540906003
 20
8.9684325374
 30
0.0
 10
11.0255368194
 20
9.106685357
 30
0.0
 10
10.2524441142
 20
9.3142806365
 30
0.0
 10
9.479244769
 20
9.5221106199
 30
0.0
 10
8.96376846
 20
9.6608066902
 30
0.0
 10
8.7060211816
 20
9.7301809324
 30
0.0
  0
LINE
  5
27D
100
AcDbEntity
  8
0
100
AcDbLine
 62
7
  6
CONTINUOUS
 10
11.7985649609
 20
8.8993607046
 11
11.7961051788
 21
8.8901880647
  0
LINE
  5
27E
100
AcDbEntity
  8
0
100
AcDbLine
 62
9
  6
CONTINUOUS
 10
8.7024765693
 20
9.7169450734
 11
8.706016489
 21
9.7301822006
  0
SPLINE
  5
27F
100
AcDbEntity
  8
0
100
AcDbSpline
 62
9
  6
CONTINUOUS
 70
0
 71
3
 72
13
 73
9
 74
0
 42
0.0000001
 43
0.0000001
 44
0.0000000001
 40
0.0
 40
0.0
 40
0.0
 40
0.0
 40
0.2519287062
 40
0.3776975933
 40
0.5031872564
 40
0.6282854468
 40
0.7528717692
 40
1.0
 40
1.0
 40
1.0
 40
1.0
 10
11.7985638604
 20
8.899356669
 30
0.0
 10
11.8568142876
 20
8.8851038255
 30
0.0
 10
11.943995106
 20
8.8631267684
 30
0.0
 10
12.0600663831
 20
8.8335601777
 30
0.0
 10
12.1468321609
 20
8.8112521895
 30
0.0
 10
12.2332591969
 20
8.7887588528
 30
0.0
 10
12.3476173976
 20
8.7586287838
 30
0.0
 10
12.4330934071
 20
8.7357580758
 30
0.0
 10
12.4898898068
 20
8.7204388723
 30
0.0
  0
SPLINE
  5
280
100
AcDbEntity
  8
0
100
AcDbSpline
 62
7
  6
CONTINUOUS
 70
0
 71
3
 72
9
 73
5
 74
0
 42
0.0000001
 43
0.0000001
 44
0.0000000001
 40
0.0
 40
0.0
 40
0.0
 40
0.0
 40
0.2487424308
 40
1.0
 40
1.0
 40
1.0
 40
1.0
 10
14.1652772286
 20
7.9579518323
 30
0.0
 10
14.1686272772
 20
7.9622705083
 30
0.0
 10
14.181842209
 20
7.9798279675
 30
0.0
 10
14.1940599607
 20
7.9981309721
 30
0.0
 10
14.2026948183
 20
8.0122000991
 30
0.0
  0
SPLINE
  5
281
100
AcDbEntity
  8
0
100
AcDbSpline
 62
7
  6
CONTINUOUS
 70
0
 71
3
 72
15
 73
11
 74
0
 42
0.0000001
 43
0.0000001
 44
0.0000000001
 40
0.0
 40
0.0
 40
0.0
 40
0.0
 40
0.1483027109
 40
0.2810989534
 40
0.3971117119
 40
0.5023270981
 40
0.6070696236
 40
0.7219083791
 40
0.8531780244
 40
1.0
 40
1.0
 40
1.0
 40
1.0
 10
14.2026948183
 20
8.0122000991
 30
0.0
 10
14.2031370471
 20
8.0129206407
 30
0.0
 10
14.2040443875
 20
8.0142464307
 30
0.0
 10
14.2056043757
 20
8.0159080309
 30
0.0
 10
14.2073455459
 20
8.0169903421
 30
0.0
 10
14.2092119413
 20
8.017374783
 30
0.0
 10
14.2110711201
 20
8.0169862868
 30
0.0
 10
14.2127893163
 20
8.0158998498
 30
0.0
 10
14.2143131219
 20
8.0142365997
 30
0.0
 10
14.2151897037
 20
8.0129105485
 30
0.0
 10
14.2156152823
 20
8.0121898351
 30
0.0
  0
SPLINE
  5
282
100
AcDbEntity
  8
0
100
AcDbSpline
 62
9
  6
CONTINUOUS
 70
0
 71
3
 72
10
 73
6
 74
0
 42
0.0000001
 43
0.0000001
 44
0.0000000001
 40
0.0
 40
0.0
 40
0.0
 40
0.0
 40
0.5034066096
 40
0.7530198328
 40
1.0
 40
1.0
 40
1.0
 40
1.0
 10
11.7961045533
 20
8.8901859473
 30
0.0
 10
11.9113810618
 20
8.856865854
 30
0.0
 10
12.0840288128
 20
8.8077490399
 30
0.0
 10
12.3137974088
 20
8.7443019784
 30
0.0
 10
12.4280683908
 20
8.7134135133
 30
0.0
 10
12.4849417786
 20
8.6982044625
 30
0.0
  0
SPLINE
  5
283
100
AcDbEntity
  8
0
100
AcDbSpline
 62
7
  6
CONTINUOUS
 70
0
 71
3
 72
24
 73
20
 74
0
 42
0.0000001
 43
0.0000001
 44
0.0000000001
 40
0.0
 40
0.0
 40
0.0
 40
0.0
 40
0.046176107
 40
0.0927710625
 40
0.1407207991
 40
0.1656471049
 40
0.1914903168
 40
0.2184628989
 40
0.2466242952
 40
0.306444723
 40
0.3706367456
 40
0.4385334012
 40
0.5092888253
 40
0.5819715995
 40
0.6555856702
 40
0.7290832714
 40
0.8713799127
 40
0.9379628569
 40
1.0
 40
1.0
 40
1.0
 40
1.0
 10
11.9851293144
 20
8.197226215
 30
0.0
 10
11.9829972264
 20
8.2028098098
 30
0.0
 10
11.9784444256
 20
8.2139311988
 30
0.0
 10
11.9701718917
 20
8.2301889755
 30
0.0
 10
11.9616220492
 20
8.2431282306
 30
0.0
 10
11.9535370078
 20
8.253034408
 30
0.0
 10
11.9466343486
 20
8.26036858
 30
0.0
 10
11.9389164089
 20
8.2674721263
 30
0.0
 10
11.9273587079
 20
8.2768549468
 30
0.0
 10
11.9110730919
 20
8.2879931392
 30
0.0
 10
11.8894801489
 20
8.3003096555
 30
0.0
 10
11.8658938098
 20
8.3118740196
 30
0.0
 10
11.8407682428
 20
8.3227096373
 30
0.0
 10
11.814555371
 20
8.332832999
 30
0.0
 10
11.7877099593
 20
8.3422606851
 30
0.0
 10
11.7520694163
 20
8.3538015023
 30
0.0
 10
11.716983027
 20
8.3640630771
 30
0.0
 10
11.6831732287
 20
8.373364767
 30
0.0
 10
11.6670947279
 20
8.3776822617
 30
0.0
 10
11.6593385433
 20
8.3797605256
 30
0.0
  0
SPLINE
  5
284
100
AcDbEntity
  8
0
100
AcDbSpline
 62
7
  6
CONTINUOUS
 70
0
 71
3
 72
15
 73
11
 74
0
 42
0.0000001
 43
0.0000001
 44
0.0000000001
 40
0.0
 40
0.0
 40
0.0
 40
0.0
 40
0.1079544606
 40
0.2221263504
 40
0.3418262279
 40
0.4664068226
 40
0.5952224319
 40
0.7275922262
 40
0.862797612
 40
1.0
 40
1.0
 40
1.0
 40
1.0
 10
11.6593385433
 20
8.3797605256
 30
0.0
 10
11.6642602117
 20
8.3981281713
 30
0.0
 10
11.6742955319
 20
8.4359457502
 30
0.0
 10
11.6897247928
 20
8.4941461948
 30
0.0
 10
11.7061105702
 20
8.5551224825
 30
0.0
 10
11.7231662453
 20
8.6185896485
 30
0.0
 10
11.74061861
 20
8.6842608412
 30
0.0
 10
11.7586145441
 20
8.7517241162
 30
0.0
 10
11.7772823318
 20
8.8205364205
 30
0.0
 10
11.7898346905
 20
8.8668487031
 30
0.0
 10
11.7961052939
 20
8.8901885025
 30
0.0
  0
SPLINE
  5
285
100
AcDbEntity
  8
0
100
AcDbSpline
 62
9
  6
CONTINUOUS
 70
0
 71
3
 72
9
 73
5
 74
0
 42
0.0000001
 43
0.0000001
 44
0.0000000001
 40
0.0
 40
0.0
 40
0.0
 40
0.0
 40
0.2500661193
 40
1.0
 40
1.0
 40
1.0
 40
1.0
 10
8.7024748306
 20
9.716945537
 30
0.0
 10
8.9603827887
 20
9.648170367
 30
0.0
 10
9.9917001758
 20
9.3729861475
 30
0.0
 10
11.0228642276
 20
9.0972274477
 30
0.0
 10
11.7961051428
 20
8.8901880744
 30
0.0
  0
SPLINE
  5
286
100
AcDbEntity
  8
0
100
AcDbSpline
 62
9
  6
CONTINUOUS
 70
0
 71
3
 72
22
 73
18
 74
0
 42
0.0000001
 43
0.0000001
 44
0.0000000001
 40
0.0
 40
0.0
 40
0.0
 40
0.0
 40
0.122572947
 40
0.24601241
 40
0.3701773259
 40
0.4950342485
 40
0.5577134907
 40
0.6205392507
 40
0.6834988087
 40
0.7465851246
 40
0.7781758421
 40
0.8097971212
 40
0.8414481339
 40
0.8731271947
 40
0.9048280006
 40
0.9365436096
 40
1.0
 40
1.0
 40
1.0
 40
1.0
 10
14.202694963
 20
8.0121997563
 30
0.0
 10
14.1688174389
 20
8.0695576631
 30
0.0
 10
14.1034946735
 20
8.1862843182
 30
0.0
 10
14.0140632084
 20
8.3665938151
 30
0.0
 10
13.9338324448
 20
8.552541379
 30
0.0
 10
13.8749542751
 20
8.7114720944
 30
0.0
 10
13.8327404906
 20
8.8408373308
 30
0.0
 10
13.8035432565
 20
8.9390268509
 30
0.0
 10
13.7769118671
 20
9.0381712906
 30
0.0
 10
13.7568783858
 20
9.1214785181
 30
0.0
 10
13.7421038445
 20
9.1885111216
 30
0.0
 10
13.7316371206
 20
9.2389946702
 30
0.0
 10
13.7217846187
 20
9.2896504205
 30
0.0
 10
13.7125312301
 20
9.3404629588
 30
0.0
 10
13.7039418274
 20
9.3914282858
 30
0.0
 10
13.6934890268
 20
9.4595850382
 30
0.0
 10
13.6868997776
 20
9.5109019158
 30
0.0
 10
13.6831729949
 20
9.5451869748
 30
0.0
  0
LINE
  5
287
100
AcDbEntity
  8
0
100
AcDbLine
 62
9
  6
CONTINUOUS
 10
13.6831729949
 20
9.5451869748
 11
13.6829358158
 21
9.5473773822
  0
SPLINE
  5
288
100
AcDbEntity
  8
0
100
AcDbSpline
 62
9
  6
CONTINUOUS
 70
0
 71
3
 72
52
 73
48
 74
0
 42
0.0000001
 43
0.0000001
 44
0.0000000001
 40
0.0
 40
0.0
 40
0.0
 40
0.0
 40
0.0156315596
 40
0.0312675109
 40
0.0625248985
 40
0.0937814796
 40
0.12503456
 40
0.1406600254
 40
0.1562851841
 40
0.1719102431
 40
0.1875345087
 40
0.203158174
 40
0.2187820743
 40
0.2344053111
 40
0.2500269402
 40
0.2812679766
 40
0.2968894604
 40
0.3125124398
 40
0.3281349975
 40
0.3437582654
 40
0.3593814107
 40
0.3750029746
 40
0.3906233353
 40
0.4062410074
 40
0.4218568136
 40
0.4374732455
 40
0.4687028347
 40
0.484321351
 40
0.4999405859
 40
0.5311793791
 40
0.5624202369
 40
0.6248933641
 40
0.6561429781
 40
0.6873961648
 40
0.7186530207
 40
0.7342828984
 40
0.7499125817
 40
0.7811725019
 40
0.8124344136
 40
0.8436951104
 40
0.8749560254
 40
0.9062172673
 40
0.9218480147
 40
0.9374787761
 40
0.9531093362
 40
0.9687395087
 40
1.0
 40
1.0
 40
1.0
 40
1.0
 10
7.1199359854
 20
9.4024888433
 30
0.0
 10
7.1226926873
 20
9.4129309486
 30
0.0
 10
7.1288917507
 20
9.4336414551
 30
0.0
 10
7.1434847798
 20
9.4743156291
 30
0.0
 10
7.1650314971
 20
9.5238867402
 30
0.0
 10
7.1945281325
 20
9.5815960537
 30
0.0
 10
7.2213410602
 20
9.6284697908
 30
0.0
 10
7.2438197093
 20
9.6653435244
 30
0.0
 10
7.2611155451
 20
9.6927263488
 30
0.0
 10
7.2787640436
 20
9.7198815316
 30
0.0
 10
7.2967213081
 20
9.746832415
 30
0.0
 10
7.3150290462
 20
9.7735457422
 30
0.0
 10
7.3337037738
 20
9.8000029964
 30
0.0
 10
7.3528116103
 20
9.8261489554
 30
0.0
 10
7.3790083694
 20
9.8604659734
 30
0.0
 10
7.4064913126
 20
9.8937958911
 30
0.0
 10
7.435571624
 20
9.925714137
 30
0.0
 10
7.4582495901
 20
9.9488382662
 30
0.0
 10
7.481827511
 20
9.9710475798
 30
0.0
 10
7.5063374448
 20
9.9922256774
 30
0.0
 10
7.5317548948
 20
10.0123052418
 30
0.0
 10
7.5580510663
 20
10.0312162787
 30
0.0
 10
7.5851543299
 20
10.0489429532
 30
0.0
 10
7.6129805226
 20
10.0655019948
 30
0.0
 10
7.6414441168
 20
10.0809319822
 30
0.0
 10
7.6801116723
 20
10.1001095512
 30
0.0
 10
7.7197089213
 20
10.1173566032
 30
0.0
 10
7.7600013727
 20
10.1328337437
 30
0.0
 10
7.8007157679
 20
10.1471860523
 30
0.0
 10
7.8523159011
 20
10.1630601136
 30
0.0
 10
7.9360334838
 20
10.1842466272
 30
0.0
 10
8.0211998751
 20
10.1993190861
 30
0.0
 10
8.1070721616
 20
10.2085451509
 30
0.0
 10
8.1717489622
 20
10.2125653713
 30
0.0
 10
8.2257468176
 20
10.213503495
 30
0.0
 10
8.2689370092
 20
10.2128088352
 30
0.0
 10
8.312103012
 20
10.2111447089
 30
0.0
 10
8.3659780099
 20
10.2073106904
 30
0.0
 10
8.4304040317
 20
10.2002933307
 30
0.0
 10
8.4945608288
 20
10.1911426372
 30
0.0
 10
8.55840852
 20
10.1800534701
 30
0.0
 10
8.6113380312
 20
10.1693407219
 30
0.0
 10
8.6535067329
 20
10.1599676748
 30
0.0
 10
8.6850497673
 20
10.1525717931
 30
0.0
 10
8.7165116864
 20
10.1448404637
 30
0.0
 10
8.7583608617
 20
10.1341362195
 30
0.0
 10
8.7896684247
 20
10.1258044344
 30
0.0
 10
8.8105358485
 20
10.120234868
 30
0.0
  0
LINE
  5
289
100
AcDbEntity
  8
0
100
AcDbLine
 62
7
  6
CONTINUOUS
 10
8.8105358485
 20
10.120234868
 11
8.807790927
 21
10.1100084848
  0
SPLINE
  5
28A
100
AcDbEntity
  8
0
100
AcDbSpline
 62
9
  6
CONTINUOUS
 70
0
 71
3
 72
27
 73
23
 74
0
 42
0.0000001
 43
0.0000001
 44
0.0000000001
 40
0.0
 40
0.0
 40
0.0
 40
0.0
 40
0.0315381084
 40
0.0629639177
 40
0.0942982509
 40
0.1255693696
 40
0.1879976105
 40
0.2504062668
 40
0.3129402884
 40
0.3442725118
 40
0.3755865739
 40
0.4068588651
 40
0.4381270891
 40
0.500599489
 40
0.5630368926
 40
0.6254779383
 40
0.6879287078
 40
0.7503895637
 40
0.8128322525
 40
0.8752504456
 40
0.9376497037
 40
1.0
 40
1.0
 40
1.0
 40
1.0
 10
7.1199369079
 20
9.4024922352
 30
0.0
 10
7.1256278744
 20
9.4234151347
 30
0.0
 10
7.1395734148
 20
9.4645056568
 30
0.0
 10
7.1659692297
 20
9.5237745952
 30
0.0
 10
7.1957318661
 20
9.5811976821
 30
0.0
 10
7.2389053963
 20
9.6555622914
 30
0.0
 10
7.2977807865
 20
9.7453705485
 30
0.0
 10
7.373128277
 20
9.8499301805
 30
0.0
 10
7.4446451984
 20
9.9306058102
 30
0.0
 10
7.5091713667
 20
9.9877033126
 30
0.0
 10
7.5610615183
 20
10.0262777498
 30
0.0
 10
7.6161970033
 20
10.0599576691
 30
0.0
 10
7.6928678064
 20
10.0989435246
 30
0.0
 10
7.7931379257
 20
10.1381167332
 30
0.0
 10
7.9175855008
 20
10.1721096361
 30
0.0
 10
8.0446903785
 20
10.194018035
 30
0.0
 10
8.173245469
 20
10.2044279406
 30
0.0
 10
8.3022252306
 20
10.2033797596
 30
0.0
 10
8.4305629225
 20
10.1912111757
 30
0.0
 10
8.5577394225
 20
10.1707191142
 30
0.0
 10
8.683502628
 20
10.1431914077
 30
0.0
 10
8.7663975448
 20
10.1211337887
 30
0.0
 10
8.8077954016
 20
10.1100072822
 30
0.0
  0
SPLINE
  5
28B
100
AcDbEntity
  8
0
100
AcDbSpline
 62
9
  6
CONTINUOUS
 70
0
 71
3
 72
46
 73
42
 74
0
 42
0.0000001
 43
0.0000001
 44
0.0000000001
 40
0.0
 40
0.0
 40
0.0
 40
0.0
 40
0.0312442485
 40
0.0468744883
 40
0.06250085
 40
0.0781265945
 40
0.0937539591
 40
0.1250097154
 40
0.1562646256
 40
0.1875106168
 40
0.218749313
 40
0.2499880579
 40
0.2656120642
 40
0.2812390437
 40
0.312483275
 40
0.3281060237
 40
0.3437315844
 40
0.35935808
 40
0.3749838368
 40
0.3906083043
 40
0.4062328702
 40
0.437480865
 40
0.4687283756
 40
0.4999840941
 40
0.562467695
 40
0.5937212806
 40
0.6249780199
 40
0.6562340781
 40
0.6874937493
 40
0.7187553634
 40
0.7500127111
 40
0.7812668459
 40
0.8125207122
 40
0.8437741182
 40
0.8750252559
 40
0.9062730275
 40
0.9218954263
 40
0.9375161859
 40
0.9531365125
 40
0.9687575412
 40
1.0
 40
1.0
 40
1.0
 40
1.0
 10
7.6055347718
 20
9.2723773822
 30
0.0
 10
7.6090386277
 20
9.285945642
 30
0.0
 10
7.6152047436
 20
9.3060757578
 30
0.0
 10
7.6248363283
 20
9.3324037516
 30
0.0
 10
7.6326870563
 20
9.3519146433
 30
0.0
 10
7.6411230388
 20
9.3711773016
 30
0.0
 10
7.653096236
 20
9.3965311768
 30
0.0
 10
7.6693068747
 20
9.4276215157
 30
0.0
 10
7.6906307723
 20
9.4638849901
 30
0.0
 10
7.7137562365
 20
9.4990182623
 30
0.0
 10
7.7385827685
 20
9.5329595554
 30
0.0
 10
7.7606372305
 20
9.5601960362
 30
0.0
 10
7.7791438312
 20
9.5812490642
 30
0.0
 10
7.7982389328
 20
9.6017719036
 30
0.0
 10
7.818279969
 20
9.6214036583
 30
0.0
 10
7.8393397256
 20
9.6399076367
 30
0.0
 10
7.8556570865
 20
9.6531731432
 30
0.0
 10
7.872474598
 20
9.6658004744
 30
0.0
 10
7.8897730177
 20
9.6777600608
 30
0.0
 10
7.9075344815
 20
9.6890196597
 30
0.0
 10
7.9317929812
 20
9.7030759217
 30
0.0
 10
7.9631034195
 20
9.7188817754
 30
0.0
 10
8.0019558421
 20
9.7350519512
 30
0.0
 10
8.0550665784
 20
9.7530912411
 30
0.0
 10
8.1096790627
 20
9.7663229919
 30
0.0
 10
8.1649921039
 20
9.7755157699
 30
0.0
 10
8.2067513614
 20
9.7806100709
 30
0.0
 10
8.2486791711
 20
9.7840417058
 30
0.0
 10
8.2907092532
 20
9.7858732163
 30
0.0
 10
8.3327774365
 20
9.7861837959
 30
0.0
 10
8.3748283381
 20
9.7850506449
 30
0.0
 10
8.4168146788
 20
9.7825255607
 30
0.0
 10
8.4586961365
 20
9.7786547499
 30
0.0
 10
8.5004355943
 20
9.7734866772
 30
0.0
 10
8.5419974633
 20
9.767065244
 30
0.0
 10
8.5764564339
 20
9.7606903651
 30
0.0
 10
8.6038999636
 20
9.754993114
 30
0.0
 10
8.6244157141
 20
9.7504189208
 30
0.0
 10
8.6448709264
 20
9.7455852596
 30
0.0
 10
8.6720832152
 20
9.7388853535
 30
0.0
 10
8.6924439982
 20
9.733666315
 30
0.0
 10
8.7060170921
 20
9.730184461
 30
0.0
  0
SPLINE
  5
28C
100
AcDbEntity
  8
0
100
AcDbSpline
 62
9
  6
CONTINUOUS
 70
0
 71
3
 72
23
 73
19
 74
0
 42
0.0000001
 43
0.0000001
 44
0.0000000001
 40
0.0
 40
0.0
 40
0.0
 40
0.0
 40
0.0626262732
 40
0.1252566813
 40
0.1878895712
 40
0.2505057339
 40
0.3130526802
 40
0.3754834579
 40
0.4378760766
 40
0.500277476
 40
0.5627171129
 40
0.6251812427
 40
0.6876469619
 40
0.7501192344
 40
0.8125730893
 40
0.8750152045
 40
0.9374432845
 40
1.0
 40
1.0
 40
1.0
 40
1.0
 10
7.6055343378
 20
9.2723775025
 30
0.0
 10
7.6129907927
 20
9.2992839684
 30
0.0
 10
7.6323925285
 20
9.3518807852
 30
0.0
 10
7.6701541145
 20
9.4267834575
 30
0.0
 10
7.7150041752
 20
9.4976928892
 30
0.0
 10
7.7665922859
 20
9.5637921576
 30
0.0
 10
7.8245909534
 20
9.6243334289
 30
0.0
 10
7.8907934118
 20
9.6758633608
 30
0.0
 10
7.9643872975
 20
9.7159760414
 30
0.0
 10
8.0429579417
 20
9.7449048482
 30
0.0
 10
8.1244256602
 20
9.7639721367
 30
0.0
 10
8.2073118644
 20
9.7751565791
 30
0.0
 10
8.2908282235
 20
9.7795698068
 30
0.0
 10
8.3744242785
 20
9.777734665
 30
0.0
 10
8.4576751705
 20
9.7701734397
 30
0.0
 10
8.5402540036
 20
9.7573415033
 30
0.0
 10
8.6219027069
 20
9.7393231995
 30
0.0
 10
8.6756090522
 20
9.7244329889
 30
0.0
 10
8.7024756943
 20
9.7169490426
 30
0.0
  0
SPLINE
  5
28D
100
AcDbEntity
  8
0
100
AcDbSpline
 62
7
  6
CONTINUOUS
 70
0
 71
3
 72
35
 73
31
 74
0
 42
0.0000001
 43
0.0000001
 44
0.0000000001
 40
0.0
 40
0.0
 40
0.0
 40
0.0
 40
0.0582211587
 40
0.0887428561
 40
0.1203146108
 40
0.1528660074
 40
0.1863222622
 40
0.2556847762
 40
0.3278598719
 40
0.4018788335
 40
0.4392559423
 40
0.4765718216
 40
0.5136122267
 40
0.5502634045
 40
0.5865455461
 40
0.6225458461
 40
0.6582725954
 40
0.6936506211
 40
0.762701557
 40
0.8279933811
 40
0.858523272
 40
0.8872031479
 40
0.9136832612
 40
0.9375990019
 40
0.9585741158
 40
0.9762238408
 40
0.9836806711
 40
0.9901604318
 40
0.9956154096
 40
1.0
 40
1.0
 40
1.0
 40
1.0
 10
8.6003890856
 20
9.3359565462
 30
0.0
 10
8.5889839918
 20
9.3390125319
 30
0.0
 10
8.5715945933
 20
9.3436605284
 30
0.0
 10
8.5478297139
 20
9.3492045943
 30
0.0
 10
8.5290203195
 20
9.3530419291
 30
0.0
 10
8.5095200526
 20
9.3564311223
 30
0.0
 10
8.4823345543
 20
9.3602834468
 30
0.0
 10
8.4469570435
 20
9.363481048
 30
0.0
 10
8.4032045389
 20
9.3641474509
 30
0.0
 10
8.366006245
 20
9.3616937824
 30
0.0
 10
8.3361063633
 20
9.3576643235
 30
0.0
 10
8.3138421229
 20
9.3533668381
 30
0.0
 10
8.2920657127
 20
9.3475744096
 30
0.0
 10
8.2710344755
 20
9.3400527161
 30
0.0
 10
8.2510411054
 20
9.3305728713
 30
0.0
 10
8.2321504676
 20
9.3194332583
 30
0.0
 10
8.2143725697
 20
9.3069154696
 30
0.0
 10
8.1923542683
 20
9.2889088328
 30
0.0
 10
8.1678389558
 20
9.2646287479
 30
0.0
 10
8.1465746566
 20
9.2387627659
 30
0.0
 10
8.1318343202
 20
9.2182559052
 30
0.0
 10
8.1222507679
 20
9.2037538294
 30
0.0
 10
8.113906207
 20
9.1900550933
 30
0.0
 10
8.1068175825
 20
9.1774318988
 30
0.0
 10
8.1010027082
 20
9.1661571509
 30
0.0
 10
8.097030903
 20
9.1576942902
 30
0.0
 10
8.0945166601
 20
9.1518019219
 30
0.0
 10
8.0930696566
 20
9.148144449
 30
0.0
 10
8.0919535664
 20
9.145028155
 30
0.0
 10
8.0913626301
 20
9.1431207756
 30
0.0
 10
8.0911324861
 20
9.1422618668
 30
0.0
  0
ELLIPSE
  5
28E
100
AcDbEntity
  8
0
100
AcDbEllipse
 62
7
  6
CONTINUOUS
 10
13.1353347718
 20
8.8118761526
 30
0.0
 11
-1.1492470711
 21
1.1162095399
 31
0.0
 40
0.2678505055
 41
-3.9342811082
 42
-2.887083557
  0
ELLIPSE
  5
28F
100
AcDbEntity
  8
0
100
AcDbEllipse
 62
7
  6
CONTINUOUS
 10
13.1353347718
 20
8.8118761526
 30
0.0
 11
1.1492470711
 21
1.1162095399
 31
0.0
 40
0.2678505055
 41
-3.3961017501
 42
-2.3489041989
  0
ELLIPSE
  5
290
100
AcDbEntity
  8
0
100
AcDbEllipse
 62
7
  6
CONTINUOUS
 10
13.1353347718
 20
8.8118761526
 30
0.0
 11
1.1875
 21
-0.0
 31
0.0
 40
0.9750549296
 41
-2.0943951024
 42
-1.0471975512
  0
ENDSEC
  0
SECTION
  2
OBJECTS
  0
DICTIONARY
  5
C
100
AcDbDictionary
280
0
281
1
  3
ACAD_GROUP
350
D
  3
ACAD_MLINESTYLE
350
17
  3
ACAD_LAYOUT
350
1A
  3
ACAD_PLOTSETTINGS
350
19
  3
ACAD_PLOTSTYLENAME
350
E
  0
DICTIONARY
  5
D
102
{ACAD_REACTORS
330
C
102
}
100
AcDbDictionary
280
0
281
1
  0
ACDBDICTIONARYWDFLT
  5
E
102
{ACAD_REACTORS
330
C
102
}
100
AcDbDictionary
281
1
  3
Normal
350
F
100
AcDbDictionaryWithDefault
340
F
  0
DICTIONARY
  5
17
102
{ACAD_REACTORS
330
C
102
}
100
AcDbDictionary
280
0
281
1
  3
Standard
350
18
  0
DICTIONARY
  5
19
102
{ACAD_REACTORS
330
C
102
}
100
AcDbDictionary
281
1
  0
DICTIONARY
  5
1A
102
{ACAD_REACTORS
330
C
102
}
100
AcDbDictionary
281
1
  3
Model
350
291
  3
Layout1
350
292
  0
ACDBPLACEHOLDER
  5
F
102
{ACAD_REACTORS
330
E
102
}
  0
MLINESTYLE
  5
18
102
{ACAD_REACTORS
330
17
102
}
100
AcDbMlineStyle
  2
STANDARD
 70
0
  3

 62
256
 51
90.0
 52
90.0
 71
2
 49
0.5
 62
256
  6
BYLAYER
 49
-0.5
 62
256
  6
BYLAYER
  0
LAYOUT
  5
291
102
{ACAD_REACTORS
330
1A
102
}
100
AcDbPlotSettings
  1

  2
none_device
  4
ANSI_C_(22.00_x_17.00_Inches)
  6

 40
0.0
 41
0.0
 42
0.0
 43
0.0
 44
558.8
 45
431.8
 46
0.0
 47
0.0
 48
0.0
 49
0.0
140
0.0
141
0.0
142
1.0
143
1.0
 70
1024
 72
0
 73
0
 74
0
  7

 75
0
147
1.0
148
0.0
149
0.0
100
AcDbLayout
  1
Model
 70
0
 71
0
 10
0.0
 20
0.0
 11
22.0
 21
17.0
 12
0.0
 22
0.0
 32
0.0
 14
0.0
 24
0.0
 34
0.0
 15
0.0
 25
0.0
 35
0.0
146
0.0
 13
0.0
 23
0.0
 33
0.0
 16
1.0
 26
0.0
 36
0.0
 17
0.0
 27
1.0
 37
0.0
 76
0
330
202
345
0
346
0
  0
LAYOUT
  5
292
102
{ACAD_REACTORS
330
1A
102
}
100
AcDbPlotSettings
  1

  2
none_device
  4
ANSI_C_(22.00_x_17.00_Inches)
  6

 40
0.0
 41
0.0
 42
0.0
 43
0.0
 44
558.8
 45
431.8
 46
0.0
 47
0.0
 48
0.0
 49
0.0
140
0.0
141
0.0
142
1.0
143
1.0
 70
0
 72
0
 73
0
 74
0
  7

 75
0
147
1.0
148
0.0
149
0.0
100
AcDbLayout
  1
Layout1
 70
0
 71
1
 10
0.0
 20
0.0
 11
22.0
 21
17.0
 12
0.0
 22
0.0
 32
0.0
 14
0.0
 24
0.0
 34
0.0
 15
0.0
 25
0.0
 35
0.0
146
0.0
 13
0.0
 23
0.0
 33
0.0
 16
1.0
 26
0.0
 36
0.0
 17
0.0
 27
1.0
 37
0.0
 76
0
330
203
345
0
346
0
  0
ENDSEC
  0
EOF
