999
DXF file: 1203_front.dxf
999
Pro/ENGINEER 2018400 by Parametric Technology Corporation
  0
SECTION
  2
HEADER
  9
$ACADVER
  1
AC1027
  9
$DWGCODEPAGE
  3
ANSI_1252
  9
$EXTMAX
 10
11.0
 20
8.5
 30
0.0
  9
$EXTMIN
 10
0.0
 20
0.0
 30
0.0
  9
$LIMMIN
 10
0.0
 20
0.0
  9
$LIMMAX
 10
11.0
 20
8.5
  9
$VIEWCTR
 10
5.5
 20
4.25
  9
$VIEWSIZE
 40
8.5
  9
$CLAYER
  8
0
  9
$LTSCALE
 40
0.605
  9
$CELTYPE
  6
BYLAYER
  9
$DIMSCALE
 40
1.0
  9
$DIMASZ
 40
0.1
  9
$DIMEXO
 40
0.0625
  9
$DIMDLI
 40
0.418
  9
$DIMEXE
 40
0.125
  9
$DIMCEN
 40
0.099
  9
$DIMLFAC
 40
1.0
  9
$DIMBLK
  1
_FILLED
  9
$DIMALT
 70
1
  9
$DIMALTD
 70
2
  9
$DIMALTTD
 70
2
  9
$DIMALTF
 40
25.4
  9
$DIMTXT
 40
0.08
  9
$DIMTOL
 70
1
  9
$DIMLIM
 70
0
  9
$DIMTFAC
 40
1.0
  9
$DIMTP
 40
0.001
  9
$DIMTM
 40
0.001
  9
$DIMGAP
 40
0.09
  9
$DIMDSEP
 70
46
  9
$AUNITS
 70
0
  9
$PDMODE
 70
3
  9
$PDSIZE
 40
0.3125
  9
$HANDSEED
  5
3B8
  9
$TILEMODE
 70
1
  9
$MEASUREMENT
 70
0
  9
$INSUNITS
 70
1
  0
ENDSEC
  0
SECTION
  2
CLASSES
  0
CLASS
  1
ACDBDICTIONARYWDFLT
  2
AcDbDictionaryWithDefault
  3
AutoCAD 2000
 90
0
 91
1
280
0
281
0
  0
CLASS
  1
ACDBPLACEHOLDER
  2
AcDbPlaceHolder
  3
AutoCAD 2000
 90
0
 91
1
280
0
281
0
  0
CLASS
  1
LAYOUT
  2
AcDbLayout
  3
AutoCAD 2000
 90
0
 91
0
280
0
281
0
  0
ENDSEC
  0
SECTION
  2
TABLES
  0
TABLE
  2
VPORT
  5
8
100
AcDbSymbolTable
 70
2
  0
VPORT
  5
1F4
100
AcDbSymbolTableRecord
100
AcDbViewportTableRecord
  2
*ACTIVE
 70
0
 10
0.0
 20
0.0
 11
1.0
 21
1.0
 12
5.5
 22
4.25
 13
0.0
 23
0.0
 14
1.0
 24
1.0
 15
0.0
 25
0.0
 16
0.0
 26
0.0
 36
1.0
 17
0.0
 27
0.0
 37
0.0
 40
8.5
 41
1.2941176471
 42
50.0
 43
0.0
 44
0.0
 50
0.0
 51
0.0
 71
0
 72
100
 73
1
 74
1
 75
0
 76
0
 77
0
 78
0
  0
ENDTAB
  0
TABLE
  2
LTYPE
  5
5
100
AcDbSymbolTable
 70
6
  0
LTYPE
  5
14
100
AcDbSymbolTableRecord
100
AcDbLinetypeTableRecord
  2
BYBLOCK
 70
0
  3

 72
65
 73
0
 40
0.0
  0
LTYPE
  5
15
100
AcDbSymbolTableRecord
100
AcDbLinetypeTableRecord
  2
BYLAYER
 70
0
  3

 72
65
 73
0
 40
0.0
  0
LTYPE
  5
16
100
AcDbSymbolTableRecord
100
AcDbLinetypeTableRecord
  2
CONTINUOUS
 70
64
  3
Solid line
 72
65
 73
0
 40
0.0
  0
LTYPE
  5
1F5
100
AcDbSymbolTableRecord
100
AcDbLinetypeTableRecord
  2
CENTER
 70
64
  3
____ _ ____ _ ____ _ ____ _ ____ _ ____ _ ____
 72
65
 73
4
 40
0.6
 49
0.375
 74
0
 49
-0.075
 74
0
 49
0.075
 74
0
 49
-0.075
 74
0
  0
LTYPE
  5
1F6
100
AcDbSymbolTableRecord
100
AcDbLinetypeTableRecord
  2
HIDDEN
 70
64
  3
- - - - - - - - - - - - - - - - - - - -
 72
65
 73
2
 40
0.2
 49
0.1
 74
0
 49
-0.1
 74
0
  0
LTYPE
  5
1F7
100
AcDbSymbolTableRecord
100
AcDbLinetypeTableRecord
  2
PHANTOM
 70
64
  3
_____ _ _ _____ _ _ _____ _ _ _____
 72
65
 73
6
 40
0.8
 49
0.45
 74
0
 49
-0.05
 74
0
 49
0.1
 74
0
 49
-0.05
 74
0
 49
0.1
 74
0
 49
-0.05
 74
0
  0
LTYPE
  5
1F8
100
AcDbSymbolTableRecord
100
AcDbLinetypeTableRecord
  2
DOT
 70
64
  3
. . . . . . . . . . . . . . . . . . . .
 72
65
 73
2
 40
0.2
 49
0.1
 74
0
 49
-0.1
 74
0
  0
LTYPE
  5
1F9
100
AcDbSymbolTableRecord
100
AcDbLinetypeTableRecord
  2
DASHED
 70
64
  3
- - - - - - - - - - - - - - - - - - - -
 72
65
 73
2
 40
0.2
 49
0.1
 74
0
 49
-0.1
 74
0
  0
ENDTAB
  0
TABLE
  2
LAYER
  5
2
100
AcDbSymbolTable
 70
36
  0
LAYER
  5
10
100
AcDbSymbolTableRecord
100
AcDbLayerTableRecord
  2
0
 70
0
 62
7
  6
CONTINUOUS
370
-3
390
F
  0
LAYER
  5
1FA
100
AcDbSymbolTableRecord
100
AcDbLayerTableRecord
  2
DEFAULT_1
 70
0
 62
7
  6
CENTER
370
-3
390
F
  0
LAYER
  5
1FB
100
AcDbSymbolTableRecord
100
AcDbLayerTableRecord
  2
DEFAULT_2
 70
0
 62
8
  6
HIDDEN
370
-3
390
F
  0
LAYER
  5
1FC
100
AcDbSymbolTableRecord
100
AcDbLayerTableRecord
  2
DEFAULT_3
 70
0
 62
7
  6
PHANTOM
370
-3
390
F
  0
LAYER
  5
1FD
100
AcDbSymbolTableRecord
100
AcDbLayerTableRecord
  2
DEFAULT_COORDINATE_SYSTEM
 70
0
 62
7
  6
CONTINUOUS
370
-3
390
F
  0
LAYER
  5
1FE
100
AcDbSymbolTableRecord
100
AcDbLayerTableRecord
  2
DEFAULT_DATUM_AXES
 70
0
 62
7
  6
CONTINUOUS
370
-3
390
F
  0
LAYER
  5
1FF
100
AcDbSymbolTableRecord
100
AcDbLayerTableRecord
  2
DEFAULT_DATUM_PLANES
 70
0
 62
7
  6
CONTINUOUS
370
-3
390
F
  0
ENDTAB
  0
TABLE
  2
STYLE
  5
3
100
AcDbSymbolTable
 70
1
  0
STYLE
  5
11
100
AcDbSymbolTableRecord
100
AcDbTextStyleTableRecord
  2
STANDARD
 70
0
 40
0.0
 41
0.8
 50
0.0
 71
0
 42
0.2
  3
txt
  4

  0
STYLE
  5
200
100
AcDbSymbolTableRecord
100
AcDbTextStyleTableRecord
  2
TEXTSTYLE_1
 70
0
 40
0.0
 41
0.8
 50
0.0
 71
0
 42
0.2
  3
gdt
  4

  0
ENDTAB
  0
TABLE
  2
VIEW
  5
6
100
AcDbSymbolTable
 70
0
  0
ENDTAB
  0
TABLE
  2
UCS
  5
7
100
AcDbSymbolTable
 70
0
  0
ENDTAB
  0
TABLE
  2
APPID
  5
9
100
AcDbSymbolTable
 70
1
  0
APPID
  5
201
100
AcDbSymbolTableRecord
100
AcDbRegAppTableRecord
  2
ACAD
 70
0
  0
ENDTAB
  0
TABLE
  2
BLOCK_RECORD
  5
1
100
AcDbSymbolTable
 70
0
  0
BLOCK_RECORD
  5
202
100
AcDbSymbolTableRecord
100
AcDbBlockTableRecord
  2
*Model_Space
  0
BLOCK_RECORD
  5
203
100
AcDbSymbolTableRecord
100
AcDbBlockTableRecord
  2
*Paper_Space
  0
BLOCK_RECORD
  5
204
100
AcDbSymbolTableRecord
100
AcDbBlockTableRecord
  2
_FILLED
  0
ENDTAB
  0
TABLE
  2
DIMSTYLE
  5
A
100
AcDbSymbolTable
 70
1
100
AcDbDimStyleTable
 71
0
  0
DIMSTYLE
105
205
100
AcDbSymbolTableRecord
100
AcDbDimStyleTableRecord
  2
STANDARD
 70
0
  3

  4

 40
1.0
 41
0.1
 42
0.0625
 43
0.38
 44
0.125
 45
0.0
 46
0.0
 47
0.001
 48
0.001
140
0.08
141
0.09
142
0.0
143
25.4
144
1.0
145
0.0
146
1.0
147
0.09
 71
1.0
 72
0.0
 73
1
 74
1
 75
0
 76
0
 77
0
 78
4
 79
1
170
1
171
2
172
0
173
0
174
0
175
0
176
0
177
0
178
0
270
2
179
3
271
3
272
3
273
2
274
2
275
0
280
0
281
0
282
0
283
1
284
4
285
0
286
0
287
3
288
0
340
11
278
46
341
204
342
204
343
204
344
204
  0
ENDTAB
  0
ENDSEC
  0
SECTION
  2
BLOCKS
  0
BLOCK
  5
20
100
AcDbEntity
  8
0
100
AcDbBlockBegin
  2
*Model_Space
 70
0
 10
0.0
 20
0.0
 30
0.0
  3
*Model_Space
  1

  0
ENDBLK
  5
21
100
AcDbEntity
  8
0
100
AcDbBlockEnd
  0
BLOCK
  5
1C
100
AcDbEntity
  8
0
100
AcDbBlockBegin
  2
*Paper_Space
 70
0
 10
0.0
 20
0.0
 30
0.0
  3
*Paper_Space
  1

  0
ENDBLK
  5
1D
100
AcDbEntity
  8
0
100
AcDbBlockEnd
  0
BLOCK
  5
206
100
AcDbEntity
  8
0
100
AcDbBlockBegin
  2
_FILLED
 70
64
 10
0.0
 20
0.0
  3
_FILLED
  1

  0
SOLID
  5
207
100
AcDbEntity
  8
0
  6
BYBLOCK
 62
0
100
AcDbTrace
 10
0.0
 20
0.0
 11
-1.0
 21
0.2
 12
-1.0
 22
-0.2
 13
-1.0
 23
-0.2
  0
ENDBLK
  5
208
100
AcDbEntity
  8
0
  6
BYBLOCK
 62
0
100
AcDbBlockEnd
  0
ENDSEC
  0
SECTION
  2
ENTITIES
  0
MTEXT
  5
209
100
AcDbEntity
  8
0
100
AcDbMText
 62
2
  6
CONTINUOUS
  7
STANDARD
 71
3
 72
1
 10
5.3847049689
 20
1.3754120334
 30
0.0
 11
1.0
 21
0.0
 31
0.0
 73
2
 44
0.9
  1
SCALE  .500
 40
0.08
 41
0.704
  0
LINE
  5
20A
100
AcDbEntity
  8
0
100
AcDbLine
 62
7
  6
CONTINUOUS
 10
0.0
 20
0.0
 11
0.0
 21
8.5
  0
LINE
  5
20B
100
AcDbEntity
  8
0
100
AcDbLine
 62
7
  6
CONTINUOUS
 10
0.0
 20
0.0
 11
11.0
 21
0.0
  0
LINE
  5
20C
100
AcDbEntity
  8
0
100
AcDbLine
 62
7
  6
CONTINUOUS
 10
0.0
 20
8.5
 11
11.0
 21
8.5
  0
LINE
  5
20D
100
AcDbEntity
  8
0
100
AcDbLine
 62
7
  6
CONTINUOUS
 10
11.0
 20
0.0
 11
11.0
 21
8.5
  0
LINE
  5
20E
100
AcDbEntity
  8
0
100
AcDbLine
 62
7
  6
CONTINUOUS
 10
4.2793478261
 20
2.8078343937
 11
5.4293478261
 21
2.8078343937
  0
LINE
  5
20F
100
AcDbEntity
  8
0
100
AcDbLine
 62
7
  6
CONTINUOUS
 10
5.4234478261
 20
2.9228343937
 11
5.4213271243
 21
2.9228343937
  0
LINE
  5
210
100
AcDbEntity
  8
0
100
AcDbLine
 62
7
  6
CONTINUOUS
 10
5.1803458753
 20
2.9228343937
 11
5.095329075
 21
2.9228343937
  0
LINE
  5
211
100
AcDbEntity
  8
0
100
AcDbLine
 62
7
  6
CONTINUOUS
 10
4.2852478261
 20
2.9228343937
 11
4.2873685279
 21
2.9228343937
  0
LINE
  5
212
100
AcDbEntity
  8
0
100
AcDbLine
 62
7
  6
CONTINUOUS
 10
4.5283497769
 20
2.9228343937
 11
4.6133665771
 21
2.9228343937
  0
LWPOLYLINE
  5
213
100
AcDbEntity
  8
0
100
AcDbPolyline
 62
7
  6
CONTINUOUS
 90
97
 70
0
 10
5.4057144792
 20
2.9596905567
 10
5.3972009837
 20
2.9637995285
 10
5.3880930545
 20
2.9683973677
 10
5.3791013051
 20
2.9731472864
 10
5.3702233038
 20
2.9780490048
 10
5.3614668568
 20
2.9830970116
 10
5.3528495333
 20
2.9882797189
 10
5.3443736173
 20
2.9935938167
 10
5.3360413978
 20
2.9990360023
 10
5.3278696051
 20
3.0045933171
 10
5.3198602156
 20
3.0102620712
 10
5.3120151232
 20
3.0160385776
 10
5.3043500006
 20
3.0219085342
 10
5.2968663566
 20
3.0278677577
 10
5.2895655633
 20
3.0339121037
 10
5.2824620746
 20
3.0400259775
 10
5.2755566104
 20
3.0462047512
 10
5.2688499344
 20
3.0524436513
 10
5.2623554
 20
3.0587254648
 10
5.2560725836
 20
3.0650452247
 10
5.2500015043
 20
3.071397347
 10
5.2441547831
 20
3.0777622025
 10
5.2385313991
 20
3.0841335076
 10
5.2331294213
 20
3.090505767
 10
5.2279583767
 20
3.0968591052
 10
5.2230252062
 20
3.1031743876
 10
5.21831664
 20
3.1094577129
 10
5.2138121651
 20
3.1157276106
 10
5.209518754
 20
3.1219657793
 10
5.205424769
 20
3.1281798869
 10
5.2014868836
 20
3.1344311235
 10
5.1977057939
 20
3.1407183109
 10
5.1940845355
 20
3.1470374177
 10
5.1905912654
 20
3.1534500492
 10
5.1872264477
 20
3.1599665411
 10
5.1839972921
 20
3.1665773413
 10
5.1808880337
 20
3.1733176445
 10
5.1778987881
 20
3.1801922562
 10
5.1750314247
 20
3.18719623
 10
5.1722764066
 20
3.1943517789
 10
5.1696338597
 20
3.2016595448
 10
5.1671057406
 20
3.2091136658
 10
5.1646874486
 20
3.2167272187
 10
5.1623772633
 20
3.2245053911
 10
5.1601768813
 20
3.2324389308
 10
5.1580867768
 20
3.2405190232
 10
5.1561047443
 20
3.2487438502
 10
5.1542282304
 20
3.2571102375
 10
5.1524557581
 20
3.265606714
 10
5.1507829215
 20
3.2742306848
 10
5.1492039651
 20
3.2829810518
 10
5.1477138784
 20
3.2918481424
 10
5.1463059055
 20
3.300829002
 10
5.1449741516
 20
3.3099207583
 10
5.14371384
 20
3.3191132656
 10
5.1425198258
 20
3.3283949396
 10
5.1413880803
 20
3.3377679383
 10
5.1403184956
 20
3.3472443749
 10
5.1393132172
 20
3.3568222574
 10
5.1383741134
 20
3.3665016528
 10
5.137500998
 20
3.376298456
 10
5.1366948952
 20
3.3862125386
 10
5.1359567639
 20
3.3962435329
 10
5.1352864934
 20
3.4064073074
 10
5.1346853911
 20
3.4167039142
 10
5.1341547989
 20
3.4271325101
 10
5.1336953573
 20
3.4377075726
 10
5.1333083635
 20
3.4484334571
 10
5.1329952727
 20
3.4593049482
 10
5.1327571578
 20
3.4703221224
 10
5.1325949598
 20
3.481487691
 10
5.1325096028
 20
3.4927980538
 10
5.1325017466
 20
3.5042438457
 10
5.1325717523
 20
3.5158247152
 10
5.132719847
 20
3.5275401765
 10
5.1329459095
 20
3.5393806498
 10
5.1332496534
 20
3.5513452205
 10
5.1336306618
 20
3.5634341385
 10
5.1340880615
 20
3.575639636
 10
5.1346209326
 20
3.5879598799
 10
5.1352283237
 20
3.6003960847
 10
5.1359089069
 20
3.6129450796
 10
5.1366613083
 20
3.6256064516
 10
5.1374840249
 20
3.6383802544
 10
5.1383752165
 20
3.6512640411
 10
5.1393330071
 20
3.6642577723
 10
5.140355355
 20
3.6773614411
 10
5.1414398574
 20
3.690572757
 10
5.1425841057
 20
3.7038917113
 10
5.1437855569
 20
3.71731841
 10
5.1450413448
 20
3.730850878
 10
5.1463486287
 20
3.7444894468
 10
5.1477043932
 20
3.7582344689
 10
5.14910521
 20
3.7720840409
 10
5.1505474756
 20
3.7860374304
 10
5.1520274435
 20
3.8000957831
 10
5.1535411363
 20
3.8142599927
  0
LINE
  5
214
100
AcDbEntity
  8
0
100
AcDbLine
 62
7
  6
CONTINUOUS
 10
4.3033533027
 20
2.9589021041
 11
4.3029811721
 21
2.9596905521
  0
LWPOLYLINE
  5
215
100
AcDbEntity
  8
0
100
AcDbPolyline
 62
7
  6
CONTINUOUS
 90
27
 70
0
 10
4.6256039148
 20
5.6358583027
 10
4.6253521078
 20
5.6357265663
 10
4.6244641743
 20
5.635234626
 10
4.6235998281
 20
5.6347125145
 10
4.622759864
 20
5.6341610998
 10
4.6219452492
 20
5.6335814056
 10
4.6211570608
 20
5.6329745489
 10
4.6203962888
 20
5.6323417007
 10
4.6196636673
 20
5.6316838816
 10
4.6189598574
 20
5.6310020628
 10
4.6182857301
 20
5.6302975016
 10
4.6176420591
 20
5.6295714034
 10
4.6170293419
 20
5.6288247712
 10
4.6164484692
 20
5.6280591405
 10
4.6158999972
 20
5.6272757504
 10
4.6153839646
 20
5.6264751475
 10
4.6149010963
 20
5.6256588584
 10
4.614451929
 20
5.6248283596
 10
4.6140363782
 20
5.6239839737
 10
4.6136550348
 20
5.6231273021
 10
4.613308327
 20
5.6222599394
 10
4.6129961388
 20
5.6213820425
 10
4.6127189107
 20
5.6204953115
 10
4.6124769297
 20
5.6196014515
 10
4.6122700802
 20
5.6187005212
 10
4.6120985513
 20
5.6177936534
 10
4.6119626115
 20
5.616883125
  0
LINE
  5
216
100
AcDbEntity
  8
0
100
AcDbLine
 62
7
  6
CONTINUOUS
 10
4.9863028117
 20
3.7626470524
 11
4.7223928401
 21
3.7626470524
  0
LINE
  5
217
100
AcDbEntity
  8
0
100
AcDbLine
 62
7
  6
CONTINUOUS
 10
4.4630768785
 20
5.2540376737
 11
4.4551096621
 21
5.2435844067
  0
LWPOLYLINE
  5
218
100
AcDbEntity
  8
0
100
AcDbPolyline
 62
7
  6
CONTINUOUS
 90
27
 70
0
 10
4.671987173
 20
5.5315574657
 10
4.6676582061
 20
5.52629053
 10
4.661921727
 20
5.51907245
 10
4.6563163107
 20
5.5117388749
 10
4.6508476794
 20
5.5042966216
 10
4.6455276913
 20
5.4967621138
 10
4.6403577502
 20
5.489138331
 10
4.6353390616
 20
5.4814278826
 10
4.6304813677
 20
5.4736471967
 10
4.6257847679
 20
5.4657984822
 10
4.6212506964
 20
5.45788597
 10
4.6168889995
 20
5.4499295667
 10
4.6126991965
 20
5.4419318997
 10
4.608681857
 20
5.4338972197
 10
4.6048453219
 20
5.4258462291
 10
4.6011868899
 20
5.4177783692
 10
4.5977048535
 20
5.409694851
 10
4.5944061493
 20
5.4016184079
 10
4.5912868476
 20
5.3935475813
 10
4.5883446908
 20
5.3854845768
 10
4.5855863377
 20
5.3774581878
 10
4.5830082843
 20
5.3694715221
 10
4.5806055997
 20
5.3615226278
 10
4.5783804068
 20
5.353633779
 10
4.576329892
 20
5.3458134675
 10
4.5744475088
 20
5.3380555647
 10
4.5728756674
 20
5.331044315
  0
LINE
  5
219
100
AcDbEntity
  8
0
100
AcDbLine
 62
7
  6
CONTINUOUS
 10
4.6719858255
 20
5.5315558493
 11
4.6719896723
 21
5.5315604495
  0
LWPOLYLINE
  5
21A
100
AcDbEntity
  8
0
100
AcDbPolyline
 62
7
  6
CONTINUOUS
 90
99
 70
0
 10
4.5504526181
 20
3.8573977512
 10
4.5536107296
 20
3.8285360184
 10
4.5551536167
 20
3.8142684586
 10
4.5566673074
 20
3.8001043853
 10
4.5581472728
 20
3.786046167
 10
4.5595895382
 20
3.7720929093
 10
4.560990359
 20
3.7582434668
 10
4.5623461331
 20
3.7444985717
 10
4.5636534318
 20
3.7308601268
 10
4.564909239
 20
3.7173277792
 10
4.5661107135
 20
3.7039011964
 10
4.5672549885
 20
3.6905823536
 10
4.5683395206
 20
3.6773711456
 10
4.5693619012
 20
3.664267581
 10
4.5703197278
 20
3.6512739501
 10
4.5712109587
 20
3.63839026
 10
4.5720337182
 20
3.62561655
 10
4.5727861658
 20
3.6129552675
 10
4.5734667986
 20
3.6004063586
 10
4.5740742424
 20
3.5879702358
 10
4.5746071693
 20
3.5756500688
 10
4.5750646278
 20
3.563444644
 10
4.5754456978
 20
3.5513557942
 10
4.575749506
 20
3.539391285
 10
4.5759756353
 20
3.5275508659
 10
4.5761237992
 20
3.5158354523
 10
4.5761938764
 20
3.5042546235
 10
4.5761860938
 20
3.4928088648
 10
4.576100812
 20
3.4814985273
 10
4.5759386905
 20
3.4703329762
 10
4.5757006534
 20
3.4593158105
 10
4.575387641
 20
3.4484443204
 10
4.5750007262
 20
3.4377184342
 10
4.5745413644
 20
3.4271433676
 10
4.5740108531
 20
3.4167147651
 10
4.5734098331
 20
3.4064181524
 10
4.5727396462
 20
3.3962543724
 10
4.5720015988
 20
3.3862233725
 10
4.5711955796
 20
3.3763092899
 10
4.5703225467
 20
3.3665124953
 10
4.5693835244
 20
3.3568331198
 10
4.5683783326
 20
3.3472552718
 10
4.5673088437
 20
3.3377788783
 10
4.5661772045
 20
3.328405916
 10
4.5649832989
 20
3.3191242578
 10
4.5637230789
 20
3.3099317634
 10
4.5623914174
 20
3.3008400231
 10
4.5609835556
 20
3.2918591782
 10
4.5594936013
 20
3.2829920904
 10
4.5579147905
 20
3.2742417094
 10
4.5562421062
 20
3.2656177054
 10
4.5544697902
 20
3.2571211797
 10
4.5525934389
 20
3.2487547327
 10
4.550611574
 20
3.2405298318
 10
4.5485216411
 20
3.2324496486
 10
4.5463214348
 20
3.224516004
 10
4.5440114276
 20
3.2167377145
 10
4.5415933124
 20
3.2091240259
 10
4.5390653706
 20
3.2016697566
 10
4.536423005
 20
3.1943618495
 10
4.533668173
 20
3.1872061694
 10
4.530801005
 20
3.18020208
 10
4.5278119765
 20
3.1733273884
 10
4.5247029621
 20
3.1665870284
 10
4.5214740656
 20
3.1599761891
 10
4.5181095133
 20
3.1534596938
 10
4.5146165374
 20
3.1470471174
 10
4.5109956049
 20
3.1407281057
 10
4.507214854
 20
3.1344410134
 10
4.5032773156
 20
3.1281898706
 10
4.4991836829
 20
3.1219758533
 10
4.4948906053
 20
3.1157377325
 10
4.4903864432
 20
3.1094678403
 10
4.4856781672
 20
3.1031844803
 10
4.4807452348
 20
3.0968690879
 10
4.4755743539
 20
3.0905155466
 10
4.4701724775
 20
3.0841430158
 10
4.4645491498
 20
3.0777713992
 10
4.4587024371
 20
3.0714061943
 10
4.4526313175
 20
3.0650536872
 10
4.4463484307
 20
3.0587335323
 10
4.4398538046
 20
3.0524513227
 10
4.4331470075
 20
3.0462120187
 10
4.4262413897
 20
3.0400328337
 10
4.4191377181
 20
3.0339185442
 10
4.4118367099
 20
3.0278737777
 10
4.4043528099
 20
3.0219141249
 10
4.3966873915
 20
3.0160437314
 10
4.3888419631
 20
3.0102667824
 10
4.3808321862
 20
3.004597577
 10
4.3726599556
 20
2.9990398031
 10
4.3643272486
 20
2.9935971528
 10
4.3558507846
 20
2.9882825838
 10
4.347232852
 20
2.983099401
 10
4.3384757354
 20
2.9780509163
 10
4.3295969962
 20
2.973148716
 10
4.3206044343
 20
2.9683983165
 10
4.311495621
 20
2.9638000006
 10
4.3029811696
 20
2.9596905575
  0
LINE
  5
21B
100
AcDbEntity
  8
0
100
AcDbLine
 62
7
  6
CONTINUOUS
 10
4.4474680794
 20
4.7516669648
 11
4.4515629151
 21
4.7125858136
  0
LWPOLYLINE
  5
21C
100
AcDbEntity
  8
0
100
AcDbPolyline
 62
7
  6
CONTINUOUS
 90
10
 70
0
 10
4.4067474495
 20
5.1796901126
 10
4.4098883701
 20
5.1412215844
 10
4.4133301515
 20
5.1006411137
 10
4.4170218063
 20
5.058676998
 10
4.4209695943
 20
5.0153305645
 10
4.4251788373
 20
4.970602655
 10
4.4296538208
 20
4.9244936469
 10
4.4343975709
 20
4.8770042772
 10
4.4394116789
 20
4.8281354734
 10
4.4474680794
 20
4.7516669648
  0
LINE
  5
21D
100
AcDbEntity
  8
0
100
AcDbLine
 62
7
  6
CONTINUOUS
 10
4.2793478261
 20
2.8078343937
 11
4.2858292179
 21
2.9341133498
  0
LWPOLYLINE
  5
21E
100
AcDbEntity
  8
0
100
AcDbPolyline
 62
7
  6
CONTINUOUS
 90
33
 70
0
 10
4.6119626115
 20
5.616883125
 10
4.6104513547
 20
5.6053049151
 10
4.6086715521
 20
5.5931751153
 10
4.6067018983
 20
5.5811286968
 10
4.6045460261
 20
5.5691765861
 10
4.6022049707
 20
5.5573145146
 10
4.5996759365
 20
5.5455232613
 10
4.5969599655
 20
5.5338059548
 10
4.5940582039
 20
5.5221661308
 10
4.5909661059
 20
5.5105854663
 10
4.5876850758
 20
5.4990666715
 10
4.5842169182
 20
5.4876126911
 10
4.5805565901
 20
5.4762056889
 10
4.5767048285
 20
5.4648487651
 10
4.5726623629
 20
5.4535449971
 10
4.5684221111
 20
5.4422772179
 10
4.5639839192
 20
5.4310492003
 10
4.5593474927
 20
5.4198642788
 10
4.5545041736
 20
5.4087050623
 10
4.5494544394
 20
5.397575355
 10
4.5441983425
 20
5.3864778163
 10
4.5387252469
 20
5.3753939203
 10
4.5330345568
 20
5.3643276432
 10
4.5271257318
 20
5.3532829816
 10
4.5209862131
 20
5.3422426634
 10
4.5146145873
 20
5.3312113689
 10
4.50801005
 20
5.3201934155
 10
4.5011592338
 20
5.309172011
 10
4.4940609734
 20
5.2981515942
 10
4.4867141674
 20
5.2871364861
 10
4.4791038594
 20
5.2761110904
 10
4.4712236654
 20
5.2650740785
 10
4.4630768785
 20
5.2540376737
  0
LINE
  5
21F
100
AcDbEntity
  8
0
100
AcDbLine
 62
7
  6
CONTINUOUS
 10
4.4829902626
 20
4.4378796432
 11
4.516057258
 21
4.157572317
  0
LINE
  5
220
100
AcDbEntity
  8
0
100
AcDbLine
 62
7
  6
CONTINUOUS
 10
4.516057258
 20
4.157572317
 11
4.5220369627
 21
4.1066054503
  0
LINE
  5
221
100
AcDbEntity
  8
0
100
AcDbLine
 62
7
  6
CONTINUOUS
 10
4.5220369627
 20
4.1066054503
 11
4.5278054889
 21
4.057104268
  0
LINE
  5
222
100
AcDbEntity
  8
0
100
AcDbLine
 62
7
  6
CONTINUOUS
 10
4.4757825836
 20
4.4997397973
 11
4.4829902626
 21
4.4378796432
  0
LINE
  5
223
100
AcDbEntity
  8
0
100
AcDbLine
 62
7
  6
CONTINUOUS
 10
4.5278054889
 20
4.057104268
 11
4.5315353853
 21
4.0248706808
  0
LINE
  5
224
100
AcDbEntity
  8
0
100
AcDbLine
 62
7
  6
CONTINUOUS
 10
4.4668736247
 20
4.5771078878
 11
4.4757825836
 21
4.4997397973
  0
LINE
  5
225
100
AcDbEntity
  8
0
100
AcDbLine
 62
7
  6
CONTINUOUS
 10
4.5315353853
 20
4.0248706808
 11
4.5351731399
 21
3.9932263496
  0
LINE
  5
226
100
AcDbEntity
  8
0
100
AcDbLine
 62
7
  6
CONTINUOUS
 10
4.5351731399
 20
3.9932263496
 11
4.5387205828
 21
3.9621430626
  0
LINE
  5
227
100
AcDbEntity
  8
0
100
AcDbLine
 62
7
  6
CONTINUOUS
 10
4.4603936665
 20
4.633855127
 11
4.4668736247
 21
4.5771078878
  0
LINE
  5
228
100
AcDbEntity
  8
0
100
AcDbLine
 62
7
  6
CONTINUOUS
 10
4.5387205828
 20
3.9621430626
 11
4.5421801803
 21
3.9315915109
  0
LINE
  5
229
100
AcDbEntity
  8
0
100
AcDbLine
 62
7
  6
CONTINUOUS
 10
4.4559670546
 20
4.673065755
 11
4.4603936665
 21
4.633855127
  0
LINE
  5
22A
100
AcDbEntity
  8
0
100
AcDbLine
 62
7
  6
CONTINUOUS
 10
4.5421801803
 20
3.9315915109
 11
4.5455533278
 21
3.9015521802
  0
LINE
  5
22B
100
AcDbEntity
  8
0
100
AcDbLine
 62
7
  6
CONTINUOUS
 10
4.4515629139
 20
4.7125858166
 11
4.4559670546
 21
4.673065755
  0
LWPOLYLINE
  5
22C
100
AcDbEntity
  8
0
100
AcDbPolyline
 62
7
  6
CONTINUOUS
 90
3
 70
0
 10
4.5455533278
 20
3.9015521802
 10
4.5488408977
 20
3.8719994902
 10
4.5504526181
 20
3.8573977512
  0
LWPOLYLINE
  5
22D
100
AcDbEntity
  8
0
100
AcDbPolyline
 62
7
  6
CONTINUOUS
 90
21
 70
0
 10
4.5641117237
 20
5.084044463
 10
4.5641895746
 20
5.0824805815
 10
4.5643759195
 20
5.0805260413
 10
4.5646629677
 20
5.0785648008
 10
4.5650529854
 20
5.0765961543
 10
4.5655468813
 20
5.0746265025
 10
4.5661424837
 20
5.0726688295
 10
4.566839136
 20
5.0707259611
 10
4.5676366856
 20
5.0687989547
 10
4.5685310856
 20
5.0668968224
 10
4.5695204531
 20
5.0650214342
 10
4.5706041403
 20
5.0631722343
 10
4.571778624
 20
5.0613533289
 10
4.5730420416
 20
5.059565345
 10
4.5743940251
 20
5.0578068845
 10
4.5758330667
 20
5.0560782755
 10
4.5773581104
 20
5.054379241
 10
4.5789694082
 20
5.0527082081
 10
4.5806677737
 20
5.051063401
 10
4.5824538151
 20
5.0494435937
 10
4.5836758993
 20
5.0483919636
  0
LINE
  5
22E
100
AcDbEntity
  8
0
100
AcDbLine
 62
7
  6
CONTINUOUS
 10
4.5390598161
 20
4.78352889
 11
4.5395566624
 21
4.7677753439
  0
LINE
  5
22F
100
AcDbEntity
  8
0
100
AcDbLine
 62
7
  6
CONTINUOUS
 10
4.5388618219
 20
4.7910771737
 11
4.5390598161
 21
4.78352889
  0
LINE
  5
230
100
AcDbEntity
  8
0
100
AcDbLine
 62
7
  6
CONTINUOUS
 10
4.5387233309
 20
4.7974476427
 11
4.5388618219
 21
4.7910771737
  0
LINE
  5
231
100
AcDbEntity
  8
0
100
AcDbLine
 62
7
  6
CONTINUOUS
 10
4.5386233933
 20
4.8032001779
 11
4.5387233309
 21
4.7974476427
  0
LINE
  5
232
100
AcDbEntity
  8
0
100
AcDbLine
 62
7
  6
CONTINUOUS
 10
4.5641117237
 20
5.084044463
 11
4.5641035763
 21
5.0846153634
  0
LINE
  5
233
100
AcDbEntity
  8
0
100
AcDbLine
 62
7
  6
CONTINUOUS
 10
4.5385451862
 20
4.8093435488
 11
4.5386233933
 21
4.8032001779
  0
LINE
  5
234
100
AcDbEntity
  8
0
100
AcDbLine
 62
7
  6
CONTINUOUS
 10
4.5385035746
 20
4.8145344776
 11
4.5385451862
 21
4.8093435488
  0
LINE
  5
235
100
AcDbEntity
  8
0
100
AcDbLine
 62
7
  6
CONTINUOUS
 10
4.5384853856
 20
4.8199743446
 11
4.5385035746
 21
4.8145344776
  0
LINE
  5
236
100
AcDbEntity
  8
0
100
AcDbLine
 62
7
  6
CONTINUOUS
 10
4.538495604
 20
4.8256696497
 11
4.5384853856
 21
4.8199743446
  0
LINE
  5
237
100
AcDbEntity
  8
0
100
AcDbLine
 62
7
  6
CONTINUOUS
 10
4.5385252759
 20
4.830113839
 11
4.538495604
 21
4.8256696497
  0
LINE
  5
238
100
AcDbEntity
  8
0
100
AcDbLine
 62
7
  6
CONTINUOUS
 10
4.5385767355
 20
4.8347099031
 11
4.5385252759
 21
4.830113839
  0
LINE
  5
239
100
AcDbEntity
  8
0
100
AcDbLine
 62
7
  6
CONTINUOUS
 10
4.5386528908
 20
4.8394615056
 11
4.5385767355
 21
4.8347099031
  0
LINE
  5
23A
100
AcDbEntity
  8
0
100
AcDbLine
 62
7
  6
CONTINUOUS
 10
4.5387569261
 20
4.8443722971
 11
4.5386528908
 21
4.8394615056
  0
LINE
  5
23B
100
AcDbEntity
  8
0
100
AcDbLine
 62
7
  6
CONTINUOUS
 10
4.5388923031
 20
4.8494453161
 11
4.5387569261
 21
4.8443722971
  0
LINE
  5
23C
100
AcDbEntity
  8
0
100
AcDbLine
 62
7
  6
CONTINUOUS
 10
4.5390627598
 20
4.8546830275
 11
4.5388923031
 21
4.8494453161
  0
LINE
  5
23D
100
AcDbEntity
  8
0
100
AcDbLine
 62
7
  6
CONTINUOUS
 10
4.5392722263
 20
4.8600853398
 11
4.5390627598
 21
4.8546830275
  0
LINE
  5
23E
100
AcDbEntity
  8
0
100
AcDbLine
 62
7
  6
CONTINUOUS
 10
4.5394356903
 20
4.8637803078
 11
4.5392722263
 21
4.8600853398
  0
LINE
  5
23F
100
AcDbEntity
  8
0
100
AcDbLine
 62
7
  6
CONTINUOUS
 10
4.5396198296
 20
4.8675516215
 11
4.5394356903
 21
4.8637803078
  0
LINE
  5
240
100
AcDbEntity
  8
0
100
AcDbLine
 62
7
  6
CONTINUOUS
 10
4.5398262428
 20
4.8714028259
 11
4.5396198296
 21
4.8675516215
  0
LINE
  5
241
100
AcDbEntity
  8
0
100
AcDbLine
 62
7
  6
CONTINUOUS
 10
4.5400566393
 20
4.8753372296
 11
4.5398262428
 21
4.8714028259
  0
LINE
  5
242
100
AcDbEntity
  8
0
100
AcDbLine
 62
7
  6
CONTINUOUS
 10
4.5403126905
 20
4.8793556591
 11
4.5400566393
 21
4.8753372296
  0
LINE
  5
243
100
AcDbEntity
  8
0
100
AcDbLine
 62
7
  6
CONTINUOUS
 10
4.5405962834
 20
4.8834608666
 11
4.5403126905
 21
4.8793556591
  0
LINE
  5
244
100
AcDbEntity
  8
0
100
AcDbLine
 62
7
  6
CONTINUOUS
 10
4.5409093975
 20
4.8876552287
 11
4.5405962834
 21
4.8834608666
  0
LINE
  5
245
100
AcDbEntity
  8
0
100
AcDbLine
 62
7
  6
CONTINUOUS
 10
4.5412539128
 20
4.8919385559
 11
4.5409093975
 21
4.8876552287
  0
LINE
  5
246
100
AcDbEntity
  8
0
100
AcDbLine
 62
7
  6
CONTINUOUS
 10
4.5635463447
 20
5.0846749328
 11
4.5641205447
 21
5.0913025096
  0
LINE
  5
247
100
AcDbEntity
  8
0
100
AcDbLine
 62
7
  6
CONTINUOUS
 10
4.5416319148
 20
4.8963123667
 11
4.5412539128
 21
4.8919385559
  0
LINE
  5
248
100
AcDbEntity
  8
0
100
AcDbLine
 62
7
  6
CONTINUOUS
 10
4.5420454978
 20
4.9007773486
 11
4.5416319148
 21
4.8963123667
  0
LINE
  5
249
100
AcDbEntity
  8
0
100
AcDbLine
 62
7
  6
CONTINUOUS
 10
4.5424965592
 20
4.9053316766
 11
4.5420454978
 21
4.9007773486
  0
LWPOLYLINE
  5
24A
100
AcDbEntity
  8
0
100
AcDbPolyline
 62
7
  6
CONTINUOUS
 90
3
 70
0
 10
4.5431763325
 20
4.9116909041
 10
4.5429872027
 20
4.9099755898
 10
4.5424965592
 20
4.9053316766
  0
LINE
  5
24B
100
AcDbEntity
  8
0
100
AcDbLine
 62
7
  6
CONTINUOUS
 10
5.0828933778
 20
5.6354742863
 11
5.0830917318
 21
5.6358582961
  0
LINE
  5
24C
100
AcDbEntity
  8
0
100
AcDbLine
 62
7
  6
CONTINUOUS
 10
4.6704435051
 20
4.5591594623
 11
4.6704182131
 21
4.5578253419
  0
LINE
  5
24D
100
AcDbEntity
  8
0
100
AcDbLine
 62
7
  6
CONTINUOUS
 10
4.9675650242
 20
5.9089394562
 11
5.0185713861
 21
6.1848202987
  0
LWPOLYLINE
  5
24E
100
AcDbEntity
  8
0
100
AcDbPolyline
 62
7
  6
CONTINUOUS
 90
20
 70
0
 10
5.1262055395
 20
5.0494130686
 10
5.1279909891
 20
5.0510320409
 10
5.1296888282
 20
5.0526753796
 10
5.1312997242
 20
5.0543443309
 10
5.1328246149
 20
5.0560407738
 10
5.1342637679
 20
5.0577662874
 10
5.1356161542
 20
5.0595211739
 10
5.1368803847
 20
5.0613052729
 10
5.1380560963
 20
5.0631200193
 10
5.1391414252
 20
5.0649648258
 10
5.1401329197
 20
5.0668357893
 10
5.1410299209
 20
5.0687335517
 10
5.1418304972
 20
5.0706562798
 10
5.1425305736
 20
5.0725951111
 10
5.1431299466
 20
5.074549072
 10
5.1436278816
 20
5.0765153622
 10
5.144022115
 20
5.0784810404
 10
5.1443134792
 20
5.0804397119
 10
5.1445041786
 20
5.0823920765
 10
5.1445838809
 20
5.0839043531
  0
LINE
  5
24F
100
AcDbEntity
  8
0
100
AcDbLine
 62
7
  6
CONTINUOUS
 10
5.1249954171
 20
5.0483714213
 11
5.1249896895
 21
5.0483665893
  0
LINE
  5
250
100
AcDbEntity
  8
0
100
AcDbLine
 62
7
  6
CONTINUOUS
 10
4.6523201722
 20
5.9870911884
 11
4.6682614459
 21
5.7591203546
  0
LINE
  5
251
100
AcDbEntity
  8
0
100
AcDbLine
 62
7
  6
CONTINUOUS
 10
4.8543478261
 20
5.6186463305
 11
4.8543478261
 21
5.7102290615
  0
LINE
  5
252
100
AcDbEntity
  8
0
100
AcDbLine
 62
7
  6
CONTINUOUS
 10
4.4709714992
 20
4.5414424852
 11
4.4749216445
 21
4.5418958881
  0
LINE
  5
253
100
AcDbEntity
  8
0
100
AcDbLine
 62
7
  6
CONTINUOUS
 10
5.2337740469
 20
4.5418958836
 11
5.2377241747
 21
4.541442483
  0
LWPOLYLINE
  5
254
100
AcDbEntity
  8
0
100
AcDbPolyline
 62
7
  6
CONTINUOUS
 90
46
 70
0
 10
4.6273845265
 20
4.9818785249
 10
4.6286607792
 20
4.9779676448
 10
4.6293189805
 20
4.9761545221
 10
4.6300642454
 20
4.9743927696
 10
4.6308886762
 20
4.9726872681
 10
4.6317886154
 20
4.9710336572
 10
4.6327670919
 20
4.9694188341
 10
4.6338214606
 20
4.967842487
 10
4.6349494143
 20
4.9663039581
 10
4.6361592198
 20
4.9647900226
 10
4.6374513457
 20
4.9632999741
 10
4.638826323
 20
4.9618332153
 10
4.6402971613
 20
4.9603773759
 10
4.6418659009
 20
4.9589331808
 10
4.6435373628
 20
4.9574989733
 10
4.645334165
 20
4.9560597925
 10
4.6472615252
 20
4.9546172059
 10
4.6493287505
 20
4.953169977
 10
4.6515721983
 20
4.9517003894
 10
4.6540393875
 20
4.9501890132
 10
4.6567118755
 20
4.9486587824
 10
4.6595211545
 20
4.9471539957
 10
4.6624655907
 20
4.9456761256
 10
4.6655525847
 20
4.9442221117
 10
4.6687063894
 20
4.9428253193
 10
4.671888466
 20
4.9414965305
 10
4.6751220993
 20
4.9402202279
 10
4.6784150163
 20
4.9389894222
 10
4.6817574887
 20
4.9378043955
 10
4.6851485643
 20
4.9366623836
 10
4.688611677
 20
4.9355533802
 10
4.6921508185
 20
4.9344749247
 10
4.6957564333
 20
4.9334288453
 10
4.6994337763
 20
4.9324126375
 10
4.7031829084
 20
4.9314255501
 10
4.7069988547
 20
4.9304682043
 10
4.7108794363
 20
4.9295404796
 10
4.7148221468
 20
4.9286423472
 10
4.7188242564
 20
4.9277737988
 10
4.722882995
 20
4.9269348474
 10
4.7269957051
 20
4.9261254962
 10
4.7311597298
 20
4.9253457339
 10
4.7353721158
 20
4.9245955989
 10
4.7396300851
 20
4.9238751025
 10
4.7439309675
 20
4.9231842131
 10
4.7476520174
 20
4.9226151799
  0
LINE
  5
255
100
AcDbEntity
  8
0
100
AcDbLine
 62
7
  6
CONTINUOUS
 10
5.0563754799
 20
5.9870911884
 11
5.0404342063
 21
5.7591203546
  0
LINE
  5
256
100
AcDbEntity
  8
0
100
AcDbLine
 62
7
  6
CONTINUOUS
 10
5.0802181094
 20
4.9785324425
 11
5.0802192694
 21
4.9785361256
  0
LWPOLYLINE
  5
257
100
AcDbEntity
  8
0
100
AcDbPolyline
 62
7
  6
CONTINUOUS
 90
30
 70
0
 10
5.0800352988
 20
4.9779686062
 10
5.0813238551
 20
4.9819161383
 10
5.0826928079
 20
4.9858014692
 10
5.084128205
 20
4.989578112
 10
5.0856244852
 20
4.9932461901
 10
5.0871753033
 20
4.9968038597
 10
5.0887732669
 20
5.00024738
 10
5.0904122609
 20
5.0035762755
 10
5.0920865368
 20
5.00679081
 10
5.0937890016
 20
5.0098887972
 10
5.0955137932
 20
5.0128705723
 10
5.0972553086
 20
5.0157368718
 10
5.0990067258
 20
5.0184865004
 10
5.1007626614
 20
5.0211206716
 10
5.1025176141
 20
5.0236403398
 10
5.1042645308
 20
5.0260443378
 10
5.1059979842
 20
5.0283339259
 10
5.1077131861
 20
5.0305111192
 10
5.1094040958
 20
5.0325762918
 10
5.1110657188
 20
5.0345311365
 10
5.1126937719
 20
5.0363780714
 10
5.1142835112
 20
5.0381188604
 10
5.1158304605
 20
5.0397554828
 10
5.1173309528
 20
5.0412906477
 10
5.1187818609
 20
5.0427274167
 10
5.1201791399
 20
5.0440677741
 10
5.1215200129
 20
5.045314795
 10
5.1228038323
 20
5.0464732483
 10
5.1240286882
 20
5.0475464199
 10
5.1262055395
 20
5.0494130686
  0
LINE
  5
258
100
AcDbEntity
  8
0
100
AcDbLine
 62
7
  6
CONTINUOUS
 10
4.7411306279
 20
5.9089394562
 11
4.690123981
 21
6.1848218407
  0
LINE
  5
259
100
AcDbEntity
  8
0
100
AcDbLine
 62
7
  6
CONTINUOUS
 10
5.0382765718
 20
4.5578249997
 11
5.0382521471
 21
4.5591594623
  0
LINE
  5
25A
100
AcDbEntity
  8
0
100
AcDbLine
 62
7
  6
CONTINUOUS
 10
4.4446128518
 20
4.7786783185
 11
4.44857214
 21
4.7790995756
  0
LINE
  5
25B
100
AcDbEntity
  8
0
100
AcDbLine
 62
7
  6
CONTINUOUS
 10
5.2601235121
 20
4.7790995756
 11
5.2640828004
 21
4.7786783185
  0
LWPOLYLINE
  5
25C
100
AcDbEntity
  8
0
100
AcDbPolyline
 62
7
  6
CONTINUOUS
 90
30
 70
0
 10
4.583676203
 20
5.0483916824
 10
4.5838892205
 20
5.048211666
 10
4.5850548367
 20
5.0472099571
 10
4.5862809224
 20
5.0461257875
 10
4.587564158
 20
5.0449573885
 10
4.5889026413
 20
5.0437015753
 10
4.5902956759
 20
5.0423537343
 10
4.5917405514
 20
5.0409108651
 10
4.5932332931
 20
5.0393710682
 10
4.5947707593
 20
5.0377314558
 10
4.5963493406
 20
5.035989436
 10
4.5979647013
 20
5.0341430678
 10
4.5996122294
 20
5.0321906376
 10
4.6012877456
 20
5.0301298097
 10
4.6029863901
 20
5.027958946
 10
4.604702308
 20
5.0256776692
 10
4.6064308321
 20
5.0232840328
 10
4.6081666834
 20
5.0207768159
 10
4.6099030339
 20
5.0181571216
 10
4.611634529
 20
5.0154240231
 10
4.6133559245
 20
5.0125763461
 10
4.6150606053
 20
5.0096152199
 10
4.6167431141
 20
5.0065399257
 10
4.6183977401
 20
5.0033501392
 10
4.6200175944
 20
5.0000479543
 10
4.6215970734
 20
4.9966331108
 10
4.6231302172
 20
4.9931060659
 10
4.6246098386
 20
4.9894704196
 10
4.6260297528
 20
4.9857279456
 10
4.6273845265
 20
4.9818785249
  0
LINE
  5
25D
100
AcDbEntity
  8
0
100
AcDbLine
 62
7
  6
CONTINUOUS
 10
5.1661152125
 20
4.9061469245
 11
5.1656822153
 21
4.9102158564
  0
LINE
  5
25E
100
AcDbEntity
  8
0
100
AcDbLine
 62
7
  6
CONTINUOUS
 10
5.1372167457
 20
5.316806443
 11
5.1369849231
 21
5.3189826324
  0
LINE
  5
25F
100
AcDbEntity
  8
0
100
AcDbLine
 62
7
  6
CONTINUOUS
 10
5.1374596547
 20
5.3144164703
 11
5.1372167457
 21
5.316806443
  0
LINE
  5
260
100
AcDbEntity
  8
0
100
AcDbLine
 62
7
  6
CONTINUOUS
 10
5.1667047012
 20
4.9002054777
 11
5.1661152125
 21
4.9061469245
  0
LINE
  5
261
100
AcDbEntity
  8
0
100
AcDbLine
 62
7
  6
CONTINUOUS
 10
5.1477856561
 20
5.0533018461
 11
5.1445936938
 21
5.0865434297
  0
LINE
  5
262
100
AcDbEntity
  8
0
100
AcDbLine
 62
7
  6
CONTINUOUS
 10
5.137846662
 20
5.3103840022
 11
5.1374596547
 21
5.3144164703
  0
LINE
  5
263
100
AcDbEntity
  8
0
100
AcDbLine
 62
7
  6
CONTINUOUS
 10
5.1672294892
 20
4.8944323049
 11
5.1667047012
 21
4.9002054777
  0
LINE
  5
264
100
AcDbEntity
  8
0
100
AcDbLine
 62
7
  6
CONTINUOUS
 10
5.1382635038
 20
5.3057451064
 11
5.137846662
 21
5.3103840022
  0
LINE
  5
265
100
AcDbEntity
  8
0
100
AcDbLine
 62
7
  6
CONTINUOUS
 10
5.1387125594
 20
5.3004129115
 11
5.1382635038
 21
5.3057451064
  0
LINE
  5
266
100
AcDbEntity
  8
0
100
AcDbLine
 62
7
  6
CONTINUOUS
 10
5.1676946603
 20
4.8888250908
 11
5.1672294892
 21
4.8944323049
  0
LINE
  5
267
100
AcDbEntity
  8
0
100
AcDbLine
 62
7
  6
CONTINUOUS
 10
5.1391942133
 20
5.2942977757
 11
5.1387125594
 21
5.3004129115
  0
LINE
  5
268
100
AcDbEntity
  8
0
100
AcDbLine
 62
7
  6
CONTINUOUS
 10
5.1681051764
 20
4.8833799429
 11
5.1676946603
 21
4.8888250908
  0
LINE
  5
269
100
AcDbEntity
  8
0
100
AcDbLine
 62
7
  6
CONTINUOUS
 10
5.1397080754
 20
5.2872989392
 11
5.1391942133
 21
5.2942977757
  0
LINE
  5
26A
100
AcDbEntity
  8
0
100
AcDbLine
 62
7
  6
CONTINUOUS
 10
5.1684654436
 20
4.8780969159
 11
5.1681051764
 21
4.8833799429
  0
LINE
  5
26B
100
AcDbEntity
  8
0
100
AcDbLine
 62
7
  6
CONTINUOUS
 10
5.1402506025
 20
5.2793192322
 11
5.1397080754
 21
5.2872989392
  0
LINE
  5
26C
100
AcDbEntity
  8
0
100
AcDbLine
 62
7
  6
CONTINUOUS
 10
5.1408134351
 20
5.2702732743
 11
5.1402506025
 21
5.2793192322
  0
LINE
  5
26D
100
AcDbEntity
  8
0
100
AcDbLine
 62
7
  6
CONTINUOUS
 10
5.1687800627
 20
4.8729692781
 11
5.1684654436
 21
4.8780969159
  0
LINE
  5
26E
100
AcDbEntity
  8
0
100
AcDbLine
 62
7
  6
CONTINUOUS
 10
5.141385188
 20
5.2600806562
 11
5.1408134351
 21
5.2702732743
  0
LINE
  5
26F
100
AcDbEntity
  8
0
100
AcDbLine
 62
7
  6
CONTINUOUS
 10
5.1690532311
 20
4.8679907428
 11
5.1687800627
 21
4.8729692781
  0
LINE
  5
270
100
AcDbEntity
  8
0
100
AcDbLine
 62
7
  6
CONTINUOUS
 10
5.1417646379
 20
5.252616917
 11
5.141385188
 21
5.2600806562
  0
LINE
  5
271
100
AcDbEntity
  8
0
100
AcDbLine
 62
7
  6
CONTINUOUS
 10
5.1692885206
 20
4.8631610172
 11
5.1690532311
 21
4.8679907428
  0
LINE
  5
272
100
AcDbEntity
  8
0
100
AcDbLine
 62
7
  6
CONTINUOUS
 10
5.1421371202
 20
5.2445947684
 11
5.1417646379
 21
5.252616917
  0
LINE
  5
273
100
AcDbEntity
  8
0
100
AcDbLine
 62
7
  6
CONTINUOUS
 10
5.1694893648
 20
4.8584783489
 11
5.1692885206
 21
4.8631610172
  0
LINE
  5
274
100
AcDbEntity
  8
0
100
AcDbLine
 62
7
  6
CONTINUOUS
 10
5.142496923
 20
5.2359937363
 11
5.1421371202
 21
5.2445947684
  0
LINE
  5
275
100
AcDbEntity
  8
0
100
AcDbLine
 62
7
  6
CONTINUOUS
 10
5.1696590142
 20
4.853939781
 11
5.1694893648
 21
4.8584783489
  0
LINE
  5
276
100
AcDbEntity
  8
0
100
AcDbLine
 62
7
  6
CONTINUOUS
 10
5.1428368137
 20
5.2268079394
 11
5.142496923
 21
5.2359937363
  0
LINE
  5
277
100
AcDbEntity
  8
0
100
AcDbLine
 62
7
  6
CONTINUOUS
 10
5.1431505424
 20
5.2170250892
 11
5.1428368137
 21
5.2268079394
  0
LINE
  5
278
100
AcDbEntity
  8
0
100
AcDbLine
 62
7
  6
CONTINUOUS
 10
5.1698003929
 20
4.8495452023
 11
5.1696590142
 21
4.853939781
  0
LINE
  5
279
100
AcDbEntity
  8
0
100
AcDbLine
 62
7
  6
CONTINUOUS
 10
5.1434311954
 20
5.2067017521
 11
5.1431505424
 21
5.2170250892
  0
LINE
  5
27A
100
AcDbEntity
  8
0
100
AcDbLine
 62
7
  6
CONTINUOUS
 10
5.1699163441
 20
4.8452907634
 11
5.1698003929
 21
4.8495452023
  0
LINE
  5
27B
100
AcDbEntity
  8
0
100
AcDbLine
 62
7
  6
CONTINUOUS
 10
5.1436771793
 20
5.1958713766
 11
5.1434311954
 21
5.2067017521
  0
LINE
  5
27C
100
AcDbEntity
  8
0
100
AcDbLine
 62
7
  6
CONTINUOUS
 10
5.1700094609
 20
4.8411733381
 11
5.1699163441
 21
4.8452907634
  0
LINE
  5
27D
100
AcDbEntity
  8
0
100
AcDbLine
 62
7
  6
CONTINUOUS
 10
5.143889919
 20
5.184585315
 11
5.1436771793
 21
5.1958713766
  0
LINE
  5
27E
100
AcDbEntity
  8
0
100
AcDbLine
 62
7
  6
CONTINUOUS
 10
5.1701114385
 20
4.8352508132
 11
5.1700094609
 21
4.8411733381
  0
LINE
  5
27F
100
AcDbEntity
  8
0
100
AcDbLine
 62
7
  6
CONTINUOUS
 10
5.1440702936
 20
5.1728940889
 11
5.143889919
 21
5.184585315
  0
LINE
  5
280
100
AcDbEntity
  8
0
100
AcDbLine
 62
7
  6
CONTINUOUS
 10
5.1442199293
 20
5.1608359726
 11
5.1440702936
 21
5.1728940889
  0
LINE
  5
281
100
AcDbEntity
  8
0
100
AcDbLine
 62
7
  6
CONTINUOUS
 10
5.1701746183
 20
4.8296221723
 11
5.1701114385
 21
4.8352508132
  0
LINE
  5
282
100
AcDbEntity
  8
0
100
AcDbLine
 62
7
  6
CONTINUOUS
 10
5.1443907882
 20
5.1421896579
 11
5.1442199293
 21
5.1608359726
  0
LINE
  5
283
100
AcDbEntity
  8
0
100
AcDbLine
 62
7
  6
CONTINUOUS
 10
5.1445041529
 20
5.1230254836
 11
5.1443907882
 21
5.1421896579
  0
LINE
  5
284
100
AcDbEntity
  8
0
100
AcDbLine
 62
7
  6
CONTINUOUS
 10
5.1702053918
 20
4.8242757094
 11
5.1701746183
 21
4.8296221723
  0
LINE
  5
285
100
AcDbEntity
  8
0
100
AcDbLine
 62
7
  6
CONTINUOUS
 10
5.144581807
 20
5.0969739407
 11
5.1445041529
 21
5.1230254836
  0
LINE
  5
286
100
AcDbEntity
  8
0
100
AcDbLine
 62
7
  6
CONTINUOUS
 10
5.1445952839
 20
5.0846028259
 11
5.144581807
 21
5.0969739407
  0
LINE
  5
287
100
AcDbEntity
  8
0
100
AcDbLine
 62
7
  6
CONTINUOUS
 10
5.1702093064
 20
4.8191954412
 11
5.1702053918
 21
4.8242757094
  0
LINE
  5
288
100
AcDbEntity
  8
0
100
AcDbLine
 62
7
  6
CONTINUOUS
 10
5.1701807903
 20
4.8128055969
 11
5.1702093064
 21
4.8191954412
  0
LINE
  5
289
100
AcDbEntity
  8
0
100
AcDbLine
 62
7
  6
CONTINUOUS
 10
5.1701220161
 20
4.8068183028
 11
5.1701807903
 21
4.8128055969
  0
LINE
  5
28A
100
AcDbEntity
  8
0
100
AcDbLine
 62
7
  6
CONTINUOUS
 10
5.1700172969
 20
4.7998623931
 11
5.1701220161
 21
4.8068183028
  0
LINE
  5
28B
100
AcDbEntity
  8
0
100
AcDbLine
 62
7
  6
CONTINUOUS
 10
5.1698895854
 20
4.7934911971
 11
5.1700172969
 21
4.7998623931
  0
LINE
  5
28C
100
AcDbEntity
  8
0
100
AcDbLine
 62
7
  6
CONTINUOUS
 10
5.1696927449
 20
4.7855712794
 11
5.1698895854
 21
4.7934911971
  0
LWPOLYLINE
  5
28D
100
AcDbEntity
  8
0
100
AcDbPolyline
 62
7
  6
CONTINUOUS
 90
4
 70
0
 10
5.1445838084
 20
5.0839021239
 10
5.1445890454
 20
5.084083113
 10
5.1445943849
 20
5.0843982635
 10
5.1445952791
 20
5.0846036616
  0
LINE
  5
28E
100
AcDbEntity
  8
0
100
AcDbLine
 62
7
  6
CONTINUOUS
 10
5.1693958422
 20
4.7756266822
 11
5.1696927449
 21
4.7855712794
  0
LINE
  5
28F
100
AcDbEntity
  8
0
100
AcDbLine
 62
7
  6
CONTINUOUS
 10
5.1691359323
 20
4.7676773109
 11
5.1693958422
 21
4.7756266822
  0
LWPOLYLINE
  5
290
100
AcDbEntity
  8
0
100
AcDbPolyline
 62
7
  6
CONTINUOUS
 90
9
 70
0
 10
5.2692839733
 20
4.8281354734
 10
5.2742980813
 20
4.8770042772
 10
5.2790418313
 20
4.9244936468
 10
5.2835168148
 20
4.970602655
 10
5.2877260579
 20
5.0153305644
 10
5.2916738458
 20
5.0586769978
 10
5.2953655006
 20
5.1006411137
 10
5.2988072821
 20
5.1412215844
 10
5.3019482027
 20
5.1796901126
  0
LINE
  5
291
100
AcDbEntity
  8
0
100
AcDbLine
 62
7
  6
CONTINUOUS
 10
5.257132689
 20
4.7125853606
 11
5.2627394451
 21
4.7660064829
  0
LINE
  5
292
100
AcDbEntity
  8
0
100
AcDbLine
 62
7
  6
CONTINUOUS
 10
5.2627394451
 20
4.7660064829
 11
5.2692839733
 21
4.8281354734
  0
LINE
  5
293
100
AcDbEntity
  8
0
100
AcDbLine
 62
7
  6
CONTINUOUS
 10
5.1535411363
 20
3.8142599927
 11
5.1566519068
 21
3.8429015141
  0
LINE
  5
294
100
AcDbEntity
  8
0
100
AcDbLine
 62
7
  6
CONTINUOUS
 10
5.1566519068
 20
3.8429015141
 11
5.1598538615
 21
3.8719916055
  0
LINE
  5
295
100
AcDbEntity
  8
0
100
AcDbLine
 62
7
  6
CONTINUOUS
 10
5.1598538615
 20
3.8719916055
 11
5.1631414696
 21
3.9015445963
  0
LINE
  5
296
100
AcDbEntity
  8
0
100
AcDbLine
 62
7
  6
CONTINUOUS
 10
5.2527270947
 20
4.6730522291
 11
5.2571326895
 21
4.7125853637
  0
LINE
  5
297
100
AcDbEntity
  8
0
100
AcDbLine
 62
7
  6
CONTINUOUS
 10
5.1631414696
 20
3.9015445963
 11
5.1665146554
 21
3.9315842264
  0
LINE
  5
298
100
AcDbEntity
  8
0
100
AcDbLine
 62
7
  6
CONTINUOUS
 10
5.248300329
 20
4.6338405824
 11
5.2527270947
 21
4.6730522291
  0
LINE
  5
299
100
AcDbEntity
  8
0
100
AcDbLine
 62
7
  6
CONTINUOUS
 10
5.1665146554
 20
3.9315842264
 11
5.1699742814
 21
3.9621360826
  0
LINE
  5
29A
100
AcDbEntity
  8
0
100
AcDbLine
 62
7
  6
CONTINUOUS
 10
5.1699742814
 20
3.9621360826
 11
5.1735217499
 21
3.993219684
  0
LINE
  5
29B
100
AcDbEntity
  8
0
100
AcDbLine
 62
7
  6
CONTINUOUS
 10
5.2418210139
 20
4.5770991364
 11
5.248300329
 21
4.6338405824
  0
LINE
  5
29C
100
AcDbEntity
  8
0
100
AcDbLine
 62
7
  6
CONTINUOUS
 10
5.1735217499
 20
3.993219684
 11
5.1771595341
 21
4.024864343
  0
LINE
  5
29D
100
AcDbEntity
  8
0
100
AcDbLine
 62
7
  6
CONTINUOUS
 10
5.2353536981
 20
4.520836106
 11
5.2418210139
 21
4.5770991364
  0
LINE
  5
29E
100
AcDbEntity
  8
0
100
AcDbLine
 62
7
  6
CONTINUOUS
 10
5.1771595341
 20
4.024864343
 11
5.1827887792
 21
4.0734396676
  0
LINE
  5
29F
100
AcDbEntity
  8
0
100
AcDbLine
 62
7
  6
CONTINUOUS
 10
5.2304904637
 20
4.4788794762
 11
5.2353536981
 21
4.520836106
  0
LINE
  5
2A0
100
AcDbEntity
  8
0
100
AcDbLine
 62
7
  6
CONTINUOUS
 10
5.1827887792
 20
4.0734396676
 11
5.188627407
 21
4.1234189379
  0
LINE
  5
2A1
100
AcDbEntity
  8
0
100
AcDbLine
 62
7
  6
CONTINUOUS
 10
5.2233429223
 20
4.4177219341
 11
5.2304904637
 21
4.4788794762
  0
LWPOLYLINE
  5
2A2
100
AcDbEntity
  8
0
100
AcDbPolyline
 62
7
  6
CONTINUOUS
 90
3
 70
0
 10
5.188627407
 20
4.1234189379
 10
5.1946781852
 20
4.1748970908
 10
5.1967427679
 20
4.1924079865
  0
LINE
  5
2A3
100
AcDbEntity
  8
0
100
AcDbLine
 62
7
  6
CONTINUOUS
 10
5.1967427679
 20
4.1924079865
 11
5.2233429223
 21
4.4177219341
  0
LWPOLYLINE
  5
2A4
100
AcDbEntity
  8
0
100
AcDbPolyline
 62
7
  6
CONTINUOUS
 90
45
 70
0
 10
4.9610439327
 20
4.9226152293
 10
4.9647080184
 20
4.9231753889
 10
4.9690088795
 20
4.9238658354
 10
4.9732677371
 20
4.9245859852
 10
4.9774814558
 20
4.9253358108
 10
4.981646825
 20
4.9261152831
 10
4.9857610171
 20
4.9269244069
 10
4.9898217012
 20
4.9277632466
 10
4.9938261284
 20
4.928631797
 10
4.9977713795
 20
4.9295300246
 10
5.0016547809
 20
4.9304579367
 10
5.0054738633
 20
4.9314155735
 10
5.0092262812
 20
4.9324030392
 10
5.0129070049
 20
4.9334197214
 10
5.0165160802
 20
4.9344663681
 10
5.0200586457
 20
4.9355454583
 10
5.0235251674
 20
4.9366551836
 10
5.0269196184
 20
4.9377980007
 10
5.0302652716
 20
4.938983844
 10
5.0335611611
 20
4.9402154812
 10
5.0367975282
 20
4.9414926308
 10
5.0399819594
 20
4.9428221968
 10
5.0431377384
 20
4.9442196712
 10
5.0462263391
 20
4.945674291
 10
5.0491719515
 20
4.9471526608
 10
5.0519820256
 20
4.9486577971
 10
5.0546550127
 20
4.9501882534
 10
5.0571225113
 20
4.9516997885
 10
5.0593661011
 20
4.9531694527
 10
5.0614333528
 20
4.9546166684
 10
5.0633607359
 20
4.9560592286
 10
5.0651575588
 20
4.9574983784
 10
5.0668290226
 20
4.9589325339
 10
5.0683978265
 20
4.9603767146
 10
5.0698688309
 20
4.9618326482
 10
5.0712440023
 20
4.9632995739
 10
5.0725362348
 20
4.9647897564
 10
5.0737460036
 20
4.9663036951
 10
5.0748738904
 20
4.9678421635
 10
5.0759282621
 20
4.9694185163
 10
5.0769068062
 20
4.9710334275
 10
5.0778068371
 20
4.97268717
 10
5.078631403
 20
4.9743929085
 10
5.0793768617
 20
4.9761550204
 10
5.0800352988
 20
4.9779686062
  0
LWPOLYLINE
  5
2A5
100
AcDbEntity
  8
0
100
AcDbPolyline
 62
7
  6
CONTINUOUS
 90
25
 70
0
 10
4.8543478069
 20
4.9152011801
 10
4.8582451475
 20
4.9152105097
 10
4.8629146062
 20
4.9152461321
 10
4.8675838288
 20
4.9153083817
 10
4.8722501994
 20
4.9153972354
 10
4.8769114199
 20
4.9155126781
 10
4.8815655131
 20
4.9156547116
 10
4.8862099995
 20
4.9158233327
 10
4.8908423961
 20
4.9160185405
 10
4.8954607957
 20
4.9162403512
 10
4.9000634642
 20
4.9164887315
 10
4.9046481759
 20
4.916763605
 10
4.9092126265
 20
4.9170648862
 10
4.9137549283
 20
4.9173925149
 10
4.9182730967
 20
4.9177464278
 10
4.9227647135
 20
4.918126526
 10
4.9272275551
 20
4.9185327207
 10
4.9316599626
 20
4.9189649729
 10
4.9360602123
 20
4.9194231896
 10
4.9404259666
 20
4.9199071747
 10
4.9447549376
 20
4.9204167406
 10
4.9490453387
 20
4.9209517694
 10
4.9532950267
 20
4.9215121157
 10
4.9575014756
 20
4.922097591
 10
4.9610437813
 20
4.9226152671
  0
LWPOLYLINE
  5
2A6
100
AcDbEntity
  8
0
100
AcDbPolyline
 62
7
  6
CONTINUOUS
 90
25
 70
0
 10
4.7476520526
 20
4.9226151979
 10
4.7511351759
 20
4.9221059674
 10
4.7553382526
 20
4.9215205156
 10
4.7595848139
 20
4.9209601414
 10
4.7638723088
 20
4.9204250327
 10
4.7681986178
 20
4.9199153282
 10
4.7725620277
 20
4.9194311344
 10
4.7769602511
 20
4.918972637
 10
4.7813909434
 20
4.9185400325
 10
4.7858523574
 20
4.9181334466
 10
4.7903428035
 20
4.9177529364
 10
4.7948600502
 20
4.9173985921
 10
4.7994017244
 20
4.9170705099
 10
4.8039658747
 20
4.9167687524
 10
4.8085505848
 20
4.9164933831
 10
4.8131535019
 20
4.9162444915
 10
4.8177724051
 20
4.9160221539
 10
4.8224056393
 20
4.9158264164
 10
4.8270513756
 20
4.915657286
 10
4.8317071296
 20
4.9155147639
 10
4.8363704165
 20
4.9153988538
 10
4.8410391858
 20
4.9153095548
 10
4.8457111095
 20
4.9152468816
 10
4.8503835858
 20
4.9152108556
 10
4.8543478069
 20
4.9152012006
  0
LINE
  5
2A7
100
AcDbEntity
  8
0
100
AcDbLine
 62
7
  6
CONTINUOUS
 10
4.6258022683
 20
5.6354742923
 11
4.6256039148
 21
5.6358583027
  0
LINE
  5
2A8
100
AcDbEntity
  8
0
100
AcDbLine
 62
7
  6
CONTINUOUS
 10
5.1650450427
 20
4.914967557
 11
5.165223217
 21
4.9137776701
  0
LWPOLYLINE
  5
2A9
100
AcDbEntity
  8
0
100
AcDbPolyline
 62
7
  6
CONTINUOUS
 90
14
 70
0
 10
5.1358553077
 20
5.3280339548
 10
5.1357596924
 20
5.3286738527
 10
5.1356643558
 20
5.3292915154
 10
5.1355690625
 20
5.3298886017
 10
5.1354731529
 20
5.3304691703
 10
5.1353765209
 20
5.3310336322
 10
5.135278769
 20
5.3315840125
 10
5.1351786186
 20
5.3321267275
 10
5.1350757341
 20
5.3326623984
 10
5.1349695944
 20
5.3331924457
 10
5.1348583067
 20
5.3337244655
 10
5.1347413957
 20
5.3342583674
 10
5.1346178902
 20
5.3347960666
 10
5.1345608505
 20
5.3350357345
  0
LWPOLYLINE
  5
2AA
100
AcDbEntity
  8
0
100
AcDbPolyline
 62
7
  6
CONTINUOUS
 90
27
 70
0
 10
5.0967528777
 20
5.6167258776
 10
5.0966082395
 20
5.617727228
 10
5.0964391718
 20
5.6186350804
 10
5.0962347383
 20
5.6195370268
 10
5.0959951239
 20
5.6204319381
 10
5.0957202152
 20
5.621319774
 10
5.0954103021
 20
5.6221988275
 10
5.0950658202
 20
5.6230673908
 10
5.0946866512
 20
5.6239253257
 10
5.0942732227
 20
5.6247710343
 10
5.0938261219
 20
5.6256029091
 10
5.0933452582
 20
5.6264206464
 10
5.0928311638
 20
5.6272227637
 10
5.0922845627
 20
5.628007728
 10
5.0917054859
 20
5.628775004
 10
5.091094483
 20
5.6295233482
 10
5.0904524476
 20
5.6302512169
 10
5.0897798777
 20
5.6309575987
 10
5.0890775475
 20
5.6316412835
 10
5.0883463286
 20
5.6323010106
 10
5.0875868839
 20
5.6329358015
 10
5.086799949
 20
5.6335446351
 10
5.0859865133
 20
5.6341263345
 10
5.0851476564
 20
5.6346797803
 10
5.0842843501
 20
5.6352039463
 10
5.083397393
 20
5.6356979595
 10
5.0830917363
 20
5.6358583048
  0
LWPOLYLINE
  5
2AB
100
AcDbEntity
  8
0
100
AcDbPolyline
 62
7
  6
CONTINUOUS
 90
5
 70
0
 10
5.1651821692
 20
4.9142134145
 10
5.160142726
 20
4.9496118713
 10
5.1556172012
 20
4.9842372729
 10
5.1515135866
 20
5.0186697269
 10
5.1477856561
 20
5.0533018461
  0
LINE
  5
2AC
100
AcDbEntity
  8
0
100
AcDbLine
 62
7
  6
CONTINUOUS
 10
5.1360481654
 20
5.3266812458
 11
5.1358553077
 21
5.3280339548
  0
LINE
  5
2AD
100
AcDbEntity
  8
0
100
AcDbLine
 62
7
  6
CONTINUOUS
 10
5.1362448984
 20
5.3252169092
 11
5.1360481654
 21
5.3266812458
  0
LINE
  5
2AE
100
AcDbEntity
  8
0
100
AcDbLine
 62
7
  6
CONTINUOUS
 10
5.1364470357
 20
5.3236255112
 11
5.1362448984
 21
5.3252169092
  0
LINE
  5
2AF
100
AcDbEntity
  8
0
100
AcDbLine
 62
7
  6
CONTINUOUS
 10
5.1366558904
 20
5.3218915852
 11
5.1364470357
 21
5.3236255112
  0
LWPOLYLINE
  5
2B0
100
AcDbEntity
  8
0
100
AcDbPolyline
 62
7
  6
CONTINUOUS
 90
5
 70
0
 10
5.1656821882
 20
4.910216106
 10
5.16559487
 20
4.9109936037
 10
5.1654644791
 20
4.9120843581
 10
5.1653268819
 20
4.913157548
 10
5.1651821692
 20
4.9142134145
  0
LWPOLYLINE
  5
2B1
100
AcDbEntity
  8
0
100
AcDbPolyline
 62
7
  6
CONTINUOUS
 90
3
 70
0
 10
5.1369849231
 20
5.3189826324
 10
5.1368729015
 20
5.3199969005
 10
5.1366558904
 20
5.3218915852
  0
LINE
  5
2B2
100
AcDbEntity
  8
0
100
AcDbLine
 62
7
  6
CONTINUOUS
 10
5.4228664343
 20
2.9341133498
 11
5.4293478261
 21
2.8078343937
  0
LWPOLYLINE
  5
2B3
100
AcDbEntity
  8
0
100
AcDbPolyline
 62
7
  6
CONTINUOUS
 90
34
 70
0
 10
5.1345668016
 20
5.3350066607
 10
5.1334994246
 20
5.3393562699
 10
5.1321582455
 20
5.3445794822
 10
5.1307831469
 20
5.3496899531
 10
5.129371728
 20
5.3547097071
 10
5.1279081706
 20
5.3597016705
 10
5.1263928743
 20
5.3646667166
 10
5.1248263681
 20
5.3696050183
 10
5.123188847
 20
5.3745772187
 10
5.1214785421
 20
5.3795834193
 10
5.1196937405
 20
5.3846233406
 10
5.1178105612
 20
5.3897559175
 10
5.1158228803
 20
5.394985903
 10
5.1137285463
 20
5.4003070117
 10
5.111505783
 20
5.4057606412
 10
5.1091418566
 20
5.4113609907
 10
5.1066367373
 20
5.4170909819
 10
5.1039859535
 20
5.4229446526
 10
5.1011799715
 20
5.42892669
 10
5.098214846
 20
5.4350290722
 10
5.0950953975
 20
5.4412269581
 10
5.0918157426
 20
5.4475182076
 10
5.0883703159
 20
5.4538994583
 10
5.0847665085
 20
5.4603441246
 10
5.0809999996
 20
5.4668482129
 10
5.0770656941
 20
5.4734087367
 10
5.0729719631
 20
5.4800009735
 10
5.0687151708
 20
5.4866210753
 10
5.0642912467
 20
5.4932656171
 10
5.0597100684
 20
5.4999109914
 10
5.0549688078
 20
5.5065535244
 10
5.0500644091
 20
5.5131896753
 10
5.0450086436
 20
5.519796656
 10
5.0398046796
 20
5.5263647685
  0
LINE
  5
2B4
100
AcDbEntity
  8
0
100
AcDbLine
 62
7
  6
CONTINUOUS
 10
4.564539642
 20
5.1800016956
 11
4.5650918035
 21
5.1801109777
  0
LINE
  5
2B5
100
AcDbEntity
  8
0
100
AcDbLine
 62
7
  6
CONTINUOUS
 10
4.4067474511
 20
5.1796901128
 11
4.4107332259
 21
5.1800092279
  0
LINE
  5
2B6
100
AcDbEntity
  8
0
100
AcDbLine
 62
7
  6
CONTINUOUS
 10
4.4107331914
 20
5.1800092251
 11
4.5645500841
 21
5.1800036781
  0
LINE
  5
2B7
100
AcDbEntity
  8
0
100
AcDbLine
 62
7
  6
CONTINUOUS
 10
5.1441466254
 20
5.1800075971
 11
5.2979624619
 21
5.1800092283
  0
LINE
  5
2B8
100
AcDbEntity
  8
0
100
AcDbLine
 62
7
  6
CONTINUOUS
 10
4.4366517318
 20
5.2120843937
 11
4.5658912278
 21
5.2120843937
  0
LINE
  5
2B9
100
AcDbEntity
  8
0
100
AcDbLine
 62
7
  6
CONTINUOUS
 10
5.1432908572
 20
5.2120843937
 11
5.2720439204
 21
5.2120843937
  0
LINE
  5
2BA
100
AcDbEntity
  8
0
100
AcDbLine
 62
7
  6
CONTINUOUS
 10
4.455109652
 20
5.2435843937
 11
4.5669569695
 21
5.2435843937
  0
LINE
  5
2BB
100
AcDbEntity
  8
0
100
AcDbLine
 62
7
  6
CONTINUOUS
 10
5.142180597
 20
5.2435843937
 11
5.2535859603
 21
5.2435843937
  0
LINE
  5
2BC
100
AcDbEntity
  8
0
100
AcDbLine
 62
7
  6
CONTINUOUS
 10
5.2979624291
 20
5.180009231
 11
5.301948201
 21
5.1796901127
  0
LINE
  5
2BD
100
AcDbEntity
  8
0
100
AcDbLine
 62
7
  6
CONTINUOUS
 10
5.1439637443
 20
5.1800396409
 11
5.1441562564
 21
5.1800016643
  0
LWPOLYLINE
  5
2BE
100
AcDbEntity
  8
0
100
AcDbPolyline
 62
7
  6
CONTINUOUS
 90
20
 70
0
 10
5.0363543861
 20
5.5305346426
 10
5.0357355736
 20
5.5312561484
 10
5.0350742598
 20
5.5319806529
 10
5.0343677154
 20
5.5327066153
 10
5.0336154397
 20
5.5334300148
 10
5.0328195455
 20
5.534144725
 10
5.0319786028
 20
5.5348482321
 10
5.031092173
 20
5.5355371176
 10
5.0301648178
 20
5.5362045492
 10
5.029196528
 20
5.5368477146
 10
5.0281872217
 20
5.5374638677
 10
5.0271423847
 20
5.5380472747
 10
5.0260631012
 20
5.5385953942
 10
5.0249498568
 20
5.5391060583
 10
5.0238080684
 20
5.5395751607
 10
5.0226391335
 20
5.5400008297
 10
5.0214445032
 20
5.5403812488
 10
5.0202302729
 20
5.5407134943
 10
5.0189998127
 20
5.5409960642
 10
5.0182466764
 20
5.5411428067
  0
LINE
  5
2BF
100
AcDbEntity
  8
0
100
AcDbLine
 62
7
  6
CONTINUOUS
 10
5.0398046796
 20
5.5263647685
 11
5.0364334097
 21
5.5305006418
  0
LINE
  5
2C0
100
AcDbEntity
  8
0
100
AcDbLine
 62
7
  6
CONTINUOUS
 10
5.0364333845
 20
5.5305006724
 11
5.0364758951
 21
5.5304464898
  0
LWPOLYLINE
  5
2C1
100
AcDbEntity
  8
0
100
AcDbPolyline
 62
7
  6
CONTINUOUS
 90
34
 70
0
 10
5.2535859555
 20
5.2435843998
 10
5.245654791
 20
5.2539902675
 10
5.2375045912
 20
5.265029866
 10
5.2296218501
 20
5.2760685064
 10
5.2220099186
 20
5.2870941124
 10
5.2146623601
 20
5.2981082902
 10
5.2075640674
 20
5.3091270526
 10
5.2007140331
 20
5.3201461104
 10
5.1941109802
 20
5.3311613255
 10
5.1877408725
 20
5.3421896599
 10
5.1816026315
 20
5.3532261776
 10
5.175694955
 20
5.3642661682
 10
5.1700050966
 20
5.375327516
 10
5.1645326104
 20
5.3864063348
 10
5.1592770262
 20
5.3974986869
 10
5.1542276069
 20
5.4086236207
 10
5.1493844842
 20
5.4197786579
 10
5.144748143
 20
5.430959863
 10
5.1403095545
 20
5.442184584
 10
5.1360684498
 20
5.4534496191
 10
5.1320247814
 20
5.4647511971
 10
5.1281715655
 20
5.4761064804
 10
5.1245096068
 20
5.4875124533
 10
5.1210397125
 20
5.4989660905
 10
5.117756925
 20
5.51048524
 10
5.1146631269
 20
5.5220669764
 10
5.1117595243
 20
5.533708564
 10
5.1090414638
 20
5.545428328
 10
5.1065101677
 20
5.5572227005
 10
5.104166748
 20
5.5690885523
 10
5.1020084587
 20
5.5810452138
 10
5.1000364095
 20
5.5930969771
 10
5.0982543259
 20
5.6052328512
 10
5.0967529859
 20
5.6167258909
  0
LWPOLYLINE
  5
2C2
100
AcDbEntity
  8
0
100
AcDbPolyline
 62
7
  6
CONTINUOUS
 90
21
 70
0
 10
4.6901949709
 20
5.5421567235
 10
4.689520388
 20
5.5420292431
 10
4.6882949082
 20
5.5417569528
 10
4.6870851299
 20
5.541435422
 10
4.6858942789
 20
5.5410660703
 10
4.6847280754
 20
5.540651599
 10
4.6835879957
 20
5.5401937374
 10
4.6824754508
 20
5.5396942653
 10
4.6813955204
 20
5.5391569688
 10
4.6803487565
 20
5.5385838967
 10
4.6793363142
 20
5.5379774699
 10
4.67836342
 20
5.5373430231
 10
4.6774300415
 20
5.5366831174
 10
4.6765363678
 20
5.5360004879
 10
4.6756869811
 20
5.5353016973
 10
4.6748815105
 20
5.5345899823
 10
4.6741187558
 20
5.5338678411
 10
4.6734010977
 20
5.5331414062
 10
4.6727282029
 20
5.53241468
 10
4.6720974214
 20
5.5316891434
 10
4.671994378
 20
5.5315662336
  0
LINE
  5
2C3
100
AcDbEntity
  8
0
100
AcDbLine
 62
7
  6
CONTINUOUS
 10
5.0947822213
 20
5.616483978
 11
5.0967528777
 21
5.6167258776
  0
LINE
  5
2C4
100
AcDbEntity
  8
0
100
AcDbLine
 62
7
  6
CONTINUOUS
 10
5.0182446305
 20
5.5412278903
 11
5.01825112
 21
5.5412280464
  0
LINE
  5
2C5
100
AcDbEntity
  8
0
100
AcDbLine
 62
7
  6
CONTINUOUS
 10
4.6139133486
 20
5.6164839873
 11
4.6119426637
 21
5.6167258905
  0
LWPOLYLINE
  5
2C6
100
AcDbEntity
  8
0
100
AcDbPolyline
 62
7
  6
CONTINUOUS
 90
27
 70
0
 10
5.0182510269
 20
5.5412242867
 10
5.0164954737
 20
5.5415455421
 10
5.0033411791
 20
5.543812934
 10
4.9900709438
 20
5.5459032227
 10
4.9766720683
 20
5.5478156872
 10
4.963170433
 20
5.5495437777
 10
4.9496314623
 20
5.5510778367
 10
4.9360683164
 20
5.5524163566
 10
4.9224837698
 20
5.5535589268
 10
4.9089289477
 20
5.55450182
 10
4.8954252797
 20
5.5552452353
 10
4.8819676215
 20
5.5557910437
 10
4.8685673912
 20
5.5561400642
 10
4.8552342195
 20
5.5562933565
 10
4.841973667
 20
5.5562525483
 10
4.8287907688
 20
5.5560216777
 10
4.8156925506
 20
5.5556055381
 10
4.8026860969
 20
5.5550088667
 10
4.7897762695
 20
5.5542362082
 10
4.7769690634
 20
5.553292043
 10
4.7642715334
 20
5.5521808727
 10
4.7516898334
 20
5.5509070927
 10
4.7392294456
 20
5.5494749707
 10
4.7268967261
 20
5.5478888237
 10
4.7146986975
 20
5.5461530593
 10
4.7026410953
 20
5.5442719182
 10
4.690195848
 20
5.5421551395
  0
LINE
  5
2C7
100
AcDbEntity
  8
0
100
AcDbLine
 62
7
  6
CONTINUOUS
 10
5.01825112
 20
5.5412280464
 11
5.0182604468
 21
5.5412262091
  0
LWPOLYLINE
  5
2C8
100
AcDbEntity
  8
0
100
AcDbPolyline
 62
7
  6
CONTINUOUS
 90
19
 70
0
 10
4.7293492258
 20
5.6685845585
 10
4.7244276413
 20
5.6679596242
 10
4.7187169818
 20
5.6671208613
 10
4.7130085471
 20
5.6661599138
 10
4.7073133924
 20
5.6650787609
 10
4.701625541
 20
5.6638765161
 10
4.695921883
 20
5.6625474378
 10
4.6902052416
 20
5.6610909243
 10
4.684478304
 20
5.6595064997
 10
4.6787183135
 20
5.6577858641
 10
4.6729284252
 20
5.6559275844
 10
4.6671116512
 20
5.6539304139
 10
4.6612459493
 20
5.6517837149
 10
4.6553348101
 20
5.6494852726
 10
4.6493817792
 20
5.6470332032
 10
4.6433659466
 20
5.6444148572
 10
4.6372832137
 20
5.6416236647
 10
4.6311459047
 20
5.6386606934
 10
4.6256039189
 20
5.6358582948
  0
LINE
  5
2C9
100
AcDbEntity
  8
0
100
AcDbLine
 62
7
  6
CONTINUOUS
 10
4.7293478264
 20
5.6685843937
 11
4.9793478261
 21
5.6685843937
  0
LINE
  5
2CA
100
AcDbEntity
  8
0
100
AcDbLine
 62
7
  6
CONTINUOUS
 10
4.7470785126
 20
5.710229061
 11
4.9616171395
 21
5.710229061
  0
LINE
  5
2CB
100
AcDbEntity
  8
0
100
AcDbLine
 62
7
  6
CONTINUOUS
 10
5.0249421337
 20
5.7429517973
 11
4.6837535184
 21
5.7429517973
  0
LINE
  5
2CC
100
AcDbEntity
  8
0
100
AcDbLine
 62
7
  6
CONTINUOUS
 10
4.9964294023
 20
5.6660222052
 11
4.9961390589
 21
5.6660750135
  0
LWPOLYLINE
  5
2CD
100
AcDbEntity
  8
0
100
AcDbPolyline
 62
7
  6
CONTINUOUS
 90
19
 70
0
 10
5.0830917318
 20
5.6358582961
 10
5.0776083311
 20
5.6386317002
 10
5.0714714287
 20
5.6415958864
 10
5.0653891335
 20
5.6443882888
 10
5.0593737599
 20
5.6470078315
 10
5.0534212148
 20
5.6494610947
 10
5.0475105745
 20
5.6517607398
 10
5.0416453704
 20
5.6539086419
 10
5.035829102
 20
5.6559070214
 10
5.0300397121
 20
5.6577665303
 10
5.0242802117
 20
5.6594884099
 10
5.0185537497
 20
5.6610740843
 10
5.0128375489
 20
5.6625318688
 10
5.0071343062
 20
5.6638622464
 10
5.0014468289
 20
5.6650658034
 10
4.9957519689
 20
5.6661482868
 10
4.9900437526
 20
5.6671105977
 10
4.9843332979
 20
5.6679507272
 10
4.9793466373
 20
5.6685845337
  0
LINE
  5
2CE
100
AcDbEntity
  8
0
100
AcDbLine
 62
7
  6
CONTINUOUS
 10
5.4057144765
 20
2.9596905509
 11
5.4053424371
 21
2.9589020517
  0
LINE
  5
2CF
100
AcDbEntity
  8
0
100
AcDbLine
 62
7
  6
CONTINUOUS
 10
5.0404342063
 20
5.7591203546
 11
4.9228726271
 21
5.7591203546
  0
LINE
  5
2D0
100
AcDbEntity
  8
0
100
AcDbLine
 62
7
  6
CONTINUOUS
 10
4.7867051311
 20
5.7591203546
 11
4.6682614459
 21
5.7591203546
  0
LINE
  5
2D1
100
AcDbEntity
  8
0
100
AcDbLine
 62
7
  6
CONTINUOUS
 10
5.0563754799
 20
5.9870911884
 11
4.9820141447
 21
5.9870911884
  0
LINE
  5
2D2
100
AcDbEntity
  8
0
100
AcDbLine
 62
7
  6
CONTINUOUS
 10
4.7266815074
 20
5.9870911884
 11
4.6523201722
 21
5.9870911884
  0
LINE
  5
2D3
100
AcDbEntity
  8
0
100
AcDbLine
 62
7
  6
CONTINUOUS
 10
5.0417985631
 20
6.0097400891
 11
4.9862015976
 21
6.0097400891
  0
LINE
  5
2D4
100
AcDbEntity
  8
0
100
AcDbLine
 62
7
  6
CONTINUOUS
 10
4.7224940546
 20
6.0097400891
 11
4.6668970891
 21
6.0097400891
  0
ARC
  5
2D5
100
AcDbEntity
  8
0
100
AcDbCircle
 62
7
  6
CONTINUOUS
 10
3.550002264
 20
3.8358224706
 40
1.4640132299
100
AcDbArc
 50
357.1350049132
 51
357.9431524804
  0
ARC
  5
2D6
100
AcDbEntity
  8
0
100
AcDbCircle
 62
7
  6
CONTINUOUS
 10
3.610561523
 20
3.835012081
 40
1.377642925
100
AcDbArc
 50
356.9889733974
 51
357.8136786591
  0
ARC
  5
2D7
100
AcDbEntity
  8
0
100
AcDbCircle
 62
7
  6
CONTINUOUS
 10
1.6626180434
 20
5.3396365151
 40
2.9121109899
100
AcDbArc
 50
351.615044669
 51
354.9772003026
  0
ARC
  5
2D8
100
AcDbEntity
  8
0
100
AcDbCircle
 62
7
  6
CONTINUOUS
 10
3.2791918269
 20
5.7041618294
 40
1.4511312913
100
AcDbArc
 50
353.7888718258
 51
356.5492716611
  0
ARC
  5
2D9
100
AcDbEntity
  8
0
100
AcDbCircle
 62
7
  6
CONTINUOUS
 10
3.3256951447
 20
5.7045372531
 40
1.4176316189
100
AcDbArc
 50
353.6967233352
 51
356.4524054324
  0
ARC
  5
2DA
100
AcDbEntity
  8
0
100
AcDbCircle
 62
7
  6
CONTINUOUS
 10
6.1651483552
 20
3.8361116122
 40
1.4704745966
100
AcDbArc
 50
182.0590623973
 51
182.8636758789
  0
ARC
  5
2DB
100
AcDbEntity
  8
0
100
AcDbCircle
 62
7
  6
CONTINUOUS
 10
6.0832813899
 20
3.834341372
 40
1.3627754205
100
AcDbArc
 50
182.1819203404
 51
183.0156684266
  0
ARC
  5
2DC
100
AcDbEntity
  8
0
100
AcDbCircle
 62
7
  6
CONTINUOUS
 10
5.3464798086
 20
3.6204916505
 40
0.7171653448
100
AcDbArc
 50
253.1508316877
 51
256.6055543904
  0
ARC
  5
2DD
100
AcDbEntity
  8
0
100
AcDbCircle
 62
7
  6
CONTINUOUS
 10
4.3649310648
 20
3.610453063
 40
0.7067709034
100
AcDbArc
 50
283.3688375337
 51
286.8743792983
  0
ARC
  5
2DE
100
AcDbEntity
  8
0
100
AcDbCircle
 62
7
  6
CONTINUOUS
 10
5.3243114486
 20
3.5682505785
 40
0.6377640838
100
AcDbArc
 50
252.8323204285
 51
256.4054782638
  0
ARC
  5
2DF
100
AcDbEntity
  8
0
100
AcDbCircle
 62
7
  6
CONTINUOUS
 10
4.3869442959
 20
3.558946364
 40
0.6281188658
100
AcDbArc
 50
283.5670268385
 51
287.1950635835
  0
ARC
  5
2E0
100
AcDbEntity
  8
0
100
AcDbCircle
 62
7
  6
CONTINUOUS
 10
4.3157890804
 20
2.9325620157
 40
0.03
100
AcDbArc
 50
115.2729048909
 51
177.0357786625
  0
ARC
  5
2E1
100
AcDbEntity
  8
0
100
AcDbCircle
 62
7
  6
CONTINUOUS
 10
5.3929065719
 20
2.9325620129
 40
0.03
100
AcDbArc
 50
2.9642240948
 51
64.727102808
  0
ARC
  5
2E2
100
AcDbEntity
  8
0
100
AcDbCircle
 62
7
  6
CONTINUOUS
 10
4.7220434695
 20
4.8674401384
 40
0.4455956165
100
AcDbArc
 50
5.5074797877
 51
5.9689837103
  0
ARC
  5
2E3
100
AcDbEntity
  8
0
100
AcDbCircle
 62
7
  6
CONTINUOUS
 10
4.8543478261
 20
5.1396123991
 40
0.3062
100
AcDbArc
 50
13.6907851686
 51
19.8505588625
  0
ARC
  5
2E4
100
AcDbEntity
  8
0
100
AcDbCircle
 62
7
  6
CONTINUOUS
 10
4.8543478261
 20
5.1396123991
 40
0.3062
100
AcDbArc
 50
160.1494411375
 51
166.3092148314
  0
ARC
  5
2E5
100
AcDbEntity
  8
0
100
AcDbCircle
 62
7
  6
CONTINUOUS
 10
4.9472595776
 20
5.3965102536
 40
0.2739605145
100
AcDbArc
 50
79.7223748977
 51
80.5486477294
  0
ARC
  5
2E6
100
AcDbEntity
  8
0
100
AcDbCircle
 62
7
  6
CONTINUOUS
 10
4.9472963491
 20
5.3967296268
 40
0.2737380809
100
AcDbArc
 50
80.5486998643
 51
80.9476269649
  0
ARC
  5
2E7
100
AcDbEntity
  8
0
100
AcDbCircle
 62
7
  6
CONTINUOUS
 10
4.9473326396
 20
5.3969585214
 40
0.2735063273
100
AcDbArc
 50
80.9475902785
 51
81.5815323613
  0
ARC
  5
2E8
100
AcDbEntity
  8
0
100
AcDbCircle
 62
7
  6
CONTINUOUS
 10
4.9473797254
 20
5.3972765004
 40
0.2731848811
100
AcDbArc
 50
81.58153775
 51
82.1587066807
  0
ARC
  5
2E9
100
AcDbEntity
  8
0
100
AcDbCircle
 62
7
  6
CONTINUOUS
 10
4.9474526984
 20
5.3978131767
 40
0.2726432672
100
AcDbArc
 50
82.158511696
 51
83.2818794141
  0
ARC
  5
2EA
100
AcDbEntity
  8
0
100
AcDbCircle
 62
7
  6
CONTINUOUS
 10
4.6352821202
 20
4.9015026903
 40
0.0926675554
100
AcDbArc
 50
171.6382399076
 51
173.687929931
  0
ARC
  5
2EB
100
AcDbEntity
  8
0
100
AcDbCircle
 62
7
  6
CONTINUOUS
 10
5.0777374418
 20
4.9006882546
 40
0.0884595453
100
AcDbArc
 50
6.1829881945
 51
8.5091715646
  0
ARC
  5
2EC
100
AcDbEntity
  8
0
100
AcDbCircle
 62
7
  6
CONTINUOUS
 10
5.1096295229
 20
5.1820841059
 40
0.0345795063
100
AcDbArc
 50
356.5573016867
 51
8.3065856472
  0
ARC
  5
2ED
100
AcDbEntity
  8
0
100
AcDbCircle
 62
7
  6
CONTINUOUS
 10
4.598968372
 20
5.1820855635
 40
0.0344811947
100
AcDbArc
 50
167.5750358327
 51
183.4614763463
  0
ARC
  5
2EE
100
AcDbEntity
  8
0
100
AcDbCircle
 62
7
  6
CONTINUOUS
 10
5.2720438967
 20
5.1820843937
 40
0.03
100
AcDbArc
 50
355.4223918879
 51
89.9999813241
  0
ARC
  5
2EF
100
AcDbEntity
  8
0
100
AcDbCircle
 62
7
  6
CONTINUOUS
 10
4.4366517555
 20
5.1820843937
 40
0.03
100
AcDbArc
 50
90.0000186686
 51
184.5776080493
  0
ARC
  5
2F0
100
AcDbEntity
  8
0
100
AcDbCircle
 62
7
  6
CONTINUOUS
 10
5.1373673563
 20
4.9108641559
 40
0.0280078122
100
AcDbArc
 50
5.9704681584
 51
8.4256931082
  0
ARC
  5
2F1
100
AcDbEntity
  8
0
100
AcDbCircle
 62
7
  6
CONTINUOUS
 10
5.1259363378
 20
5.084668892
 40
0.0186573905
100
AcDbArc
 50
355.3983366823
 51
359.7986744564
  0
ARC
  5
2F2
100
AcDbEntity
  8
0
100
AcDbCircle
 62
7
  6
CONTINUOUS
 10
5.1259545799
 20
5.0846687307
 40
0.0186391479
100
AcDbArc
 50
359.7989733236
 51
0.0593697892
  0
ARC
  5
2F3
100
AcDbEntity
  8
0
100
AcDbCircle
 62
7
  6
CONTINUOUS
 10
5.1259912415
 20
5.0845220312
 40
0.0186028836
100
AcDbArc
 50
356.8786959737
 51
358.0903689015
  0
ARC
  5
2F4
100
AcDbEntity
  8
0
100
AcDbCircle
 62
7
  6
CONTINUOUS
 10
5.1422139973
 20
5.0846017143
 40
0.0023812865
100
AcDbArc
 50
0.0380843924
 51
2.0782695247
  0
ARC
  5
2F5
100
AcDbEntity
  8
0
100
AcDbCircle
 62
7
  6
CONTINUOUS
 10
4.8543483407
 20
5.5772244232
 40
1.035860392
100
AcDbArc
 50
259.7721667249
 51
280.2277266819
  0
ARC
  5
2F6
100
AcDbEntity
  8
0
100
AcDbCircle
 62
7
  6
CONTINUOUS
 10
4.8543478261
 20
5.5075530559
 40
0.5360313377
100
AcDbArc
 50
69.5309671574
 51
75.4217005991
  0
ARC
  5
2F7
100
AcDbEntity
  8
0
100
AcDbCircle
 62
7
  6
CONTINUOUS
 10
4.8543478261
 20
5.5075530559
 40
0.5360313377
100
AcDbArc
 50
104.5782994009
 51
110.4690328426
  0
ARC
  5
2F8
100
AcDbEntity
  8
0
100
AcDbCircle
 62
7
  6
CONTINUOUS
 10
4.8795809621
 20
5.4484429453
 40
0.5311992774
100
AcDbArc
 50
278.4990182317
 51
278.8072996306
  0
ARC
  5
2F9
100
AcDbEntity
  8
0
100
AcDbCircle
 62
7
  6
CONTINUOUS
 10
4.8287918519
 20
5.4463443619
 40
0.5290760269
100
AcDbArc
 50
261.1924761126
 51
261.5020000229
  0
ARC
  5
2FA
100
AcDbEntity
  8
0
100
AcDbCircle
 62
7
  6
CONTINUOUS
 10
4.6725232424
 20
5.6435843937
 40
0.1
100
AcDbArc
 50
41.7934055852
 51
83.5519233076
  0
ARC
  5
2FB
100
AcDbEntity
  8
0
100
AcDbCircle
 62
7
  6
CONTINUOUS
 10
5.0361724097
 20
5.6435843937
 40
0.1
100
AcDbArc
 50
96.4480766924
 51
138.2065944148
  0
ARC
  5
2FC
100
AcDbEntity
  8
0
100
AcDbCircle
 62
7
  6
CONTINUOUS
 10
4.7527315356
 20
5.6146841335
 40
0.0251301642
100
AcDbArc
 50
173.2440223667
 51
175.129021152
  0
ARC
  5
2FD
100
AcDbEntity
  8
0
100
AcDbCircle
 62
7
  6
CONTINUOUS
 10
4.9560520604
 20
5.6146930721
 40
0.0250417795
100
AcDbArc
 50
4.8667464554
 51
6.7593434447
  0
ARC
  5
2FE
100
AcDbEntity
  8
0
100
AcDbCircle
 62
7
  6
CONTINUOUS
 10
4.7284396962
 20
5.6935678942
 40
0.0249999999
100
AcDbArc
 50
272.0817389687
 51
41.7934079728
  0
ARC
  5
2FF
100
AcDbEntity
  8
0
100
AcDbCircle
 62
7
  6
CONTINUOUS
 10
4.980255956
 20
5.6935678942
 40
0.0249999999
100
AcDbArc
 50
138.2065920272
 51
267.9182610313
  0
ARC
  5
300
100
AcDbEntity
  8
0
100
AcDbCircle
 62
7
  6
CONTINUOUS
 10
4.7213392116
 20
5.6442461992
 40
0.0238953182
100
AcDbArc
 50
337.2588658323
 51
339.0612158912
  0
ARC
  5
301
100
AcDbEntity
  8
0
100
AcDbCircle
 62
7
  6
CONTINUOUS
 10
4.6747653634
 20
5.9886607091
 40
0.0225
100
AcDbArc
 50
110.4690328426
 51
184.0
  0
ARC
  5
302
100
AcDbEntity
  8
0
100
AcDbCircle
 62
7
  6
CONTINUOUS
 10
5.0339302888
 20
5.9886607091
 40
0.0225
100
AcDbArc
 50
356.0
 51
69.5309671574
  0
ARC
  5
303
100
AcDbEntity
  8
0
100
AcDbCircle
 62
7
  6
CONTINUOUS
 10
4.6857188167
 20
5.7603410929
 40
0.0175
100
AcDbArc
 50
184.0
 51
263.5519233076
  0
ARC
  5
304
100
AcDbEntity
  8
0
100
AcDbCircle
 62
7
  6
CONTINUOUS
 10
5.0229768354
 20
5.7603410929
 40
0.0175
100
AcDbArc
 50
276.4480766924
 51
356.0
  0
ARC
  5
305
100
AcDbEntity
  8
0
100
AcDbCircle
 62
7
  6
CONTINUOUS
 10
4.9789950487
 20
5.643666989
 40
0.0108973772
100
AcDbArc
 50
225.7729243215
 51
227.9926486765
  0
ARC
  5
306
100
AcDbEntity
  8
0
100
AcDbCircle
 62
7
  6
CONTINUOUS
 10
4.9598801477
 20
5.6163075911
 40
0.0082211196
100
AcDbArc
 50
3.5562824508
 51
5.8211424169
  0
ARC
  5
307
100
AcDbEntity
  8
0
100
AcDbCircle
 62
7
  6
CONTINUOUS
 10
6.4219835925
 20
5.7035401991
 40
1.4435872926
100
AcDbArc
 50
183.4440823201
 51
186.2515892945
  0
ARC
  5
308
100
AcDbEntity
  8
0
100
AcDbCircle
 62
7
  6
CONTINUOUS
 10
6.3706385635
 20
5.7034479829
 40
1.4052259991
100
AcDbArc
 50
183.5344551482
 51
186.344989989
  0
SPLINE
  5
309
100
AcDbEntity
  8
0
100
AcDbSpline
 62
7
  6
CONTINUOUS
 70
0
 71
3
 72
39
 73
35
 74
0
 42
0.0000001
 43
0.0000001
 44
0.0000000001
 40
0.0
 40
0.0
 40
0.0
 40
0.0
 40
0.0308238021
 40
0.0616634275
 40
0.0925354631
 40
0.1234540023
 40
0.1544318504
 40
0.1854794693
 40
0.2166046723
 40
0.2478122842
 40
0.279103986
 40
0.3104782028
 40
0.3419302007
 40
0.3734522242
 40
0.4050338296
 40
0.4366622571
 40
0.4683229473
 40
0.5000000837
 40
0.5316772185
 40
0.5633379042
 40
0.5949663241
 40
0.6265479193
 40
0.6580699304
 40
0.689521914
 40
0.7208961153
 40
0.7521878008
 40
0.7833953962
 40
0.8145205835
 40
0.8455681877
 40
0.8765460228
 40
0.9074645514
 40
0.938336579
 40
0.9691761995
 40
1.0
 40
1.0
 40
1.0
 40
1.0
 10
4.6835978261
 20
6.2300888963
 30
0.0
 10
4.6835978261
 20
6.2246658272
 30
0.0
 10
4.6841497392
 20
6.2138088392
 30
0.0
 10
4.6866248519
 20
6.1976906948
 30
0.0
 10
4.6907221068
 20
6.1818878757
 30
0.0
 10
4.6964004112
 20
6.1665566055
 30
0.0
 10
4.7036027682
 20
6.1518452251
 30
0.0
 10
4.7122573163
 20
6.1378960079
 30
0.0
 10
4.7222782588
 20
6.1248429377
 30
0.0
 10
4.7335669006
 20
6.1128107245
 30
0.0
 10
4.7460126911
 20
6.1019135738
 30
0.0
 10
4.7594945311
 20
6.0922543412
 30
0.0
 10
4.7738820071
 20
6.0839237603
 30
0.0
 10
4.7890366254
 20
6.0769997061
 30
0.0
 10
4.8048131138
 20
6.071546605
 30
0.0
 10
4.8210607924
 20
6.067615067
 30
0.0
 10
4.8376248871
 20
6.0652415368
 30
0.0
 10
4.8543478701
 20
6.0644479276
 30
0.0
 10
4.8710708518
 20
6.0652415461
 30
0.0
 10
4.8876349432
 20
6.0676150826
 30
0.0
 10
4.9038826162
 20
6.0715466272
 30
0.0
 10
4.9196590967
 20
6.0769997347
 30
0.0
 10
4.934813706
 20
6.0839237928
 30
0.0
 10
4.9492011731
 20
6.0922543742
 30
0.0
 10
4.9626830029
 20
6.1019136071
 30
0.0
 10
4.9751287834
 20
6.1128107562
 30
0.0
 10
4.9864174168
 20
6.1248429656
 30
0.0
 10
4.996438352
 20
6.137896031
 30
0.0
 10
5.0050928936
 20
6.1518452432
 30
0.0
 10
5.0122952461
 20
6.1665566182
 30
0.0
 10
5.0179735477
 20
6.1818878835
 30
0.0
 10
5.022070801
 20
6.1976906987
 30
0.0
 10
5.024545913
 20
6.2138088406
 30
0.0
 10
5.0250978261
 20
6.2246658275
 30
0.0
 10
5.0250978261
 20
6.2300888963
 30
0.0
  0
SPLINE
  5
30A
100
AcDbEntity
  8
0
100
AcDbSpline
 62
7
  6
CONTINUOUS
 70
0
 71
3
 72
39
 73
35
 74
0
 42
0.0000001
 43
0.0000001
 44
0.0000000001
 40
0.0
 40
0.0
 40
0.0
 40
0.0
 40
0.0308238021
 40
0.0616634275
 40
0.0925354631
 40
0.1234540023
 40
0.1544318504
 40
0.1854794693
 40
0.2166046723
 40
0.2478122842
 40
0.279103986
 40
0.3104782028
 40
0.3419302007
 40
0.3734522242
 40
0.4050338296
 40
0.4366622571
 40
0.4683229473
 40
0.5000000837
 40
0.5316772185
 40
0.5633379042
 40
0.5949663241
 40
0.6265479193
 40
0.6580699304
 40
0.689521914
 40
0.7208961153
 40
0.7521878008
 40
0.7833953962
 40
0.8145205835
 40
0.8455681877
 40
0.8765460228
 40
0.9074645514
 40
0.938336579
 40
0.9691761995
 40
1.0
 40
1.0
 40
1.0
 40
1.0
 10
5.0250978261
 20
6.2300888963
 30
0.0
 10
5.0250978261
 20
6.2355119654
 30
0.0
 10
5.0245459129
 20
6.2463689534
 30
0.0
 10
5.0220708003
 20
6.2624870978
 30
0.0
 10
5.0179735454
 20
6.2782899169
 30
0.0
 10
5.012295241
 20
6.2936211871
 30
0.0
 10
5.0050928839
 20
6.3083325674
 30
0.0
 10
4.9964383359
 20
6.3222817847
 30
0.0
 10
4.9864173934
 20
6.3353348549
 30
0.0
 10
4.9751287516
 20
6.3473670681
 30
0.0
 10
4.9626829611
 20
6.3582642188
 30
0.0
 10
4.949201121
 20
6.3679234514
 30
0.0
 10
4.9348136451
 20
6.3762540323
 30
0.0
 10
4.9196590268
 20
6.3831780864
 30
0.0
 10
4.9038825383
 20
6.3886311876
 30
0.0
 10
4.8876348598
 20
6.3925627256
 30
0.0
 10
4.871070765
 20
6.3949362558
 30
0.0
 10
4.854347782
 20
6.395729865
 30
0.0
 10
4.8376248003
 20
6.3949362465
 30
0.0
 10
4.821060709
 20
6.39256271
 30
0.0
 10
4.804813036
 20
6.3886311653
 30
0.0
 10
4.7890365554
 20
6.3831780579
 30
0.0
 10
4.7738819461
 20
6.3762539997
 30
0.0
 10
4.7594944791
 20
6.3679234184
 30
0.0
 10
4.7460126493
 20
6.3582641855
 30
0.0
 10
4.7335668688
 20
6.3473670364
 30
0.0
 10
4.7222782354
 20
6.335334827
 30
0.0
 10
4.7122573002
 20
6.3222817616
 30
0.0
 10
4.7036027586
 20
6.3083325494
 30
0.0
 10
4.6964004061
 20
6.2936211744
 30
0.0
 10
4.6907221044
 20
6.2782899091
 30
0.0
 10
4.6866248512
 20
6.2624870939
 30
0.0
 10
4.6841497392
 20
6.2463689519
 30
0.0
 10
4.6835978261
 20
6.2355119651
 30
0.0
 10
4.6835978261
 20
6.2300888963
 30
0.0
  0
SPLINE
  5
30B
100
AcDbEntity
  8
0
100
AcDbSpline
 62
7
  6
CONTINUOUS
 70
0
 71
3
 72
30
 73
26
 74
0
 42
0.0000001
 43
0.0000001
 44
0.0000000001
 40
0.0
 40
0.0
 40
0.0
 40
0.0
 40
0.1011132952
 40
0.1992447111
 40
0.2942972759
 40
0.3861220294
 40
0.4743553414
 40
0.5583866107
 40
0.6373408095
 40
0.7100194861
 40
0.7750449026
 40
0.8043068251
 40
0.8312635556
 40
0.8781290007
 40
0.8981984002
 40
0.916236841
 40
0.9323777827
 40
0.9467329176
 40
0.9593999156
 40
0.9704619308
 40
0.9799941686
 40
0.9880589486
 40
0.9947127788
 40
0.9975245663
 40
1.0
 40
1.0
 40
1.0
 40
1.0
 10
4.5641036142
 20
5.0846285908
 30
0.0
 10
4.5641144719
 20
5.0929431765
 30
0.0
 10
4.5641667928
 20
5.1093271303
 30
0.0
 10
4.5643503001
 20
5.1335267208
 30
0.0
 10
4.5646458861
 20
5.1569613685
 30
0.0
 10
4.5650564297
 20
5.1795802343
 30
0.0
 10
4.5655703536
 20
5.2012904476
 30
0.0
 10
4.5661725588
 20
5.2219396127
 30
0.0
 10
4.566850007
 20
5.241306655
 30
0.0
 10
4.5675798385
 20
5.2591077158
 30
0.0
 10
4.5682267662
 20
5.2728222635
 30
0.0
 10
4.5687491847
 20
5.2827785463
 30
0.0
 10
4.5692255049
 20
5.2912418142
 30
0.0
 10
4.5697056849
 20
5.2989477583
 30
0.0
 10
4.5701978335
 20
5.3059178297
 30
0.0
 10
4.5705377016
 20
5.3103657939
 30
0.0
 10
4.5708673232
 20
5.3143432055
 30
0.0
 10
4.5711863182
 20
5.3178781969
 30
0.0
 10
4.5714941253
 20
5.3209947552
 30
0.0
 10
4.5717903392
 20
5.3237138083
 30
0.0
 10
4.5720741865
 20
5.3260533783
 30
0.0
 10
4.572345293
 20
5.3280291056
 30
0.0
 10
4.572570455
 20
5.3294531303
 30
0.0
 10
4.5727466797
 20
5.3304191462
 30
0.0
 10
4.5728327926
 20
5.3308453455
 30
0.0
 10
4.5728756712
 20
5.3310443341
 30
0.0
  0
SPLINE
  5
30C
100
AcDbEntity
  8
0
100
AcDbSpline
 62
7
  6
CONTINUOUS
 70
0
 71
3
 72
39
 73
35
 74
0
 42
0.0000001
 43
0.0000001
 44
0.0000000001
 40
0.0
 40
0.0
 40
0.0
 40
0.0
 40
0.0317190711
 40
0.0634334307
 40
0.0951336705
 40
0.1268158383
 40
0.1584733954
 40
0.1901011983
 40
0.2216943557
 40
0.2532485796
 40
0.2847602361
 40
0.3162263624
 40
0.3476447541
 40
0.3790139839
 40
0.410333398
 40
0.4416031727
 40
0.4728242901
 40
0.5039984846
 40
0.535128251
 40
0.5662167988
 40
0.5972679751
 40
0.6282862239
 40
0.6592765201
 40
0.6902442523
 40
0.7211951672
 40
0.7521352817
 40
0.783070781
 40
0.8140079182
 40
0.8449529168
 40
0.8759118801
 40
0.9068906984
 40
0.9378949472
 40
0.9689298112
 40
1.0
 40
1.0
 40
1.0
 40
1.0
 10
4.8543478261
 20
5.7847825818
 30
0.0
 10
4.8573441533
 20
5.7847825818
 30
0.0
 10
4.8633379915
 20
5.7849666672
 30
0.0
 10
4.8722920048
 20
5.7857938269
 30
0.0
 10
4.8811751959
 20
5.7871690433
 30
0.0
 10
4.8899516769
 20
5.7890868063
 30
0.0
 10
4.8985867666
 20
5.7915398795
 30
0.0
 10
4.9070459663
 20
5.7945187503
 30
0.0
 10
4.9152955167
 20
5.7980119106
 30
0.0
 10
4.9233023897
 20
5.8020058186
 30
0.0
 10
4.9310344415
 20
5.8064849583
 30
0.0
 10
4.9384605249
 20
5.8114318869
 30
0.0
 10
4.9455506104
 20
5.8168272803
 30
0.0
 10
4.9522759256
 20
5.8226499651
 30
0.0
 10
4.9586090707
 20
5.8288769983
 30
0.0
 10
4.9645241226
 20
5.8354837544
 30
0.0
 10
4.9699967578
 20
5.842443995
 30
0.0
 10
4.9750043541
 20
5.8497299643
 30
0.0
 10
4.9795261258
 20
5.8573124669
 30
0.0
 10
4.983543232
 20
5.8651609828
 30
0.0
 10
4.9870388554
 20
5.8732437974
 30
0.0
 10
4.9899982965
 20
5.881528127
 30
0.0
 10
4.9924090578
 20
5.8899802547
 30
0.0
 10
4.9942609221
 20
5.8985656736
 30
0.0
 10
4.9955460449
 20
5.9072492381
 30
0.0
 10
4.9962589675
 20
5.9159953401
 30
0.0
 10
4.9963966542
 20
5.9247680725
 30
0.0
 10
4.995958512
 20
5.9335314
 30
0.0
 10
4.9949463917
 20
5.942249326
 30
0.0
 10
4.993364607
 20
5.9508860846
 30
0.0
 10
4.9912199053
 20
5.9594062628
 30
0.0
 10
4.9885213184
 20
5.9677751462
 30
0.0
 10
4.9852804766
 20
5.975958193
 30
0.0
 10
4.9827684724
 20
5.9812653032
 30
0.0
 10
4.9814276384
 20
5.9838761594
 30
0.0
  0
SPLINE
  5
30D
100
AcDbEntity
  8
0
100
AcDbSpline
 62
7
  6
CONTINUOUS
 70
0
 71
3
 72
39
 73
35
 74
0
 42
0.0000001
 43
0.0000001
 44
0.0000000001
 40
0.0
 40
0.0
 40
0.0
 40
0.0
 40
0.0310701574
 40
0.0621049929
 40
0.0931092163
 40
0.1240880121
 40
0.1550469561
 40
0.1859919389
 40
0.2169290643
 40
0.2478645556
 40
0.2788046651
 40
0.3097555781
 40
0.3407233116
 40
0.3717136126
 40
0.4027318688
 40
0.4337830548
 40
0.4648716138
 40
0.4960013931
 40
0.527175602
 40
0.5583967346
 40
0.5896665248
 40
0.6209859542
 40
0.6523551987
 40
0.6837736045
 40
0.7152397438
 40
0.7467514117
 40
0.7783056451
 40
0.8098988099
 40
0.8415266179
 40
0.8731841778
 40
0.9048663458
 40
0.9365665825
 40
0.9682809375
 40
1.0
 40
1.0
 40
1.0
 40
1.0
 10
4.7272675301
 20
5.9838752165
 30
0.0
 10
4.7259267235
 20
5.9812643619
 30
0.0
 10
4.7234147695
 20
5.9759572585
 30
0.0
 10
4.7201740037
 20
5.9677742257
 30
0.0
 10
4.7174754889
 20
5.9594053612
 30
0.0
 10
4.7153308558
 20
5.9508852062
 30
0.0
 10
4.7137491352
 20
5.9422484749
 30
0.0
 10
4.7127370727
 20
5.9335305797
 30
0.0
 10
4.7122989842
 20
5.9247672858
 30
0.0
 10
4.7124367215
 20
5.9159945894
 30
0.0
 10
4.7131496901
 20
5.9072485255
 30
0.0
 10
4.7144348541
 20
5.8985650008
 30
0.0
 10
4.7162867536
 20
5.8899796228
 30
0.0
 10
4.7186975449
 20
5.8815275365
 30
0.0
 10
4.7216570131
 20
5.8732432493
 30
0.0
 10
4.7251526594
 20
5.8651604776
 30
0.0
 10
4.7291697838
 20
5.8573120045
 30
0.0
 10
4.7336915689
 20
5.8497295441
 30
0.0
 10
4.7386991734
 20
5.8424436158
 30
0.0
 10
4.7441718139
 20
5.835483416
 30
0.0
 10
4.7500868672
 20
5.8288766999
 30
0.0
 10
4.7564200097
 20
5.8226497053
 30
0.0
 10
4.7631453182
 20
5.8168270573
 30
0.0
 10
4.7702353928
 20
5.8114316982
 30
0.0
 10
4.7776614623
 20
5.8064848023
 30
0.0
 10
4.7853934968
 20
5.8020056932
 30
0.0
 10
4.7934003493
 20
5.798011813
 30
0.0
 10
4.8016498761
 20
5.7945186775
 30
0.0
 10
4.8101090493
 20
5.7915398282
 30
0.0
 10
4.8187441101
 20
5.7890867732
 30
0.0
 10
4.8275205598
 20
5.7871690247
 30
0.0
 10
4.8364037178
 20
5.7857938189
 30
0.0
 10
4.8453576964
 20
5.7849666658
 30
0.0
 10
4.8513515109
 20
5.7847825818
 30
0.0
 10
4.8543478261
 20
5.7847825818
 30
0.0
  0
SPLINE
  5
30E
100
AcDbEntity
  8
0
100
AcDbSpline
 62
7
  6
CONTINUOUS
 70
0
 71
3
 72
11
 73
7
 74
0
 42
0.0000001
 43
0.0000001
 44
0.0000000001
 40
0.0
 40
0.0
 40
0.0
 40
0.0
 40
0.2499966754
 40
0.4999966858
 40
0.7499981341
 40
1.0
 40
1.0
 40
1.0
 40
1.0
 10
4.4749201283
 20
4.5419069635
 30
0.0
 10
4.4732143247
 20
4.5561596308
 30
0.0
 10
4.4698179906
 20
4.5846669921
 30
0.0
 10
4.4647931515
 20
4.6274364645
 30
0.0
 10
4.4598517626
 20
4.6702159639
 30
0.0
 10
4.4566202948
 20
4.6987428883
 30
0.0
 10
4.4550220313
 20
4.7130083152
 30
0.0
  0
LINE
  5
30F
100
AcDbEntity
  8
0
100
AcDbLine
 62
7
  6
CONTINUOUS
 10
4.6530701746
 20
4.5677441167
 11
4.6530515156
 21
4.5664070575
  0
LINE
  5
310
100
AcDbEntity
  8
0
100
AcDbLine
 62
7
  6
CONTINUOUS
 10
5.2537226719
 20
4.7131456427
 11
5.2601230207
 21
4.77909665
  0
SPLINE
  5
311
100
AcDbEntity
  8
0
100
AcDbSpline
 62
7
  6
CONTINUOUS
 70
0
 71
3
 72
11
 73
7
 74
0
 42
0.0000001
 43
0.0000001
 44
0.0000000001
 40
0.0
 40
0.0
 40
0.0
 40
0.0
 40
0.2392638855
 40
0.4853862946
 40
0.7389298152
 40
1.0
 40
1.0
 40
1.0
 40
1.0
 10
5.1360632022
 20
2.9589020403
 30
0.0
 10
5.1350970486
 20
2.9591667959
 30
0.0
 10
5.1330962159
 20
2.9595640201
 30
0.0
 10
5.13000007
 20
2.9597564487
 30
0.0
 10
5.1268137188
 20
2.959552356
 30
0.0
 10
5.1246894658
 20
2.9591597931
 30
0.0
 10
5.1236272146
 20
2.9589020499
 30
0.0
  0
SPLINE
  5
312
100
AcDbEntity
  8
0
100
AcDbSpline
 62
7
  6
CONTINUOUS
 70
0
 71
3
 72
47
 73
43
 74
0
 42
0.0000001
 43
0.0000001
 44
0.0000000001
 40
0.0
 40
0.0
 40
0.0
 40
0.0
 40
0.0220029722
 40
0.0447981065
 40
0.0684236079
 40
0.0929161533
 40
0.1183105031
 40
0.144640088
 40
0.1719357091
 40
0.1859552068
 40
0.2002252708
 40
0.2147477983
 40
0.2295231229
 40
0.2445505138
 40
0.2598287934
 40
0.2753537007
 40
0.2832059373
 40
0.291115399
 40
0.3070920271
 40
0.3232562527
 40
0.3395803792
 40
0.3560385385
 40
0.3726077516
 40
0.3892681234
 40
0.4227927539
 40
0.4396294714
 40
0.4565000058
 40
0.473397929
 40
0.4818552133
 40
0.4903171184
 40
0.5072537382
 40
0.5242059675
 40
0.54117198
 40
0.5581499804
 40
0.5921346322
 40
0.6261464942
 40
0.6601743874
 40
0.694208522
 40
0.7282413877
 40
0.7962790122
 40
0.8642560629
 40
1.0
 40
1.0
 40
1.0
 40
1.0
 10
5.1236272322
 20
2.958902038
 30
0.0
 10
5.1190110181
 20
2.9629865746
 30
0.0
 10
5.1098939749
 20
2.9716257233
 30
0.0
 10
5.0968248371
 20
2.9856624549
 30
0.0
 10
5.0841595255
 20
3.0009811457
 30
0.0
 10
5.0719387761
 20
3.0175692664
 30
0.0
 10
5.060210052
 20
3.0354222723
 30
0.0
 10
5.0490311173
 20
3.0545395308
 30
0.0
 10
5.0403106407
 20
3.0713735438
 30
0.0
 10
5.0336746784
 20
3.0854616748
 30
0.0
 10
5.028841
 20
3.0964391917
 30
0.0
 10
5.0242088121
 20
3.1077323783
 30
0.0
 10
5.0197925199
 20
3.1193390723
 30
0.0
 10
5.0156075585
 20
3.1312558508
 30
0.0
 10
5.0116708504
 20
3.1434777362
 30
0.0
 10
5.0086251532
 20
3.1538708898
 30
0.0
 10
5.0063336202
 20
3.1623307917
 30
0.0
 10
5.0041270772
 20
3.1709439486
 30
0.0
 10
5.0015616248
 20
3.1818677123
 30
0.0
 10
4.9987949038
 20
3.1951609458
 30
0.0
 10
4.9963078517
 20
3.2086463058
 30
0.0
 10
4.9940808282
 20
3.2222918028
 30
0.0
 10
4.9920948036
 20
3.2360694853
 30
0.0
 10
4.9897356926
 20
3.2546210766
 30
0.0
 10
4.9877819661
 20
3.2732969235
 30
0.0
 10
4.9861323388
 20
3.2920587745
 30
0.0
 10
4.9850222943
 20
3.3061918187
 30
0.0
 10
4.9841909675
 20
3.3179916464
 30
0.0
 10
4.9835727053
 20
3.327444871
 30
0.0
 10
4.9829828742
 20
3.3369107735
 30
0.0
 10
4.9822995335
 20
3.3487551497
 30
0.0
 10
4.9815640686
 20
3.3629825365
 30
0.0
 10
4.9809112715
 20
3.3772255632
 30
0.0
 10
4.9801483667
 20
3.3962396477
 30
0.0
 10
4.9793921528
 20
3.4200326086
 30
0.0
 10
4.9787842275
 20
3.4486073797
 30
0.0
 10
4.9784557133
 20
3.477200541
 30
0.0
 10
4.9783872403
 20
3.5058013395
 30
0.0
 10
4.9786172981
 20
3.5439288922
 30
0.0
 10
4.9794592274
 20
3.5915597833
 30
0.0
 10
4.9817788789
 20
3.6676554344
 30
0.0
 10
4.9843832391
 20
3.7246687
 30
0.0
 10
4.9863028117
 20
3.7626470524
 30
0.0
  0
SPLINE
  5
313
100
AcDbEntity
  8
0
100
AcDbSpline
 62
7
  6
CONTINUOUS
 70
0
 71
3
 72
16
 73
12
 74
0
 42
0.0000001
 43
0.0000001
 44
0.0000000001
 40
0.0
 40
0.0
 40
0.0
 40
0.0
 40
0.150521806
 40
0.2984189759
 40
0.441211084
 40
0.5764928393
 40
0.7019971814
 40
0.8156287506
 40
0.9155026578
 40
0.9597698712
 40
1.0
 40
1.0
 40
1.0
 40
1.0
 10
4.9863025351
 20
3.7626470578
 30
0.0
 10
4.9876004446
 20
3.7625822375
 30
0.0
 10
4.9901743778
 20
3.7624681643
 30
0.0
 10
4.9939815911
 20
3.7623430072
 30
0.0
 10
4.9976585034
 20
3.7622663852
 30
0.0
 10
5.0011427936
 20
3.7622395059
 30
0.0
 10
5.0043753855
 20
3.7622625924
 30
0.0
 10
5.007301482
 20
3.7623350728
 30
0.0
 10
5.0095248336
 20
3.7624386288
 30
0.0
 10
5.0111128159
 20
3.7625491797
 30
0.0
 10
5.0118396005
 20
3.7626128096
 30
0.0
 10
5.0121852322
 20
3.7626470754
 30
0.0
  0
SPLINE
  5
314
100
AcDbEntity
  8
0
100
AcDbSpline
 62
7
  6
CONTINUOUS
 70
0
 71
3
 72
17
 73
13
 74
0
 42
0.0000001
 43
0.0000001
 44
0.0000000001
 40
0.0
 40
0.0
 40
0.0
 40
0.0
 40
0.1502070539
 40
0.2978181462
 40
0.4403813121
 40
0.5755202505
 40
0.7009983012
 40
0.8147535242
 40
0.8666488738
 40
0.9149443767
 40
0.9594561683
 40
1.0
 40
1.0
 40
1.0
 40
1.0
 10
4.9871946446
 20
3.7824565612
 30
0.0
 10
4.9884916728
 20
3.7824113512
 30
0.0
 10
4.9910640365
 20
3.78234119
 30
0.0
 10
4.9948688936
 20
3.7822961129
 30
0.0
 10
4.9985438146
 20
3.7823122
 30
0.0
 10
5.0020267253
 20
3.7823890215
 30
0.0
 10
5.0052587343
 20
3.7825250962
 30
0.0
 10
5.0077690588
 20
3.7826901193
 30
0.0
 10
5.009610426
 20
3.7828535367
 30
0.0
 10
5.0108537874
 20
3.7829853671
 30
0.0
 10
5.0119969789
 20
3.7831296232
 30
0.0
 10
5.0127238234
 20
3.7832387979
 30
0.0
 10
5.0130694147
 20
3.7832960773
 30
0.0
  0
SPLINE
  5
315
100
AcDbEntity
  8
0
100
AcDbSpline
 62
7
  6
CONTINUOUS
 70
0
 71
3
 72
40
 73
36
 74
0
 42
0.0000001
 43
0.0000001
 44
0.0000000001
 40
0.0
 40
0.0
 40
0.0
 40
0.0
 40
0.0405972587
 40
0.0607766697
 40
0.0808603936
 40
0.1008393657
 40
0.1207041781
 40
0.1600529788
 40
0.1795218414
 40
0.1988456475
 40
0.2180195242
 40
0.2370387059
 40
0.2745936354
 40
0.2931191762
 40
0.3114702678
 40
0.3296456977
 40
0.3476455813
 40
0.3831253459
 40
0.4179165659
 40
0.4520157833
 40
0.4854307589
 40
0.5181873108
 40
0.5503219897
 40
0.581859989
 40
0.6128112896
 40
0.6431636083
 40
0.702007731
 40
0.7583006066
 40
0.7854626746
 40
0.8119528661
 40
0.862906675
 40
0.9112003339
 40
0.9343582423
 40
0.9568672185
 40
1.0
 40
1.0
 40
1.0
 40
1.0
 10
4.9871946446
 20
3.7824565612
 30
0.0
 10
4.9875900126
 20
3.792968184
 30
0.0
 10
4.9882608622
 20
3.8087018797
 30
0.0
 10
4.9892873026
 20
3.8296282884
 30
0.0
 10
4.9901149492
 20
3.8452155611
 30
0.0
 10
4.9909990971
 20
3.8607180763
 30
0.0
 10
4.9922443132
 20
3.8811996915
 30
0.0
 10
4.9935888052
 20
3.9015427131
 30
0.0
 10
4.9950192763
 20
3.9217391816
 30
0.0
 10
4.9961243059
 20
3.9367180666
 30
0.0
 10
4.9972598357
 20
3.951577811
 30
0.0
 10
4.9988011128
 20
3.9711440884
 30
0.0
 10
5.0003904941
 20
3.9905380122
 30
0.0
 10
5.0020143504
 20
4.0097553088
 30
0.0
 10
5.0032362203
 20
4.02396729
 30
0.0
 10
5.0044655941
 20
4.0380419073
 30
0.0
 10
5.0061048448
 20
4.0565357747
 30
0.0
 10
5.0081617582
 20
4.0793147564
 30
0.0
 10
5.0106329355
 20
4.1062447224
 30
0.0
 10
5.0130749921
 20
4.1326400992
 30
0.0
 10
5.0154698462
 20
4.1585103933
 30
0.0
 10
5.0178032845
 20
4.1838751679
 30
0.0
 10
5.0200632891
 20
4.2087582962
 30
0.0
 10
5.0222353455
 20
4.2331796971
 30
0.0
 10
5.0243098861
 20
4.2571460727
 30
0.0
 10
5.0269026287
 20
4.2881691382
 30
0.0
 10
5.0298428998
 20
4.3257520971
 30
0.0
 10
5.0323755459
 20
4.3625365021
 30
0.0
 10
5.0340900609
 20
4.390972633
 30
0.0
 10
5.0355557076
 20
4.4180373463
 30
0.0
 10
5.0369966449
 20
4.4505861091
 30
0.0
 10
5.0379397527
 20
4.4822896149
 30
0.0
 10
5.0383578057
 20
4.5066322185
 30
0.0
 10
5.0385503582
 20
4.5296402418
 30
0.0
 10
5.0384571749
 20
4.5466497497
 30
0.0
 10
5.0382736052
 20
4.5578242706
 30
0.0
  0
SPLINE
  5
316
100
AcDbEntity
  8
0
100
AcDbSpline
 62
7
  6
CONTINUOUS
 70
0
 71
3
 72
11
 73
7
 74
0
 42
0.0000001
 43
0.0000001
 44
0.0000000001
 40
0.0
 40
0.0
 40
0.0
 40
0.0
 40
0.2566447764
 40
0.5096986124
 40
0.7577775198
 40
1.0
 40
1.0
 40
1.0
 40
1.0
 10
5.0382521473
 20
4.5591594611
 30
0.0
 10
5.0399143555
 20
4.5594240924
 30
0.0
 10
5.0431824036
 20
4.5601922975
 30
0.0
 10
5.0478133733
 20
4.5620464777
 30
0.0
 10
5.0520220294
 20
4.5645454234
 30
0.0
 10
5.0544985136
 20
4.5666240161
 30
0.0
 10
5.0556226093
 20
4.5677464779
 30
0.0
  0
SPLINE
  5
317
100
AcDbEntity
  8
0
100
AcDbSpline
 62
7
  6
CONTINUOUS
 70
0
 71
3
 72
62
 73
58
 74
0
 42
0.0000001
 43
0.0000001
 44
0.0000000001
 40
0.0
 40
0.0
 40
0.0
 40
0.0
 40
0.0549610998
 40
0.1086153305
 40
0.1610874192
 40
0.1869207245
 40
0.2125046114
 40
0.2378518808
 40
0.2629752744
 40
0.287887367
 40
0.3126006624
 40
0.3614787142
 40
0.3856664849
 40
0.4096951016
 40
0.4572555044
 40
0.5040433492
 40
0.5270637982
 40
0.5497820124
 40
0.5721539356
 40
0.5941346517
 40
0.6156758092
 40
0.6367280589
 40
0.6572406242
 40
0.6771613129
 40
0.715057169
 40
0.7329764755
 40
0.7501870771
 40
0.7666794526
 40
0.7824493887
 40
0.8118311474
 40
0.8254750965
 40
0.838453146
 40
0.8625324977
 40
0.8842981853
 40
0.8943740985
 40
0.9039339322
 40
0.921549582
 40
0.9372317991
 40
0.9510607035
 40
0.9572981227
 40
0.9630917117
 40
0.9684465792
 40
0.9733666852
 40
0.9778561035
 40
0.9819192629
 40
0.98556093
 40
0.9887865138
 40
0.9916025667
 40
0.9940173402
 40
0.995077633
 40
0.9960419835
 40
0.9969125547
 40
0.9976921295
 40
0.99838441
 40
0.9989944827
 40
0.9995295252
 40
1.0
 40
1.0
 40
1.0
 40
1.0
 10
4.999626516
 20
5.150085828
 30
0.0
 10
4.9997551957
 20
5.157111414
 30
0.0
 10
5.0000631391
 20
5.1709945826
 30
0.0
 10
5.000651327
 20
5.1915812905
 30
0.0
 10
5.0012355753
 20
5.2084422801
 30
0.0
 10
5.0017477315
 20
5.2217146337
 30
0.0
 10
5.0021517178
 20
5.2315206471
 30
0.0
 10
5.0025779701
 20
5.2412348687
 30
0.0
 10
5.0030263077
 20
5.250862114
 30
0.0
 10
5.003494418
 20
5.2604072671
 30
0.0
 10
5.0041390477
 20
5.2729844052
 30
0.0
 10
5.0048191214
 20
5.2854669943
 30
0.0
 10
5.0055479262
 20
5.2978591018
 30
0.0
 10
5.0063045353
 20
5.3100807622
 30
0.0
 10
5.0073096588
 20
5.3251819092
 30
0.0
 10
5.0084016097
 20
5.3401478013
 30
0.0
 10
5.0093211306
 20
5.3519415218
 30
0.0
 10
5.010027593
 20
5.3606207586
 30
0.0
 10
5.0107535297
 20
5.369164988
 30
0.0
 10
5.0114977961
 20
5.3775565735
 30
0.0
 10
5.0122561198
 20
5.3857774753
 30
0.0
 10
5.0130235186
 20
5.3938089952
 30
0.0
 10
5.0137976301
 20
5.4016317122
 30
0.0
 10
5.0148229837
 20
5.4115934688
 30
0.0
 10
5.0158770389
 20
5.4212188515
 30
0.0
 10
5.0169383048
 20
5.4304946722
 30
0.0
 10
5.0177078583
 20
5.4370495604
 30
0.0
 10
5.0184624884
 20
5.4433294934
 30
0.0
 10
5.0194264595
 20
5.4511515043
 30
0.0
 10
5.0203872446
 20
5.4586069748
 30
0.0
 10
5.0213553293
 20
5.4657013265
 30
0.0
 10
5.0222660607
 20
5.4721192109
 30
0.0
 10
5.0233826042
 20
5.479556555
 30
0.0
 10
5.02452254
 20
5.4866147077
 30
0.0
 10
5.0254042082
 20
5.4918339452
 30
0.0
 10
5.0262213422
 20
5.4965259197
 30
0.0
 10
5.027207298
 20
5.5019159994
 30
0.0
 10
5.0283738902
 20
5.5078273255
 30
0.0
 10
5.0293266335
 20
5.5122976106
 30
0.0
 10
5.0300621274
 20
5.5155209994
 30
0.0
 10
5.0305793483
 20
5.5176828137
 30
0.0
 10
5.03108118
 20
5.5196749987
 30
0.0
 10
5.031568009
 20
5.5214988409
 30
0.0
 10
5.0320400658
 20
5.5231554725
 30
0.0
 10
5.0324976264
 20
5.5246459833
 30
0.0
 10
5.0329406468
 20
5.5259715289
 30
0.0
 10
5.0333689266
 20
5.5271333696
 30
0.0
 10
5.0337823506
 20
5.5281326867
 30
0.0
 10
5.0341275681
 20
5.5288597748
 30
0.0
 10
5.0343983568
 20
5.52935874
 30
0.0
 10
5.034588283
 20
5.5296765984
 30
0.0
 10
5.0347737839
 20
5.5299548601
 30
0.0
 10
5.0349547335
 20
5.5301937709
 30
0.0
 10
5.0351310203
 20
5.530393599
 30
0.0
 10
5.0353026649
 20
5.5305546507
 30
0.0
 10
5.0354697278
 20
5.5306770926
 30
0.0
 10
5.0355848419
 20
5.5307361945
 30
0.0
 10
5.0356409737
 20
5.5307578107
 30
0.0
  0
SPLINE
  5
318
100
AcDbEntity
  8
0
100
AcDbSpline
 62
7
  6
CONTINUOUS
 70
0
 71
3
 72
13
 73
9
 74
0
 42
0.0000001
 43
0.0000001
 44
0.0000000001
 40
0.0
 40
0.0
 40
0.0
 40
0.0
 40
0.2447073064
 40
0.3598855782
 40
0.4748288788
 40
0.5932421275
 40
0.7185138088
 40
1.0
 40
1.0
 40
1.0
 40
1.0
 10
5.0356409737
 20
5.5307578107
 30
0.0
 10
5.0357092435
 20
5.5307841011
 30
0.0
 10
5.0358163235
 20
5.5308097089
 30
0.0
 10
5.035958845
 20
5.5308039288
 30
0.0
 10
5.0360610019
 20
5.5307805405
 30
0.0
 10
5.0361600413
 20
5.5307380904
 30
0.0
 10
5.0362928073
 20
5.5306532579
 30
0.0
 10
5.0363796333
 20
5.5305657595
 30
0.0
 10
5.0364332561
 20
5.5305009041
 30
0.0
  0
SPLINE
  5
319
100
AcDbEntity
  8
0
100
AcDbSpline
 62
7
  6
CONTINUOUS
 70
0
 71
3
 72
34
 73
30
 74
0
 42
0.0000001
 43
0.0000001
 44
0.0000000001
 40
0.0
 40
0.0
 40
0.0
 40
0.0
 40
0.1010878841
 40
0.199059629
 40
0.2938796195
 40
0.3853960266
 40
0.4298149644
 40
0.473273844
 40
0.5570728057
 40
0.5972094596
 40
0.6359841235
 40
0.7087869656
 40
0.7424792859
 40
0.7741511843
 40
0.803681133
 40
0.8309563587
 40
0.8559006784
 40
0.8785246247
 40
0.917212151
 40
0.9334846587
 40
0.9478606671
 40
0.9604615988
 40
0.9713869673
 40
0.9807272106
 40
0.9885625224
 40
0.9919395893
 40
0.9949665455
 40
0.9976507992
 40
1.0
 40
1.0
 40
1.0
 40
1.0
 10
5.1445937174
 20
5.0846880774
 30
0.0
 10
5.1445858151
 20
5.09313559
 30
0.0
 10
5.144547637
 20
5.1097702038
 30
0.0
 10
5.144410402
 20
5.134328236
 30
0.0
 10
5.1441814341
 20
5.1580857192
 30
0.0
 10
5.1438992978
 20
5.1773670812
 30
0.0
 10
5.14360931
 20
5.1923555747
 30
0.0
 10
5.143280903
 20
5.2066981845
 30
0.0
 10
5.1428743698
 20
5.2206810226
 30
0.0
 10
5.1423718645
 20
5.2342688527
 30
0.0
 10
5.1418360706
 20
5.2469357233
 30
0.0
 10
5.1412315842
 20
5.2590605474
 30
0.0
 10
5.1405661506
 20
5.270587472
 30
0.0
 10
5.14006919
 20
5.2785018525
 30
0.0
 10
5.1395681191
 20
5.2858785665
 30
0.0
 10
5.1390710381
 20
5.2926919676
 30
0.0
 10
5.138585875
 20
5.2989275249
 30
0.0
 10
5.1379924722
 20
5.3061111271
 30
0.0
 10
5.1374121524
 20
5.3125686509
 30
0.0
 10
5.1368397813
 20
5.3183344854
 30
0.0
 10
5.1364581124
 20
5.3219284965
 30
0.0
 10
5.1360979755
 20
5.325075343
 30
0.0
 10
5.1357586883
 20
5.3278008923
 30
0.0
 10
5.1354397722
 20
5.3301274848
 30
0.0
 10
5.1351790991
 20
5.3318252157
 30
0.0
 10
5.1349778268
 20
5.3329980243
 30
0.0
 10
5.1348391235
 20
5.3337447533
 30
0.0
 10
5.1347050695
 20
5.3344048897
 30
0.0
 10
5.1346127621
 20
5.3348153128
 30
0.0
 10
5.1345669127
 20
5.335006197
 30
0.0
  0
SPLINE
  5
31A
100
AcDbEntity
  8
0
100
AcDbSpline
 62
7
  6
CONTINUOUS
 70
0
 71
3
 72
11
 73
7
 74
0
 42
0.0000001
 43
0.0000001
 44
0.0000000001
 40
0.0
 40
0.0
 40
0.0
 40
0.0
 40
0.2566428647
 40
0.5096988824
 40
0.7577799956
 40
1.0
 40
1.0
 40
1.0
 40
1.0
 10
4.6704204446
 20
4.5578258955
 30
0.0
 10
4.668758616
 20
4.5580904128
 30
0.0
 10
4.6654912639
 20
4.5588581882
 30
0.0
 10
4.660861015
 20
4.5607111096
 30
0.0
 10
4.6566525983
 20
4.5632082623
 30
0.0
 10
4.6541758565
 20
4.5652853723
 30
0.0
 10
4.6530515152
 20
4.5664070572
 30
0.0
  0
SPLINE
  5
31B
100
AcDbEntity
  8
0
100
AcDbSpline
 62
7
  6
CONTINUOUS
 70
0
 71
3
 72
40
 73
36
 74
0
 42
0.0000001
 43
0.0000001
 44
0.0000000001
 40
0.0
 40
0.0
 40
0.0
 40
0.0
 40
0.0431320616
 40
0.0656408366
 40
0.0887982259
 40
0.1126156161
 40
0.137094101
 40
0.1622354431
 40
0.1880468566
 40
0.214535296
 40
0.2416985691
 40
0.2695215025
 40
0.297991827
 40
0.3568338677
 40
0.3871865045
 40
0.4181378151
 40
0.4818109612
 40
0.514566104
 40
0.5479804585
 40
0.582079714
 40
0.6168719616
 40
0.652350793
 40
0.6885267576
 40
0.7254049236
 40
0.7629609691
 40
0.8011545578
 40
0.8204781246
 40
0.8399466157
 40
0.8595543973
 40
0.8792951937
 40
0.8991600509
 40
0.9191390321
 40
0.9392228092
 40
0.9594024089
 40
1.0
 40
1.0
 40
1.0
 40
1.0
 10
4.6704204446
 20
4.5578258955
 30
0.0
 10
4.6702372088
 20
4.5466515366
 30
0.0
 10
4.670143999
 20
4.5296422401
 30
0.0
 10
4.6703365691
 20
4.5066345567
 30
0.0
 10
4.6706461771
 20
4.4886332221
 30
0.0
 10
4.6711185311
 20
4.4701249486
 30
0.0
 10
4.6717508339
 20
4.4511071108
 30
0.0
 10
4.6725411804
 20
4.4315781003
 30
0.0
 10
4.6734912618
 20
4.4115348198
 30
0.0
 10
4.6746028713
 20
4.3909751745
 30
0.0
 10
4.6758742927
 20
4.3699026424
 30
0.0
 10
4.6772973126
 20
4.3483251576
 30
0.0
 10
4.6794130169
 20
4.3185676942
 30
0.0
 10
4.6817891516
 20
4.2881720627
 30
0.0
 10
4.68438341
 20
4.2571495388
 30
0.0
 10
4.6871769346
 20
4.2248876486
 30
0.0
 10
4.6901445837
 20
4.1920161829
 30
0.0
 10
4.6932253792
 20
4.1585142788
 30
0.0
 10
4.6956213637
 20
4.132644561
 30
0.0
 10
4.6980639024
 20
4.1062490687
 30
0.0
 10
4.7005367608
 20
4.0793191748
 30
0.0
 10
4.7030157223
 20
4.0518495086
 30
0.0
 10
4.7054822824
 20
4.0238361057
 30
0.0
 10
4.7079198176
 20
3.9952799282
 30
0.0
 10
4.7103040882
 20
3.9661946645
 30
0.0
 10
4.7122125474
 20
3.9416343718
 30
0.0
 10
4.7136790809
 20
3.9217407353
 30
0.0
 10
4.7147470806
 20
3.9066465837
 30
0.0
 10
4.7157752446
 20
3.8914413081
 30
0.0
 10
4.716759919
 20
3.8761302356
 30
0.0
 10
4.717696609
 20
3.8607197881
 30
0.0
 10
4.7185804151
 20
3.8452172006
 30
0.0
 10
4.7194077181
 20
3.8296298176
 30
0.0
 10
4.7204340755
 20
3.8087032207
 30
0.0
 10
4.7211051753
 20
3.7929693746
 30
0.0
 10
4.7215007441
 20
3.7824576552
 30
0.0
  0
SPLINE
  5
31C
100
AcDbEntity
  8
0
100
AcDbSpline
 62
7
  6
CONTINUOUS
 70
0
 71
3
 72
17
 73
13
 74
0
 42
0.0000001
 43
0.0000001
 44
0.0000000001
 40
0.0
 40
0.0
 40
0.0
 40
0.0
 40
0.1501987076
 40
0.2978021275
 40
0.44035897
 40
0.57549395
 40
0.700971356
 40
0.8147301761
 40
0.8666292126
 40
0.9149297688
 40
0.9594480577
 40
1.0
 40
1.0
 40
1.0
 40
1.0
 10
4.7214940089
 20
3.7824571181
 30
0.0
 10
4.7201972778
 20
3.7824115641
 30
0.0
 10
4.7176254934
 20
3.7823407171
 30
0.0
 10
4.7138214654
 20
3.7822946269
 30
0.0
 10
4.7101472979
 20
3.7823097376
 30
0.0
 10
4.7066650327
 20
3.7823856423
 30
0.0
 10
4.7034335281
 20
3.782520883
 30
0.0
 10
4.7009235182
 20
3.7826852818
 30
0.0
 10
4.6990823097
 20
3.7828482645
 30
0.0
 10
4.6978389926
 20
3.7829798184
 30
0.0
 10
4.6966957907
 20
3.78312384
 30
0.0
 10
4.6959689199
 20
3.7832328788
 30
0.0
 10
4.6956233058
 20
3.7832900978
 30
0.0
  0
SPLINE
  5
31D
100
AcDbEntity
  8
0
100
AcDbSpline
 62
7
  6
CONTINUOUS
 70
0
 71
3
 72
16
 73
12
 74
0
 42
0.0000001
 43
0.0000001
 44
0.0000000001
 40
0.0
 40
0.0
 40
0.0
 40
0.0
 40
0.1505211602
 40
0.2984177672
 40
0.4412094553
 40
0.5764909918
 40
0.7019953625
 40
0.8156272404
 40
0.9155017541
 40
0.9597693831
 40
1.0
 40
1.0
 40
1.0
 40
1.0
 10
4.7223928401
 20
3.7626470524
 30
0.0
 10
4.7210949383
 20
3.7625822367
 30
0.0
 10
4.7185210203
 20
3.7624681712
 30
0.0
 10
4.7147138282
 20
3.7623430216
 30
0.0
 10
4.7110369334
 20
3.7622664028
 30
0.0
 10
4.7075526552
 20
3.7622395228
 30
0.0
 10
4.7043200685
 20
3.7622626047
 30
0.0
 10
4.7013939694
 20
3.7623350771
 30
0.0
 10
4.6991706102
 20
3.7624386234
 30
0.0
 10
4.6975826173
 20
3.7625491647
 30
0.0
 10
4.6968558258
 20
3.7626127893
 30
0.0
 10
4.6965101903
 20
3.7626470523
 30
0.0
  0
SPLINE
  5
31E
100
AcDbEntity
  8
0
100
AcDbSpline
 62
7
  6
CONTINUOUS
 70
0
 71
3
 72
47
 73
43
 74
0
 42
0.0000001
 43
0.0000001
 44
0.0000000001
 40
0.0
 40
0.0
 40
0.0
 40
0.0
 40
0.1357438418
 40
0.2037208403
 40
0.2717584116
 40
0.3057912612
 40
0.3398253644
 40
0.3738532058
 40
0.4078650364
 40
0.4418497162
 40
0.4757935607
 40
0.4927457385
 40
0.5096823175
 40
0.5181442158
 40
0.5266014975
 40
0.5434993956
 40
0.5603699276
 40
0.5772066657
 40
0.5939983563
 40
0.610731974
 40
0.6273923271
 40
0.6439615376
 40
0.6604196853
 40
0.6767438375
 40
0.6929080375
 40
0.7088845508
 40
0.7167939719
 40
0.7246462267
 40
0.7401713052
 40
0.7554495757
 40
0.7704768682
 40
0.7852521997
 40
0.7997747463
 40
0.8140447915
 40
0.8280642671
 40
0.8553598752
 40
0.8816894726
 40
0.9070838455
 40
0.9315763431
 40
0.9552017343
 40
0.9779968965
 40
1.0
 40
1.0
 40
1.0
 40
1.0
 10
4.7223928401
 20
3.7626470524
 30
0.0
 10
4.7243124089
 20
3.7246686932
 30
0.0
 10
4.7269167871
 20
3.6676554204
 30
0.0
 10
4.7292364619
 20
3.5915597583
 30
0.0
 10
4.7300782236
 20
3.5439288576
 30
0.0
 10
4.7303085119
 20
3.5058013022
 30
0.0
 10
4.7302401662
 20
3.4772005039
 30
0.0
 10
4.7299113321
 20
3.4486073573
 30
0.0
 10
4.7293030746
 20
3.420032566
 30
0.0
 10
4.7283965228
 20
3.3914891819
 30
0.0
 10
4.7273776605
 20
3.3677322433
 30
0.0
 10
4.7263962697
 20
3.3487551064
 30
0.0
 10
4.7257126829
 20
3.3369107593
 30
0.0
 10
4.7251227652
 20
3.3274448681
 30
0.0
 10
4.7245044994
 20
3.3179916463
 30
0.0
 10
4.7236731254
 20
3.3061918106
 30
0.0
 10
4.722563111
 20
3.2920587931
 30
0.0
 10
4.7213241745
 20
3.2779662932
 30
0.0
 10
4.7199334809
 20
3.2639264043
 30
0.0
 10
4.7183666044
 20
3.2499546905
 30
0.0
 10
4.7166008422
 20
3.2360694149
 30
0.0
 10
4.7146147769
 20
3.2222917504
 30
0.0
 10
4.7123877701
 20
3.2086462318
 30
0.0
 10
4.7099008178
 20
3.1951608459
 30
0.0
 10
4.7071341003
 20
3.1818676298
 30
0.0
 10
4.7045684475
 20
3.1709439549
 30
0.0
 10
4.7023618328
 20
3.1623308483
 30
0.0
 10
4.7000702945
 20
3.1538708977
 30
0.0
 10
4.6970248961
 20
3.1434775948
 30
0.0
 10
4.6930881914
 20
3.1312556728
 30
0.0
 10
4.6889030079
 20
3.1193389915
 30
0.0
 10
4.684486767
 20
3.1077322902
 30
0.0
 10
4.6798546339
 20
3.0964390664
 30
0.0
 10
4.6750209258
 20
3.0854615574
 30
0.0
 10
4.6683849357
 20
3.0713734414
 30
0.0
 10
4.6596644608
 20
3.0545394168
 30
0.0
 10
4.6484855518
 20
3.0354221142
 30
0.0
 10
4.6367568673
 20
3.0175690635
 30
0.0
 10
4.6245360798
 20
3.0009809907
 30
0.0
 10
4.611870624
 20
2.9856624451
 30
0.0
 10
4.5988015354
 20
2.9716256373
 30
0.0
 10
4.5896846066
 20
2.9629862858
 30
0.0
 10
4.5850683962
 20
2.9589016814
 30
0.0
  0
SPLINE
  5
31F
100
AcDbEntity
  8
0
100
AcDbSpline
 62
7
  6
CONTINUOUS
 70
0
 71
3
 72
11
 73
7
 74
0
 42
0.0000001
 43
0.0000001
 44
0.0000000001
 40
0.0
 40
0.0
 40
0.0
 40
0.0
 40
0.2610755814
 40
0.5146209692
 40
0.7607449486
 40
1.0
 40
1.0
 40
1.0
 40
1.0
 10
4.5850683991
 20
2.958901671
 30
0.0
 10
4.5840061278
 20
2.9591594154
 30
0.0
 10
4.581881834
 20
2.9595518904
 30
0.0
 10
4.5786954564
 20
2.9597560154
 30
0.0
 10
4.5755993483
 20
2.9595635241
 30
0.0
 10
4.5735985323
 20
2.9591664045
 30
0.0
 10
4.5726324166
 20
2.9589016604
 30
0.0
  0
SPLINE
  5
320
100
AcDbEntity
  8
0
100
AcDbSpline
 62
7
  6
CONTINUOUS
 70
0
 71
3
 72
34
 73
30
 74
0
 42
0.0000001
 43
0.0000001
 44
0.0000000001
 40
0.0
 40
0.0
 40
0.0
 40
0.0
 40
0.0147634302
 40
0.029747544
 40
0.0451572838
 40
0.0611812624
 40
0.0694792082
 40
0.0779911061
 40
0.0957178346
 40
0.1144818835
 40
0.1343769124
 40
0.155477092
 40
0.1778406651
 40
0.2015112853
 40
0.2265212941
 40
0.2528928631
 40
0.2806397618
 40
0.3097686594
 40
0.3402791384
 40
0.3721658641
 40
0.4054172775
 40
0.4400180818
 40
0.475948484
 40
0.5516995641
 40
0.632456745
 40
0.7179664134
 40
0.8079404
 40
0.9020666037
 40
1.0
 40
1.0
 40
1.0
 40
1.0
 10
5.0618283373
 20
4.9695825919
 30
0.0
 10
5.0618282735
 20
4.9701693802
 30
0.0
 10
5.0617525565
 20
4.9713530421
 30
0.0
 10
5.0614139808
 20
4.9731200359
 30
0.0
 10
5.0608513384
 20
4.9748814232
 30
0.0
 10
5.0602046257
 20
4.9763256183
 30
0.0
 10
5.0595824572
 20
4.9774732523
 30
0.0
 10
5.0588700957
 20
4.9786472095
 30
0.0
 10
5.0578359568
 20
4.9801097223
 30
0.0
 10
5.0563944979
 20
4.981828582
 30
0.0
 10
5.0547377674
 20
4.9835332417
 30
0.0
 10
5.0528677344
 20
4.9852221842
 30
0.0
 10
5.0507862437
 20
4.9868938447
 30
0.0
 10
5.0484954366
 20
4.9885467048
 30
0.0
 10
5.0459975473
 20
4.9901790891
 30
0.0
 10
5.0432950634
 20
4.991789365
 30
0.0
 10
5.0403906735
 20
4.993375869
 30
0.0
 10
5.0372872963
 20
4.9949368879
 30
0.0
 10
5.0339881415
 20
4.9964708397
 30
0.0
 10
5.0304966352
 20
4.9979759917
 30
0.0
 10
5.0268165336
 20
4.9994508404
 30
0.0
 10
5.0229517937
 20
5.0008937712
 30
0.0
 10
5.0174610057
 20
5.0028069109
 30
0.0
 10
5.0101613309
 20
5.0050979714
 30
0.0
 10
5.0008853034
 20
5.007651032
 30
0.0
 10
4.9909840298
 20
5.0100429711
 30
0.0
 10
4.9804993475
 20
5.0122634489
 30
0.0
 10
4.9694755518
 20
5.0143026775
 30
0.0
 10
4.9619376732
 20
5.0155127849
 30
0.0
 10
4.9580879506
 20
5.0160880567
 30
0.0
  0
SPLINE
  5
321
100
AcDbEntity
  8
0
100
AcDbSpline
 62
7
  6
CONTINUOUS
 70
0
 71
3
 72
33
 73
29
 74
0
 42
0.0000001
 43
0.0000001
 44
0.0000000001
 40
0.0
 40
0.0
 40
0.0
 40
0.0
 40
0.0979631039
 40
0.1920578584
 40
0.2819584177
 40
0.3673632586
 40
0.4479970044
 40
0.5236160671
 40
0.5594809647
 40
0.594018367
 40
0.6272102441
 40
0.6590424131
 40
0.6895049076
 40
0.7185936916
 40
0.7463095402
 40
0.7726606017
 40
0.7976616945
 40
0.8213363422
 40
0.8437178412
 40
0.8648507445
 40
0.8847936149
 40
0.9036208739
 40
0.9214267072
 40
0.938326464
 40
0.954459598
 40
0.9699900128
 40
0.9851030776
 40
1.0
 40
1.0
 40
1.0
 40
1.0
 10
4.9609138066
 20
4.9235071009
 30
0.0
 10
4.9646692914
 20
4.9240890334
 30
0.0
 10
4.9720199051
 20
4.9253098691
 30
0.0
 10
4.9827655463
 20
4.9273583394
 30
0.0
 10
4.9929787001
 20
4.9295808541
 30
0.0
 10
5.0026177729
 20
4.931967774
 30
0.0
 10
5.0116431725
 20
4.9345090574
 30
0.0
 10
5.0187421997
 20
4.9367849522
 30
0.0
 10
5.0240799021
 20
4.9386827033
 30
0.0
 10
5.0278359556
 20
4.9401128619
 30
0.0
 10
5.0314118356
 20
4.9415735437
 30
0.0
 10
5.0348038068
 20
4.9430632508
 30
0.0
 10
5.0380083415
 20
4.9445805073
 30
0.0
 10
5.0410222217
 20
4.9461236543
 30
0.0
 10
5.0438424176
 20
4.9476912026
 30
0.0
 10
5.0464662091
 20
4.9492814707
 30
0.0
 10
5.0488910559
 20
4.9508929106
 30
0.0
 10
5.0511146451
 20
4.952523923
 30
0.0
 10
5.053134861
 20
4.954172931
 30
0.0
 10
5.0549496888
 20
4.9558384676
 30
0.0
 10
5.0565573106
 20
4.9575190294
 30
0.0
 10
5.0579558728
 20
4.9592133206
 30
0.0
 10
5.0591438027
 20
4.9609198736
 30
0.0
 10
5.0601194182
 20
4.9626373664
 30
0.0
 10
5.0608810156
 20
4.9643643211
 30
0.0
 10
5.0614267748
 20
4.9660991526
 30
0.0
 10
5.0617550021
 20
4.9678392428
 30
0.0
 10
5.0618283194
 20
4.9690046924
 30
0.0
 10
5.0618283373
 20
4.9695825919
 30
0.0
  0
SPLINE
  5
322
100
AcDbEntity
  8
0
100
AcDbSpline
 62
7
  6
CONTINUOUS
 70
0
 71
3
 72
15
 73
11
 74
0
 42
0.0000001
 43
0.0000001
 44
0.0000000001
 40
0.0
 40
0.0
 40
0.0
 40
0.0
 40
0.1303808676
 40
0.2602404821
 40
0.3890623264
 40
0.5163322341
 40
0.6415479364
 40
0.7642132951
 40
0.8838508279
 40
1.0
 40
1.0
 40
1.0
 40
1.0
 10
4.8543478277
 20
4.9158826449
 30
0.0
 10
4.8588711893
 20
4.915882687
 30
0.0
 10
4.8679000137
 20
4.9159596098
 30
0.0
 10
4.8813941699
 20
4.9163032737
 30
0.0
 10
4.8947726749
 20
4.9168737657
 30
0.0
 10
4.9079782996
 20
4.9176692667
 30
0.0
 10
4.9209545638
 20
4.9186856134
 30
0.0
 10
4.9336460433
 20
4.9199190899
 30
0.0
 10
4.945998532
 20
4.921364061
 30
0.0
 10
4.9541028279
 20
4.922481682
 30
0.0
 10
4.9580882123
 20
4.923077088
 30
0.0
  0
SPLINE
  5
323
100
AcDbEntity
  8
0
100
AcDbSpline
 62
7
  6
CONTINUOUS
 70
0
 71
3
 72
15
 73
11
 74
0
 42
0.0000001
 43
0.0000001
 44
0.0000000001
 40
0.0
 40
0.0
 40
0.0
 40
0.0
 40
0.1161488021
 40
0.2357873962
 40
0.3584523915
 40
0.4836679893
 40
0.6109377757
 40
0.7397593489
 40
0.8696191346
 40
1.0
 40
1.0
 40
1.0
 40
1.0
 10
4.7506077016
 20
4.9230770489
 30
0.0
 10
4.7545930586
 20
4.9224816148
 30
0.0
 10
4.7626973561
 20
4.9213639714
 30
0.0
 10
4.7750498427
 20
4.9199191563
 30
0.0
 10
4.7877413017
 20
4.9186855939
 30
0.0
 10
4.8007175145
 20
4.9176692605
 30
0.0
 10
4.8139230882
 20
4.9168737633
 30
0.0
 10
4.8273015484
 20
4.9163031785
 30
0.0
 10
4.8407956705
 20
4.9159596206
 30
0.0
 10
4.8498244775
 20
4.9158826987
 30
0.0
 10
4.8543478277
 20
4.9158826449
 30
0.0
  0
SPLINE
  5
324
100
AcDbEntity
  8
0
100
AcDbSpline
 62
7
  6
CONTINUOUS
 70
0
 71
3
 72
18
 73
14
 74
0
 42
0.0000001
 43
0.0000001
 44
0.0000000001
 40
0.0
 40
0.0
 40
0.0
 40
0.0
 40
0.1241283547
 40
0.2483447458
 40
0.3727586587
 40
0.497436162
 40
0.5599293401
 40
0.6225003531
 40
0.6850848892
 40
0.7476511922
 40
0.810329813
 40
0.873285839
 40
1.0
 40
1.0
 40
1.0
 40
1.0
 10
5.1445665276
 20
5.0835091025
 30
0.0
 10
5.1445323287
 20
5.082881944
 30
0.0
 10
5.1444002044
 20
5.0816297258
 30
0.0
 10
5.144012802
 20
5.0797806264
 30
0.0
 10
5.143440101
 20
5.0779772641
 30
0.0
 10
5.1428129616
 20
5.0765276055
 30
0.0
 10
5.142225609
 20
5.0754082205
 30
0.0
 10
5.1417427879
 20
5.0745901554
 30
0.0
 10
5.1412191125
 20
5.0737971828
 30
0.0
 10
5.1406550576
 20
5.0730317371
 30
0.0
 10
5.1400523841
 20
5.0722938851
 30
0.0
 10
5.139198567
 20
5.0713440413
 30
0.0
 10
5.1385079639
 20
5.0706749722
 30
0.0
 10
5.1380270995
 20
5.0702508566
 30
0.0
  0
SPLINE
  5
325
100
AcDbEntity
  8
0
100
AcDbSpline
 62
7
  6
CONTINUOUS
 70
0
 71
3
 72
33
 73
29
 74
0
 42
0.0000001
 43
0.0000001
 44
0.0000000001
 40
0.0
 40
0.0
 40
0.0
 40
0.0
 40
0.0148969628
 40
0.0300100985
 40
0.0455403367
 40
0.0616730255
 40
0.0785725578
 40
0.0963786971
 40
0.1152063655
 40
0.1351492545
 40
0.1562819293
 40
0.1786632959
 40
0.2023379895
 40
0.2273392269
 40
0.2536904415
 40
0.2814063918
 40
0.3104951753
 40
0.3409576019
 40
0.3727896943
 40
0.4059815263
 40
0.4405189738
 40
0.476383994
 40
0.5520032686
 40
0.6326367677
 40
0.7180416495
 40
0.8079427146
 40
0.9020363889
 40
1.0
 40
1.0
 40
1.0
 40
1.0
 10
4.6468673149
 20
4.9695825137
 30
0.0
 10
4.6468673778
 20
4.969004612
 30
0.0
 10
4.6469407924
 20
4.9678391636
 30
0.0
 10
4.6472691017
 20
4.9660990952
 30
0.0
 10
4.6478147782
 20
4.9643642644
 30
0.0
 10
4.6485762249
 20
4.9626372762
 30
0.0
 10
4.6495517982
 20
4.960919768
 30
0.0
 10
4.6507398118
 20
4.9592132455
 30
0.0
 10
4.6521384518
 20
4.9575189817
 30
0.0
 10
4.6537460742
 20
4.9558384091
 30
0.0
 10
4.6555608717
 20
4.9541728557
 30
0.0
 10
4.6575810736
 20
4.9525238456
 30
0.0
 10
4.6598046722
 20
4.9508928378
 30
0.0
 10
4.6622295419
 20
4.9492814036
 30
0.0
 10
4.6648533574
 20
4.9476911404
 30
0.0
 10
4.6676735699
 20
4.946123596
 30
0.0
 10
4.6706874541
 20
4.9445804481
 30
0.0
 10
4.6738919848
 20
4.9430631892
 30
0.0
 10
4.6772839507
 20
4.9415734803
 30
0.0
 10
4.6808598304
 20
4.9401127966
 30
0.0
 10
4.6846158937
 20
4.9386826408
 30
0.0
 10
4.6899536197
 20
4.9367848972
 30
0.0
 10
4.6970526634
 20
4.9345090231
 30
0.0
 10
4.7060780631
 20
4.9319677112
 30
0.0
 10
4.7157171569
 20
4.9295807869
 30
0.0
 10
4.7259303172
 20
4.9273583626
 30
0.0
 10
4.7366759369
 20
4.9253097455
 30
0.0
 10
4.7440265442
 20
4.9240889598
 30
0.0
 10
4.7477820556
 20
4.9235070496
 30
0.0
  0
SPLINE
  5
326
100
AcDbEntity
  8
0
100
AcDbSpline
 62
7
  6
CONTINUOUS
 70
0
 71
3
 72
34
 73
30
 74
0
 42
0.0000001
 43
0.0000001
 44
0.0000000001
 40
0.0
 40
0.0
 40
0.0
 40
0.0
 40
0.0979326151
 40
0.1920597866
 40
0.2820336424
 40
0.367543048
 40
0.4483005669
 40
0.5240515007
 40
0.5599817797
 40
0.59458252
 40
0.6278339673
 40
0.6597207739
 40
0.6902313335
 40
0.7193602593
 40
0.7471070825
 40
0.773478512
 40
0.7984883766
 40
0.8221589361
 40
0.844522617
 40
0.8656230341
 40
0.8855180941
 40
0.9042817668
 40
0.9220081679
 40
0.9305200836
 40
0.9388181951
 40
0.9548426228
 40
0.9702525558
 40
0.985236606
 40
1.0
 40
1.0
 40
1.0
 40
1.0
 10
4.7506074398
 20
5.0160880176
 30
0.0
 10
4.7467577567
 20
5.015512725
 30
0.0
 10
4.7392198934
 20
5.0143025429
 30
0.0
 10
4.7281960857
 20
5.0122634463
 30
0.0
 10
4.7177114006
 20
5.0100429294
 30
0.0
 10
4.7078101529
 20
5.0076509514
 30
0.0
 10
4.6985341279
 20
5.0050979378
 30
0.0
 10
4.6912344664
 20
5.0028068558
 30
0.0
 10
4.6857437032
 20
5.0008937078
 30
0.0
 10
4.681878977
 20
4.9994507728
 30
0.0
 10
4.6781988782
 20
4.9979759254
 30
0.0
 10
4.6747073677
 20
4.9964707755
 30
0.0
 10
4.6714082086
 20
4.9949368259
 30
0.0
 10
4.6683048336
 20
4.9933758091
 30
0.0
 10
4.6654004586
 20
4.9917893019
 30
0.0
 10
4.6626979986
 20
4.9901790213
 30
0.0
 10
4.660200134
 20
4.9885466311
 30
0.0
 10
4.6579093397
 20
4.9868937663
 30
0.0
 10
4.6558278393
 20
4.9852221059
 30
0.0
 10
4.6539577761
 20
4.9835331798
 30
0.0
 10
4.6523010391
 20
4.9818285345
 30
0.0
 10
4.6508596537
 20
4.9801096491
 30
0.0
 10
4.6498255935
 20
4.9786471186
 30
0.0
 10
4.6491132393
 20
4.9774731666
 30
0.0
 10
4.6484910163
 20
4.9763255364
 30
0.0
 10
4.6478441795
 20
4.9748813651
 30
0.0
 10
4.6472814457
 20
4.9731199793
 30
0.0
 10
4.646942951
 20
4.9713529628
 30
0.0
 10
4.6468673331
 20
4.9701692998
 30
0.0
 10
4.6468673149
 20
4.9695825137
 30
0.0
  0
SPLINE
  5
327
100
AcDbEntity
  8
0
100
AcDbSpline
 62
7
  6
CONTINUOUS
 70
0
 71
3
 72
15
 73
11
 74
0
 42
0.0000001
 43
0.0000001
 44
0.0000000001
 40
0.0
 40
0.0
 40
0.0
 40
0.0
 40
0.1303808676
 40
0.2602404822
 40
0.3890623264
 40
0.5163322341
 40
0.6415479364
 40
0.7642132951
 40
0.8838508279
 40
1.0
 40
1.0
 40
1.0
 40
1.0
 10
4.8543478245
 20
5.0232824607
 30
0.0
 10
4.8498244629
 20
5.0232824186
 30
0.0
 10
4.8407956385
 20
5.0232054958
 30
0.0
 10
4.8273014823
 20
5.0228618319
 30
0.0
 10
4.8139229773
 20
5.0222913399
 30
0.0
 10
4.8007173526
 20
5.0214958389
 30
0.0
 10
4.7877410884
 20
5.0204794922
 30
0.0
 10
4.7750496088
 20
5.0192460157
 30
0.0
 10
4.7626971201
 20
5.0178010446
 30
0.0
 10
4.7545928243
 20
5.0166834236
 30
0.0
 10
4.7506074398
 20
5.0160880176
 30
0.0
  0
LINE
  5
328
100
AcDbEntity
  8
0
100
AcDbLine
 62
7
  6
CONTINUOUS
 10
4.4549887677
 20
4.712984131
 11
4.4485726325
 21
4.7790966844
  0
SPLINE
  5
329
100
AcDbEntity
  8
0
100
AcDbSpline
 62
7
  6
CONTINUOUS
 70
0
 71
3
 72
15
 73
11
 74
0
 42
0.0000001
 43
0.0000001
 44
0.0000000001
 40
0.0
 40
0.0
 40
0.0
 40
0.0
 40
0.1161488021
 40
0.2357873962
 40
0.3584523915
 40
0.4836679893
 40
0.6109377757
 40
0.7397593489
 40
0.8696191346
 40
1.0
 40
1.0
 40
1.0
 40
1.0
 10
4.9580879506
 20
5.0160880567
 30
0.0
 10
4.9541025935
 20
5.0166834908
 30
0.0
 10
4.945998296
 20
5.0178011342
 30
0.0
 10
4.9336458094
 20
5.0192459493
 30
0.0
 10
4.9209543505
 20
5.0204795117
 30
0.0
 10
4.9079781377
 20
5.0214958451
 30
0.0
 10
4.894772564
 20
5.0222913423
 30
0.0
 10
4.8813941038
 20
5.0228619271
 30
0.0
 10
4.8678999817
 20
5.023205485
 30
0.0
 10
4.8588711747
 20
5.0232824069
 30
0.0
 10
4.8543478245
 20
5.0232824607
 30
0.0
  0
LINE
  5
32A
100
AcDbEntity
  8
0
100
AcDbLine
 62
7
  6
CONTINUOUS
 10
5.2536725972
 20
4.7129992962
 11
5.2571326781
 21
4.7125853645
  0
SPLINE
  5
32B
100
AcDbEntity
  8
0
100
AcDbSpline
 62
7
  6
CONTINUOUS
 70
0
 71
3
 72
11
 73
7
 74
0
 42
0.0000001
 43
0.0000001
 44
0.0000000001
 40
0.0
 40
0.0
 40
0.0
 40
0.0
 40
0.2566424129
 40
0.509698124
 40
0.7577792841
 40
1.0
 40
1.0
 40
1.0
 40
1.0
 10
5.0382765719
 20
4.5578249928
 30
0.0
 10
5.0399382153
 20
4.5580896095
 30
0.0
 10
5.0432051878
 20
4.5588575353
 30
0.0
 10
5.0478348712
 20
4.5607105382
 30
0.0
 10
5.0520427653
 20
4.5632076346
 30
0.0
 10
5.0545192034
 20
4.5652846183
 30
0.0
 10
5.0556434132
 20
4.5664062219
 30
0.0
  0
SPLINE
  5
32C
100
AcDbEntity
  8
0
100
AcDbSpline
 62
7
  6
CONTINUOUS
 70
0
 71
3
 72
11
 73
7
 74
0
 42
0.0000001
 43
0.0000001
 44
0.0000000001
 40
0.0
 40
0.0
 40
0.0
 40
0.0
 40
0.2566427994
 40
0.5096964122
 40
0.757776218
 40
1.0
 40
1.0
 40
1.0
 40
1.0
 10
4.6704435051
 20
4.5591594624
 30
0.0
 10
4.6687811296
 20
4.5594238096
 30
0.0
 10
4.6655126978
 20
4.5601914875
 30
0.0
 10
4.6608810428
 20
4.5620450002
 30
0.0
 10
4.6566716082
 20
4.5645434219
 30
0.0
 10
4.6541945584
 20
4.5666217626
 30
0.0
 10
4.6530701748
 20
4.5677441267
 30
0.0
  0
SPLINE
  5
32D
100
AcDbEntity
  8
0
100
AcDbSpline
 62
7
  6
CONTINUOUS
 70
0
 71
3
 72
39
 73
35
 74
0
 42
0.0000001
 43
0.0000001
 44
0.0000000001
 40
0.0
 40
0.0
 40
0.0
 40
0.0
 40
0.0306540104
 40
0.0613592825
 40
0.0921303644
 40
0.1229795425
 40
0.1539167086
 40
0.1849489997
 40
0.2160806228
 40
0.2473127474
 40
0.2786435011
 40
0.3100680535
 40
0.3415787865
 40
0.3731655426
 40
0.4048159408
 40
0.4365157508
 40
0.4682493141
 40
0.5
 40
0.5317506859
 40
0.5634842492
 40
0.5951840592
 40
0.6268344574
 40
0.6584212135
 40
0.6899319465
 40
0.7213564989
 40
0.7526872526
 40
0.7839193772
 40
0.8150510003
 40
0.8460832914
 40
0.8770204575
 40
0.9078696356
 40
0.9386407175
 40
0.9693459896
 40
1.0
 40
1.0
 40
1.0
 40
1.0
 10
4.7411306343
 20
5.9089394573
 30
0.0
 10
4.7417168495
 20
5.9057688786
 30
0.0
 10
4.7431777117
 20
5.8994717433
 30
0.0
 10
4.7462113423
 20
5.8902551021
 30
0.0
 10
4.7500662148
 20
5.8813274965
 30
0.0
 10
4.7547127901
 20
5.8727577572
 30
0.0
 10
4.7601156993
 20
5.8646106711
 30
0.0
 10
4.7662337913
 20
5.8569481307
 30
0.0
 10
4.7730205105
 20
5.8498282237
 30
0.0
 10
4.7804242443
 20
5.8433049182
 30
0.0
 10
4.7883887234
 20
5.8374276269
 30
0.0
 10
4.7968534513
 20
5.8322408493
 30
0.0
 10
4.8057541647
 20
5.8277838386
 30
0.0
 10
4.8150233211
 20
5.8240903128
 30
0.0
 10
4.8245906083
 20
5.8211882049
 30
0.0
 10
4.8343834747
 20
5.8190994573
 30
0.0
 10
4.8443276745
 20
5.8178398599
 30
0.0
 10
4.8543478261
 20
5.8174189336
 30
0.0
 10
4.8643679777
 20
5.8178398599
 30
0.0
 10
4.8743121775
 20
5.8190994573
 30
0.0
 10
4.8841050438
 20
5.8211882049
 30
0.0
 10
4.8936723311
 20
5.8240903128
 30
0.0
 10
4.9029414875
 20
5.8277838386
 30
0.0
 10
4.9118422009
 20
5.8322408493
 30
0.0
 10
4.9203069287
 20
5.8374276269
 30
0.0
 10
4.9282714078
 20
5.8433049182
 30
0.0
 10
4.9356751417
 20
5.8498282237
 30
0.0
 10
4.9424618609
 20
5.8569481307
 30
0.0
 10
4.9485799529
 20
5.8646106711
 30
0.0
 10
4.9539828621
 20
5.8727577572
 30
0.0
 10
4.9586294374
 20
5.8813274965
 30
0.0
 10
4.9624843098
 20
5.8902551021
 30
0.0
 10
4.9655179404
 20
5.8994717433
 30
0.0
 10
4.9669788027
 20
5.9057688786
 30
0.0
 10
4.9675650178
 20
5.9089394573
 30
0.0
  0
LINE
  5
32E
100
AcDbEntity
  8
0
100
AcDbLine
 62
7
  6
CONTINUOUS
 10
4.4550220942
 20
4.7130078897
 11
4.4515629239
 21
4.7125858297
  0
SPLINE
  5
32F
100
AcDbEntity
  8
0
100
AcDbSpline
 62
7
  6
CONTINUOUS
 70
0
 71
3
 72
15
 73
11
 74
0
 42
0.0000001
 43
0.0000001
 44
0.0000000001
 40
0.0
 40
0.0
 40
0.0
 40
0.0
 40
0.151378754
 40
0.2934142616
 40
0.4267540781
 40
0.5522251662
 40
0.6708682309
 40
0.7839757985
 40
0.893098554
 40
1.0
 40
1.0
 40
1.0
 40
1.0
 10
4.5836762529
 20
5.0483916645
 30
0.0
 10
4.5826631346
 20
5.0492459132
 30
0.0
 10
4.5807498008
 20
5.0509630957
 30
0.0
 10
4.5781548937
 20
5.0536556842
 30
0.0
 10
4.5759332716
 20
5.0563777926
 30
0.0
 10
4.5740895439
 20
5.0591264547
 30
0.0
 10
4.5726285948
 20
5.0618987522
 30
0.0
 10
4.5715562594
 20
5.0646918592
 30
0.0
 10
4.5708790585
 20
5.06750095
 30
0.0
 10
4.5706943192
 20
5.0693905413
 30
0.0
 10
4.5706704545
 20
5.0703260722
 30
0.0
  0
SPLINE
  5
330
100
AcDbEntity
  8
0
100
AcDbSpline
 62
7
  6
CONTINUOUS
 70
0
 71
3
 72
66
 73
62
 74
0
 42
0.0000001
 43
0.0000001
 44
0.0000000001
 40
0.0
 40
0.0
 40
0.0
 40
0.0
 40
0.0555425895
 40
0.0828105027
 40
0.1097626677
 40
0.1627897336
 40
0.2147597081
 40
0.2657925677
 40
0.2909929104
 40
0.3160011707
 40
0.3654990412
 40
0.4143822992
 40
0.4626771563
 40
0.4865530113
 40
0.5102011823
 40
0.5335795545
 40
0.5566432388
 40
0.6016278628
 40
0.6234383257
 40
0.6447186515
 40
0.665411525
 40
0.6854655093
 40
0.7048357109
 40
0.7234859373
 40
0.7413937397
 40
0.7585434473
 40
0.7749307127
 40
0.7905575351
 40
0.8054374737
 40
0.8195900342
 40
0.833048542
 40
0.8458483682
 40
0.8580197018
 40
0.8695902757
 40
0.8805841007
 40
0.8910197368
 40
0.9009149735
 40
0.9102841016
 40
0.9274917555
 40
0.9427278912
 40
0.9496283674
 40
0.9560597504
 40
0.9620269727
 40
0.9675350059
 40
0.972588872
 40
0.9771936174
 40
0.9813544853
 40
0.9850767753
 40
0.9883650079
 40
0.9912239558
 40
0.9936593521
 40
0.9947201003
 40
0.9956770513
 40
0.9965312419
 40
0.9972842315
 40
0.9979384167
 40
0.9984975997
 40
0.9989680724
 40
0.9993608831
 40
0.9996949633
 40
1.0
 40
1.0
 40
1.0
 40
1.0
 10
4.9993555976
 20
5.1501306626
 30
0.0
 10
4.9992796164
 20
5.1573968376
 30
0.0
 10
4.9992209191
 20
5.168230871
 30
0.0
 10
4.9992274655
 20
5.1825910052
 30
0.0
 10
4.9992848809
 20
5.1966219378
 30
0.0
 10
4.9994388414
 20
5.2138841102
 30
0.0
 10
4.9997199622
 20
5.2342954523
 30
0.0
 10
5.0000259118
 20
5.2510653801
 30
0.0
 10
5.0002991215
 20
5.2643078664
 30
0.0
 10
5.0005845382
 20
5.2773492286
 30
0.0
 10
5.0009654705
 20
5.2934876359
 30
0.0
 10
5.0014511257
 20
5.3126709418
 30
0.0
 10
5.0018643789
 20
5.3285028996
 30
0.0
 10
5.0021951506
 20
5.3410344079
 30
0.0
 10
5.002440804
 20
5.3503072326
 30
0.0
 10
5.0026877564
 20
5.3594737304
 30
0.0
 10
5.0030210128
 20
5.3714303342
 30
0.0
 10
5.003371991
 20
5.3831812336
 30
0.0
 10
5.0037452429
 20
5.3946979964
 30
0.0
 10
5.0040349618
 20
5.4030377188
 30
0.0
 10
5.0043433775
 20
5.4111468183
 30
0.0
 10
5.0046735716
 20
5.4190049522
 30
0.0
 10
5.0050264387
 20
5.4265945898
 30
0.0
 10
5.0054010224
 20
5.4339020452
 30
0.0
 10
5.0057890033
 20
5.4409178617
 30
0.0
 10
5.0061849355
 20
5.4476366819
 30
0.0
 10
5.0065892878
 20
5.4540560209
 30
0.0
 10
5.0070022064
 20
5.4601772228
 30
0.0
 10
5.007424727
 20
5.4660046808
 30
0.0
 10
5.007857983
 20
5.4715468507
 30
0.0
 10
5.0082998155
 20
5.476815295
 30
0.0
 10
5.0087484661
 20
5.4818229719
 30
0.0
 10
5.009200238
 20
5.4865823101
 30
0.0
 10
5.0096505596
 20
5.4911043925
 30
0.0
 10
5.0100959804
 20
5.4953987223
 30
0.0
 10
5.0105355747
 20
5.4994732618
 30
0.0
 10
5.0109675529
 20
5.503334803
 30
0.0
 10
5.0115179946
 20
5.5080745499
 30
0.0
 10
5.0121874154
 20
5.5135038793
 30
0.0
 10
5.0128775697
 20
5.5186049175
 30
0.0
 10
5.0134161809
 20
5.5223034485
 30
0.0
 10
5.0137982274
 20
5.5247992795
 30
0.0
 10
5.0141721598
 20
5.5271119809
 30
0.0
 10
5.0145381254
 20
5.5292433152
 30
0.0
 10
5.014896216
 20
5.5311950214
 30
0.0
 10
5.0152463105
 20
5.5329688526
 30
0.0
 10
5.015588277
 20
5.5345665281
 30
0.0
 10
5.0159219609
 20
5.5359895774
 30
0.0
 10
5.0162466452
 20
5.5372394669
 30
0.0
 10
5.0165615912
 20
5.5383174323
 30
0.0
 10
5.0168258284
 20
5.5391061289
 30
0.0
 10
5.01703436
 20
5.5396502149
 30
0.0
 10
5.0171805299
 20
5.5399964349
 30
0.0
 10
5.0173236165
 20
5.5402999789
 30
0.0
 10
5.0174634981
 20
5.5405608618
 30
0.0
 10
5.0176000696
 20
5.5407791656
 30
0.0
 10
5.017733328
 20
5.5409550766
 30
0.0
 10
5.017863562
 20
5.5410889142
 30
0.0
 10
5.0179917454
 20
5.5411809453
 30
0.0
 10
5.018119536
 20
5.5412302571
 30
0.0
 10
5.0182052902
 20
5.5412320086
 30
0.0
 10
5.0182446498
 20
5.541225418
 30
0.0
  0
SPLINE
  5
331
100
AcDbEntity
  8
0
100
AcDbSpline
 62
7
  6
CONTINUOUS
 70
0
 71
3
 72
15
 73
11
 74
0
 42
0.0000001
 43
0.0000001
 44
0.0000000001
 40
0.0
 40
0.0
 40
0.0
 40
0.0
 40
0.1302132986
 40
0.2599095101
 40
0.3885929448
 40
0.515780454
 40
0.6409949601
 40
0.7637597693
 40
0.8835920407
 40
1.0
 40
1.0
 40
1.0
 40
1.0
 10
4.8543513271
 20
5.1605298643
 30
0.0
 10
4.8606671973
 20
5.1605320365
 30
0.0
 10
4.873274178
 20
5.1604226618
 30
0.0
 10
4.8921168669
 20
5.1599246201
 30
0.0
 10
4.9108010943
 20
5.1590962634
 30
0.0
 10
4.9292504027
 20
5.157945001
 30
0.0
 10
4.9473893352
 20
5.1564778856
 30
0.0
 10
4.9651419245
 20
5.1546988894
 30
0.0
 10
4.9824310661
 20
5.1526140187
 30
0.0
 10
4.9937757403
 20
5.1509940271
 30
0.0
 10
4.9993555976
 20
5.1501306626
 30
0.0
  0
SPLINE
  5
332
100
AcDbEntity
  8
0
100
AcDbSpline
 62
7
  6
CONTINUOUS
 70
0
 71
3
 72
15
 73
11
 74
0
 42
0.0000001
 43
0.0000001
 44
0.0000000001
 40
0.0
 40
0.0
 40
0.0
 40
0.0
 40
0.1162708885
 40
0.2360180635
 40
0.358744624
 40
0.4839622764
 40
0.611186187
 40
0.7399312109
 40
0.8697045694
 40
1.0
 40
1.0
 40
1.0
 40
1.0
 10
4.7125506155
 20
5.1338190753
 30
0.0
 10
4.7180070353
 20
5.1346006033
 30
0.0
 10
4.729100749
 20
5.1360652358
 30
0.0
 10
4.7460038069
 20
5.1379531342
 30
0.0
 10
4.7633616781
 20
5.1395622212
 30
0.0
 10
4.7810988012
 20
5.1408886852
 30
0.0
 10
4.7991408244
 20
5.1419280144
 30
0.0
 10
4.8174134566
 20
5.1426751586
 30
0.0
 10
4.8358414118
 20
5.1431250847
 30
0.0
 10
4.8481708518
 20
5.143225227
 30
0.0
 10
4.8543478245
 20
5.1432245171
 30
0.0
  0
SPLINE
  5
333
100
AcDbEntity
  8
0
100
AcDbSpline
 62
7
  6
CONTINUOUS
 70
0
 71
3
 72
15
 73
11
 74
0
 42
0.0000001
 43
0.0000001
 44
0.0000000001
 40
0.0
 40
0.0
 40
0.0
 40
0.0
 40
0.123517675
 40
0.2472213344
 40
0.3712752326
 40
0.4958016577
 40
0.6209002619
 40
0.7466317796
 40
0.8730056044
 40
1.0
 40
1.0
 40
1.0
 40
1.0
 10
5.4228664325
 20
2.9341133847
 30
0.0
 10
5.4227984066
 20
2.9354270834
 30
0.0
 10
5.4224748447
 20
2.9380505712
 30
0.0
 10
5.4214374442
 20
2.9418791667
 30
0.0
 10
5.4198674031
 20
2.9455343153
 30
0.0
 10
5.4177941391
 20
2.9489464173
 30
0.0
 10
5.4152567817
 20
2.9520519229
 30
0.0
 10
5.4123027419
 20
2.954793119
 30
0.0
 10
5.4089880441
 20
2.9571187232
 30
0.0
 10
5.4065826561
 20
2.9583625385
 30
0.0
 10
5.4053424371
 20
2.9589020517
 30
0.0
  0
SPLINE
  5
334
100
AcDbEntity
  8
0
100
AcDbSpline
 62
7
  6
CONTINUOUS
 70
0
 71
3
 72
15
 73
11
 74
0
 42
0.0000001
 43
0.0000001
 44
0.0000000001
 40
0.0
 40
0.0
 40
0.0
 40
0.0
 40
0.1303818991
 40
0.2602419871
 40
0.3890624507
 40
0.516332298
 40
0.6415481749
 40
0.7642166662
 40
0.8838566785
 40
1.0
 40
1.0
 40
1.0
 40
1.0
 10
4.8543478244
 20
5.0419448061
 30
0.0
 10
4.8494071622
 20
5.0419447646
 30
0.0
 10
4.8395454099
 20
5.0418617084
 30
0.0
 10
4.8248064078
 20
5.0414887498
 30
0.0
 10
4.8101937392
 20
5.0408675985
 30
0.0
 10
4.7957699428
 20
5.0399994949
 30
0.0
 10
4.7815965985
 20
5.0388886362
 30
0.0
 10
4.7677343503
 20
5.0375393831
 30
0.0
 10
4.7542426821
 20
5.0359587383
 30
0.0
 10
4.7453910786
 20
5.0347370113
 30
0.0
 10
4.741038275
 20
5.0340867352
 30
0.0
  0
SPLINE
  5
335
100
AcDbEntity
  8
0
100
AcDbSpline
 62
7
  6
CONTINUOUS
 70
0
 71
3
 72
23
 73
19
 74
0
 42
0.0000001
 43
0.0000001
 44
0.0000000001
 40
0.0
 40
0.0
 40
0.0
 40
0.0
 40
0.0577903954
 40
0.1157846925
 40
0.174165371
 40
0.2331073287
 40
0.2927504592
 40
0.3532037633
 40
0.4145378442
 40
0.4767844645
 40
0.5399365584
 40
0.6039502488
 40
0.6687480398
 40
0.7342225649
 40
0.800242935
 40
0.8666555698
 40
0.9333014404
 40
1.0
 40
1.0
 40
1.0
 40
1.0
 10
4.4366517383
 20
5.2120843937
 30
0.0
 10
4.4357640715
 20
5.2120843939
 30
0.0
 10
4.4339838232
 20
5.2119787883
 30
0.0
 10
4.4313448209
 20
5.2115056973
 30
0.0
 10
4.4287618358
 20
5.2107228486
 30
0.0
 10
4.4262627097
 20
5.2096389288
 30
0.0
 10
4.4238736137
 20
5.2082655421
 30
0.0
 10
4.4216196272
 20
5.2066174986
 30
0.0
 10
4.4195242701
 20
5.2047123514
 30
0.0
 10
4.4176093352
 20
5.2025703142
 30
0.0
 10
4.4158946889
 20
5.200213992
 30
0.0
 10
4.4143980766
 20
5.1976681694
 30
0.0
 10
4.4131349822
 20
5.1949595495
 30
0.0
 10
4.4121184335
 20
5.1921164782
 30
0.0
 10
4.4113589875
 20
5.1891687138
 30
0.0
 10
4.4108643924
 20
5.1861469165
 30
0.0
 10
4.4106398809
 20
5.1830829979
 30
0.0
 10
4.4106717822
 20
5.1810318802
 30
0.0
 10
4.4107331914
 20
5.1800092251
 30
0.0
  0
SPLINE
  5
336
100
AcDbEntity
  8
0
100
AcDbSpline
 62
7
  6
CONTINUOUS
 70
0
 71
3
 72
15
 73
11
 74
0
 42
0.0000001
 43
0.0000001
 44
0.0000000001
 40
0.0
 40
0.0
 40
0.0
 40
0.0
 40
0.1302998282
 40
0.2600761659
 40
0.3888224643
 40
0.5160462748
 40
0.6412628192
 40
0.7639873867
 40
0.8837319555
 40
1.0
 40
1.0
 40
1.0
 40
1.0
 10
4.8543478245
 20
5.1432245171
 30
0.0
 10
4.8605243039
 20
5.1432229722
 30
0.0
 10
4.872852652
 20
5.1431185747
 30
0.0
 10
4.8912787986
 20
5.1426635647
 30
0.0
 10
4.9095493089
 20
5.1419104909
 30
0.0
 10
4.9275889579
 20
5.140865654
 30
0.0
 10
4.9453235234
 20
5.1395341407
 30
0.0
 10
4.9626786985
 20
5.137920372
 30
0.0
 10
4.9795789818
 20
5.13602824
 30
0.0
 10
4.990670825
 20
5.1345611435
 30
0.0
 10
4.9961263126
 20
5.1337784747
 30
0.0
  0
SPLINE
  5
337
100
AcDbEntity
  8
0
100
AcDbSpline
 62
7
  6
CONTINUOUS
 70
0
 71
3
 72
23
 73
19
 74
0
 42
0.0000001
 43
0.0000001
 44
0.0000000001
 40
0.0
 40
0.0
 40
0.0
 40
0.0
 40
0.0577903496
 40
0.1157846398
 40
0.1741653269
 40
0.2331072861
 40
0.2927504205
 40
0.3532037278
 40
0.4145378121
 40
0.4767844356
 40
0.5399365328
 40
0.6039502266
 40
0.6687480211
 40
0.7342225496
 40
0.8002429239
 40
0.8666555617
 40
0.933301437
 40
1.0
 40
1.0
 40
1.0
 40
1.0
 10
5.2720439141
 20
5.2120843937
 30
0.0
 10
5.2729315801
 20
5.2120843938
 30
0.0
 10
5.2747118274
 20
5.2119787883
 30
0.0
 10
5.2773508287
 20
5.2115056974
 30
0.0
 10
5.2799338136
 20
5.210722849
 30
0.0
 10
5.2824329396
 20
5.2096389293
 30
0.0
 10
5.2848220356
 20
5.2082655429
 30
0.0
 10
5.287076022
 20
5.2066174996
 30
0.0
 10
5.2891713792
 20
5.2047123526
 30
0.0
 10
5.2910863141
 20
5.2025703156
 30
0.0
 10
5.2928009604
 20
5.2002139937
 30
0.0
 10
5.2942975728
 20
5.1976681714
 30
0.0
 10
5.2955606674
 20
5.1949595518
 30
0.0
 10
5.2965772161
 20
5.1921164806
 30
0.0
 10
5.2973366625
 20
5.1891687165
 30
0.0
 10
5.2978312576
 20
5.1861469193
 30
0.0
 10
5.2980557689
 20
5.183083001
 30
0.0
 10
5.298023871
 20
5.1810318834
 30
0.0
 10
5.2979624619
 20
5.1800092283
 30
0.0
  0
SPLINE
  5
338
100
AcDbEntity
  8
0
100
AcDbSpline
 62
7
  6
CONTINUOUS
 70
0
 71
3
 72
19
 73
15
 74
0
 42
0.0000001
 43
0.0000001
 44
0.0000000001
 40
0.0
 40
0.0
 40
0.0
 40
0.0
 40
0.1505192056
 40
0.2962729545
 40
0.4355158095
 40
0.5022428559
 40
0.5668219925
 40
0.6291327317
 40
0.6890891036
 40
0.8017163989
 40
0.8545004803
 40
0.9050226833
 40
0.9534528535
 40
1.0
 40
1.0
 40
1.0
 40
1.0
 10
5.1803458742
 20
2.9228343936
 30
0.0
 10
5.180536483
 20
2.924185588
 30
0.0
 10
5.180808085
 20
2.9268612576
 30
0.0
 10
5.1808807036
 20
2.9308132974
 30
0.0
 10
5.1806542275
 20
2.933999226
 30
0.0
 10
5.180295706
 20
2.936426593
 30
0.0
 10
5.1799472416
 20
2.9381478251
 30
0.0
 10
5.1795170041
 20
2.939787342
 30
0.0
 10
5.1788511706
 20
2.9418108693
 30
0.0
 10
5.1780241081
 20
2.9436885245
 30
0.0
 10
5.1770251399
 20
2.9453742894
 30
0.0
 10
5.1762236553
 20
2.9464946679
 30
0.0
 10
5.1753577768
 20
2.9474923452
 30
0.0
 10
5.1747287734
 20
2.948083165
 30
0.0
 10
5.1744055237
 20
2.9483544242
 30
0.0
  0
SPLINE
  5
339
100
AcDbEntity
  8
0
100
AcDbSpline
 62
7
  6
CONTINUOUS
 70
0
 71
3
 72
15
 73
11
 74
0
 42
0.0000001
 43
0.0000001
 44
0.0000000001
 40
0.0
 40
0.0
 40
0.0
 40
0.0
 40
0.12371548
 40
0.2477981998
 40
0.372292775
 40
0.4971999023
 40
0.6224929682
 40
0.748115758
 40
0.8739822456
 40
1.0
 40
1.0
 40
1.0
 40
1.0
 10
5.4213266737
 20
2.9228343705
 30
0.0
 10
5.4212322306
 20
2.9242022335
 30
0.0
 10
5.4208473686
 20
2.9269324449
 30
0.0
 10
5.4196976652
 20
2.9309086354
 30
0.0
 10
5.4179973269
 20
2.9346975696
 30
0.0
 10
5.415779682
 20
2.9382243253
 30
0.0
 10
5.4130882418
 20
2.9414204815
 30
0.0
 10
5.4099753667
 20
2.9442238532
 30
0.0
 10
5.4065027527
 20
2.9465796917
 30
0.0
 10
5.4039913
 20
2.9478218924
 30
0.0
 10
5.402700149
 20
2.9483543577
 30
0.0
  0
SPLINE
  5
33A
100
AcDbEntity
  8
0
100
AcDbSpline
 62
7
  6
CONTINUOUS
 70
0
 71
3
 72
15
 73
11
 74
0
 42
0.0000001
 43
0.0000001
 44
0.0000000001
 40
0.0
 40
0.0
 40
0.0
 40
0.0
 40
0.1175730729
 40
0.2380672861
 40
0.3611065143
 40
0.4862926867
 40
0.6132098668
 40
0.7414281076
 40
0.8705071481
 40
1.0
 40
1.0
 40
1.0
 40
1.0
 10
4.9961263126
 20
5.1337784747
 30
0.0
 10
4.9944410944
 20
5.1300671518
 30
0.0
 10
4.99118283
 20
5.1224814581
 30
0.0
 10
4.9866867315
 20
5.11079493
 30
0.0
 10
4.9825370912
 20
5.0987015158
 30
0.0
 10
4.9787527966
 20
5.086256127
 30
0.0
 10
4.9753509492
 20
5.0735149845
 30
0.0
 10
4.9723469542
 20
5.0605356966
 30
0.0
 10
4.9697544397
 20
5.0473771738
 30
0.0
 10
4.9683088119
 20
5.038528466
 30
0.0
 10
4.9676570728
 20
5.0340867806
 30
0.0
  0
SPLINE
  5
33B
100
AcDbEntity
  8
0
100
AcDbSpline
 62
7
  6
CONTINUOUS
 70
0
 71
3
 72
15
 73
11
 74
0
 42
0.0000001
 43
0.0000001
 44
0.0000000001
 40
0.0
 40
0.0
 40
0.0
 40
0.0
 40
0.1161433464
 40
0.2357833628
 40
0.3584518597
 40
0.4836677325
 40
0.6109375723
 40
0.7397580202
 40
0.8696181074
 40
1.0
 40
1.0
 40
1.0
 40
1.0
 10
4.9676570728
 20
5.0340867806
 30
0.0
 10
4.9633042847
 20
5.0347370868
 30
0.0
 10
4.9544527058
 20
5.0359588344
 30
0.0
 10
4.9409610541
 20
5.0375393156
 30
0.0
 10
4.9270988523
 20
5.0388886553
 30
0.0
 10
4.9129255435
 20
5.0399994898
 30
0.0
 10
4.8985017873
 20
5.040867586
 30
0.0
 10
4.8838891634
 20
5.0414888603
 30
0.0
 10
4.8691501983
 20
5.0418617211
 30
0.0
 10
4.8592884731
 20
5.0419447567
 30
0.0
 10
4.8543478244
 20
5.0419448061
 30
0.0
  0
SPLINE
  5
33C
100
AcDbEntity
  8
0
100
AcDbSpline
 62
7
  6
CONTINUOUS
 70
0
 71
3
 72
34
 73
30
 74
0
 42
0.0000001
 43
0.0000001
 44
0.0000000001
 40
0.0
 40
0.0
 40
0.0
 40
0.0
 40
0.0979679394
 40
0.192087433
 40
0.2820552536
 40
0.3675878711
 40
0.4484172631
 40
0.4869903698
 40
0.524293947
 40
0.5602983804
 40
0.5949756692
 40
0.6282995087
 40
0.6602478546
 40
0.6908071421
 40
0.7199708436
 40
0.747746381
 40
0.7741474554
 40
0.7991923189
 40
0.8229048351
 40
0.8453162775
 40
0.8664670385
 40
0.8864083519
 40
0.9052047681
 40
0.9229374108
 40
0.9397071746
 40
0.9556375714
 40
0.9708772642
 40
0.9855998934
 40
1.0
 40
1.0
 40
1.0
 40
1.0
 10
4.9961267639
 20
5.1337794685
 30
0.0
 10
5.0013687927
 20
5.1329669326
 30
0.0
 10
5.0116298656
 20
5.1312606898
 30
0.0
 10
5.0266326792
 20
5.1283962639
 30
0.0
 10
5.0408992683
 20
5.1252902709
 30
0.0
 10
5.0543748707
 20
5.1219588994
 30
0.0
 10
5.0650617155
 20
5.1189632257
 30
0.0
 10
5.0731686844
 20
5.1164570616
 30
0.0
 10
5.0789224133
 20
5.1145601185
 30
0.0
 10
5.0844379975
 20
5.1126181976
 30
0.0
 10
5.0897086326
 20
5.1106332442
 30
0.0
 10
5.0947279013
 20
5.1086080067
 30
0.0
 10
5.099489741
 20
5.1065449262
 30
0.0
 10
5.1039886692
 20
5.1044461779
 30
0.0
 10
5.1082201262
 20
5.1023134527
 30
0.0
 10
5.1121811815
 20
5.1001497409
 30
0.0
 10
5.1158695947
 20
5.0979577388
 30
0.0
 10
5.1192833384
 20
5.0957402102
 30
0.0
 10
5.1224204744
 20
5.0934999316
 30
0.0
 10
5.1252788904
 20
5.0912392837
 30
0.0
 10
5.127856386
 20
5.0889604632
 30
0.0
 10
5.130150813
 20
5.0866657025
 30
0.0
 10
5.1321599949
 20
5.0843571746
 30
0.0
 10
5.1338816253
 20
5.0820369322
 30
0.0
 10
5.1353132238
 20
5.0797069453
 30
0.0
 10
5.1364519643
 20
5.0773692168
 30
0.0
 10
5.1372944867
 20
5.0750257536
 30
0.0
 10
5.1378371541
 20
5.0726799952
 30
0.0
 10
5.1379977988
 20
5.071106165
 30
0.0
 10
5.1380261255
 20
5.0703269633
 30
0.0
  0
SPLINE
  5
33D
100
AcDbEntity
  8
0
100
AcDbSpline
 62
7
  6
CONTINUOUS
 70
0
 71
3
 72
15
 73
11
 74
0
 42
0.0000001
 43
0.0000001
 44
0.0000000001
 40
0.0
 40
0.0
 40
0.0
 40
0.0
 40
0.1259595327
 40
0.2516250351
 40
0.3769999628
 40
0.5020930967
 40
0.6269184222
 40
0.7514948994
 40
0.8758461424
 40
1.0
 40
1.0
 40
1.0
 40
1.0
 10
5.1380261255
 20
5.0703269633
 30
0.0
 10
5.1346978633
 20
5.0674127506
 30
0.0
 10
5.1282424168
 20
5.0613659177
 30
0.0
 10
5.1192053588
 20
5.0516758107
 30
0.0
 10
5.1108646461
 20
5.0414185355
 30
0.0
 10
5.1032588726
 20
5.0306412481
 30
0.0
 10
5.0964225695
 20
5.0193929
 30
0.0
 10
5.0903868833
 20
5.0077245026
 30
0.0
 10
5.0851795797
 20
4.9956899495
 30
0.0
 10
5.0822734598
 20
4.9874515272
 30
0.0
 10
5.0809666239
 20
4.9832915895
 30
0.0
  0
SPLINE
  5
33E
100
AcDbEntity
  8
0
100
AcDbSpline
 62
7
  6
CONTINUOUS
 70
0
 71
3
 72
34
 73
30
 74
0
 42
0.0000001
 43
0.0000001
 44
0.0000000001
 40
0.0
 40
0.0
 40
0.0
 40
0.0
 40
0.0147650259
 40
0.0297535452
 40
0.0451692889
 40
0.0611995939
 40
0.0695002921
 40
0.0780143709
 40
0.0957437889
 40
0.1145090762
 40
0.1344041825
 40
0.1555036192
 40
0.177865464
 40
0.2015338272
 40
0.2265412571
 40
0.2529101336
 40
0.2806547616
 40
0.309781687
 40
0.3402914022
 40
0.3721774665
 40
0.4054289906
 40
0.4400296163
 40
0.4759596913
 40
0.5517091668
 40
0.6324645012
 40
0.7179719462
 40
0.8079445557
 40
0.9020679418
 40
1.0
 40
1.0
 40
1.0
 40
1.0
 10
5.0809666239
 20
4.9832915895
 30
0.0
 10
5.0809665777
 20
4.9839325918
 30
0.0
 10
5.0808840298
 20
4.9852257339
 30
0.0
 10
5.0805146287
 20
4.9871563813
 30
0.0
 10
5.0799003922
 20
4.9890811626
 30
0.0
 10
5.0791942644
 20
4.9906594503
 30
0.0
 10
5.0785148769
 20
4.9919136397
 30
0.0
 10
5.0777370654
 20
4.9931964789
 30
0.0
 10
5.0766078935
 20
4.9947945501
 30
0.0
 10
5.0750336701
 20
4.9966724577
 30
0.0
 10
5.0732241802
 20
4.9985345667
 30
0.0
 10
5.0711815141
 20
5.0003791215
 30
0.0
 10
5.06890779
 20
5.0022045017
 30
0.0
 10
5.0664053469
 20
5.0040090407
 30
0.0
 10
5.0636766782
 20
5.0057910082
 30
0.0
 10
5.0607245433
 20
5.0075487522
 30
0.0
 10
5.0575518919
 20
5.0092805295
 30
0.0
 10
5.0541620263
 20
5.0109848347
 30
0.0
 10
5.0505584595
 20
5.0126599907
 30
0.0
 10
5.0467449686
 20
5.0143043066
 30
0.0
 10
5.0427256074
 20
5.0159159364
 30
0.0
 10
5.0385046689
 20
5.0174930645
 30
0.0
 10
5.0325078239
 20
5.0195841666
 30
0.0
 10
5.0245352429
 20
5.0220882132
 30
0.0
 10
5.014403697
 20
5.0248774801
 30
0.0
 10
5.0035888301
 20
5.0274893005
 30
0.0
 10
4.9921365347
 20
5.0299126068
 30
0.0
 10
4.9800953394
 20
5.0321375922
 30
0.0
 10
4.9718619592
 20
5.0334584039
 30
0.0
 10
4.9676570728
 20
5.0340867806
 30
0.0
  0
SPLINE
  5
33F
100
AcDbEntity
  8
0
100
AcDbSpline
 62
7
  6
CONTINUOUS
 70
0
 71
3
 72
15
 73
11
 74
0
 42
0.0000001
 43
0.0000001
 44
0.0000000001
 40
0.0
 40
0.0
 40
0.0
 40
0.0
 40
0.1067139289
 40
0.2156288101
 40
0.3286372171
 40
0.4472729335
 40
0.5727856078
 40
0.7062232764
 40
0.8484164549
 40
1.0
 40
1.0
 40
1.0
 40
1.0
 10
5.1380292626
 20
5.07032971
 30
0.0
 10
5.138003006
 20
5.0693946453
 30
0.0
 10
5.137818448
 20
5.0675063462
 30
0.0
 10
5.1371440952
 20
5.0646969388
 30
0.0
 10
5.1360693772
 20
5.0619033047
 30
0.0
 10
5.1346047174
 20
5.059128969
 30
0.0
 10
5.1327568498
 20
5.0563764306
 30
0.0
 10
5.1305300372
 20
5.0536491938
 30
0.0
 10
5.12792879
 20
5.0509502429
 30
0.0
 10
5.1260109175
 20
5.049228275
 30
0.0
 10
5.1249953624
 20
5.0483714037
 30
0.0
  0
SPLINE
  5
340
100
AcDbEntity
  8
0
100
AcDbSpline
 62
7
  6
CONTINUOUS
 70
0
 71
3
 72
15
 73
11
 74
0
 42
0.0000001
 43
0.0000001
 44
0.0000000001
 40
0.0
 40
0.0
 40
0.0
 40
0.0
 40
0.1250459742
 40
0.2500764555
 40
0.3750842098
 40
0.5000789521
 40
0.6250629592
 40
0.7500401022
 40
0.875021964
 40
1.0
 40
1.0
 40
1.0
 40
1.0
 10
4.7293478264
 20
5.6685843937
 30
0.0
 10
4.7248220607
 20
5.6680513102
 30
0.0
 10
4.7157962172
 20
5.6667578406
 30
0.0
 10
4.7023736906
 20
5.6641445518
 30
0.0
 10
4.6890981232
 20
5.6608724675
 30
0.0
 10
4.6759982714
 20
5.656962846
 30
0.0
 10
4.6630979353
 20
5.6524425382
 30
0.0
 10
4.650416089
 20
5.6473434709
 30
0.0
 10
4.6379673611
 20
5.6417011473
 30
0.0
 10
4.6298293924
 20
5.6376018222
 30
0.0
 10
4.6258022655
 20
5.6354742833
 30
0.0
  0
SPLINE
  5
341
100
AcDbEntity
  8
0
100
AcDbSpline
 62
7
  6
CONTINUOUS
 70
0
 71
3
 72
36
 73
32
 74
0
 42
0.0000001
 43
0.0000001
 44
0.0000000001
 40
0.0
 40
0.0
 40
0.0
 40
0.0
 40
0.0154570972
 40
0.0311114971
 40
0.0471556347
 40
0.0637657623
 40
0.0723347204
 40
0.0811011588
 40
0.0992839937
 40
0.1184288349
 40
0.1386268124
 40
0.1599524754
 40
0.1824663083
 40
0.2062169902
 40
0.2312429328
 40
0.2575745038
 40
0.2852353469
 40
0.3142436651
 40
0.3446124717
 40
0.3763476637
 40
0.409435675
 40
0.4438548756
 40
0.4795827602
 40
0.5165949654
 40
0.5548651411
 40
0.5943652633
 40
0.6350658609
 40
0.7199430053
 40
0.8092434376
 40
0.9026934911
 40
1.0
 40
1.0
 40
1.0
 40
1.0
 10
4.5641036142
 20
5.0846285908
 30
0.0
 10
4.5641330028
 20
5.0854877198
 30
0.0
 10
4.5642973478
 20
5.0872150834
 30
0.0
 10
4.5648546128
 20
5.0897834697
 30
0.0
 10
4.5657190843
 20
5.09233292
 30
0.0
 10
4.5666823102
 20
5.0944179578
 30
0.0
 10
4.5675956517
 20
5.0960707913
 30
0.0
 10
4.5686303657
 20
5.0977541654
 30
0.0
 10
4.5701176698
 20
5.0998461451
 30
0.0
 10
4.5721742032
 20
5.1023005853
 30
0.0
 10
4.5745213688
 20
5.1047279728
 30
0.0
 10
4.5771566391
 20
5.107126739
 30
0.0
 10
4.5800778669
 20
5.1094952871
 30
0.0
 10
4.5832828768
 20
5.1118318576
 30
0.0
 10
4.5867696532
 20
5.1141343712
 30
0.0
 10
4.5905361182
 20
5.1164006242
 30
0.0
 10
4.5945802065
 20
5.1186282448
 30
0.0
 10
4.5988997694
 20
5.1208147512
 30
0.0
 10
4.6034922211
 20
5.1229579161
 30
0.0
 10
4.6083539141
 20
5.1250550217
 30
0.0
 10
4.6134790958
 20
5.1271047781
 30
0.0
 10
4.6188610993
 20
5.1291054919
 30
0.0
 10
4.6244929764
 20
5.1310558344
 30
0.0
 10
4.6303679069
 20
5.1329545695
 30
0.0
 10
4.6364791401
 20
5.1348003179
 30
0.0
 10
4.6428199245
 20
5.1365917337
 30
0.0
 10
4.651695946
 20
5.1389384644
 30
0.0
 10
4.6633214417
 20
5.1417140834
 30
0.0
 10
4.6778926207
 20
5.1447574828
 30
0.0
 10
4.6932180973
 20
5.1475437232
 30
0.0
 10
4.7036999211
 20
5.1491871986
 30
0.0
 10
4.7090552338
 20
5.1499657328
 30
0.0
  0
SPLINE
  5
342
100
AcDbEntity
  8
0
100
AcDbSpline
 62
7
  6
CONTINUOUS
 70
0
 71
3
 72
11
 73
7
 74
0
 42
0.0000001
 43
0.0000001
 44
0.0000000001
 40
0.0
 40
0.0
 40
0.0
 40
0.0
 40
0.2723582715
 40
0.5275501574
 40
0.7688463246
 40
1.0
 40
1.0
 40
1.0
 40
1.0
 10
5.4228664324
 20
2.9341133862
 30
0.0
 10
5.4229202728
 20
2.9330740506
 30
0.0
 10
5.4229462741
 20
2.931055429
 30
0.0
 10
5.4227090851
 20
2.9281222738
 30
0.0
 10
5.4221905806
 20
2.9253849406
 30
0.0
 10
5.4216461038
 20
2.9236580649
 30
0.0
 10
5.4213271243
 20
2.9228343937
 30
0.0
  0
SPLINE
  5
343
100
AcDbEntity
  8
0
100
AcDbSpline
 62
7
  6
CONTINUOUS
 70
0
 71
3
 72
12
 73
8
 74
0
 42
0.0000001
 43
0.0000001
 44
0.0000000001
 40
0.0
 40
0.0
 40
0.0
 40
0.0
 40
0.1248110187
 40
0.249547602
 40
0.4990809054
 40
0.7491185181
 40
1.0
 40
1.0
 40
1.0
 40
1.0
 10
5.1442544276
 20
5.0801793731
 30
0.0
 10
5.1449494627
 20
5.073286087
 30
0.0
 10
5.1463874447
 20
5.0595084529
 30
0.0
 10
5.14944471
 20
5.0319736141
 30
0.0
 10
5.1535922127
 20
4.9975666078
 30
0.0
 10
5.1590350177
 20
4.9562654513
 30
0.0
 10
5.1629850432
 20
4.9287407414
 30
0.0
 10
5.1650450427
 20
4.914967557
 30
0.0
  0
SPLINE
  5
344
100
AcDbEntity
  8
0
100
AcDbSpline
 62
7
  6
CONTINUOUS
 70
0
 71
3
 72
15
 73
11
 74
0
 42
0.0000001
 43
0.0000001
 44
0.0000000001
 40
0.0
 40
0.0
 40
0.0
 40
0.0
 40
0.125960177
 40
0.2516261148
 40
0.377001282
 40
0.5020944721
 40
0.6269196809
 40
0.7514958819
 40
0.875846701
 40
1.0
 40
1.0
 40
1.0
 40
1.0
 10
4.5706704545
 20
5.0703260722
 30
0.0
 10
4.5739986571
 20
5.0674118372
 30
0.0
 10
4.5804539871
 20
5.0613649801
 30
0.0
 10
4.5894908901
 20
5.0516748826
 30
0.0
 10
4.5978314608
 20
5.0414176633
 30
0.0
 10
4.6054371074
 20
5.0306404721
 30
0.0
 10
4.6122733
 20
5.0193922552
 30
0.0
 10
4.6183088931
 20
5.0077240191
 30
0.0
 10
4.6235161222
 20
4.9956896529
 30
0.0
 10
4.626422207
 20
4.9874513657
 30
0.0
 10
4.6277290283
 20
4.9832914985
 30
0.0
  0
SPLINE
  5
345
100
AcDbEntity
  8
0
100
AcDbSpline
 62
7
  6
CONTINUOUS
 70
0
 71
3
 72
11
 73
7
 74
0
 42
0.0000001
 43
0.0000001
 44
0.0000000001
 40
0.0
 40
0.0
 40
0.0
 40
0.0
 40
0.2465319131
 40
0.4944660956
 40
0.7451790521
 40
1.0
 40
1.0
 40
1.0
 40
1.0
 10
4.6277290283
 20
4.9832914985
 30
0.0
 10
4.6277290569
 20
4.9828942073
 30
0.0
 10
4.627760515
 20
4.9820970191
 30
0.0
 10
4.6279016954
 20
4.9809033055
 30
0.0
 10
4.628136768
 20
4.9797108922
 30
0.0
 10
4.6283539268
 20
4.978924798
 30
0.0
 10
4.6284773187
 20
4.9785331257
 30
0.0
  0
SPLINE
  5
346
100
AcDbEntity
  8
0
100
AcDbSpline
 62
7
  6
CONTINUOUS
 70
0
 71
3
 72
34
 73
30
 74
0
 42
0.0000001
 43
0.0000001
 44
0.0000000001
 40
0.0
 40
0.0
 40
0.0
 40
0.0
 40
0.0144012793
 40
0.0291257935
 40
0.0443679583
 40
0.0603010231
 40
0.0770733283
 40
0.0948082175
 40
0.1136064897
 40
0.1335492131
 40
0.1547009
 40
0.1771127728
 40
0.2008252573
 40
0.2258697216
 40
0.2522702791
 40
0.2800453567
 40
0.3092081236
 40
0.3397654006
 40
0.3717112901
 40
0.4050332576
 40
0.4397092753
 40
0.4757125471
 40
0.513014872
 40
0.5515866149
 40
0.6324134896
 40
0.7179446286
 40
0.8079116413
 40
0.9020311646
 40
1.0
 40
1.0
 40
1.0
 40
1.0
 10
4.5706734221
 20
5.0703234736
 30
0.0
 10
4.5707017363
 20
5.0711027417
 30
0.0
 10
4.5708623366
 20
5.0726767436
 30
0.0
 10
4.5714047845
 20
5.0750228574
 30
0.0
 10
4.5722468547
 20
5.0773668841
 30
0.0
 10
4.5733849645
 20
5.0797053842
 30
0.0
 10
4.5748158241
 20
5.0820363043
 30
0.0
 10
4.5765366261
 20
5.084357617
 30
0.0
 10
4.5785448996
 20
5.086667341
 30
0.0
 10
4.5808383427
 20
5.0889634181
 30
0.0
 10
4.583414775
 20
5.0912436813
 30
0.0
 10
4.5862720595
 20
5.0935058919
 30
0.0
 10
4.5894080147
 20
5.0957478434
 30
0.0
 10
4.5928205802
 20
5.0979671173
 30
0.0
 10
4.5965079621
 20
5.100160744
 30
0.0
 10
4.6004681661
 20
5.102325831
 30
0.0
 10
4.6046986276
 20
5.1044601406
 30
0.0
 10
4.6091962103
 20
5.1065611056
 30
0.0
 10
4.6139566866
 20
5.1086265174
 30
0.0
 10
4.6189748925
 20
5.1106536351
 30
0.0
 10
4.6242446942
 20
5.1126401926
 30
0.0
 10
4.6297595253
 20
5.1145837053
 30
0.0
 10
4.6355125226
 20
5.1164822724
 30
0.0
 10
4.6436185137
 20
5.1189907439
 30
0.0
 10
4.6543042932
 20
5.1219892902
 30
0.0
 10
4.6677789753
 20
5.1253234992
 30
0.0
 10
4.6820448863
 20
5.1284322516
 30
0.0
 10
4.6970472899
 20
5.1312991274
 30
0.0
 10
4.7073082138
 20
5.1330067771
 30
0.0
 10
4.7125502047
 20
5.1338199798
 30
0.0
  0
SPLINE
  5
347
100
AcDbEntity
  8
0
100
AcDbSpline
 62
7
  6
CONTINUOUS
 70
0
 71
3
 72
15
 73
11
 74
0
 42
0.0000001
 43
0.0000001
 44
0.0000000001
 40
0.0
 40
0.0
 40
0.0
 40
0.0
 40
0.1235176889
 40
0.2472213487
 40
0.3712752446
 40
0.495801666
 40
0.6209002666
 40
0.7466317818
 40
0.8730056048
 40
1.0
 40
1.0
 40
1.0
 40
1.0
 10
4.2858292171
 20
2.9341133334
 30
0.0
 10
4.2858972404
 20
2.935427039
 30
0.0
 10
4.2862207988
 20
2.9380505409
 30
0.0
 10
4.2872581998
 20
2.941879157
 30
0.0
 10
4.2888282468
 20
2.9455343249
 30
0.0
 10
4.2909015217
 20
2.9489464437
 30
0.0
 10
4.2934388942
 20
2.9520519629
 30
0.0
 10
4.2963929529
 20
2.9547931684
 30
0.0
 10
4.2997076723
 20
2.9571187772
 30
0.0
 10
4.3021130758
 20
2.9583625922
 30
0.0
 10
4.3033533027
 20
2.9589021041
 30
0.0
  0
SPLINE
  5
348
100
AcDbEntity
  8
0
100
AcDbSpline
 62
7
  6
CONTINUOUS
 70
0
 71
3
 72
15
 73
11
 74
0
 42
0.0000001
 43
0.0000001
 44
0.0000000001
 40
0.0
 40
0.0
 40
0.0
 40
0.0
 40
0.1237154576
 40
0.2477981687
 40
0.3722927465
 40
0.4971998834
 40
0.6224929617
 40
0.7481157619
 40
0.873982253
 40
1.0
 40
1.0
 40
1.0
 40
1.0
 10
4.2873685375
 20
2.9228343932
 30
0.0
 10
4.2874629882
 20
2.9242022687
 30
0.0
 10
4.2878478692
 20
2.9269325041
 30
0.0
 10
4.2889976111
 20
2.9309087249
 30
0.0
 10
4.2906979967
 20
2.9346976821
 30
0.0
 10
4.2929156961
 20
2.9382244516
 30
0.0
 10
4.2956071961
 20
2.941420611
 30
0.0
 10
4.298720134
 20
2.944223974
 30
0.0
 10
4.3021928116
 20
2.9465797915
 30
0.0
 10
4.3047043057
 20
2.9478219697
 30
0.0
 10
4.3059954767
 20
2.9483544216
 30
0.0
  0
SPLINE
  5
349
100
AcDbEntity
  8
0
100
AcDbSpline
 62
7
  6
CONTINUOUS
 70
0
 71
3
 72
19
 73
15
 74
0
 42
0.0000001
 43
0.0000001
 44
0.0000000001
 40
0.0
 40
0.0
 40
0.0
 40
0.0
 40
0.1505187134
 40
0.2962721142
 40
0.4355147875
 40
0.5022418079
 40
0.5668209616
 40
0.6291317588
 40
0.6890882258
 40
0.8017158011
 40
0.8545000463
 40
0.905022414
 40
0.9534527347
 40
1.0
 40
1.0
 40
1.0
 40
1.0
 10
4.5283500242
 20
2.9228343715
 30
0.0
 10
4.5281594145
 20
2.9241855546
 30
0.0
 10
4.5278878081
 20
2.9268612027
 30
0.0
 10
4.5278151758
 20
2.9308132135
 30
0.0
 10
4.5280416344
 20
2.9339991224
 30
0.0
 10
4.5284001383
 20
2.936426478
 30
0.0
 10
4.5287485883
 20
2.9381477047
 30
0.0
 10
4.5291788101
 20
2.9397872187
 30
0.0
 10
4.5298446216
 20
2.9418107463
 30
0.0
 10
4.5306716593
 20
2.9436884064
 30
0.0
 10
4.5316706004
 20
2.9453741825
 30
0.0
 10
4.5324720644
 20
2.9464945726
 30
0.0
 10
4.533337922
 20
2.9474922646
 30
0.0
 10
4.5339669113
 20
2.9480830968
 30
0.0
 10
4.534290154
 20
2.9483543628
 30
0.0
  0
SPLINE
  5
34A
100
AcDbEntity
  8
0
100
AcDbSpline
 62
7
  6
CONTINUOUS
 70
0
 71
3
 72
21
 73
17
 74
0
 42
0.0000001
 43
0.0000001
 44
0.0000000001
 40
0.0
 40
0.0
 40
0.0
 40
0.0
 40
0.0780933797
 40
0.1550932957
 40
0.3045856837
 40
0.3766289087
 40
0.4465534253
 40
0.5141532325
 40
0.5792476623
 40
0.641684694
 40
0.7013427073
 40
0.7581431035
 40
0.8120491292
 40
0.8630744442
 40
0.9113122173
 40
1.0
 40
1.0
 40
1.0
 40
1.0
 10
4.5700885513
 20
2.9341131238
 30
0.0
 10
4.5699458519
 20
2.9347660074
 30
0.0
 10
4.5696854709
 20
2.9360678164
 30
0.0
 10
4.5692632759
 20
2.9386402399
 30
0.0
 10
4.5689792196
 20
2.9411819334
 30
0.0
 10
4.5688471926
 20
2.94367319
 30
0.0
 10
4.5688247764
 20
2.9454669959
 30
0.0
 10
4.5688777075
 20
2.9472006985
 30
0.0
 10
4.5690058247
 20
2.948866287
 30
0.0
 10
4.5692083988
 20
2.9504560629
 30
0.0
 10
4.5694845915
 20
2.9519627082
 30
0.0
 10
4.5698332283
 20
2.9533793491
 30
0.0
 10
4.570252833
 20
2.9546993537
 30
0.0
 10
4.5707417608
 20
2.9559172656
 30
0.0
 10
4.5714627613
 20
2.9573559073
 30
0.0
 10
4.5721315659
 20
2.958331425
 30
0.0
 10
4.5726324166
 20
2.9589016604
 30
0.0
  0
SPLINE
  5
34B
100
AcDbEntity
  8
0
100
AcDbSpline
 62
7
  6
CONTINUOUS
 70
0
 71
3
 72
18
 73
14
 74
0
 42
0.0000001
 43
0.0000001
 44
0.0000000001
 40
0.0
 40
0.0
 40
0.0
 40
0.0
 40
0.138947621
 40
0.2083854636
 40
0.2774631942
 40
0.4135698123
 40
0.5454233679
 40
0.6713147983
 40
0.7315635376
 40
0.7897854728
 40
0.8995806997
 40
0.9509961621
 40
1.0
 40
1.0
 40
1.0
 40
1.0
 10
4.5700885513
 20
2.9341131238
 30
0.0
 10
4.5704447693
 20
2.9354309295
 30
0.0
 10
4.5710417045
 20
2.9373913145
 30
0.0
 10
4.5719684486
 20
2.9399553416
 30
0.0
 10
4.5729709962
 20
2.9424606757
 30
0.0
 10
4.5743575268
 20
2.9454709083
 30
0.0
 10
4.5762269741
 20
2.948862648
 30
0.0
 10
4.5779453364
 20
2.951476443
 30
0.0
 10
4.5793941548
 20
2.9533917702
 30
0.0
 10
4.5808289838
 20
2.9551159525
 30
0.0
 10
4.5823287943
 20
2.9566715971
 30
0.0
 10
4.5838889277
 20
2.9580264183
 30
0.0
 10
4.5846747315
 20
2.9586245206
 30
0.0
 10
4.5850683991
 20
2.958901671
 30
0.0
  0
SPLINE
  5
34C
100
AcDbEntity
  8
0
100
AcDbSpline
 62
7
  6
CONTINUOUS
 70
0
 71
3
 72
9
 73
5
 74
0
 42
0.0000001
 43
0.0000001
 44
0.0000000001
 40
0.0
 40
0.0
 40
0.0
 40
0.0
 40
0.5047077687
 40
1.0
 40
1.0
 40
1.0
 40
1.0
 10
4.6260531945
 20
2.9483544233
 30
0.0
 10
4.6190913451
 20
2.9498530482
 30
0.0
 10
4.6053498289
 20
2.9530726153
 30
0.0
 10
4.5917532907
 20
2.9568640284
 30
0.0
 10
4.5850685968
 20
2.9589020634
 30
0.0
  0
SPLINE
  5
34D
100
AcDbEntity
  8
0
100
AcDbSpline
 62
7
  6
CONTINUOUS
 70
0
 71
3
 72
19
 73
15
 74
0
 42
0.0000001
 43
0.0000001
 44
0.0000000001
 40
0.0
 40
0.0
 40
0.0
 40
0.0
 40
0.1446838158
 40
0.2877925098
 40
0.4270700277
 40
0.5603659436
 40
0.6241639639
 40
0.6857580069
 40
0.7449508168
 40
0.8015699326
 40
0.8554710727
 40
0.9065458525
 40
0.9547342729
 40
1.0
 40
1.0
 40
1.0
 40
1.0
 10
4.6133665976
 20
2.9228343912
 30
0.0
 10
4.6136537957
 20
2.9242012457
 30
0.0
 10
4.6143056409
 20
2.9269038529
 30
0.0
 10
4.6155089384
 20
2.9308495652
 30
0.0
 10
4.6169143607
 20
2.9346109619
 30
0.0
 10
4.6182501981
 20
2.9375738253
 30
0.0
 10
4.619402475
 20
2.9397899302
 30
0.0
 10
4.6202863984
 20
2.9413377037
 30
0.0
 10
4.6211983056
 20
2.9427879666
 30
0.0
 10
4.6221338299
 20
2.944133693
 30
0.0
 10
4.6230883861
 20
2.9453684194
 30
0.0
 10
4.6240575178
 20
2.9464862626
 30
0.0
 10
4.6250365021
 20
2.9474816723
 30
0.0
 10
4.6257137789
 20
2.9480792123
 30
0.0
 10
4.6260531945
 20
2.9483544233
 30
0.0
  0
SPLINE
  5
34E
100
AcDbEntity
  8
0
100
AcDbSpline
 62
7
  6
CONTINUOUS
 70
0
 71
3
 72
18
 73
14
 74
0
 42
0.0000001
 43
0.0000001
 44
0.0000000001
 40
0.0
 40
0.0
 40
0.0
 40
0.0
 40
0.1286067632
 40
0.2568695937
 40
0.3207638667
 40
0.3844425659
 40
0.5109774885
 40
0.6361301268
 40
0.6980835371
 40
0.7595652385
 40
0.8809514008
 40
0.9407874518
 40
1.0
 40
1.0
 40
1.0
 40
1.0
 10
4.8543478261
 20
2.9287565096
 30
0.0
 10
4.8445081536
 20
2.9287562707
 30
0.0
 10
4.8248546903
 20
2.9289227032
 30
0.0
 10
4.8003201999
 20
2.9295686301
 30
0.0
 10
4.7807618807
 20
2.93035724
 30
0.0
 10
4.7613443408
 20
2.9313323428
 30
0.0
 10
4.7372661637
 20
2.9329227791
 30
0.0
 10
4.7133633679
 20
2.9350747365
 30
0.0
 10
4.6944595695
 20
2.9371745626
 30
0.0
 10
4.6758757646
 20
2.9395236303
 30
0.0
 10
4.6575111527
 20
2.9423047709
 30
0.0
 10
4.6394097845
 20
2.9455872952
 30
0.0
 10
4.6304829354
 20
2.9474012864
 30
0.0
 10
4.6260540485
 20
2.9483546603
 30
0.0
  0
SPLINE
  5
34F
100
AcDbEntity
  8
0
100
AcDbSpline
 62
7
  6
CONTINUOUS
 70
0
 71
3
 72
18
 73
14
 74
0
 42
0.0000001
 43
0.0000001
 44
0.0000000001
 40
0.0
 40
0.0
 40
0.0
 40
0.0
 40
0.0592125456
 40
0.1190485894
 40
0.2404347122
 40
0.301916383
 40
0.3638697685
 40
0.4890223874
 40
0.6155572891
 40
0.6792359955
 40
0.7431302743
 40
0.8713931661
 40
1.0
 40
1.0
 40
1.0
 40
1.0
 10
5.0826416121
 20
2.9483546611
 30
0.0
 10
5.0782127254
 20
2.9474012866
 30
0.0
 10
5.0692858773
 20
2.9455872928
 30
0.0
 10
5.0511845132
 20
2.9423047634
 30
0.0
 10
5.0328199042
 20
2.939523637
 30
0.0
 10
5.0142361032
 20
2.9371745925
 30
0.0
 10
4.9953323119
 20
2.9350747525
 30
0.0
 10
4.9714295243
 20
2.9329227421
 30
0.0
 10
4.9473513429
 20
2.9313323981
 30
0.0
 10
4.9279338052
 20
2.9303572592
 30
0.0
 10
4.9083754819
 20
2.9295685895
 30
0.0
 10
4.883840978
 20
2.9289227169
 30
0.0
 10
4.8641875044
 20
2.928756325
 30
0.0
 10
4.8543478261
 20
2.9287565462
 30
0.0
  0
SPLINE
  5
350
100
AcDbEntity
  8
0
100
AcDbSpline
 62
7
  6
CONTINUOUS
 70
0
 71
3
 72
19
 73
15
 74
0
 42
0.0000001
 43
0.0000001
 44
0.0000000001
 40
0.0
 40
0.0
 40
0.0
 40
0.0
 40
0.1446833531
 40
0.287791765
 40
0.4270691643
 40
0.5603651007
 40
0.6241631739
 40
0.6857572911
 40
0.7449501945
 40
0.8015694178
 40
0.8554706686
 40
0.9065455689
 40
0.9547341362
 40
1.0
 40
1.0
 40
1.0
 40
1.0
 10
5.0953282295
 20
2.9228342913
 30
0.0
 10
5.0950410427
 20
2.9242011598
 30
0.0
 10
5.0943892158
 20
2.9269037966
 30
0.0
 10
5.0931859359
 20
2.9308495547
 30
0.0
 10
5.091780521
 20
2.9346109992
 30
0.0
 10
5.0904446827
 20
2.9375739023
 30
0.0
 10
5.089292401
 20
2.9397900383
 30
0.0
 10
5.0884084719
 20
2.9413378344
 30
0.0
 10
5.0874965574
 20
2.9427881189
 30
0.0
 10
5.0865610243
 20
2.9441338655
 30
0.0
 10
5.085606458
 20
2.9453686107
 30
0.0
 10
5.0846373151
 20
2.9464864713
 30
0.0
 10
5.0836583182
 20
2.9474818964
 30
0.0
 10
5.0829810323
 20
2.9480794458
 30
0.0
 10
5.0826416121
 20
2.9483546611
 30
0.0
  0
SPLINE
  5
351
100
AcDbEntity
  8
0
100
AcDbSpline
 62
7
  6
CONTINUOUS
 70
0
 71
3
 72
9
 73
5
 74
0
 42
0.0000001
 43
0.0000001
 44
0.0000000001
 40
0.0
 40
0.0
 40
0.0
 40
0.0
 40
0.4952929642
 40
1.0
 40
1.0
 40
1.0
 40
1.0
 10
5.1236271905
 20
2.9589020739
 30
0.0
 10
5.1169424715
 20
2.9568640226
 30
0.0
 10
5.1033458733
 20
2.9530726871
 30
0.0
 10
5.0896043352
 20
2.9498530576
 30
0.0
 10
5.082642479
 20
2.9483544248
 30
0.0
  0
SPLINE
  5
352
100
AcDbEntity
  8
0
100
AcDbSpline
 62
7
  6
CONTINUOUS
 70
0
 71
3
 72
18
 73
14
 74
0
 42
0.0000001
 43
0.0000001
 44
0.0000000001
 40
0.0
 40
0.0
 40
0.0
 40
0.0
 40
0.1389476749
 40
0.2083855556
 40
0.2774633253
 40
0.4135700156
 40
0.5454236162
 40
0.6713150517
 40
0.7315637758
 40
0.7897856835
 40
0.8995808226
 40
0.9509962188
 40
1.0
 40
1.0
 40
1.0
 40
1.0
 10
5.1386071383
 20
2.9341134432
 30
0.0
 10
5.1382509129
 20
2.9354312519
 30
0.0
 10
5.1376539693
 20
2.9373916418
 30
0.0
 10
5.1367272208
 20
2.9399556779
 30
0.0
 10
5.1357246691
 20
2.942461021
 30
0.0
 10
5.1343381315
 20
2.9454712634
 30
0.0
 10
5.1324686764
 20
2.9488630141
 30
0.0
 10
5.1307503068
 20
2.9514768165
 30
0.0
 10
5.1293014824
 20
2.9533921481
 30
0.0
 10
5.1278666477
 20
2.9551163332
 30
0.0
 10
5.1263668307
 20
2.9566719786
 30
0.0
 10
5.1248066913
 20
2.9580267995
 30
0.0
 10
5.1240208841
 20
2.9586249006
 30
0.0
 10
5.1236272146
 20
2.9589020499
 30
0.0
  0
SPLINE
  5
353
100
AcDbEntity
  8
0
100
AcDbSpline
 62
7
  6
CONTINUOUS
 70
0
 71
3
 72
21
 73
17
 74
0
 42
0.0000001
 43
0.0000001
 44
0.0000000001
 40
0.0
 40
0.0
 40
0.0
 40
0.0
 40
0.078093545
 40
0.1550935644
 40
0.3045859012
 40
0.3766291174
 40
0.4465536203
 40
0.5141533935
 40
0.5792477823
 40
0.6416847685
 40
0.70134273
 40
0.7581430732
 40
0.8120490526
 40
0.8630743378
 40
0.9113121073
 40
1.0
 40
1.0
 40
1.0
 40
1.0
 10
5.1386071383
 20
2.9341134432
 30
0.0
 10
5.1387498143
 20
2.9347663342
 30
0.0
 10
5.1390101542
 20
2.936068155
 30
0.0
 10
5.139432304
 20
2.9386405902
 30
0.0
 10
5.1397163678
 20
2.9411822853
 30
0.0
 10
5.1398483876
 20
2.9436735447
 30
0.0
 10
5.1398708029
 20
2.9454673519
 30
0.0
 10
5.1398178741
 20
2.9472010558
 30
0.0
 10
5.1396897604
 20
2.9488666453
 30
0.0
 10
5.1394871907
 20
2.9504564223
 30
0.0
 10
5.1392110033
 20
2.9519630689
 30
0.0
 10
5.1388623722
 20
2.9533797116
 30
0.0
 10
5.138442773
 20
2.9546997183
 30
0.0
 10
5.1379538501
 20
2.9559176331
 30
0.0
 10
5.1372328544
 20
2.9573562798
 30
0.0
 10
5.136564052
 20
2.9583318017
 30
0.0
 10
5.1360632022
 20
2.9589020403
 30
0.0
  0
SPLINE
  5
354
100
AcDbEntity
  8
0
100
AcDbSpline
 62
7
  6
CONTINUOUS
 70
0
 71
3
 72
15
 73
11
 74
0
 42
0.0000001
 43
0.0000001
 44
0.0000000001
 40
0.0
 40
0.0
 40
0.0
 40
0.0
 40
0.1252367984
 40
0.2505398136
 40
0.3758404252
 40
0.5010752892
 40
0.6261796137
 40
0.7510843537
 40
0.8757167293
 40
1.0
 40
1.0
 40
1.0
 40
1.0
 10
4.5706704749
 20
5.0703261721
 30
0.0
 10
4.5701740097
 20
5.0707505848
 30
0.0
 10
4.5692246796
 20
5.0716525792
 30
0.0
 10
4.567951843
 20
5.0731477509
 30
0.0
 10
4.5668421889
 20
5.0747678894
 30
0.0
 10
4.5659073011
 20
5.0764935079
 30
0.0
 10
4.5651568272
 20
5.0783046881
 30
0.0
 10
4.5645982993
 20
5.080180715
 30
0.0
 10
4.5642374228
 20
5.0820999981
 30
0.0
 10
4.5641309619
 20
5.0833965868
 30
0.0
 10
4.5641117359
 20
5.0840444778
 30
0.0
  0
SPLINE
  5
355
100
AcDbEntity
  8
0
100
AcDbSpline
 62
7
  6
CONTINUOUS
 70
0
 71
3
 72
15
 73
11
 74
0
 42
0.0000001
 43
0.0000001
 44
0.0000000001
 40
0.0
 40
0.0
 40
0.0
 40
0.0
 40
0.1175654178
 40
0.2380550233
 40
0.3610922823
 40
0.4862786948
 40
0.6131978788
 40
0.7414194303
 40
0.8705026232
 40
1.0
 40
1.0
 40
1.0
 40
1.0
 10
4.7125502047
 20
5.1338199798
 30
0.0
 10
4.7142365075
 20
5.1301074825
 30
0.0
 10
4.7174968966
 20
5.122519231
 30
0.0
 10
4.7219959505
 20
5.1108284969
 30
0.0
 10
4.726148375
 20
5.0987303541
 30
0.0
 10
4.7299352376
 20
5.0862797856
 30
0.0
 10
4.733339396
 20
5.0735330868
 30
0.0
 10
4.7363454098
 20
5.0605479444
 30
0.0
 10
4.7389396198
 20
5.0473833494
 30
0.0
 10
4.7403861471
 20
5.0385305072
 30
0.0
 10
4.741038275
 20
5.0340867352
 30
0.0
  0
SPLINE
  5
356
100
AcDbEntity
  8
0
100
AcDbSpline
 62
7
  6
CONTINUOUS
 70
0
 71
3
 72
34
 73
30
 74
0
 42
0.0000001
 43
0.0000001
 44
0.0000000001
 40
0.0
 40
0.0
 40
0.0
 40
0.0
 40
0.0979321063
 40
0.1920555352
 40
0.2820281672
 40
0.3675356393
 40
0.4482909738
 40
0.5240404536
 40
0.5599705291
 40
0.5945711496
 40
0.6278226595
 40
0.6597087028
 40
0.690218392
 40
0.719345296
 40
0.7470899166
 40
0.7734587947
 40
0.7984662268
 40
0.8221345728
 40
0.8444963791
 40
0.8655957617
 40
0.8854908347
 40
0.9042561741
 40
0.9219856954
 40
0.9304997757
 40
0.938800398
 40
0.9548303913
 40
0.97024597
 40
0.9852347158
 40
1.0
 40
1.0
 40
1.0
 40
1.0
 10
4.741038275
 20
5.0340867352
 30
0.0
 10
4.7368333973
 20
5.0334583326
 30
0.0
 10
4.7286000435
 20
5.0321374254
 30
0.0
 10
4.7165588322
 20
5.0299126097
 30
0.0
 10
4.705106564
 20
5.0274892396
 30
0.0
 10
4.6942917181
 20
5.024877404
 30
0.0
 10
4.6841601814
 20
5.0220881622
 30
0.0
 10
4.6761876178
 20
5.0195841029
 30
0.0
 10
4.6701907897
 20
5.0174929839
 30
0.0
 10
4.6659698632
 20
5.0159158468
 30
0.0
 10
4.6619505114
 20
5.0143042172
 30
0.0
 10
4.6581370249
 20
5.0126599152
 30
0.0
 10
4.6545334619
 20
5.0109847732
 30
0.0
 10
4.6511436053
 20
5.0092804686
 30
0.0
 10
4.6479709665
 20
5.0075486828
 30
0.0
 10
4.6450188452
 20
5.005790927
 30
0.0
 10
4.6422901893
 20
5.0040089508
 30
0.0
 10
4.6397877567
 20
5.0022044099
 30
0.0
 10
4.6375140405
 20
5.0003790351
 30
0.0
 10
4.6354713809
 20
4.998534488
 30
0.0
 10
4.6336618961
 20
4.9966723816
 30
0.0
 10
4.6320876888
 20
4.9947944579
 30
0.0
 10
4.6309585381
 20
4.9931963675
 30
0.0
 10
4.6301807361
 20
4.9919135241
 30
0.0
 10
4.629501356
 20
4.9906593527
 30
0.0
 10
4.6287952204
 20
4.9890810983
 30
0.0
 10
4.6281809727
 20
4.9871563347
 30
0.0
 10
4.6278115698
 20
4.9852256759
 30
0.0
 10
4.6277290466
 20
4.9839325111
 30
0.0
 10
4.6277290283
 20
4.9832914985
 30
0.0
  0
SPLINE
  5
357
100
AcDbEntity
  8
0
100
AcDbSpline
 62
7
  6
CONTINUOUS
 70
0
 71
3
 72
23
 73
19
 74
0
 42
0.0000001
 43
0.0000001
 44
0.0000000001
 40
0.0
 40
0.0
 40
0.0
 40
0.0
 40
0.0471475271
 40
0.0954988858
 40
0.1451606515
 40
0.1962649939
 40
0.2489695174
 40
0.3034564455
 40
0.3599311821
 40
0.4186203292
 40
0.4797692807
 40
0.5436395424
 40
0.6105059387
 40
0.680653853
 40
0.7543766307
 40
0.8319732355
 40
0.9137462152
 40
1.0
 40
1.0
 40
1.0
 40
1.0
 10
4.5385731485
 20
4.8329122204
 30
0.0
 10
4.538148094
 20
4.8305934047
 30
0.0
 10
4.5371935074
 20
4.8259131034
 30
0.0
 10
4.5354408429
 20
4.8188672983
 30
0.0
 10
4.5333131891
 20
4.8117183447
 30
0.0
 10
4.5307737195
 20
4.8044737063
 30
0.0
 10
4.5277856118
 20
4.7971407293
 30
0.0
 10
4.5243121145
 20
4.7897268692
 30
0.0
 10
4.5203165508
 20
4.782239602
 30
0.0
 10
4.5157623298
 20
4.7746864163
 30
0.0
 10
4.510612943
 20
4.7670747823
 30
0.0
 10
4.5048319534
 20
4.7594121288
 30
0.0
 10
4.4983829782
 20
4.751705827
 30
0.0
 10
4.4912296637
 20
4.7439631788
 30
0.0
 10
4.483335682
 20
4.7361914284
 30
0.0
 10
4.4746646393
 20
4.7283977141
 30
0.0
 10
4.4651803591
 20
4.7205892955
 30
0.0
 10
4.4584774281
 20
4.715519552
 30
0.0
 10
4.454988858
 20
4.7129837379
 30
0.0
  0
SPLINE
  5
358
100
AcDbEntity
  8
0
100
AcDbSpline
 62
7
  6
CONTINUOUS
 70
0
 71
3
 72
15
 73
11
 74
0
 42
0.0000001
 43
0.0000001
 44
0.0000000001
 40
0.0
 40
0.0
 40
0.0
 40
0.0
 40
0.1247960863
 40
0.2519161578
 40
0.3802202239
 40
0.5085738139
 40
0.6358272448
 40
0.7608536509
 40
0.8825859065
 40
1.0
 40
1.0
 40
1.0
 40
1.0
 10
4.9993571895
 20
5.1501251427
 30
0.0
 10
4.9993687643
 20
5.1494269452
 30
0.0
 10
4.9993520749
 20
5.148016615
 30
0.0
 10
4.9992132586
 20
5.1458927073
 30
0.0
 10
4.9989617635
 20
5.1437590866
 30
0.0
 10
4.9986004977
 20
5.1416405482
 30
0.0
 10
4.9981335273
 20
5.1395615428
 30
0.0
 10
4.9975662593
 20
5.1375460186
 30
0.0
 10
4.9969051944
 20
5.1356173966
 30
0.0
 10
4.9963964499
 20
5.1343786345
 30
0.0
 10
4.9961270009
 20
5.1337794433
 30
0.0
  0
SPLINE
  5
359
100
AcDbEntity
  8
0
100
AcDbSpline
 62
7
  6
CONTINUOUS
 70
0
 71
3
 72
15
 73
11
 74
0
 42
0.0000001
 43
0.0000001
 44
0.0000000001
 40
0.0
 40
0.0
 40
0.0
 40
0.0
 40
0.1246474464
 40
0.2515992077
 40
0.3797461926
 40
0.5079855084
 40
0.6351990462
 40
0.760290964
 40
0.8822232555
 40
1.0
 40
1.0
 40
1.0
 40
1.0
 10
4.7090549524
 20
5.1499677517
 30
0.0
 10
4.7090557069
 20
5.1492760945
 30
0.0
 10
4.7090967609
 20
5.147879767
 30
0.0
 10
4.7092714308
 20
5.1457789145
 30
0.0
 10
4.7095581189
 20
5.1436702377
 30
0.0
 10
4.7099536364
 20
5.1415777778
 30
0.0
 10
4.7104537062
 20
5.1395252333
 30
0.0
 10
4.7110527717
 20
5.1375358096
 30
0.0
 10
4.7117441953
 20
5.1356321983
 30
0.0
 10
4.7122720919
 20
5.1344102072
 30
0.0
 10
4.7125508861
 20
5.1338191244
 30
0.0
  0
SPLINE
  5
35A
100
AcDbEntity
  8
0
100
AcDbSpline
 62
7
  6
CONTINUOUS
 70
0
 71
3
 72
11
 73
7
 74
0
 42
0.0000001
 43
0.0000001
 44
0.0000000001
 40
0.0
 40
0.0
 40
0.0
 40
0.0
 40
0.264127696
 40
0.5164979111
 40
0.7604276981
 40
1.0
 40
1.0
 40
1.0
 40
1.0
 10
4.9580882123
 20
4.923077088
 30
0.0
 10
4.9583316788
 20
4.9229679467
 30
0.0
 10
4.9588210147
 20
4.9227822802
 30
0.0
 10
4.9595714975
 20
4.9226073487
 30
0.0
 10
4.9603149166
 20
4.922545083
 30
0.0
 10
4.960804439
 20
4.9225794628
 30
0.0
 10
4.9610437875
 20
4.9226152255
 30
0.0
  0
SPLINE
  5
35B
100
AcDbEntity
  8
0
100
AcDbSpline
 62
7
  6
CONTINUOUS
 70
0
 71
3
 72
17
 73
13
 74
0
 42
0.0000001
 43
0.0000001
 44
0.0000000001
 40
0.0
 40
0.0
 40
0.0
 40
0.0
 40
0.1236058997
 40
0.2472922753
 40
0.3713197988
 40
0.4958251546
 40
0.6209172903
 40
0.6836583458
 40
0.7465039387
 40
0.8095399782
 40
0.8728508461
 40
1.0
 40
1.0
 40
1.0
 40
1.0
 10
5.144533579
 20
5.0831718963
 30
0.0
 10
5.1444847187
 20
5.0825648795
 30
0.0
 10
5.1443271828
 20
5.0813544087
 30
0.0
 10
5.1439138252
 20
5.0795694689
 30
0.0
 10
5.143327682
 20
5.0778287253
 30
0.0
 10
5.1425737525
 20
5.0761464395
 30
0.0
 10
5.1418130224
 20
5.0748059122
 30
0.0
 10
5.1411283211
 20
5.0737775748
 30
0.0
 10
5.1405766059
 20
5.0730293253
 30
0.0
 10
5.1399892631
 20
5.0723051098
 30
0.0
 10
5.1391607833
 20
5.0713702247
 30
0.0
 10
5.1384927875
 20
5.0707088051
 30
0.0
 10
5.1380273483
 20
5.0702895322
 30
0.0
  0
SPLINE
  5
35C
100
AcDbEntity
  8
0
100
AcDbSpline
 62
7
  6
CONTINUOUS
 70
0
 71
3
 72
11
 73
7
 74
0
 42
0.0000001
 43
0.0000001
 44
0.0000000001
 40
0.0
 40
0.0
 40
0.0
 40
0.0
 40
0.2641279262
 40
0.5164979224
 40
0.7604274716
 40
1.0
 40
1.0
 40
1.0
 40
1.0
 10
4.7506077016
 20
4.9230770489
 30
0.0
 10
4.7503642293
 20
4.9229679048
 30
0.0
 10
4.7498748814
 20
4.9227822349
 30
0.0
 10
4.7491243793
 20
4.9226073061
 30
0.0
 10
4.7483809417
 20
4.9225450518
 30
0.0
 10
4.7478914085
 20
4.9225794449
 30
0.0
 10
4.7476520552
 20
4.9226152154
 30
0.0
  0
SPLINE
  5
35D
100
AcDbEntity
  8
0
100
AcDbSpline
 62
7
  6
CONTINUOUS
 70
0
 71
3
 72
55
 73
51
 74
0
 42
0.0000001
 43
0.0000001
 44
0.0000000001
 40
0.0
 40
0.0
 40
0.0
 40
0.0
 40
0.0005514471
 40
0.0010389996
 40
0.0014818425
 40
0.0019048022
 40
0.0023356834
 40
0.0028004409
 40
0.0033197334
 40
0.0039086701
 40
0.0045777621
 40
0.0053342556
 40
0.0061832232
 40
0.0071283049
 40
0.0081721861
 40
0.0093169415
 40
0.0119160157
 40
0.0149380496
 40
0.018392477
 40
0.0222874584
 40
0.0266322342
 40
0.0314362413
 40
0.0367085839
 40
0.0424600411
 40
0.0487036048
 40
0.0627203463
 40
0.0788873511
 40
0.097355749
 40
0.1182912723
 40
0.141855659
 40
0.168199596
 40
0.1974096268
 40
0.2294460247
 40
0.2642025766
 40
0.3015384013
 40
0.3412877444
 40
0.3620089352
 40
0.3832604337
 40
0.4272384158
 40
0.4729896147
 40
0.5202985365
 40
0.5689950776
 40
0.6189516371
 40
0.6700826756
 40
0.7223382254
 40
0.775691932
 40
0.8301332328
 40
0.8856597772
 40
0.9422793094
 40
1.0
 40
1.0
 40
1.0
 40
1.0
 10
4.6719901206
 20
5.5315624063
 30
0.0
 10
4.6720356187
 20
5.5316168236
 30
0.0
 10
4.6721280052
 20
5.5317142211
 30
0.0
 10
4.6722821192
 20
5.5318283879
 30
0.0
 10
4.672442781
 20
5.5318996811
 30
0.0
 10
4.6726093757
 20
5.5319265554
 30
0.0
 10
4.6727798587
 20
5.5319086669
 30
0.0
 10
4.6729527456
 20
5.5318475662
 30
0.0
 10
4.673128151
 20
5.5317448444
 30
0.0
 10
4.6733066961
 20
5.5316010478
 30
0.0
 10
4.673488933
 20
5.5314162257
 30
0.0
 10
4.6736751972
 20
5.5311902171
 30
0.0
 10
4.6738656704
 20
5.5309228379
 30
0.0
 10
4.6740604449
 20
5.5306139211
 30
0.0
 10
4.6742595876
 20
5.5302633293
 30
0.0
 10
4.6745431401
 20
5.5297165205
 30
0.0
 10
4.6749052633
 20
5.5289245988
 30
0.0
 10
4.675341376
 20
5.527841457
 30
0.0
 10
4.6757954471
 20
5.5265868026
 30
0.0
 10
4.6762676143
 20
5.5251584635
 30
0.0
 10
4.6767576623
 20
5.5235536968
 30
0.0
 10
4.6772655103
 20
5.5217695038
 30
0.0
 10
4.6777912032
 20
5.5198025589
 30
0.0
 10
4.6783348324
 20
5.5176489752
 30
0.0
 10
4.6791141722
 20
5.5143950808
 30
0.0
 10
4.680130235
 20
5.5098206494
 30
0.0
 10
4.6813840833
 20
5.5036892677
 30
0.0
 10
4.6827183699
 20
5.4966666899
 30
0.0
 10
4.6841335899
 20
5.4886915925
 30
0.0
 10
4.6856288215
 20
5.4797023969
 30
0.0
 10
4.6871963035
 20
5.4696467822
 30
0.0
 10
4.6888158282
 20
5.4584969494
 30
0.0
 10
4.6904572081
 20
5.4462575603
 30
0.0
 10
4.6921023364
 20
5.4329648344
 30
0.0
 10
4.6937350294
 20
5.4186715441
 30
0.0
 10
4.6950461552
 20
5.4061591634
 30
0.0
 10
4.6960690038
 20
5.3956972288
 30
0.0
 10
4.6970927093
 20
5.384688981
 30
0.0
 10
4.6983173416
 20
5.3704661292
 30
0.0
 10
4.6996876792
 20
5.3528923146
 30
0.0
 10
4.7009844826
 20
5.334704421
 30
0.0
 10
4.7022095496
 20
5.3159694538
 30
0.0
 10
4.7033631103
 20
5.2967374194
 30
0.0
 10
4.7044440282
 20
5.2770426745
 30
0.0
 10
4.705449163
 20
5.256906392
 30
0.0
 10
4.7063736375
 20
5.2363400028
 30
0.0
 10
4.7072061074
 20
5.2153485932
 30
0.0
 10
4.7079403274
 20
5.1939331817
 30
0.0
 10
4.7085698078
 20
5.1720924349
 30
0.0
 10
4.7089083776
 20
5.1573888075
 30
0.0
 10
4.7090552338
 20
5.1499657328
 30
0.0
  0
SPLINE
  5
35E
100
AcDbEntity
  8
0
100
AcDbSpline
 62
7
  6
CONTINUOUS
 70
0
 71
3
 72
15
 73
11
 74
0
 42
0.0000001
 43
0.0000001
 44
0.0000000001
 40
0.0
 40
0.0
 40
0.0
 40
0.0
 40
0.1266510951
 40
0.2530842394
 40
0.3791188645
 40
0.5045975397
 40
0.6294234324
 40
0.7535646068
 40
0.8770523818
 40
1.0
 40
1.0
 40
1.0
 40
1.0
 10
4.6468673149
 20
4.9695825137
 30
0.0
 10
4.6458051608
 20
4.9695825148
 30
0.0
 10
4.6436790397
 20
4.9697463977
 30
0.0
 10
4.6405724772
 20
4.9704780146
 30
0.0
 10
4.6376243128
 20
4.9716768592
 30
0.0
 10
4.6349102068
 20
4.9733129926
 30
0.0
 10
4.6324988743
 20
4.9753451566
 30
0.0
 10
4.6304517661
 20
4.977722383
 30
0.0
 10
4.6288213954
 20
4.9803834704
 30
0.0
 10
4.6280380923
 20
4.9823078069
 30
0.0
 10
4.6277290658
 20
4.9832915038
 30
0.0
  0
SPLINE
  5
35F
100
AcDbEntity
  8
0
100
AcDbSpline
 62
7
  6
CONTINUOUS
 70
0
 71
3
 72
20
 73
16
 74
0
 42
0.0000001
 43
0.0000001
 44
0.0000000001
 40
0.0
 40
0.0
 40
0.0
 40
0.0
 40
0.0880028866
 40
0.1364036099
 40
0.1878914726
 40
0.242496757
 40
0.300170951
 40
0.3608015239
 40
0.4242218519
 40
0.4902204757
 40
0.5585461155
 40
0.7009958978
 40
0.7745139808
 40
0.8490963556
 40
1.0
 40
1.0
 40
1.0
 40
1.0
 10
4.7506074398
 20
5.0160880176
 30
0.0
 10
4.7500432924
 20
5.0163409182
 30
0.0
 10
4.7492202592
 20
5.0168524682
 30
0.0
 10
4.7482110549
 20
5.0177041521
 30
0.0
 10
4.7474452093
 20
5.0184754002
 30
0.0
 10
4.7467000563
 20
5.0193532321
 30
0.0
 10
4.7459797857
 20
5.0203325113
 30
0.0
 10
4.7452889304
 20
5.0214069888
 30
0.0
 10
4.7446317431
 20
5.0225699458
 30
0.0
 10
4.7440123767
 20
5.0238141182
 30
0.0
 10
4.7432314072
 20
5.0255954399
 30
0.0
 10
4.7425568045
 20
5.0274784839
 30
0.0
 10
4.7419870926
 20
5.0294389637
 30
0.0
 10
4.7414822475
 20
5.031478411
 30
0.0
 10
4.7411921911
 20
5.0330378353
 30
0.0
 10
4.7410382747
 20
5.0340867349
 30
0.0
  0
SPLINE
  5
360
100
AcDbEntity
  8
0
100
AcDbSpline
 62
7
  6
CONTINUOUS
 70
0
 71
3
 72
20
 73
16
 74
0
 42
0.0000001
 43
0.0000001
 44
0.0000000001
 40
0.0
 40
0.0
 40
0.0
 40
0.0
 40
0.0880025292
 40
0.1364031399
 40
0.1878909279
 40
0.2424961703
 40
0.3001703503
 40
0.3608009329
 40
0.4242212902
 40
0.4902199594
 40
0.5585456574
 40
0.7009955835
 40
0.7745137455
 40
0.8490962006
 40
1.0
 40
1.0
 40
1.0
 40
1.0
 10
4.9580879506
 20
5.0160880567
 30
0.0
 10
4.9586520916
 20
5.0163409615
 30
0.0
 10
4.9594751143
 20
5.016852517
 30
0.0
 10
4.9604843049
 20
5.0177042055
 30
0.0
 10
4.9612501405
 20
5.018475457
 30
0.0
 10
4.961995284
 20
5.0193532918
 30
0.0
 10
4.9627155454
 20
5.0203325733
 30
0.0
 10
4.963406392
 20
5.0214070524
 30
0.0
 10
4.9640635712
 20
5.0225700106
 30
0.0
 10
4.9646829302
 20
5.0238141834
 30
0.0
 10
4.9654638907
 20
5.0255955052
 30
0.0
 10
4.9661384863
 20
5.0274785481
 30
0.0
 10
4.966708193
 20
5.0294390259
 30
0.0
 10
4.9672130343
 20
5.0314784705
 30
0.0
 10
4.9675030897
 20
5.0330378922
 30
0.0
 10
4.9676570062
 20
5.0340867901
 30
0.0
  0
SPLINE
  5
361
100
AcDbEntity
  8
0
100
AcDbSpline
 62
7
  6
CONTINUOUS
 70
0
 71
3
 72
20
 73
16
 74
0
 42
0.0000001
 43
0.0000001
 44
0.0000000001
 40
0.0
 40
0.0
 40
0.0
 40
0.0
 40
0.0463244292
 40
0.0934762973
 40
0.1416299608
 40
0.1909875016
 40
0.2417746437
 40
0.2942520313
 40
0.4054616682
 40
0.5274943484
 40
0.6639818108
 40
0.739068969
 40
0.819587624
 40
0.9062909752
 40
1.0
 40
1.0
 40
1.0
 40
1.0
 10
5.170129842
 20
4.8322806284
 30
0.0
 10
5.1705413052
 20
4.8300054524
 30
0.0
 10
5.1714599877
 20
4.8254298753
 30
0.0
 10
5.173134913
 20
4.8185602604
 30
0.0
 10
5.1751487282
 20
4.8116240138
 30
0.0
 10
5.1775377428
 20
4.8046156763
 30
0.0
 10
5.1803372967
 20
4.7975279409
 30
0.0
 10
5.1847578278
 20
4.787774694
 30
0.0
 10
5.1916483159
 20
4.7752576584
 30
0.0
 10
5.2022120465
 20
4.7600869841
 30
0.0
 10
5.2131329998
 20
4.7474749923
 30
0.0
 10
5.2234757225
 20
4.7371940042
 30
0.0
 10
5.232475018
 20
4.7291067538
 30
0.0
 10
5.2425809334
 20
4.7208848674
 30
0.0
 10
5.2498315131
 20
4.7155388798
 30
0.0
 10
5.2536554101
 20
4.7128457616
 30
0.0
  0
SPLINE
  5
362
100
AcDbEntity
  8
0
100
AcDbSpline
 62
7
  6
CONTINUOUS
 70
0
 71
3
 72
22
 73
18
 74
0
 42
0.0000001
 43
0.0000001
 44
0.0000000001
 40
0.0
 40
0.0
 40
0.0
 40
0.0
 40
0.0457033439
 40
0.0922309755
 40
0.1397832345
 40
0.1885852003
 40
0.2388835722
 40
0.2909584393
 40
0.3451216212
 40
0.4017197889
 40
0.4611505537
 40
0.5238490847
 40
0.6610270155
 40
0.7366898401
 40
0.8179155851
 40
0.9054302439
 40
1.0
 40
1.0
 40
1.0
 40
1.0
 10
5.1701201349
 20
4.8333591006
 30
0.0
 10
5.1705390811
 20
4.8311117631
 30
0.0
 10
5.1714737432
 20
4.8265925988
 30
0.0
 10
5.1731748626
 20
4.8198087034
 30
0.0
 10
5.1752173913
 20
4.8129573568
 30
0.0
 10
5.1776371796
 20
4.8060296295
 30
0.0
 10
5.1804689274
 20
4.7990150065
 30
0.0
 10
5.183753613
 20
4.7919039104
 30
0.0
 10
5.1875352022
 20
4.7846861816
 30
0.0
 10
5.1918606883
 20
4.7773499565
 30
0.0
 10
5.196785135
 20
4.7698840203
 30
0.0
 10
5.2044587063
 20
4.7594216171
 30
0.0
 10
5.2134470832
 20
4.7489400286
 30
0.0
 10
5.2237608881
 20
4.7384482421
 30
0.0
 10
5.2327206646
 20
4.7301247028
 30
0.0
 10
5.2427557983
 20
4.7215889248
 30
0.0
 10
5.2499378461
 20
4.7159830789
 30
0.0
 10
5.2537226719
 20
4.7131456427
 30
0.0
  0
SPLINE
  5
363
100
AcDbEntity
  8
0
100
AcDbSpline
 62
7
  6
CONTINUOUS
 70
0
 71
3
 72
15
 73
11
 74
0
 42
0.0000001
 43
0.0000001
 44
0.0000000001
 40
0.0
 40
0.0
 40
0.0
 40
0.0
 40
0.1266510662
 40
0.2530842108
 40
0.3791188581
 40
0.5045975667
 40
0.6294234909
 40
0.7535646808
 40
0.8770524408
 40
1.0
 40
1.0
 40
1.0
 40
1.0
 10
5.0618283373
 20
4.9695825919
 30
0.0
 10
5.0628904915
 20
4.9695825949
 30
0.0
 10
5.0650166128
 20
4.9697464815
 30
0.0
 10
5.0681231752
 20
4.9704781034
 30
0.0
 10
5.0710713395
 20
4.9716769526
 30
0.0
 10
5.0737854453
 20
4.9733130897
 30
0.0
 10
5.0761967778
 20
4.9753452565
 30
0.0
 10
5.0782438858
 20
4.9777224848
 30
0.0
 10
5.0798742565
 20
4.9803835729
 30
0.0
 10
5.0806575598
 20
4.9823079094
 30
0.0
 10
5.0809665864
 20
4.9832916062
 30
0.0
  0
SPLINE
  5
364
100
AcDbEntity
  8
0
100
AcDbSpline
 62
7
  6
CONTINUOUS
 70
0
 71
3
 72
21
 73
17
 74
0
 42
0.0000001
 43
0.0000001
 44
0.0000000001
 40
0.0
 40
0.0
 40
0.0
 40
0.0
 40
0.0588270325
 40
0.1183341072
 40
0.2392373998
 40
0.3005678189
 40
0.362427956
 40
0.4247745101
 40
0.4875623583
 40
0.5507449968
 40
0.6142749285
 40
0.6781039076
 40
0.7421825921
 40
0.8064610118
 40
0.8708906975
 40
1.0
 40
1.0
 40
1.0
 40
1.0
 10
5.095329075
 20
2.9228343937
 30
0.0
 10
5.0906862921
 20
2.921822667
 30
0.0
 10
5.0813232275
 20
2.9198953656
 30
0.0
 10
5.0623167751
 20
2.9163989588
 30
0.0
 10
5.0430124561
 20
2.9134276359
 30
0.0
 10
5.0234565703
 20
2.9109113784
 30
0.0
 10
5.0085642682
 20
2.9092263802
 30
0.0
 10
4.9935327465
 20
2.9077395773
 30
0.0
 10
4.978376844
 20
2.906438272
 30
0.0
 10
4.9631109052
 20
2.9053150161
 30
0.0
 10
4.9477491907
 20
2.9043617872
 30
0.0
 10
4.9323059165
 20
2.9035691463
 30
0.0
 10
4.9167950684
 20
2.9029296091
 30
0.0
 10
4.9012303134
 20
2.902436892
 30
0.0
 10
4.8804101786
 20
2.9019711324
 30
0.0
 10
4.8647765983
 20
2.9018357201
 30
0.0
 10
4.8543478261
 20
2.9018362744
 30
0.0
  0
SPLINE
  5
365
100
AcDbEntity
  8
0
100
AcDbSpline
 62
7
  6
CONTINUOUS
 70
0
 71
3
 72
38
 73
34
 74
0
 42
0.0000001
 43
0.0000001
 44
0.0000000001
 40
0.0
 40
0.0
 40
0.0
 40
0.0
 40
0.0064447807
 40
0.0128316006
 40
0.0192075452
 40
0.0256191126
 40
0.0321112112
 40
0.0387262312
 40
0.0524709353
 40
0.0671287752
 40
0.0829040452
 40
0.0999481298
 40
0.1183693549
 40
0.1382415611
 40
0.1596138177
 40
0.1825165818
 40
0.2069668221
 40
0.2329704953
 40
0.2605263209
 40
0.2896267004
 40
0.3202598474
 40
0.3524099988
 40
0.3860589698
 40
0.4211858924
 40
0.4577683516
 40
0.4957817275
 40
0.5352002959
 40
0.5759968475
 40
0.6181431663
 40
0.6616091038
 40
0.7063636067
 40
0.7996054621
 40
1.0
 40
1.0
 40
1.0
 40
1.0
 10
5.4213271243
 20
2.9228343937
 30
0.0
 10
5.4211335315
 20
2.922335122
 30
0.0
 10
5.4207092663
 20
2.9213555767
 30
0.0
 10
5.419959295
 20
2.9199449813
 30
0.0
 10
5.4191000356
 20
2.9186013368
 30
0.0
 10
5.418131652
 20
2.9173232038
 30
0.0
 10
5.4170542895
 20
2.9161088514
 30
0.0
 10
5.4154529519
 20
2.9145528084
 30
0.0
 10
5.4131549586
 20
2.9127529789
 30
0.0
 10
5.4100051167
 20
2.910854021
 30
0.0
 10
5.406430784
 20
2.9091712558
 30
0.0
 10
5.4024346712
 20
2.907690328
 30
0.0
 10
5.3980190326
 20
2.9063974237
 30
0.0
 10
5.3931862481
 20
2.905281922
 30
0.0
 10
5.3879393991
 20
2.9043347915
 30
0.0
 10
5.3822822629
 20
2.9035478598
 30
0.0
 10
5.3762192622
 20
2.9029131983
 30
0.0
 10
5.3697550523
 20
2.902426052
 30
0.0
 10
5.362894906
 20
2.90208216
 30
0.0
 10
5.3556444548
 20
2.9018787323
 30
0.0
 10
5.348009776
 20
2.9018131371
 30
0.0
 10
5.3399972599
 20
2.9018853835
 30
0.0
 10
5.3316137109
 20
2.9020956306
 30
0.0
 10
5.3228663153
 20
2.9024466652
 30
0.0
 10
5.3137626937
 20
2.9029413579
 30
0.0
 10
5.304310892
 20
2.9035841103
 30
0.0
 10
5.2945193909
 20
2.9043797828
 30
0.0
 10
5.2843973038
 20
2.9053363767
 30
0.0
 10
5.2739542773
 20
2.9064618141
 30
0.0
 10
5.2632005571
 20
2.9077646762
 30
0.0
 10
5.2482576329
 20
2.9097789133
 30
0.0
 10
5.2204760456
 20
2.9141208627
 30
0.0
 10
5.1965438735
 20
2.9189786031
 30
0.0
 10
5.1803458753
 20
2.9228343937
 30
0.0
  0
SPLINE
  5
366
100
AcDbEntity
  8
0
100
AcDbSpline
 62
7
  6
CONTINUOUS
 70
0
 71
3
 72
23
 73
19
 74
0
 42
0.0000001
 43
0.0000001
 44
0.0000000001
 40
0.0
 40
0.0
 40
0.0
 40
0.0
 40
0.0621989001
 40
0.1243975395
 40
0.1866066242
 40
0.2488343903
 40
0.3110877204
 40
0.3733732597
 40
0.4356985304
 40
0.4980730412
 40
0.5605091765
 40
0.623019411
 40
0.6856131145
 40
0.7482974404
 40
0.811078159
 40
0.8739572017
 40
0.9369324439
 40
1.0
 40
1.0
 40
1.0
 40
1.0
 10
5.1655820729
 20
4.9102064886
 30
0.0
 10
5.1663176036
 20
4.9025782231
 30
0.0
 10
5.1673955097
 20
4.8872809205
 30
0.0
 10
5.167837267
 20
4.8642835544
 30
0.0
 10
5.1671103126
 20
4.8412893498
 30
0.0
 10
5.1652207546
 20
4.8183548528
 30
0.0
 10
5.16217475
 20
4.7955355973
 30
0.0
 10
5.1579784164
 20
4.7728873789
 30
0.0
 10
5.1526377319
 20
4.7504659833
 30
0.0
 10
5.1461590378
 20
4.728327059
 30
0.0
 10
5.1385473357
 20
4.7065275095
 30
0.0
 10
5.1298270103
 20
4.6851183102
 30
0.0
 10
5.1200244349
 20
4.66414888
 30
0.0
 10
5.1091656307
 20
4.6436687277
 30
0.0
 10
5.0972759613
 20
4.6237285029
 30
0.0
 10
5.0843884551
 20
4.6043750745
 30
0.0
 10
5.0705395078
 20
4.5856544155
 30
0.0
 10
5.060695193
 20
4.573633605
 30
0.0
 10
5.0556255322
 20
4.5677444713
 30
0.0
  0
SPLINE
  5
367
100
AcDbEntity
  8
0
100
AcDbSpline
 62
7
  6
CONTINUOUS
 70
0
 71
3
 72
9
 73
5
 74
0
 42
0.0000001
 43
0.0000001
 44
0.0000000001
 40
0.0
 40
0.0
 40
0.0
 40
0.0
 40
0.4948530325
 40
1.0
 40
1.0
 40
1.0
 40
1.0
 10
5.1386071291
 20
2.9341134159
 30
0.0
 10
5.1315560907
 20
2.9319384942
 30
0.0
 10
5.1172001225
 20
2.9278859072
 30
0.0
 10
5.1026882479
 20
2.9244402561
 30
0.0
 10
5.095329075
 20
2.9228343937
 30
0.0
  0
LINE
  5
368
100
AcDbEntity
  8
0
100
AcDbLine
 62
7
  6
CONTINUOUS
 10
4.9650390974
 20
5.6357067299
 11
4.8543478261
 21
5.6356667655
  0
SPLINE
  5
369
100
AcDbEntity
  8
0
100
AcDbSpline
 62
7
  6
CONTINUOUS
 70
0
 71
3
 72
15
 73
11
 74
0
 42
0.0000001
 43
0.0000001
 44
0.0000000001
 40
0.0
 40
0.0
 40
0.0
 40
0.0
 40
0.1467561872
 40
0.2863088096
 40
0.4188875884
 40
0.5449663424
 40
0.6652128376
 40
0.7804707682
 40
0.8917198928
 40
1.0
 40
1.0
 40
1.0
 40
1.0
 10
4.9650390974
 20
5.6357067299
 30
0.0
 10
4.963142245
 20
5.6379010356
 30
0.0
 10
4.959336583
 20
5.6420930457
 30
0.0
 10
4.9534265797
 20
5.647897864
 30
0.0
 10
4.947460004
 20
5.6530399229
 30
0.0
 10
4.9414399347
 20
5.657506491
 30
0.0
 10
4.9353700603
 20
5.6612942161
 30
0.0
 10
4.9292548785
 20
5.6644086536
 30
0.0
 10
4.9231000054
 20
5.6668624096
 30
0.0
 10
4.9189283374
 20
5.6680830147
 30
0.0
 10
4.9168478261
 20
5.6685843937
 30
0.0
  0
SPLINE
  5
36A
100
AcDbEntity
  8
0
100
AcDbSpline
 62
7
  6
CONTINUOUS
 70
0
 71
3
 72
14
 73
10
 74
0
 42
0.0000001
 43
0.0000001
 44
0.0000000001
 40
0.0
 40
0.0
 40
0.0
 40
0.0
 40
0.2499482489
 40
0.3749387929
 40
0.4999311111
 40
0.6249307969
 40
0.7499406169
 40
0.8749613617
 40
1.0
 40
1.0
 40
1.0
 40
1.0
 10
5.0828933917
 20
5.6354742802
 30
0.0
 10
5.0761119825
 20
5.6390569126
 30
0.0
 10
5.0657584079
 20
5.6441009188
 30
0.0
 10
5.0516240382
 20
5.6500692089
 30
0.0
 10
5.0408616064
 20
5.6541474217
 30
0.0
 10
5.0299490857
 20
5.6578067893
 30
0.0
 10
5.0188983145
 20
5.6610287559
 30
0.0
 10
5.0077243381
 20
5.6637978924
 30
0.0
 10
5.0002038816
 20
5.6653335948
 30
0.0
 10
4.9964294023
 20
5.6660222052
 30
0.0
  0
LINE
  5
36B
100
AcDbEntity
  8
0
100
AcDbLine
 62
7
  6
CONTINUOUS
 10
5.0828933917
 20
5.6354742802
 11
4.9717022411
 21
5.6355695952
  0
SPLINE
  5
36C
100
AcDbEntity
  8
0
100
AcDbSpline
 62
7
  6
CONTINUOUS
 70
0
 71
3
 72
15
 73
11
 74
0
 42
0.0000001
 43
0.0000001
 44
0.0000000001
 40
0.0
 40
0.0
 40
0.0
 40
0.0
 40
0.1456346991
 40
0.2853952316
 40
0.4191249977
 40
0.5467943243
 40
0.6684745616
 40
0.7843560058
 40
0.8947432029
 40
1.0
 40
1.0
 40
1.0
 40
1.0
 10
4.9713940866
 20
5.6358581348
 30
0.0
 10
4.9691562273
 20
5.6380403451
 30
0.0
 10
4.9646655759
 20
5.6422108935
 30
0.0
 10
4.9577472862
 20
5.6479677181
 30
0.0
 10
4.9508095779
 20
5.6530760042
 30
0.0
 10
4.9438845625
 20
5.6575194063
 30
0.0
 10
4.9370053742
 20
5.6612913302
 30
0.0
 10
4.9302051412
 20
5.6643952187
 30
0.0
 10
4.9235163878
 20
5.666842686
 30
0.0
 10
4.9190492529
 20
5.6680772305
 30
0.0
 10
4.9168478261
 20
5.6685843937
 30
0.0
  0
SPLINE
  5
36D
100
AcDbEntity
  8
0
100
AcDbSpline
 62
7
  6
CONTINUOUS
 70
0
 71
3
 72
21
 73
17
 74
0
 42
0.0000001
 43
0.0000001
 44
0.0000000001
 40
0.0
 40
0.0
 40
0.0
 40
0.0
 40
0.1291093019
 40
0.1935389858
 40
0.2578174074
 40
0.3218960933
 40
0.3857250712
 40
0.4492550029
 40
0.5124376411
 40
0.5752254888
 40
0.6375720441
 40
0.699432181
 40
0.7607625996
 40
0.8816658934
 40
0.9411729667
 40
1.0
 40
1.0
 40
1.0
 40
1.0
 10
4.8543478261
 20
2.9018362744
 30
0.0
 10
4.8439190539
 20
2.9018356815
 30
0.0
 10
4.8282854728
 20
2.9019710889
 30
0.0
 10
4.8074653398
 20
2.9024369278
 30
0.0
 10
4.791900585
 20
2.9029296479
 30
0.0
 10
4.7763897335
 20
2.9035691076
 30
0.0
 10
4.7609464578
 20
2.9043617267
 30
0.0
 10
4.7455847461
 20
2.9053150015
 30
0.0
 10
4.7303188097
 20
2.9064382876
 30
0.0
 10
4.7151629074
 20
2.9077395944
 30
0.0
 10
4.7001313827
 20
2.9092263676
 30
0.0
 10
4.6852390779
 20
2.9109113446
 30
0.0
 10
4.6656831956
 20
2.9134276318
 30
0.0
 10
4.6463788794
 20
2.9163989697
 30
0.0
 10
4.6273724253
 20
2.9198953685
 30
0.0
 10
4.6180093602
 20
2.9218226671
 30
0.0
 10
4.6133665771
 20
2.9228343937
 30
0.0
  0
LINE
  5
36E
100
AcDbEntity
  8
0
100
AcDbLine
 62
7
  6
CONTINUOUS
 10
5.0556226021
 20
4.5677464931
 11
5.0506536977
 21
4.9479786296
  0
SPLINE
  5
36F
100
AcDbEntity
  8
0
100
AcDbSpline
 62
7
  6
CONTINUOUS
 70
0
 71
3
 72
38
 73
34
 74
0
 42
0.0000001
 43
0.0000001
 44
0.0000000001
 40
0.0
 40
0.0
 40
0.0
 40
0.0
 40
0.2003945372
 40
0.2936363932
 40
0.3383908958
 40
0.3818568329
 40
0.4240031517
 40
0.4647997038
 40
0.5042182724
 40
0.5422316475
 40
0.5788141063
 40
0.6139410297
 40
0.6475900012
 40
0.6797401519
 40
0.7103732986
 40
0.7394736783
 40
0.7670295038
 40
0.7930331771
 40
0.8174834178
 40
0.8403861816
 40
0.8617584376
 40
0.8816306436
 40
0.9000518693
 40
0.9170959548
 40
0.9328712242
 40
0.9475290617
 40
0.9612737658
 40
0.9678887872
 40
0.9743808874
 40
0.9807924558
 40
0.9871684005
 40
0.9935552199
 40
1.0
 40
1.0
 40
1.0
 40
1.0
 10
4.5283497769
 20
2.9228343937
 30
0.0
 10
4.5121517788
 20
2.9189786026
 30
0.0
 10
4.488219606
 20
2.914120866
 30
0.0
 10
4.4604380195
 20
2.9097789121
 30
0.0
 10
4.445495095
 20
2.9077646765
 30
0.0
 10
4.4347413748
 20
2.9064618152
 30
0.0
 10
4.4242983483
 20
2.9053363778
 30
0.0
 10
4.4141762613
 20
2.9043797823
 30
0.0
 10
4.4043847602
 20
2.9035841083
 30
0.0
 10
4.3949329585
 20
2.9029413586
 30
0.0
 10
4.3858293368
 20
2.9024466686
 30
0.0
 10
4.3770819412
 20
2.9020956305
 30
0.0
 10
4.3686983922
 20
2.9018853795
 30
0.0
 10
4.3606858761
 20
2.9018131369
 30
0.0
 10
4.3530511975
 20
2.9018787363
 30
0.0
 10
4.3458007462
 20
2.9020821605
 30
0.0
 10
4.3389405997
 20
2.9024260488
 30
0.0
 10
4.3324763899
 20
2.9029131974
 30
0.0
 10
4.3264133895
 20
2.9035478616
 30
0.0
 10
4.3207562532
 20
2.9043347922
 30
0.0
 10
4.315509404
 20
2.905281921
 30
0.0
 10
4.3106766194
 20
2.9063974225
 30
0.0
 10
4.3062609809
 20
2.9076903276
 30
0.0
 10
4.3022648684
 20
2.9091712565
 30
0.0
 10
4.2986905357
 20
2.9108540213
 30
0.0
 10
4.2955406932
 20
2.9127529776
 30
0.0
 10
4.2932427
 20
2.9145528072
 30
0.0
 10
4.2916413626
 20
2.9161088508
 30
0.0
 10
4.2905640002
 20
2.9173232037
 30
0.0
 10
4.2895956166
 20
2.918601337
 30
0.0
 10
4.2887363572
 20
2.9199449816
 30
0.0
 10
4.2879863858
 20
2.9213555768
 30
0.0
 10
4.2875621207
 20
2.9223351221
 30
0.0
 10
4.2873685279
 20
2.9228343937
 30
0.0
  0
SPLINE
  5
370
100
AcDbEntity
  8
0
100
AcDbSpline
 62
7
  6
CONTINUOUS
 70
0
 71
3
 72
9
 73
5
 74
0
 42
0.0000001
 43
0.0000001
 44
0.0000000001
 40
0.0
 40
0.0
 40
0.0
 40
0.0
 40
0.5051469784
 40
1.0
 40
1.0
 40
1.0
 40
1.0
 10
4.6133665771
 20
2.9228343937
 30
0.0
 10
4.6060074107
 20
2.9244402681
 30
0.0
 10
4.5914955601
 20
2.9278859716
 30
0.0
 10
4.5771395393
 20
2.9319383447
 30
0.0
 10
4.5700885015
 20
2.9341132549
 30
0.0
  0
SPLINE
  5
371
100
AcDbEntity
  8
0
100
AcDbSpline
 62
7
  6
CONTINUOUS
 70
0
 71
3
 72
43
 73
39
 74
0
 42
0.0000001
 43
0.0000001
 44
0.0000000001
 40
0.0
 40
0.0
 40
0.0
 40
0.0
 40
0.0306720292
 40
0.0460345453
 40
0.0614143092
 40
0.0922237552
 40
0.1231144083
 40
0.1385951482
 40
0.1540981071
 40
0.185165821
 40
0.2163248916
 40
0.2475741102
 40
0.278910061
 40
0.3103271764
 40
0.3418178862
 40
0.3733728649
 40
0.4049811886
 40
0.4366306994
 40
0.4683082099
 40
0.4999998974
 40
0.5316915863
 40
0.5633691009
 40
0.5950186185
 40
0.6266269515
 40
0.6581819417
 40
0.689672665
 40
0.7210897956
 40
0.7524257629
 40
0.7836749988
 40
0.8148340873
 40
0.845901819
 40
0.8614047866
 40
0.8768855351
 40
0.9077762047
 40
0.9385856659
 40
0.9539654367
 40
0.9693279593
 40
1.0
 40
1.0
 40
1.0
 40
1.0
 10
5.0154821537
 20
6.1753753602
 30
0.0
 10
5.0141559616
 20
6.1712669624
 30
0.0
 10
5.011911631
 20
6.1651785255
 30
0.0
 10
5.0084316634
 20
6.1572639443
 30
0.0
 10
5.0046245084
 20
6.149479346
 30
0.0
 10
4.9992679363
 20
6.1400303647
 30
0.0
 10
4.9931590928
 20
6.131032316
 30
0.0
 10
4.9878418789
 20
6.1241324574
 30
0.0
 10
4.982237112
 20
6.1174315812
 30
0.0
 10
4.9747195052
 20
6.1094655646
 30
0.0
 10
4.9649495761
 20
6.1006334934
 30
0.0
 10
4.9544841905
 20
6.0925751824
 30
0.0
 10
4.9433895482
 20
6.0853416182
 30
0.0
 10
4.9317353506
 20
6.0789780725
 30
0.0
 10
4.9195949054
 20
6.0735244898
 30
0.0
 10
4.9070445286
 20
6.0690150565
 30
0.0
 10
4.8941630943
 20
6.0654780465
 30
0.0
 10
4.881031545
 20
6.0629356287
 30
0.0
 10
4.8677323772
 20
6.0614037358
 30
0.0
 10
4.8543491352
 20
6.0608919706
 30
0.0
 10
4.8409658849
 20
6.0614035359
 30
0.0
 10
4.8276666925
 20
6.0629352302
 30
0.0
 10
4.8145351023
 20
6.0654774519
 30
0.0
 10
4.8016536112
 20
6.0690142695
 30
0.0
 10
4.789103162
 20
6.0735235153
 30
0.0
 10
4.776962629
 20
6.0789769166
 30
0.0
 10
4.7653083292
 20
6.0853402882
 30
0.0
 10
4.7542135706
 20
6.0925736866
 30
0.0
 10
4.7437480554
 20
6.1006318412
 30
0.0
 10
4.7339779843
 20
6.1094637664
 30
0.0
 10
4.7264602494
 20
6.1174296707
 30
0.0
 10
4.7208553747
 20
6.1241304632
 30
0.0
 10
4.7155380498
 20
6.1310302424
 30
0.0
 10
4.7094290616
 20
6.1400281996
 30
0.0
 10
4.7040723375
 20
6.1494771009
 30
0.0
 10
4.7002650572
 20
6.1572616425
 30
0.0
 10
4.6967849623
 20
6.1651761715
 30
0.0
 10
4.6945405338
 20
6.171264575
 30
0.0
 10
4.6932142755
 20
6.1753729531
 30
0.0
  0
SPLINE
  5
372
100
AcDbEntity
  8
0
100
AcDbSpline
 62
7
  6
CONTINUOUS
 70
0
 71
3
 72
15
 73
11
 74
0
 42
0.0000001
 43
0.0000001
 44
0.0000000001
 40
0.0
 40
0.0
 40
0.0
 40
0.0
 40
0.1164147113
 40
0.2362547225
 40
0.3590264716
 40
0.4842452077
 40
0.61143333
 40
0.7401130586
 40
0.8698007651
 40
1.0
 40
1.0
 40
1.0
 40
1.0
 10
4.7093328422
 20
5.1500107711
 30
0.0
 10
4.7149131519
 20
5.1508790296
 30
0.0
 10
4.7262595847
 20
5.1525042374
 30
0.0
 10
4.7435506127
 20
5.154604166
 30
0.0
 10
4.7613054659
 20
5.1563974209
 30
0.0
 10
4.7794465134
 20
5.1578800643
 30
0.0
 10
4.7978977517
 20
5.1590469619
 30
0.0
 10
4.8165835772
 20
5.1598913127
 30
0.0
 10
4.8354274289
 20
5.160406689
 30
0.0
 10
4.8480351664
 20
5.1605268247
 30
0.0
 10
4.8543513271
 20
5.1605298643
 30
0.0
  0
SPLINE
  5
373
100
AcDbEntity
  8
0
100
AcDbSpline
 62
7
  6
CONTINUOUS
 70
0
 71
3
 72
15
 73
11
 74
0
 42
0.0000001
 43
0.0000001
 44
0.0000000001
 40
0.0
 40
0.0
 40
0.0
 40
0.0
 40
0.1456347119
 40
0.2853952179
 40
0.4191249618
 40
0.5467943119
 40
0.6684745672
 40
0.7843560196
 40
0.894743209
 40
1.0
 40
1.0
 40
1.0
 40
1.0
 10
4.7373015639
 20
5.6358581338
 30
0.0
 10
4.7395394226
 20
5.6380403453
 30
0.0
 10
4.7440300752
 20
5.6422108923
 30
0.0
 10
4.7509483642
 20
5.6479677168
 30
0.0
 10
4.7578860712
 20
5.6530760043
 30
0.0
 10
4.7648110878
 20
5.657519406
 30
0.0
 10
4.7716902774
 20
5.66129133
 30
0.0
 10
4.778490511
 20
5.6643952189
 30
0.0
 10
4.7851792646
 20
5.6668426858
 30
0.0
 10
4.7896463995
 20
5.6680772299
 30
0.0
 10
4.7918478261
 20
5.6685843937
 30
0.0
  0
LINE
  5
374
100
AcDbEntity
  8
0
100
AcDbLine
 62
7
  6
CONTINUOUS
 10
4.7369775371
 20
5.6355550089
 11
4.7373015639
 21
5.6358581338
  0
LINE
  5
375
100
AcDbEntity
  8
0
100
AcDbLine
 62
7
  6
CONTINUOUS
 10
4.7369775371
 20
5.6355550089
 11
4.6258022655
 21
5.6354742833
  0
LINE
  5
376
100
AcDbEntity
  8
0
100
AcDbLine
 62
7
  6
CONTINUOUS
 10
4.8543478261
 20
5.6356667655
 11
4.7436565481
 21
5.6357067239
  0
SPLINE
  5
377
100
AcDbEntity
  8
0
100
AcDbSpline
 62
7
  6
CONTINUOUS
 70
0
 71
3
 72
15
 73
11
 74
0
 42
0.0000001
 43
0.0000001
 44
0.0000000001
 40
0.0
 40
0.0
 40
0.0
 40
0.0
 40
0.1467561759
 40
0.286308793
 40
0.4188876012
 40
0.5449663625
 40
0.6652128618
 40
0.7804707853
 40
0.8917198943
 40
1.0
 40
1.0
 40
1.0
 40
1.0
 10
4.7436565481
 20
5.6357067239
 30
0.0
 10
4.7455534005
 20
5.6379010298
 30
0.0
 10
4.7493590609
 20
5.6420930422
 30
0.0
 10
4.7552690662
 20
5.6478978608
 30
0.0
 10
4.7612356447
 20
5.6530399192
 30
0.0
 10
4.7672557152
 20
5.6575064892
 30
0.0
 10
4.7733255907
 20
5.6612942148
 30
0.0
 10
4.7794407728
 20
5.6644086534
 30
0.0
 10
4.7855956465
 20
5.6668624094
 30
0.0
 10
4.789767315
 20
5.6680830142
 30
0.0
 10
4.7918478264
 20
5.6685843938
 30
0.0
  0
LINE
  5
378
100
AcDbEntity
  8
0
100
AcDbLine
 62
7
  6
CONTINUOUS
 10
4.6580419546
 20
4.9479786677
 11
4.65307305
 21
4.5677464931
  0
SPLINE
  5
379
100
AcDbEntity
  8
0
100
AcDbSpline
 62
7
  6
CONTINUOUS
 70
0
 71
3
 72
25
 73
21
 74
0
 42
0.0000001
 43
0.0000001
 44
0.0000000001
 40
0.0
 40
0.0
 40
0.0
 40
0.0
 40
0.0622037018
 40
0.1244046239
 40
0.1866143642
 40
0.2488417416
 40
0.3110939709
 40
0.3733778386
 40
0.4357008769
 40
0.4980725336
 40
0.5292829836
 40
0.5605104364
 40
0.6230171523
 40
0.68560778
 40
0.7482897887
 40
0.7796695523
 40
0.8110742328
 40
0.8739532681
 40
0.9369298444
 40
1.0
 40
1.0
 40
1.0
 40
1.0
 10
4.5435996592
 20
4.9149786753
 30
0.0
 10
4.5427713536
 20
4.9072592429
 30
0.0
 10
4.5415185577
 20
4.8917743754
 30
0.0
 10
4.5408465314
 20
4.8684825763
 30
0.0
 10
4.5413750487
 20
4.8451835835
 30
0.0
 10
4.5430977628
 20
4.8219361748
 30
0.0
 10
4.5460082511
 20
4.7987981034
 30
0.0
 10
4.5501001918
 20
4.7758272764
 30
0.0
 10
4.555367205
 20
4.7530820317
 30
0.0
 10
4.5607294373
 20
4.7343668778
 30
0.0
 10
4.5655994109
 20
4.7195684084
 30
0.0
 10
4.5708567706
 20
4.7048852021
 30
0.0
 10
4.5781426346
 20
4.6867753249
 30
0.0
 10
4.5879951884
 20
4.6654991278
 30
0.0
 10
4.5971076645
 20
4.6481900234
 30
0.0
 10
4.6049254519
 20
4.6346197386
 30
0.0
 10
4.6130974329
 20
4.621230941
 30
0.0
 10
4.6239549289
 20
4.6048685637
 30
0.0
 10
4.637965737
 20
4.5858909713
 30
0.0
 10
4.6479344266
 20
4.5737103153
 30
0.0
 10
4.653070121
 20
4.5677444741
 30
0.0
  0
SPLINE
  5
37A
100
AcDbEntity
  8
0
100
AcDbSpline
 62
7
  6
CONTINUOUS
 70
0
 71
3
 72
11
 73
7
 74
0
 42
0.0000001
 43
0.0000001
 44
0.0000000001
 40
0.0
 40
0.0
 40
0.0
 40
0.0
 40
0.2548196399
 40
0.5055313584
 40
0.7534653942
 40
1.0
 40
1.0
 40
1.0
 40
1.0
 10
5.0802192807
 20
4.9785361473
 30
0.0
 10
5.0803425247
 20
4.9789275907
 30
0.0
 10
5.0805594241
 20
4.9797132141
 30
0.0
 10
5.0807942164
 20
4.9809048907
 30
0.0
 10
5.0809352161
 20
4.9820978586
 30
0.0
 10
5.0809666125
 20
4.9828945461
 30
0.0
 10
5.0809666238
 20
4.9832915895
 30
0.0
  0
SPLINE
  5
37B
100
AcDbEntity
  8
0
100
AcDbSpline
 62
7
  6
CONTINUOUS
 70
0
 71
3
 72
39
 73
35
 74
0
 42
0.0000001
 43
0.0000001
 44
0.0000000001
 40
0.0
 40
0.0
 40
0.0
 40
0.0
 40
0.0221521904
 40
0.0334633915
 40
0.0449384025
 40
0.0683951316
 40
0.0925533955
 40
0.11743375
 40
0.143050925
 40
0.1694153773
 40
0.1828811554
 40
0.1965365047
 40
0.2530089796
 40
0.2823242254
 40
0.3123125352
 40
0.3429394011
 40
0.374166663
 40
0.4059536093
 40
0.4382606527
 40
0.4710486814
 40
0.5042803826
 40
0.5379198089
 40
0.5719330503
 40
0.6062885709
 40
0.6409579941
 40
0.7111327824
 40
0.7465929539
 40
0.7822728422
 40
0.8181522211
 40
0.8542146041
 40
0.8904468949
 40
0.9268349778
 40
0.9633598286
 40
1.0
 40
1.0
 40
1.0
 40
1.0
 10
5.1441480761
 20
5.1800075972
 30
0.0
 10
5.1465487622
 20
5.1779569791
 30
0.0
 10
5.1500891884
 20
5.1747565762
 30
0.0
 10
5.1546634769
 20
5.1702726818
 30
0.0
 10
5.1592451423
 20
5.165533799
 30
0.0
 10
5.1648576956
 20
5.1592493309
 30
0.0
 10
5.1713512691
 20
5.1512072857
 30
0.0
 10
5.17764102
 20
5.1426202354
 30
0.0
 10
5.1837154619
 20
5.1334997265
 30
0.0
 10
5.1885543949
 20
5.1255217054
 30
0.0
 10
5.1923098519
 20
5.1188873288
 30
0.0
 10
5.1979725443
 20
5.1084042454
 30
0.0
 10
5.2040974019
 20
5.0956057
 30
0.0
 10
5.2104772631
 20
5.0803861708
 30
0.0
 10
5.215064871
 20
5.0684155158
 30
0.0
 10
5.2193943098
 20
5.0560605539
 30
0.0
 10
5.2234686054
 20
5.043349767
 30
0.0
 10
5.227291958
 20
5.0303117273
 30
0.0
 10
5.2308694789
 20
5.0169738071
 30
0.0
 10
5.234206907
 20
5.0033618267
 30
0.0
 10
5.2373107485
 20
4.9895001445
 30
0.0
 10
5.2401879085
 20
4.9754114741
 30
0.0
 10
5.2428459864
 20
4.9611169833
 30
0.0
 10
5.2452923013
 20
4.9466358735
 30
0.0
 10
5.2482929386
 20
4.9270238782
 30
0.0
 10
5.2508818495
 20
4.9071920295
 30
0.0
 10
5.2530979869
 20
4.8871729138
 30
0.0
 10
5.2545884017
 20
4.8719924298
 30
0.0
 10
5.255908965
 20
4.8567101623
 30
0.0
 10
5.2570647684
 20
4.8413356056
 30
0.0
 10
5.258059191
 20
4.8258771316
 30
0.0
 10
5.258895378
 20
4.8103433102
 30
0.0
 10
5.2595859014
 20
4.7947442019
 30
0.0
 10
5.2599576832
 20
4.7843227709
 30
0.0
 10
5.2601238991
 20
4.7791032351
 30
0.0
  0
SPLINE
  5
37C
100
AcDbEntity
  8
0
100
AcDbSpline
 62
7
  6
CONTINUOUS
 70
0
 71
3
 72
10
 73
6
 74
0
 42
0.0000001
 43
0.0000001
 44
0.0000000001
 40
0.0
 40
0.0
 40
0.0
 40
0.0
 40
0.4999990211
 40
0.7499996024
 40
1.0
 40
1.0
 40
1.0
 40
1.0
 10
5.2601238991
 20
4.7791032351
 30
0.0
 10
5.267220127
 20
4.8458431775
 30
0.0
 10
5.2773944219
 20
4.9460049913
 30
0.0
 10
5.2896533175
 20
5.0796774435
 30
0.0
 10
5.2952856382
 20
5.1465579671
 30
0.0
 10
5.2979624667
 20
5.1800092252
 30
0.0
  0
SPLINE
  5
37D
100
AcDbEntity
  8
0
100
AcDbSpline
 62
7
  6
CONTINUOUS
 70
0
 71
3
 72
36
 73
32
 74
0
 42
0.0000001
 43
0.0000001
 44
0.0000000001
 40
0.0
 40
0.0
 40
0.0
 40
0.0
 40
0.0972197056
 40
0.1905964501
 40
0.2798359148
 40
0.3646663092
 40
0.4053489506
 40
0.444834823
 40
0.4830947393
 40
0.5201010375
 40
0.5558275768
 40
0.5902495212
 40
0.6233438512
 40
0.6550891605
 40
0.6854722906
 40
0.7144987215
 40
0.7421807433
 40
0.7685357947
 40
0.793586855
 40
0.8173642156
 40
0.8399061579
 40
0.8612605843
 40
0.8814869572
 40
0.9006587188
 40
0.9188657745
 40
0.927642907
 40
0.9362214081
 40
0.9528464927
 40
0.9688987797
 40
0.9845530382
 40
1.0
 40
1.0
 40
1.0
 40
1.0
 10
4.999626516
 20
5.150085828
 30
0.0
 10
5.0049767398
 20
5.1493064271
 30
0.0
 10
5.0154489065
 20
5.1476597981
 30
0.0
 10
5.0307606221
 20
5.1448679578
 30
0.0
 10
5.0453201066
 20
5.1418189205
 30
0.0
 10
5.0569370174
 20
5.1390382369
 30
0.0
 10
5.0658073144
 20
5.1366875967
 30
0.0
 10
5.0721447108
 20
5.1348932539
 30
0.0
 10
5.078253188
 20
5.1330445757
 30
0.0
 10
5.0841260008
 20
5.1311427644
 30
0.0
 10
5.0897563642
 20
5.1291890999
 30
0.0
 10
5.0951375193
 20
5.1271851383
 30
0.0
 10
5.1002625938
 20
5.1251324823
 30
0.0
 10
5.1051248461
 20
5.1230325647
 30
0.0
 10
5.1097184635
 20
5.1208864909
 30
0.0
 10
5.1140398035
 20
5.1186970653
 30
0.0
 10
5.1180862246
 20
5.1164666024
 30
0.0
 10
5.1218555733
 20
5.1141977632
 30
0.0
 10
5.1253458139
 20
5.1118930335
 30
0.0
 10
5.1285548024
 20
5.1095544968
 30
0.0
 10
5.1314804643
 20
5.1071841504
 30
0.0
 10
5.1341206398
 20
5.1047838343
 30
0.0
 10
5.1364731706
 20
5.1023552329
 30
0.0
 10
5.1385355105
 20
5.0998999855
 30
0.0
 10
5.1400281292
 20
5.0978076503
 30
0.0
 10
5.1410673396
 20
5.0961241834
 30
0.0
 10
5.1419851121
 20
5.0944716056
 30
0.0
 10
5.1429541416
 20
5.0923873292
 30
0.0
 10
5.143826167
 20
5.0898391782
 30
0.0
 10
5.1443913636
 20
5.087272716
 30
0.0
 10
5.1445614315
 20
5.085546525
 30
0.0
 10
5.1445937174
 20
5.0846880774
 30
0.0
  0
SPLINE
  5
37E
100
AcDbEntity
  8
0
100
AcDbSpline
 62
7
  6
CONTINUOUS
 70
0
 71
3
 72
15
 73
11
 74
0
 42
0.0000001
 43
0.0000001
 44
0.0000000001
 40
0.0
 40
0.0
 40
0.0
 40
0.0
 40
0.1241656836
 40
0.2485169282
 40
0.3730903165
 40
0.4979254117
 40
0.6230365263
 40
0.7484299324
 40
0.8740945075
 40
1.0
 40
1.0
 40
1.0
 40
1.0
 10
4.9228726271
 20
5.7591203546
 30
0.0
 10
4.9246972865
 20
5.7614266874
 30
0.0
 10
4.9281795711
 20
5.7661792614
 30
0.0
 10
4.9329267474
 20
5.7736386637
 30
0.0
 10
4.937231177
 20
5.7813796695
 30
0.0
 10
4.9411149317
 20
5.7893592072
 30
0.0
 10
4.9445939629
 20
5.7975439954
 30
0.0
 10
4.9476776763
 20
5.8059064667
 30
0.0
 10
4.9503695869
 20
5.814422531
 30
0.0
 10
4.951901568
 20
5.8201831795
 30
0.0
 10
4.9526017594
 20
5.8230818602
 30
0.0
  0
LINE
  5
37F
100
AcDbEntity
  8
0
100
AcDbLine
 62
7
  6
CONTINUOUS
 10
4.6769697388
 20
4.9395744138
 11
4.6704435051
 21
4.5591594623
  0
SPLINE
  5
380
100
AcDbEntity
  8
0
100
AcDbSpline
 62
7
  6
CONTINUOUS
 70
0
 71
3
 72
16
 73
12
 74
0
 42
0.0000001
 43
0.0000001
 44
0.0000000001
 40
0.0
 40
0.0
 40
0.0
 40
0.0
 40
0.1258808592
 40
0.2515202454
 40
0.3768917117
 40
0.5019876211
 40
0.6268179688
 40
0.6891438582
 40
0.7514127874
 40
0.8757902307
 40
1.0
 40
1.0
 40
1.0
 40
1.0
 10
4.7569167891
 20
5.822327656
 30
0.0
 10
4.7576270628
 20
5.8194609526
 30
0.0
 10
4.7591782625
 20
5.8137648104
 30
0.0
 10
4.7618953275
 20
5.8053468623
 30
0.0
 10
4.764999664
 20
5.7970831735
 30
0.0
 10
4.7684937479
 20
5.7889972035
 30
0.0
 10
4.7717386733
 20
5.7824249662
 30
0.0
 10
4.7745406046
 20
5.7772866554
 30
0.0
 10
4.7774800631
 20
5.7722380303
 30
0.0
 10
4.7814254885
 20
5.7660987148
 30
0.0
 10
4.7848913154
 20
5.761401254
 30
0.0
 10
4.7867051311
 20
5.7591203546
 30
0.0
  0
SPLINE
  5
381
100
AcDbEntity
  8
0
100
AcDbSpline
 62
7
  6
CONTINUOUS
 70
0
 71
3
 72
37
 73
33
 74
0
 42
0.0000001
 43
0.0000001
 44
0.0000000001
 40
0.0
 40
0.0
 40
0.0
 40
0.0
 40
0.0308229665
 40
0.0616169912
 40
0.0923893134
 40
0.123147549
 40
0.1538994998
 40
0.1846530208
 40
0.2154159376
 40
0.2461960026
 40
0.2770007119
 40
0.3078371466
 40
0.3387120136
 40
0.3696314934
 40
0.4006011037
 40
0.4316256486
 40
0.4627092403
 40
0.493855187
 40
0.5250658617
 40
0.556342826
 40
0.5876867772
 40
0.6190974728
 40
0.6505737602
 40
0.6821136779
 40
0.7137144501
 40
0.7453724177
 40
0.7770832443
 40
0.8088419251
 40
0.8406427587
 40
0.8724797392
 40
0.9362091727
 40
1.0
 40
1.0
 40
1.0
 40
1.0
 10
4.7312954298
 20
5.9621223361
 30
0.0
 10
4.7306217503
 20
5.9598412452
 30
0.0
 10
4.7294105632
 20
5.9552398982
 30
0.0
 10
4.7280096837
 20
5.9482454337
 30
0.0
 10
4.7270301255
 20
5.9411844079
 30
0.0
 10
4.7264752026
 20
5.9340807133
 30
0.0
 10
4.7263467215
 20
5.926957965
 30
0.0
 10
4.7266451723
 20
5.9198399557
 30
0.0
 10
4.7273695479
 20
5.912750437
 30
0.0
 10
4.7285173825
 20
5.90571306
 30
0.0
 10
4.7300848676
 20
5.8987513077
 30
0.0
 10
4.7320668
 20
5.8918884208
 30
0.0
 10
4.7344564989
 20
5.8851472802
 30
0.0
 10
4.7372459851
 20
5.8785503669
 30
0.0
 10
4.7404259944
 20
5.872119711
 30
0.0
 10
4.7439858568
 20
5.8658767392
 30
0.0
 10
4.7479136719
 20
5.8598422534
 30
0.0
 10
4.752196369
 20
5.8540363991
 30
0.0
 10
4.7568196386
 20
5.8484785252
 30
0.0
 10
4.7617680172
 20
5.8431871257
 30
0.0
 10
4.7670250188
 20
5.83817985
 30
0.0
 10
4.7725731227
 20
5.8334734066
 30
0.0
 10
4.7783937792
 20
5.8290834279
 30
0.0
 10
4.7844675862
 20
5.8250245403
 30
0.0
 10
4.7907743191
 20
5.8213103075
 30
0.0
 10
4.7972929153
 20
5.8179530528
 30
0.0
 10
4.8040016569
 20
5.8149639393
 30
0.0
 10
4.8108781358
 20
5.8123529777
 30
0.0
 10
4.8178996713
 20
5.8101287963
 30
0.0
 10
4.8274248322
 20
5.8076884029
 30
0.0
 10
4.839576864
 20
5.8056394847
 30
0.0
 10
4.8494253306
 20
5.8050914102
 30
0.0
 10
4.8543478261
 20
5.8050914102
 30
0.0
  0
SPLINE
  5
382
100
AcDbEntity
  8
0
100
AcDbSpline
 62
7
  6
CONTINUOUS
 70
0
 71
3
 72
37
 73
33
 74
0
 42
0.0000001
 43
0.0000001
 44
0.0000000001
 40
0.0
 40
0.0
 40
0.0
 40
0.0
 40
0.0637908273
 40
0.1275202608
 40
0.1593572413
 40
0.1911580749
 40
0.2229167557
 40
0.2546275823
 40
0.2862855499
 40
0.3178863221
 40
0.3494262398
 40
0.3809025272
 40
0.4123132228
 40
0.443657174
 40
0.4749341383
 40
0.506144813
 40
0.5372907597
 40
0.5683743514
 40
0.5993988963
 40
0.6303685066
 40
0.6612879864
 40
0.6921628534
 40
0.7229992881
 40
0.7538039974
 40
0.7845840624
 40
0.8153469792
 40
0.8461005002
 40
0.876852451
 40
0.9076106866
 40
0.9383830088
 40
0.9691770335
 40
1.0
 40
1.0
 40
1.0
 40
1.0
 10
4.8543478261
 20
5.8050914102
 30
0.0
 10
4.8592703216
 20
5.8050914102
 30
0.0
 10
4.8691187881
 20
5.8056394847
 30
0.0
 10
4.8812708199
 20
5.8076884029
 30
0.0
 10
4.8907959809
 20
5.8101287963
 30
0.0
 10
4.8978175164
 20
5.8123529777
 30
0.0
 10
4.9046939952
 20
5.8149639393
 30
0.0
 10
4.9114027369
 20
5.8179530528
 30
0.0
 10
4.9179213331
 20
5.8213103075
 30
0.0
 10
4.924228066
 20
5.8250245403
 30
0.0
 10
4.930301873
 20
5.8290834279
 30
0.0
 10
4.9361225295
 20
5.8334734066
 30
0.0
 10
4.9416706333
 20
5.83817985
 30
0.0
 10
4.946927635
 20
5.8431871257
 30
0.0
 10
4.9518760136
 20
5.8484785252
 30
0.0
 10
4.9564992832
 20
5.8540363992
 30
0.0
 10
4.9607819803
 20
5.8598422534
 30
0.0
 10
4.9647097954
 20
5.8658767392
 30
0.0
 10
4.9682696578
 20
5.872119711
 30
0.0
 10
4.9714496671
 20
5.8785503669
 30
0.0
 10
4.9742391533
 20
5.8851472802
 30
0.0
 10
4.9766288521
 20
5.8918884208
 30
0.0
 10
4.9786107845
 20
5.8987513077
 30
0.0
 10
4.9801782696
 20
5.90571306
 30
0.0
 10
4.9813261042
 20
5.912750437
 30
0.0
 10
4.9820504798
 20
5.9198399557
 30
0.0
 10
4.9823489306
 20
5.926957965
 30
0.0
 10
4.9822204495
 20
5.9340807134
 30
0.0
 10
4.9816655267
 20
5.9411844079
 30
0.0
 10
4.9806859684
 20
5.9482454337
 30
0.0
 10
4.979285089
 20
5.9552398982
 30
0.0
 10
4.9780739019
 20
5.9598412453
 30
0.0
 10
4.9774002223
 20
5.9621223362
 30
0.0
  0
SPLINE
  5
383
100
AcDbEntity
  8
0
100
AcDbSpline
 62
7
  6
CONTINUOUS
 70
0
 71
3
 72
54
 73
50
 74
0
 42
0.0000001
 43
0.0000001
 44
0.0000000001
 40
0.0
 40
0.0
 40
0.0
 40
0.0
 40
0.0002883988
 40
0.0006034755
 40
0.0009735369
 40
0.0014160997
 40
0.0019416182
 40
0.0025564744
 40
0.0032647184
 40
0.0040690608
 40
0.0049714093
 40
0.0059731683
 40
0.0082790144
 40
0.0109947807
 40
0.0141273382
 40
0.0176825824
 40
0.0216664744
 40
0.0260866976
 40
0.0309511523
 40
0.036267735
 40
0.0420465036
 40
0.0482994159
 40
0.0550384762
 40
0.0700327697
 40
0.0871640179
 40
0.1065841486
 40
0.1284495333
 40
0.1529029081
 40
0.1800696587
 40
0.2099657964
 40
0.242509693
 40
0.2775778091
 40
0.3150223238
 40
0.3546759758
 40
0.3752733068
 40
0.3963509796
 40
0.4398374619
 40
0.4849254543
 40
0.531429449
 40
0.5551678696
 40
0.5792102193
 40
0.6281632689
 40
0.6782157471
 40
0.7293218377
 40
0.7814532306
 40
0.8345943312
 40
0.8887351075
 40
0.9438719887
 40
1.0
 40
1.0
 40
1.0
 40
1.0
 10
4.690195252
 20
5.5421566569
 30
0.0
 10
4.6902325248
 20
5.542163146
 30
0.0
 10
4.6903137889
 20
5.5421617942
 30
0.0
 10
4.6904346453
 20
5.5421149454
 30
0.0
 10
4.6905554308
 20
5.5420276596
 30
0.0
 10
4.6906779138
 20
5.541901062
 30
0.0
 10
4.6908030061
 20
5.5417348455
 30
0.0
 10
4.6909310509
 20
5.5415286193
 30
0.0
 10
4.6910621591
 20
5.5412820671
 30
0.0
 10
4.6911963423
 20
5.5409949662
 30
0.0
 10
4.6913335966
 20
5.5406671553
 30
0.0
 10
4.6915299863
 20
5.5401508881
 30
0.0
 10
4.6917799053
 20
5.5394009427
 30
0.0
 10
4.6920796897
 20
5.5383739431
 30
0.0
 10
4.6923912886
 20
5.5371801998
 30
0.0
 10
4.6927144987
 20
5.5358179685
 30
0.0
 10
4.6930490609
 20
5.5342851002
 30
0.0
 10
4.6933943168
 20
5.5325789962
 30
0.0
 10
4.6937497455
 20
5.5306967549
 30
0.0
 10
4.6941149227
 20
5.5286351287
 30
0.0
 10
4.6944892803
 20
5.5263902714
 30
0.0
 10
4.694872193
 20
5.5239577634
 30
0.0
 10
4.6954130337
 20
5.5203264191
 30
0.0
 10
4.6961045679
 20
5.5152749021
 30
0.0
 10
4.6969309525
 20
5.5085634212
 30
0.0
 10
4.6977768074
 20
5.5009467109
 30
0.0
 10
4.6986393215
 20
5.4923658888
 30
0.0
 10
4.6995140095
 20
5.4827653735
 30
0.0
 10
4.700401109
 20
5.4721084741
 30
0.0
 10
4.7013007919
 20
5.4603878645
 30
0.0
 10
4.7022090362
 20
5.4476285337
 30
0.0
 10
4.7031186428
 20
5.4338767432
 30
0.0
 10
4.7040199862
 20
5.4191898412
 30
0.0
 10
4.704738392
 20
5.4063937874
 30
0.0
 10
4.7052914661
 20
5.3957390609
 30
0.0
 10
4.7058381172
 20
5.3845805631
 30
0.0
 10
4.7064809923
 20
5.370210195
 30
0.0
 10
4.7071792312
 20
5.3525036858
 30
0.0
 10
4.7077010708
 20
5.3373830568
 30
0.0
 10
4.7080790532
 20
5.325020121
 30
0.0
 10
4.7084317424
 20
5.3123350318
 30
0.0
 10
4.708813203
 20
5.2961974778
 30
0.0
 10
4.7091718028
 20
5.2765083371
 30
0.0
 10
4.7094353804
 20
5.2564007179
 30
0.0
 10
4.7096062393
 20
5.2358869065
 30
0.0
 10
4.7096803486
 20
5.2149744124
 30
0.0
 10
4.7096597174
 20
5.1936675327
 30
0.0
 10
4.7095480778
 20
5.1719691056
 30
0.0
 10
4.709414998
 20
5.1573734374
 30
0.0
 10
4.7093328422
 20
5.1500107711
 30
0.0
  0
LINE
  5
384
100
AcDbEntity
  8
0
100
AcDbLine
 62
7
  6
CONTINUOUS
 10
4.7406102159
 20
5.6168175387
 11
4.7406367783
 21
5.6171414042
  0
SPLINE
  5
385
100
AcDbEntity
  8
0
100
AcDbSpline
 62
7
  6
CONTINUOUS
 70
0
 71
3
 72
12
 73
8
 74
0
 42
0.0000001
 43
0.0000001
 44
0.0000000001
 40
0.0
 40
0.0
 40
0.0
 40
0.0
 40
0.2500002088
 40
0.375000589
 40
0.5000007313
 40
0.7500005338
 40
1.0
 40
1.0
 40
1.0
 40
1.0
 10
4.8543478261
 20
5.6186463305
 30
0.0
 10
4.8448708618
 20
5.6186463062
 30
0.0
 10
4.8306553379
 20
5.6185901348
 30
0.0
 10
4.8117022034
 20
5.6184129126
 30
0.0
 10
4.7927497706
 20
5.6181724181
 30
0.0
 10
4.7690607664
 20
5.6177662111
 30
0.0
 10
4.750111239
 20
5.6173579949
 30
0.0
 10
4.7406367783
 20
5.6171414042
 30
0.0
  0
SPLINE
  5
386
100
AcDbEntity
  8
0
100
AcDbSpline
 62
7
  6
CONTINUOUS
 70
0
 71
3
 72
12
 73
8
 74
0
 42
0.0000001
 43
0.0000001
 44
0.0000000001
 40
0.0
 40
0.0
 40
0.0
 40
0.0
 40
0.2499994662
 40
0.4999992687
 40
0.624999411
 40
0.7499997913
 40
1.0
 40
1.0
 40
1.0
 40
1.0
 10
4.9680588739
 20
5.6171414051
 30
0.0
 10
4.9585844132
 20
5.6173579993
 30
0.0
 10
4.9396348858
 20
5.617766213
 30
0.0
 10
4.9159458814
 20
5.6181724132
 30
0.0
 10
4.8969934487
 20
5.6184129064
 30
0.0
 10
4.8780403142
 20
5.6185901312
 30
0.0
 10
4.8638247903
 20
5.6186463069
 30
0.0
 10
4.8543478261
 20
5.6186463305
 30
0.0
  0
SPLINE
  5
387
100
AcDbEntity
  8
0
100
AcDbSpline
 62
7
  6
CONTINUOUS
 70
0
 71
3
 72
22
 73
18
 74
0
 42
0.0000001
 43
0.0000001
 44
0.0000000001
 40
0.0
 40
0.0
 40
0.0
 40
0.0
 40
0.1249883438
 40
0.1874888389
 40
0.2499895545
 40
0.3124904167
 40
0.374991168
 40
0.4374919771
 40
0.49999273
 40
0.5624935261
 40
0.6249943615
 40
0.6874951866
 40
0.7499960942
 40
0.8124970598
 40
0.8749975555
 40
0.937499822
 40
1.0
 40
1.0
 40
1.0
 40
1.0
 10
5.2518706389
 20
5.2435843895
 30
0.0
 10
5.2414129432
 20
5.2570725274
 30
0.0
 10
5.2263016299
 20
5.2777636415
 30
0.0
 10
5.2074519302
 20
5.3062285193
 30
0.0
 10
5.1939919662
 20
5.3280141669
 30
0.0
 10
5.1812426294
 20
5.3502229939
 30
0.0
 10
5.1692338136
 20
5.3728411702
 30
0.0
 10
5.157993417
 20
5.3958510396
 30
0.0
 10
5.1475486047
 20
5.4192329923
 30
0.0
 10
5.1379232147
 20
5.4429641529
 30
0.0
 10
5.1291368238
 20
5.4670186676
 30
0.0
 10
5.1212044809
 20
5.4913682281
 30
0.0
 10
5.1141390643
 20
5.5159833801
 30
0.0
 10
5.1079496998
 20
5.5408331756
 30
0.0
 10
5.1026382123
 20
5.5658854763
 30
0.0
 10
5.0982030711
 20
5.591107141
 30
0.0
 10
5.0958266216
 20
5.6080141026
 30
0.0
 10
5.0947821535
 20
5.6164844273
 30
0.0
  0
SPLINE
  5
388
100
AcDbEntity
  8
0
100
AcDbSpline
 62
7
  6
CONTINUOUS
 70
0
 71
3
 72
18
 73
14
 74
0
 42
0.0000001
 43
0.0000001
 44
0.0000000001
 40
0.0
 40
0.0
 40
0.0
 40
0.0
 40
0.1254323794
 40
0.2507630482
 40
0.3133806238
 40
0.3759622083
 40
0.5010152791
 40
0.5634890633
 40
0.6259288983
 40
0.6883360193
 40
0.7507132017
 40
0.875393982
 40
1.0
 40
1.0
 40
1.0
 40
1.0
 10
5.0947821535
 20
5.6164844273
 30
0.0
 10
5.0900273026
 20
5.6166739486
 30
0.0
 10
5.0805206484
 20
5.6170332033
 30
0.0
 10
5.0686372414
 20
5.6174014846
 30
0.0
 10
5.0591353685
 20
5.6176286812
 30
0.0
 10
5.0496429345
 20
5.6178039615
 30
0.0
 10
5.0401545663
 20
5.6178967858
 30
0.0
 10
5.0306713437
 20
5.6179046826
 30
0.0
 10
5.0235648601
 20
5.6178674656
 30
0.0
 10
5.0164624123
 20
5.6177859998
 30
0.0
 10
5.0069996671
 20
5.6176200078
 30
0.0
 10
4.9951795148
 20
5.6173166077
 30
0.0
 10
4.9857275583
 20
5.6169935454
 30
0.0
 10
4.9810035582
 20
5.6168175827
 30
0.0
  0
LINE
  5
389
100
AcDbEntity
  8
0
100
AcDbLine
 62
7
  6
CONTINUOUS
 10
5.0382521471
 20
4.5591594623
 11
5.0317259016
 21
4.9395744494
  0
SPLINE
  5
38A
100
AcDbEntity
  8
0
100
AcDbSpline
 62
7
  6
CONTINUOUS
 70
0
 71
3
 72
46
 73
42
 74
0
 42
0.0000001
 43
0.0000001
 44
0.0000000001
 40
0.0
 40
0.0
 40
0.0
 40
0.0
 40
0.1367416796
 40
0.2052187834
 40
0.2737575569
 40
0.3423256484
 40
0.376604144
 40
0.410866312
 40
0.4451004347
 40
0.4622028158
 40
0.4792928364
 40
0.4963686171
 40
0.5134281408
 40
0.5304693429
 40
0.5474891338
 40
0.5644801549
 40
0.581434242
 40
0.5983404523
 40
0.6151838961
 40
0.6319483954
 40
0.6486132583
 40
0.6651561472
 40
0.6815507271
 40
0.6977674177
 40
0.7057984831
 40
0.7137726415
 40
0.7216865099
 40
0.729536891
 40
0.7450397725
 40
0.7602742437
 40
0.7752371379
 40
0.7899271691
 40
0.8043437722
 40
0.8323585043
 40
0.8593018072
 40
0.8851991821
 40
0.9100794557
 40
0.933971763
 40
0.9569043337
 40
0.9789048947
 40
1.0
 40
1.0
 40
1.0
 40
1.0
 10
4.6965101907
 20
3.7626470524
 30
0.0
 10
4.698416898
 20
3.724668706
 30
0.0
 10
4.7009932632
 20
3.6676550313
 30
0.0
 10
4.7032765069
 20
3.5915590879
 30
0.0
 10
4.70426685
 20
3.5343955194
 30
0.0
 10
4.7043673472
 20
3.4867330469
 30
0.0
 10
4.703939111
 20
3.4486067106
 30
0.0
 10
4.703346376
 20
3.4200320004
 30
0.0
 10
4.702613264
 20
3.396238884
 30
0.0
 10
4.701873849
 20
3.3772245996
 30
0.0
 10
4.7012404817
 20
3.3629815443
 30
0.0
 10
4.7005255465
 20
3.3487542843
 30
0.0
 10
4.6997288353
 20
3.3345449639
 30
0.0
 10
4.698850269
 20
3.3203560742
 30
0.0
 10
4.6978901914
 20
3.3061915416
 30
0.0
 10
4.6968306433
 20
3.2920583458
 30
0.0
 10
4.6956534777
 20
3.2779661018
 30
0.0
 10
4.6943407485
 20
3.2639269909
 30
0.0
 10
4.6928743497
 20
3.2499560315
 30
0.0
 10
4.6912366801
 20
3.2360716007
 30
0.0
 10
4.6894108413
 20
3.2222948674
 30
0.0
 10
4.6873805949
 20
3.2086506367
 30
0.0
 10
4.6851302719
 20
3.1951672091
 30
0.0
 10
4.6830544011
 20
3.1840564948
 30
0.0
 10
4.6812712538
 20
3.1752750451
 30
0.0
 10
4.6798767708
 20
3.1687711128
 30
0.0
 10
4.6784190238
 20
3.1623325547
 30
0.0
 10
4.6763963464
 20
3.1538758978
 30
0.0
 10
4.6737058341
 20
3.1434866557
 30
0.0
 10
4.6702179293
 20
3.1312646816
 30
0.0
 10
4.666498526
 20
3.1193477493
 30
0.0
 10
4.6625607421
 20
3.1077410602
 30
0.0
 10
4.6570911171
 20
3.0928263554
 30
0.0
 10
4.6497946573
 20
3.0749581336
 30
0.0
 10
4.640282042
 20
3.0545748257
 30
0.0
 10
4.6301787413
 20
3.035458152
 30
0.0
 10
4.6195541224
 20
3.0176067056
 30
0.0
 10
4.6084684275
 20
3.0010205942
 30
0.0
 10
4.5969738944
 20
2.9857043588
 30
0.0
 10
4.5851177139
 20
2.9716703637
 30
0.0
 10
4.5768282783
 20
2.9630017567
 30
0.0
 10
4.5726324037
 20
2.9589020022
 30
0.0
  0
SPLINE
  5
38B
100
AcDbEntity
  8
0
100
AcDbSpline
 62
7
  6
CONTINUOUS
 70
0
 71
3
 72
25
 73
21
 74
0
 42
0.0000001
 43
0.0000001
 44
0.0000000001
 40
0.0
 40
0.0
 40
0.0
 40
0.0
 40
0.0650498879
 40
0.1299708085
 40
0.1947264604
 40
0.259283554
 40
0.3236047361
 40
0.3876454978
 40
0.5146807642
 40
0.577567418
 40
0.6399501935
 40
0.7017622607
 40
0.7629360294
 40
0.7932643178
 40
0.8234097934
 40
0.8533647303
 40
0.8831215905
 40
0.9126732632
 40
0.942012607
 40
1.0
 40
1.0
 40
1.0
 40
1.0
 10
4.4749181115
 20
4.5418896799
 30
0.0
 10
4.4779828321
 20
4.524992017
 30
0.0
 10
4.4842588373
 20
4.4912576136
 30
0.0
 10
4.4941734458
 20
4.4408134865
 30
0.0
 10
4.5046248299
 20
4.3906105219
 30
0.0
 10
4.5156231545
 20
4.340686642
 30
0.0
 10
4.5271842889
 20
4.2910835264
 30
0.0
 10
4.5433348629
 20
4.2256195493
 30
0.0
 10
4.5607185584
 20
4.1608540856
 30
0.0
 10
4.5794426079
 20
4.0969285785
 30
0.0
 10
4.5940797987
 20
4.0497549281
 30
0.0
 10
4.6093668978
 20
4.0032636254
 30
0.0
 10
4.622690068
 20
3.9650413629
 30
0.0
 10
4.6336784827
 20
3.9348640632
 30
0.0
 10
4.6420566255
 20
3.9125086592
 30
0.0
 10
4.650594086
 20
3.8903752279
 30
0.0
 10
4.6592902409
 20
3.8684722439
 30
0.0
 10
4.6681409194
 20
3.846806648
 30
0.0
 10
4.6800943575
 20
3.8183594788
 30
0.0
 10
4.6893425348
 20
3.7972390283
 30
0.0
 10
4.6956232722
 20
3.7832779277
 30
0.0
  0
SPLINE
  5
38C
100
AcDbEntity
  8
0
100
AcDbSpline
 62
7
  6
CONTINUOUS
 70
0
 71
3
 72
74
 73
70
 74
0
 42
0.0000001
 43
0.0000001
 44
0.0000000001
 40
0.0
 40
0.0
 40
0.0
 40
0.0
 40
0.0156207385
 40
0.0312421911
 40
0.0468635942
 40
0.0624853279
 40
0.0781071426
 40
0.0937290425
 40
0.1093509701
 40
0.1249728882
 40
0.1327848381
 40
0.1405968197
 40
0.148408887
 40
0.1562209954
 40
0.1640331791
 40
0.1718455543
 40
0.1757519233
 40
0.1796582788
 40
0.1835647113
 40
0.1874712563
 40
0.1913778618
 40
0.1952844501
 40
0.2030975153
 40
0.2109106644
 40
0.2187240187
 40
0.2343492851
 40
0.2421626295
 40
0.2499759477
 40
0.2577893034
 40
0.2656022867
 40
0.2734153856
 40
0.2773220219
 40
0.2812286307
 40
0.2851351864
 40
0.2890417036
 40
0.2968546459
 40
0.3046675701
 40
0.3124805358
 40
0.3281064926
 40
0.3437324492
 40
0.3593584501
 40
0.3749844052
 40
0.3906104275
 40
0.4062364504
 40
0.4374876875
 40
0.4687388356
 40
0.484364656
 40
0.4999902698
 40
0.5156157416
 40
0.5312412942
 40
0.5468668238
 40
0.56249217
 40
0.5781174619
 40
0.5937427715
 40
0.6015554318
 40
0.609368088
 40
0.6249933831
 40
0.640618661
 40
0.6562439289
 40
0.6718691948
 40
0.6874944655
 40
0.7187450249
 40
0.7499955913
 40
0.7812461434
 40
0.8124966904
 40
0.8437472357
 40
0.8749977826
 40
0.937498901
 40
1.0
 40
1.0
 40
1.0
 40
1.0
 10
4.3033531851
 20
2.9589020958
 30
0.0
 10
4.311379844
 20
2.9626290829
 30
0.0
 10
4.3272584446
 20
2.9704671894
 30
0.0
 10
4.3504859118
 20
2.9833474206
 30
0.0
 10
4.373065156
 20
2.99733578
 30
0.0
 10
4.3949274485
 20
3.0124211346
 30
0.0
 10
4.415995873
 20
3.0285984638
 30
0.0
 10
4.4361814934
 20
3.045866799
 30
0.0
 10
4.4553802649
 20
3.0642273392
 30
0.0
 10
4.4704577417
 20
3.080441975
 30
0.0
 10
4.4818926047
 20
3.0939583435
 30
0.0
 10
4.4901366627
 20
3.1043694093
 30
0.0
 10
4.4980263593
 20
3.1150517086
 30
0.0
 10
4.5055385851
 20
3.1260032164
 30
0.0
 10
4.5126486256
 20
3.1372203354
 30
0.0
 10
4.5182170625
 20
3.1467855552
 30
0.0
 10
4.5224427149
 20
3.1545646313
 30
0.0
 10
4.5254934684
 20
3.160462098
 30
0.0
 10
4.5284225761
 20
3.1664209986
 30
0.0
 10
4.5312314549
 20
3.1724376401
 30
0.0
 10
4.533920991
 20
3.1785086725
 30
0.0
 10
4.5373491738
 20
3.186671318
 30
0.0
 10
4.5413456838
 20
3.1969933739
 30
0.0
 10
4.5457024521
 20
3.2095404238
 30
0.0
 10
4.5509607256
 20
3.2264495173
 30
0.0
 10
4.5554485999
 20
3.2435879338
 30
0.0
 10
4.5592860781
 20
3.2608734018
 30
0.0
 10
4.5618723604
 20
3.2738999159
 30
0.0
 10
4.5642000442
 20
3.2869744823
 30
0.0
 10
4.5663023487
 20
3.3000869038
 30
0.0
 10
4.5678906591
 20
3.31103871
 30
0.0
 10
4.5690778405
 20
3.3198116902
 30
0.0
 10
4.5699305408
 20
3.3263964477
 30
0.0
 10
4.5707469698
 20
3.3329857303
 30
0.0
 10
4.5717870626
 20
3.3417771736
 30
0.0
 10
4.5729969875
 20
3.3527768861
 30
0.0
 10
4.5743060738
 20
3.3659914309
 30
0.0
 10
4.5758634881
 20
3.3836284109
 30
0.0
 10
4.5774669827
 20
3.4057036099
 30
0.0
 10
4.5788707886
 20
3.4322261237
 30
0.0
 10
4.5797825472
 20
3.4587699973
 30
0.0
 10
4.5802301154
 20
3.4853255981
 30
0.0
 10
4.5802430173
 20
3.5118848522
 30
0.0
 10
4.5797209414
 20
3.5472925711
 30
0.0
 10
4.5781326336
 20
3.591532218
 30
0.0
 10
4.5755016738
 20
3.6357198207
 30
0.0
 10
4.5728905385
 20
3.671033799
 30
0.0
 10
4.5707082715
 20
3.6975017952
 30
0.0
 10
4.5683329482
 20
3.7239529028
 30
0.0
 10
4.5657960663
 20
3.7503889007
 30
0.0
 10
4.5631293534
 20
3.7768119915
 30
0.0
 10
4.5603627308
 20
3.8032246275
 30
0.0
 10
4.5575182091
 20
3.829628841
 30
0.0
 10
4.5551020291
 20
3.8516273467
 30
0.0
 10
4.5531528806
 20
3.8692243657
 30
0.0
 10
4.55119706
 20
3.8868206364
 30
0.0
 10
4.5487408215
 20
3.908814679
 30
0.0
 10
4.5457740838
 20
3.9352053537
 30
0.0
 10
4.5427876796
 20
3.9615937935
 30
0.0
 10
4.5397809231
 20
3.9879799183
 30
0.0
 10
4.535744669
 20
4.0231583152
 30
0.0
 10
4.5306542314
 20
4.0671261345
 30
0.0
 10
4.5244912966
 20
4.1198811825
 30
0.0
 10
4.5182903038
 20
4.1726317607
 30
0.0
 10
4.5120635026
 20
4.2253792844
 30
0.0
 10
4.505823669
 20
4.2781252641
 30
0.0
 10
4.4975044969
 20
4.3484533226
 30
0.0
 10
4.4871408048
 20
4.4363675701
 30
0.0
 10
4.4789612967
 20
4.5067120802
 30
0.0
 10
4.4749181115
 20
4.5418896799
 30
0.0
  0
SPLINE
  5
38D
100
AcDbEntity
  8
0
100
AcDbSpline
 62
7
  6
CONTINUOUS
 70
0
 71
3
 72
22
 73
18
 74
0
 42
0.0000001
 43
0.0000001
 44
0.0000000001
 40
0.0
 40
0.0
 40
0.0
 40
0.0
 40
0.062500178
 40
0.1250024515
 40
0.1875029518
 40
0.2500039228
 40
0.3125048361
 40
0.3750056645
 40
0.4375064976
 40
0.5000072834
 40
0.5625080389
 40
0.6250088464
 40
0.6875096017
 40
0.7500104526
 40
0.8125111682
 40
0.8750116619
 40
1.0
 40
1.0
 40
1.0
 40
1.0
 10
4.6139134965
 20
5.6164844219
 30
0.0
 10
4.6128690316
 20
5.6080140965
 30
0.0
 10
4.6104926225
 20
5.5911071283
 30
0.0
 10
4.6060575883
 20
5.565885442
 30
0.0
 10
4.6007461069
 20
5.5408331337
 30
0.0
 10
4.5945565226
 20
5.5159833891
 30
0.0
 10
4.58749105
 20
5.4913682528
 30
0.0
 10
4.5795588055
 20
5.4670186598
 30
0.0
 10
4.570772532
 20
5.4429640999
 30
0.0
 10
4.5611470095
 20
5.4192329924
 30
0.0
 10
4.5507022521
 20
5.3958510194
 30
0.0
 10
4.5394620835
 20
5.3728410371
 30
0.0
 10
4.5274533545
 20
5.3502228105
 30
0.0
 10
4.514703772
 20
5.328014121
 30
0.0
 10
4.5012435327
 20
5.3062286468
 30
0.0
 10
4.4823939831
 20
5.2777636806
 30
0.0
 10
4.4672829642
 20
5.2570723304
 30
0.0
 10
4.4568250138
 20
5.2435843901
 30
0.0
  0
SPLINE
  5
38E
100
AcDbEntity
  8
0
100
AcDbSpline
 62
7
  6
CONTINUOUS
 70
0
 71
3
 72
18
 73
14
 74
0
 42
0.0000001
 43
0.0000001
 44
0.0000000001
 40
0.0
 40
0.0
 40
0.0
 40
0.0
 40
0.1246060445
 40
0.2492869189
 40
0.3116641453
 40
0.3740712891
 40
0.4365111235
 40
0.4989848884
 40
0.6240378918
 40
0.6866194453
 40
0.7492370012
 40
0.8745676497
 40
1.0
 40
1.0
 40
1.0
 40
1.0
 10
4.727692113
 20
5.6168179927
 30
0.0
 10
4.7229681115
 20
5.6169939548
 30
0.0
 10
4.7135161462
 20
5.6173169313
 30
0.0
 10
4.7016959818
 20
5.6176201449
 30
0.0
 10
4.6922332276
 20
5.6177860184
 30
0.0
 10
4.6851307762
 20
5.6178674334
 30
0.0
 10
4.6780242917
 20
5.6179046327
 30
0.0
 10
4.6685410717
 20
5.6178967421
 30
0.0
 10
4.6590527067
 20
5.6178039507
 30
0.0
 10
4.649560276
 20
5.617628691
 30
0.0
 10
4.6400584048
 20
5.6174014962
 30
0.0
 10
4.6281749999
 20
5.617033199
 30
0.0
 10
4.6186683469
 20
5.6166739381
 30
0.0
 10
4.6139134965
 20
5.6164844219
 30
0.0
  0
SPLINE
  5
38F
100
AcDbEntity
  8
0
100
AcDbSpline
 62
7
  6
CONTINUOUS
 70
0
 71
3
 72
11
 73
7
 74
0
 42
0.0000001
 43
0.0000001
 44
0.0000000001
 40
0.0
 40
0.0
 40
0.0
 40
0.0
 40
0.2351968729
 40
0.4778162628
 40
0.7316084839
 40
1.0
 40
1.0
 40
1.0
 40
1.0
 10
4.305995475
 20
2.9483544256
 30
0.0
 10
4.3056026737
 20
2.9491178893
 30
0.0
 10
4.3048981124
 20
2.950718789
 30
0.0
 10
4.3041108992
 20
2.9532764744
 30
0.0
 10
4.3035809578
 20
2.9560225629
 30
0.0
 10
4.3034035428
 20
2.9579236279
 30
0.0
 10
4.3033531851
 20
2.9589020958
 30
0.0
  0
SPLINE
  5
390
100
AcDbEntity
  8
0
100
AcDbSpline
 62
7
  6
CONTINUOUS
 70
0
 71
3
 72
36
 73
32
 74
0
 42
0.0000001
 43
0.0000001
 44
0.0000000001
 40
0.0
 40
0.0
 40
0.0
 40
0.0
 40
0.1005634761
 40
0.1966871972
 40
0.2881473922
 40
0.3747457638
 40
0.4563026464
 40
0.5326545152
 40
0.5688314163
 40
0.6036511103
 40
0.6370964348
 40
0.6691513484
 40
0.699800935
 40
0.7290323667
 40
0.7568350137
 40
0.7832014859
 40
0.8081285505
 40
0.8316193111
 40
0.8536848285
 40
0.8743475498
 40
0.8936448203
 40
0.9116355707
 40
0.9284061244
 40
0.94407917
 40
0.9588223603
 40
0.9659164368
 40
0.9728666078
 40
0.9797093252
 40
0.9864841481
 40
0.99323313
 40
1.0
 40
1.0
 40
1.0
 40
1.0
 10
4.534290128
 20
2.9483544256
 30
0.0
 10
4.526618455
 20
2.9464973494
 30
0.0
 10
4.5115476746
 20
2.9431329186
 30
0.0
 10
4.489319276
 20
2.9389405357
 30
0.0
 10
4.4680567242
 20
2.9355975841
 30
0.0
 10
4.4478427086
 20
2.9330031803
 30
0.0
 10
4.428746491
 20
2.9310724095
 30
0.0
 10
4.413552821
 20
2.9299400706
 30
0.0
 10
4.4020037408
 20
2.9293198022
 30
0.0
 10
4.3938121736
 20
2.9289961716
 30
0.0
 10
4.3859401388
 20
2.9288018311
 30
0.0
 10
4.3783932723
 20
2.9287356157
 30
0.0
 10
4.3711770696
 20
2.9287961253
 30
0.0
 10
4.3642968892
 20
2.9289846312
 30
0.0
 10
4.3577579219
 20
2.9293021954
 30
0.0
 10
4.3515653206
 20
2.9297524909
 30
0.0
 10
4.3457240202
 20
2.9303391583
 30
0.0
 10
4.3402389104
 20
2.9310681891
 30
0.0
 10
4.3351145492
 20
2.9319458103
 30
0.0
 10
4.3303554248
 20
2.9329803932
 30
0.0
 10
4.3259655469
 20
2.934180979
 30
0.0
 10
4.3219487771
 20
2.9355585466
 30
0.0
 10
4.3183084039
 20
2.937125316
 30
0.0
 10
4.3150484339
 20
2.9388952476
 30
0.0
 10
4.3126211332
 20
2.9405746598
 30
0.0
 10
4.3108919861
 20
2.9420313278
 30
0.0
 10
4.3097099387
 20
2.9431691848
 30
0.0
 10
4.3086268152
 20
2.9443680916
 30
0.0
 10
4.3076430364
 20
2.945629952
 30
0.0
 10
4.3067591202
 20
2.9469564714
 30
0.0
 10
4.3062383962
 20
2.9478821001
 30
0.0
 10
4.305995475
 20
2.9483544256
 30
0.0
  0
SPLINE
  5
391
100
AcDbEntity
  8
0
100
AcDbSpline
 62
7
  6
CONTINUOUS
 70
0
 71
3
 72
74
 73
70
 74
0
 42
0.0000001
 43
0.0000001
 44
0.0000000001
 40
0.0
 40
0.0
 40
0.0
 40
0.0
 40
0.0156207375
 40
0.0312421896
 40
0.0468635935
 40
0.0624853275
 40
0.0781071426
 40
0.0937290429
 40
0.109350971
 40
0.1249728892
 40
0.1327848389
 40
0.1405968214
 40
0.1484088893
 40
0.1562209954
 40
0.1640331778
 40
0.1718455486
 40
0.1757519123
 40
0.1796582631
 40
0.1835646944
 40
0.1874712411
 40
0.1913778491
 40
0.1952844391
 40
0.2030975034
 40
0.2109106494
 40
0.2187240062
 40
0.2343492743
 40
0.2421626173
 40
0.2499759381
 40
0.2577892917
 40
0.2656022739
 40
0.273415376
 40
0.2773220135
 40
0.2812286223
 40
0.2851351777
 40
0.2890416945
 40
0.2968546363
 40
0.3046675603
 40
0.3124805266
 40
0.3281064846
 40
0.3437324412
 40
0.3593584429
 40
0.374984398
 40
0.3906104214
 40
0.4062364441
 40
0.4374876828
 40
0.4687388311
 40
0.4843646521
 40
0.4999902654
 40
0.5156157379
 40
0.5312412912
 40
0.5468668206
 40
0.5624921665
 40
0.5781174585
 40
0.5937427686
 40
0.601555429
 40
0.6093680853
 40
0.6249933806
 40
0.6406186585
 40
0.6562439265
 40
0.6718691924
 40
0.6874944633
 40
0.7187450229
 40
0.7499955895
 40
0.7812461419
 40
0.8124966891
 40
0.8437472346
 40
0.8749977817
 40
0.9374989005
 40
1.0
 40
1.0
 40
1.0
 40
1.0
 10
5.405342463
 20
2.9589021109
 30
0.0
 10
5.3973158056
 20
2.9626290997
 30
0.0
 10
5.3814372005
 20
2.9704671945
 30
0.0
 10
5.3582097336
 20
2.9833474261
 30
0.0
 10
5.3356304922
 20
2.9973357901
 30
0.0
 10
5.3137681989
 20
3.0124211448
 30
0.0
 10
5.2926997733
 20
3.0285984734
 30
0.0
 10
5.272514153
 20
3.0458668096
 30
0.0
 10
5.2533153804
 20
3.064227349
 30
0.0
 10
5.2382379001
 20
3.0804419821
 30
0.0
 10
5.2268030476
 20
3.0939583599
 30
0.0
 10
5.2185589797
 20
3.1043694183
 30
0.0
 10
5.2106692557
 20
3.1150516973
 30
0.0
 10
5.2031570808
 20
3.1260032398
 30
0.0
 10
5.196047123
 20
3.1372204031
 30
0.0
 10
5.1904785433
 20
3.1467855298
 30
0.0
 10
5.1862527895
 20
3.1545645424
 30
0.0
 10
5.1832020432
 20
3.1604620063
 30
0.0
 10
5.1802730156
 20
3.166420944
 30
0.0
 10
5.1774642309
 20
3.1724376312
 30
0.0
 10
5.1747747695
 20
3.1785087
 30
0.0
 10
5.1713465876
 20
3.186671347
 30
0.0
 10
5.1673499385
 20
3.196993347
 30
0.0
 10
5.162993132
 20
3.2095403851
 30
0.0
 10
5.1577349584
 20
3.2264495106
 30
0.0
 10
5.1532471269
 20
3.2435879371
 30
0.0
 10
5.149409588
 20
3.2608733928
 30
0.0
 10
5.1468232399
 20
3.2738998933
 30
0.0
 10
5.1444955283
 20
3.2869744549
 30
0.0
 10
5.1423933023
 20
3.3000868893
 30
0.0
 10
5.1408050593
 20
3.3110387069
 30
0.0
 10
5.1396178812
 20
3.3198116898
 30
0.0
 10
5.138765145
 20
3.3263964431
 30
0.0
 10
5.1379486965
 20
3.332985723
 30
0.0
 10
5.1369085854
 20
3.3417771633
 30
0.0
 10
5.1356986538
 20
3.3527768745
 30
0.0
 10
5.134389578
 20
3.3659914202
 30
0.0
 10
5.132832174
 20
3.383628402
 30
0.0
 10
5.1312286776
 20
3.4057036017
 30
0.0
 10
5.1298248644
 20
3.4322261161
 30
0.0
 10
5.1289131021
 20
3.45876999
 30
0.0
 10
5.1284655359
 20
3.4853255917
 30
0.0
 10
5.1284526345
 20
3.5118848461
 30
0.0
 10
5.1289747121
 20
3.5472925662
 30
0.0
 10
5.1305630163
 20
3.5915322139
 30
0.0
 10
5.1331939823
 20
3.6357198176
 30
0.0
 10
5.1358051245
 20
3.6710337953
 30
0.0
 10
5.1379873918
 20
3.6975017918
 30
0.0
 10
5.1403627045
 20
3.7239529006
 30
0.0
 10
5.1428995753
 20
3.7503889002
 30
0.0
 10
5.1455662769
 20
3.7768119922
 30
0.0
 10
5.1483329209
 20
3.8032246256
 30
0.0
 10
5.1511774746
 20
3.8296288357
 30
0.0
 10
5.1535936676
 20
3.8516273403
 30
0.0
 10
5.1555428032
 20
3.869224361
 30
0.0
 10
5.1574985969
 20
3.8868206348
 30
0.0
 10
5.159954819
 20
3.9088146793
 30
0.0
 10
5.1629215488
 20
3.9352053548
 30
0.0
 10
5.1659079559
 20
3.9615937943
 30
0.0
 10
5.1689147228
 20
3.9879799179
 30
0.0
 10
5.1729509862
 20
4.0231583138
 30
0.0
 10
5.1780414257
 20
4.067126133
 30
0.0
 10
5.1842043553
 20
4.1198811817
 30
0.0
 10
5.1904053471
 20
4.1726317601
 30
0.0
 10
5.1966321492
 20
4.2253792838
 30
0.0
 10
5.2028719836
 20
4.2781252635
 30
0.0
 10
5.2111911557
 20
4.3484533222
 30
0.0
 10
5.2215548475
 20
4.4363675699
 30
0.0
 10
5.2297343555
 20
4.5067120801
 30
0.0
 10
5.2337775407
 20
4.5418896799
 30
0.0
  0
SPLINE
  5
392
100
AcDbEntity
  8
0
100
AcDbSpline
 62
7
  6
CONTINUOUS
 70
0
 71
3
 72
14
 73
10
 74
0
 42
0.0000001
 43
0.0000001
 44
0.0000000001
 40
0.0
 40
0.0
 40
0.0
 40
0.0
 40
0.271683204
 40
0.4030541171
 40
0.5309111089
 40
0.6548766479
 40
0.7745941262
 40
0.8897351281
 40
1.0
 40
1.0
 40
1.0
 40
1.0
 10
4.9228726271
 20
5.7591203546
 30
0.0
 10
4.9207733003
 20
5.7620156754
 30
0.0
 10
4.9177493755
 20
5.7663781461
 30
0.0
 10
4.9139745581
 20
5.7722602729
 30
0.0
 10
4.911355813
 20
5.776572102
 30
0.0
 10
4.9089270918
 20
5.7808179052
 30
0.0
 10
4.9066970742
 20
5.7849825124
 30
0.0
 10
4.9046737756
 20
5.7890509125
 30
0.0
 10
4.9034397356
 20
5.7917500255
 30
0.0
 10
4.9028604937
 20
5.7930809157
 30
0.0
  0
SPLINE
  5
393
100
AcDbEntity
  8
0
100
AcDbSpline
 62
7
  6
CONTINUOUS
 70
0
 71
3
 72
25
 73
21
 74
0
 42
0.0000001
 43
0.0000001
 44
0.0000000001
 40
0.0
 40
0.0
 40
0.0
 40
0.0
 40
0.0650498913
 40
0.1299708152
 40
0.1947264703
 40
0.2592835669
 40
0.3236047516
 40
0.3876455157
 40
0.5146807853
 40
0.5775674399
 40
0.6399502155
 40
0.701762282
 40
0.7629360492
 40
0.7932643364
 40
0.8234098106
 40
0.8533647457
 40
0.8831216038
 40
0.9126732739
 40
0.9420126148
 40
1.0
 40
1.0
 40
1.0
 40
1.0
 10
5.2337775407
 20
4.5418896799
 30
0.0
 10
5.2307128181
 20
4.524992006
 30
0.0
 10
5.2244368087
 20
4.4912575809
 30
0.0
 10
5.2145221932
 20
4.4408134213
 30
0.0
 10
5.2040708016
 20
4.3906104247
 30
0.0
 10
5.1930724685
 20
4.340686513
 30
0.0
 10
5.1815113249
 20
4.2910833663
 30
0.0
 10
5.1653607377
 20
4.225619349
 30
0.0
 10
5.1479770272
 20
4.1608538462
 30
0.0
 10
5.1292529609
 20
4.0969283016
 30
0.0
 10
5.1146157568
 20
4.0497546246
 30
0.0
 10
5.0993286435
 20
4.0032632964
 30
0.0
 10
5.0860054607
 20
3.9650410137
 30
0.0
 10
5.0750170356
 20
3.9348636987
 30
0.0
 10
5.0666388848
 20
3.9125082837
 30
0.0
 10
5.058101416
 20
3.890374842
 30
0.0
 10
5.0494052525
 20
3.8684718482
 30
0.0
 10
5.0405545652
 20
3.846806243
 30
0.0
 10
5.0286011154
 20
3.8183590626
 30
0.0
 10
5.019352929
 20
3.7972386042
 30
0.0
 10
5.0130721852
 20
3.7832774987
 30
0.0
  0
SPLINE
  5
394
100
AcDbEntity
  8
0
100
AcDbSpline
 62
7
  6
CONTINUOUS
 70
0
 71
3
 72
45
 73
41
 74
0
 42
0.0000001
 43
0.0000001
 44
0.0000000001
 40
0.0
 40
0.0
 40
0.0
 40
0.0
 40
0.0210951025
 40
0.0430956569
 40
0.0660283193
 40
0.0899207042
 40
0.1148009859
 40
0.1406983511
 40
0.1676416809
 40
0.1956564647
 40
0.2100730421
 40
0.2247630963
 40
0.2397261085
 40
0.2549605453
 40
0.2704632541
 40
0.2783136199
 40
0.2862275887
 40
0.2942018688
 40
0.3022329821
 40
0.3184496183
 40
0.3348441921
 40
0.351387109
 40
0.3680520168
 40
0.3848165189
 40
0.4185655171
 40
0.4355196786
 40
0.4525107629
 40
0.4695306498
 40
0.486571905
 40
0.503631368
 40
0.5207070678
 40
0.5377970515
 40
0.5548994332
 40
0.5891336022
 40
0.6233957762
 40
0.6576742798
 40
0.7262423827
 40
0.7947811595
 40
0.8632582784
 40
1.0
 40
1.0
 40
1.0
 40
1.0
 10
5.1360631773
 20
2.9589020617
 30
0.0
 10
5.1318673026
 20
2.9630018096
 30
0.0
 10
5.1235778849
 20
2.971670421
 30
0.0
 10
5.1117217373
 20
2.9857044565
 30
0.0
 10
5.1002271391
 20
3.0010206829
 30
0.0
 10
5.0891414041
 20
3.017606813
 30
0.0
 10
5.0785168074
 20
3.0354582821
 30
0.0
 10
5.0684135461
 20
3.0545749689
 30
0.0
 10
5.0589009491
 20
3.0749582887
 30
0.0
 10
5.0516044387
 20
3.0928264934
 30
0.0
 10
5.046134888
 20
3.1077412298
 30
0.0
 10
5.0421971197
 20
3.1193479479
 30
0.0
 10
5.0384775187
 20
3.1312648409
 30
0.0
 10
5.0349897306
 20
3.1434868189
 30
0.0
 10
5.0322995716
 20
3.1538760785
 30
0.0
 10
5.0302767218
 20
3.1623326624
 30
0.0
 10
5.0288188473
 20
3.1687712465
 30
0.0
 10
5.0274242634
 20
3.1752752297
 30
0.0
 10
5.0256411204
 20
3.1840567076
 30
0.0
 10
5.0235653625
 20
3.1951674316
 30
0.0
 10
5.0213150567
 20
3.2086508444
 30
0.0
 10
5.0192848169
 20
3.2222950821
 30
0.0
 10
5.017458857
 20
3.2360718237
 30
0.0
 10
5.015270471
 20
3.2546251992
 30
0.0
 10
5.0134326023
 20
3.2732988349
 30
0.0
 10
5.0118650951
 20
3.2920585016
 30
0.0
 10
5.0108048077
 20
3.3061917274
 30
0.0
 10
5.0098445103
 20
3.3203562889
 30
0.0
 10
5.008966344
 20
3.3345452214
 30
0.0
 10
5.0081699607
 20
3.3487545254
 30
0.0
 10
5.0074552619
 20
3.3629817383
 30
0.0
 10
5.0068219513
 20
3.3772247539
 30
0.0
 10
5.0060825222
 20
3.3962390282
 30
0.0
 10
5.00534932
 20
3.420032141
 30
0.0
 10
5.004756486
 20
3.4486068475
 30
0.0
 10
5.0043282061
 20
3.4867331663
 30
0.0
 10
5.0044289012
 20
3.5343956138
 30
0.0
 10
5.0054191143
 20
3.5915591548
 30
0.0
 10
5.0077023899
 20
3.6676550658
 30
0.0
 10
5.0102787586
 20
3.7246687187
 30
0.0
 10
5.0121854615
 20
3.7626470524
 30
0.0
  0
SPLINE
  5
395
100
AcDbEntity
  8
0
100
AcDbSpline
 62
7
  6
CONTINUOUS
 70
0
 71
3
 72
36
 73
32
 74
0
 42
0.0000001
 43
0.0000001
 44
0.0000000001
 40
0.0
 40
0.0
 40
0.0
 40
0.0
 40
0.0067668703
 40
0.0135158525
 40
0.0202906754
 40
0.0271333928
 40
0.0340835636
 40
0.0411776397
 40
0.0559208293
 40
0.071593875
 40
0.0883644288
 40
0.1063551786
 40
0.125652449
 40
0.1463151711
 40
0.1683806889
 40
0.191871449
 40
0.2167985133
 40
0.2431649858
 40
0.2709676333
 40
0.300199065
 40
0.3308486513
 40
0.3629035646
 40
0.396348889
 40
0.4311685834
 40
0.4673454848
 40
0.543697353
 40
0.6252542367
 40
0.7118526074
 40
0.8033128029
 40
0.8994365224
 40
1.0
 40
1.0
 40
1.0
 40
1.0
 10
5.4027001772
 20
2.9483544256
 30
0.0
 10
5.402457256
 20
2.9478821001
 30
0.0
 10
5.4019365318
 20
2.9469564714
 30
0.0
 10
5.4010526153
 20
2.9456299521
 30
0.0
 10
5.4000688363
 20
2.9443680918
 30
0.0
 10
5.3989857129
 20
2.943169185
 30
0.0
 10
5.3978036656
 20
2.942031328
 30
0.0
 10
5.3960745187
 20
2.9405746598
 30
0.0
 10
5.3936472183
 20
2.9388952475
 30
0.0
 10
5.3903872482
 20
2.937125316
 30
0.0
 10
5.3867468751
 20
2.9355585467
 30
0.0
 10
5.3827301054
 20
2.9341809789
 30
0.0
 10
5.3783402275
 20
2.9329803931
 30
0.0
 10
5.373581103
 20
2.9319458104
 30
0.0
 10
5.3684567417
 20
2.9310681892
 30
0.0
 10
5.3629716319
 20
2.9303391583
 30
0.0
 10
5.3571303315
 20
2.9297524908
 30
0.0
 10
5.3509377303
 20
2.9293021954
 30
0.0
 10
5.3443987629
 20
2.9289846313
 30
0.0
 10
5.3375185825
 20
2.9287961253
 30
0.0
 10
5.3303023798
 20
2.9287356157
 30
0.0
 10
5.3227555134
 20
2.9288018311
 30
0.0
 10
5.3148834786
 20
2.9289961715
 30
0.0
 10
5.3066919114
 20
2.9293198022
 30
0.0
 10
5.2951428311
 20
2.9299400707
 30
0.0
 10
5.2799491611
 20
2.9310724094
 30
0.0
 10
5.2608529435
 20
2.9330031804
 30
0.0
 10
5.2406389279
 20
2.935597584
 30
0.0
 10
5.2193763763
 20
2.9389405358
 30
0.0
 10
5.1971479776
 20
2.9431329183
 30
0.0
 10
5.1820771973
 20
2.9464973494
 30
0.0
 10
5.1744055242
 20
2.9483544256
 30
0.0
  0
SPLINE
  5
396
100
AcDbEntity
  8
0
100
AcDbSpline
 62
7
  6
CONTINUOUS
 70
0
 71
3
 72
11
 73
7
 74
0
 42
0.0000001
 43
0.0000001
 44
0.0000000001
 40
0.0
 40
0.0
 40
0.0
 40
0.0
 40
0.2683919796
 40
0.5221841821
 40
0.7648032137
 40
1.0
 40
1.0
 40
1.0
 40
1.0
 10
5.405342463
 20
2.9589021109
 30
0.0
 10
5.4052921477
 20
2.9579236376
 30
0.0
 10
5.4051147049
 20
2.9560225668
 30
0.0
 10
5.4045847499
 20
2.9532764793
 30
0.0
 10
5.4037975623
 20
2.9507187822
 30
0.0
 10
5.4030929833
 20
2.949117888
 30
0.0
 10
5.4027001772
 20
2.9483544256
 30
0.0
  0
SPLINE
  5
397
100
AcDbEntity
  8
0
100
AcDbSpline
 62
7
  6
CONTINUOUS
 70
0
 71
3
 72
39
 73
35
 74
0
 42
0.0000001
 43
0.0000001
 44
0.0000000001
 40
0.0
 40
0.0
 40
0.0
 40
0.0
 40
0.0221521467
 40
0.0334633251
 40
0.0449383136
 40
0.0683949987
 40
0.0925532215
 40
0.1174335398
 40
0.1430506849
 40
0.1694151151
 40
0.1828808855
 40
0.1965362295
 40
0.2530087051
 40
0.2823239615
 40
0.3123122851
 40
0.3429391664
 40
0.3741664441
 40
0.4059534057
 40
0.4382604629
 40
0.4710485032
 40
0.5042802146
 40
0.5379196499
 40
0.5719329002
 40
0.6062884302
 40
0.6409578634
 40
0.7111326742
 40
0.7465928579
 40
0.7822727589
 40
0.8181521509
 40
0.8542145474
 40
0.8904468521
 40
0.9268349493
 40
0.9633598145
 40
1.0
 40
1.0
 40
1.0
 40
1.0
 10
4.5645478054
 20
5.180007616
 30
0.0
 10
4.5621471132
 20
5.1779570127
 30
0.0
 10
4.5586066771
 20
5.1747566319
 30
0.0
 10
4.5540323754
 20
5.1702727653
 30
0.0
 10
4.5494506966
 20
5.1655339094
 30
0.0
 10
4.5438381263
 20
5.1592494722
 30
0.0
 10
4.5373445334
 20
5.1512074594
 30
0.0
 10
4.531054764
 20
5.142620436
 30
0.0
 10
4.5249803053
 20
5.1334999479
 30
0.0
 10
4.5201413602
 20
5.1255219395
 30
0.0
 10
4.5163858949
 20
5.1188875697
 30
0.0
 10
4.5107231892
 20
5.1084044899
 30
0.0
 10
4.5045983227
 20
5.0956059409
 30
0.0
 10
4.4982184565
 20
5.0803864027
 30
0.0
 10
4.4936308453
 20
5.0684157372
 30
0.0
 10
4.489301404
 20
5.0560607637
 30
0.0
 10
4.485227106
 20
5.0433499648
 30
0.0
 10
4.4814037512
 20
5.0303119133
 30
0.0
 10
4.4778262274
 20
5.0169739819
 30
0.0
 10
4.4744887954
 20
5.0033619913
 30
0.0
 10
4.4713849492
 20
4.9895002997
 30
0.0
 10
4.4685077839
 20
4.9754116204
 30
0.0
 10
4.4658497006
 20
4.9611171205
 30
0.0
 10
4.4634033807
 20
4.9466360013
 30
0.0
 10
4.460402737
 20
4.9270239927
 30
0.0
 10
4.457813821
 20
4.90719213
 30
0.0
 10
4.4555976792
 20
4.8871729996
 30
0.0
 10
4.4541072615
 20
4.8719925041
 30
0.0
 10
4.4527866955
 20
4.8567102249
 30
0.0
 10
4.4516308899
 20
4.8413356562
 30
0.0
 10
4.4506364654
 20
4.82587717
 30
0.0
 10
4.449800277
 20
4.8103433362
 30
0.0
 10
4.4491097523
 20
4.7947442153
 30
0.0
 10
4.4487379694
 20
4.7843227761
 30
0.0
 10
4.448571753
 20
4.7791032361
 30
0.0
  0
SPLINE
  5
398
100
AcDbEntity
  8
0
100
AcDbSpline
 62
7
  6
CONTINUOUS
 70
0
 71
3
 72
15
 73
11
 74
0
 42
0.0000001
 43
0.0000001
 44
0.0000000001
 40
0.0
 40
0.0
 40
0.0
 40
0.0
 40
0.1267675501
 40
0.253200782
 40
0.3791770675
 40
0.5045988548
 40
0.6294029016
 40
0.753560867
 40
0.8770805932
 40
1.0
 40
1.0
 40
1.0
 40
1.0
 10
5.0947821698
 20
5.6164844266
 30
0.0
 10
5.0946863682
 20
5.6174608728
 30
0.0
 10
5.0943817493
 20
5.6194019894
 30
0.0
 10
5.0935928294
 20
5.6222351554
 30
0.0
 10
5.0924852475
 20
5.62494875
 30
0.0
 10
5.0910769326
 20
5.6275046399
 30
0.0
 10
5.0893899558
 20
5.629868537
 30
0.0
 10
5.0874496866
 20
5.6320096675
 30
0.0
 10
5.0852849769
 20
5.6339008753
 30
0.0
 10
5.0837079837
 20
5.634982844
 30
0.0
 10
5.0828933923
 20
5.635474281
 30
0.0
  0
SPLINE
  5
399
100
AcDbEntity
  8
0
100
AcDbSpline
 62
7
  6
CONTINUOUS
 70
0
 71
3
 72
16
 73
12
 74
0
 42
0.0000001
 43
0.0000001
 44
0.0000000001
 40
0.0
 40
0.0
 40
0.0
 40
0.0
 40
0.2655310193
 40
0.39548446
 40
0.5227866672
 40
0.6472041125
 40
0.7681900393
 40
0.8271267556
 40
0.8853027895
 40
0.9430482877
 40
1.0
 40
1.0
 40
1.0
 40
1.0
 10
4.9809197814
 20
5.617640473
 30
0.0
 10
4.9807045376
 20
5.6194570872
 30
0.0
 10
4.9801578602
 20
5.6221444235
 30
0.0
 10
4.9789787955
 20
5.6255512374
 30
0.0
 10
4.9778920958
 20
5.6279503682
 30
0.0
 10
4.9766036595
 20
5.6301763402
 30
0.0
 10
4.9753727347
 20
5.6318782897
 30
0.0
 10
4.9743166087
 20
5.6331341478
 30
0.0
 10
4.9734891642
 20
5.6340108126
 30
0.0
 10
4.9726163051
 20
5.634822182
 30
0.0
 10
4.9720076841
 20
5.635326795
 30
0.0
 10
4.9716994401
 20
5.6355695495
 30
0.0
  0
LINE
  5
39A
100
AcDbEntity
  8
0
100
AcDbLine
 62
7
  6
CONTINUOUS
 10
4.9653187581
 20
5.6350090405
 11
4.9650391027
 21
5.6357067309
  0
SPLINE
  5
39B
100
AcDbEntity
  8
0
100
AcDbSpline
 62
7
  6
CONTINUOUS
 70
0
 71
3
 72
22
 73
18
 74
0
 42
0.0000001
 43
0.0000001
 44
0.0000000001
 40
0.0
 40
0.0
 40
0.0
 40
0.0
 40
0.1463548277
 40
0.2183972026
 40
0.2893937029
 40
0.3591604821
 40
0.4275168979
 40
0.4942814729
 40
0.559280715
 40
0.6223612227
 40
0.6833775374
 40
0.74219151
 40
0.7986701067
 40
0.8527284268
 40
0.9043292418
 40
0.9534349117
 40
1.0
 40
1.0
 40
1.0
 40
1.0
 10
4.9680588739
 20
5.6171414049
 30
0.0
 10
4.9680354991
 20
5.618026987
 30
0.0
 10
4.9679830343
 20
5.6193481031
 30
0.0
 10
4.9678809806
 20
5.6210968662
 30
0.0
 10
4.9677885583
 20
5.6223817153
 30
0.0
 10
4.9676779417
 20
5.6236427376
 30
0.0
 10
4.9675488968
 20
5.6248762564
 30
0.0
 10
4.9674028436
 20
5.6260788101
 30
0.0
 10
4.9672405209
 20
5.6272470494
 30
0.0
 10
4.9670614053
 20
5.6283776313
 30
0.0
 10
4.9668650455
 20
5.6294673344
 30
0.0
 10
4.9666526152
 20
5.6305132698
 30
0.0
 10
4.9664259223
 20
5.6315130768
 30
0.0
 10
4.966183509
 20
5.6324642373
 30
0.0
 10
4.9659222043
 20
5.6333640755
 30
0.0
 10
4.9656393526
 20
5.6342097262
 30
0.0
 10
4.9654289992
 20
5.6347496335
 30
0.0
 10
4.9653187581
 20
5.6350090405
 30
0.0
  0
SPLINE
  5
39C
100
AcDbEntity
  8
0
100
AcDbSpline
 62
7
  6
CONTINUOUS
 70
0
 71
3
 72
16
 73
12
 74
0
 42
0.0000001
 43
0.0000001
 44
0.0000000001
 40
0.0
 40
0.0
 40
0.0
 40
0.0
 40
0.1463641125
 40
0.2894088481
 40
0.4275367094
 40
0.5592998872
 40
0.6833874597
 40
0.742200963
 40
0.7986951715
 40
0.9043859248
 40
1.0
 40
1.0
 40
1.0
 40
1.0
 10
4.7406367782
 20
5.6171414041
 30
0.0
 10
4.7406597226
 20
5.6180270039
 30
0.0
 10
4.7407274049
 20
5.6197776367
 30
0.0
 10
4.7408972917
 20
5.6223601251
 30
0.0
 10
4.7411343746
 20
5.6248486377
 30
0.0
 10
4.7414381197
 20
5.6272143008
 30
0.0
 10
4.7417512512
 20
5.6290935552
 30
0.0
 10
4.7420382101
 20
5.6305139819
 30
0.0
 10
4.7423359731
 20
5.6318181704
 30
0.0
 10
4.7427466826
 20
5.6333245886
 30
0.0
 10
4.7431555979
 20
5.6344743005
 30
0.0
 10
4.7433768924
 20
5.6350090421
 30
0.0
  0
SPLINE
  5
39D
100
AcDbEntity
  8
0
100
AcDbSpline
 62
7
  6
CONTINUOUS
 70
0
 71
3
 72
15
 73
11
 74
0
 42
0.0000001
 43
0.0000001
 44
0.0000000001
 40
0.0
 40
0.0
 40
0.0
 40
0.0
 40
0.1229194141
 40
0.2464391285
 40
0.3705970855
 40
0.4954011298
 40
0.6208229182
 40
0.7467992079
 40
0.8732324452
 40
1.0
 40
1.0
 40
1.0
 40
1.0
 10
4.6258022654
 20
5.6354742831
 30
0.0
 10
4.6249876736
 20
5.6349828459
 30
0.0
 10
4.6234106791
 20
5.6339008777
 30
0.0
 10
4.6212459686
 20
5.6320096689
 30
0.0
 10
4.6193056986
 20
5.6298685377
 30
0.0
 10
4.6176187211
 20
5.6275046397
 30
0.0
 10
4.6162104056
 20
5.6249487486
 30
0.0
 10
4.6151028231
 20
5.6222351529
 30
0.0
 10
4.6143139026
 20
5.6194019855
 30
0.0
 10
4.6140092835
 20
5.617460868
 30
0.0
 10
4.6139134819
 20
5.6164844214
 30
0.0
  0
SPLINE
  5
39E
100
AcDbEntity
  8
0
100
AcDbSpline
 62
7
  6
CONTINUOUS
 70
0
 71
3
 72
14
 73
10
 74
0
 42
0.0000001
 43
0.0000001
 44
0.0000000001
 40
0.0
 40
0.0
 40
0.0
 40
0.0
 40
0.2655184034
 40
0.3954869211
 40
0.5227460855
 40
0.6469019886
 40
0.7677454601
 40
0.8853599744
 40
1.0
 40
1.0
 40
1.0
 40
1.0
 10
4.7277758706
 20
5.6176404713
 30
0.0
 10
4.7279906923
 20
5.6194548841
 30
0.0
 10
4.7285370022
 20
5.6221390746
 30
0.0
 10
4.7297153243
 20
5.6255413778
 30
0.0
 10
4.7307986237
 20
5.6279362391
 30
0.0
 10
4.7320751465
 20
5.6301617636
 30
0.0
 10
4.7335316628
 20
5.6321934695
 30
0.0
 10
4.7351558944
 20
5.6340070483
 30
0.0
 10
4.7363561179
 20
5.6350690651
 30
0.0
 10
4.7369775365
 20
5.6355550085
 30
0.0
  0
SPLINE
  5
39F
100
AcDbEntity
  8
0
100
AcDbSpline
 62
7
  6
CONTINUOUS
 70
0
 71
3
 72
11
 73
7
 74
0
 42
0.0000001
 43
0.0000001
 44
0.0000000001
 40
0.0
 40
0.0
 40
0.0
 40
0.0
 40
0.2311538549
 40
0.4724525624
 40
0.7276449884
 40
1.0
 40
1.0
 40
1.0
 40
1.0
 10
4.2873685279
 20
2.9228343937
 30
0.0
 10
4.2870495505
 20
2.9236580667
 30
0.0
 10
4.2865050729
 20
2.9253849532
 30
0.0
 10
4.2859865606
 20
2.9281222985
 30
0.0
 10
4.2857493886
 20
2.9310554565
 30
0.0
 10
4.285775403
 20
2.933074066
 30
0.0
 10
4.28582922
 20
2.9341133907
 30
0.0
  0
SPLINE
  5
3A0
100
AcDbEntity
  8
0
100
AcDbSpline
 62
7
  6
CONTINUOUS
 70
0
 71
3
 72
47
 73
43
 74
0
 42
0.0000001
 43
0.0000001
 44
0.0000000001
 40
0.0
 40
0.0
 40
0.0
 40
0.0
 40
0.015337055
 40
0.0306792027
 40
0.0460256251
 40
0.0613803226
 40
0.0921161364
 40
0.1229158213
 40
0.1383500783
 40
0.1538065483
 40
0.1692868785
 40
0.1847924723
 40
0.2158742828
 40
0.2470677455
 40
0.2783746293
 40
0.3097923671
 40
0.3413141645
 40
0.3729293218
 40
0.4046236615
 40
0.4363800682
 40
0.4681791659
 40
0.5
 40
0.5318208341
 40
0.5636199318
 40
0.5953763385
 40
0.6270706782
 40
0.6586858355
 40
0.6902076329
 40
0.7216253707
 40
0.7529322545
 40
0.7841257172
 40
0.8152075277
 40
0.8307131215
 40
0.8461934517
 40
0.8616499217
 40
0.8770841787
 40
0.9078838636
 40
0.9386196774
 40
0.9539743749
 40
0.9693207973
 40
0.984662945
 40
1.0
 40
1.0
 40
1.0
 40
1.0
 10
4.9723478261
 20
6.2362353789
 30
0.0
 10
4.9723478261
 20
6.2343750949
 30
0.0
 10
4.9722529528
 20
6.2306532089
 30
0.0
 10
4.9718267334
 20
6.225084624
 30
0.0
 10
4.9711172813
 20
6.2195425543
 30
0.0
 10
4.9697961351
 20
6.2122059906
 30
0.0
 10
4.9674449922
 20
6.2031632897
 30
0.0
 10
4.9641880871
 20
6.1943958549
 30
0.0
 10
4.9610596354
 20
6.1875956993
 30
0.0
 10
4.9584542478
 20
6.1826082718
 30
0.0
 10
4.9555979503
 20
6.1777501437
 30
0.0
 10
4.9514619368
 20
6.1714565683
 30
0.0
 10
4.9456962837
 20
6.1639677265
 30
0.0
 10
4.9379056836
 20
6.1556878585
 30
0.0
 10
4.9293106619
 20
6.1481837331
 30
0.0
 10
4.9199945072
 20
6.1415280553
 30
0.0
 10
4.9100468823
 20
6.1357845422
 30
0.0
 10
4.8995636092
 20
6.1310083361
 30
0.0
 10
4.8886455795
 20
6.1272451985
 30
0.0
 10
4.8773978186
 20
6.1245311897
 30
0.0
 10
4.8659284816
 20
6.1228923091
 30
0.0
 10
4.8543478261
 20
6.1223442612
 30
0.0
 10
4.8427671706
 20
6.1228923091
 30
0.0
 10
4.8312978336
 20
6.1245311897
 30
0.0
 10
4.8200500727
 20
6.1272451985
 30
0.0
 10
4.809132043
 20
6.1310083361
 30
0.0
 10
4.7986487699
 20
6.1357845422
 30
0.0
 10
4.7887011449
 20
6.1415280553
 30
0.0
 10
4.7793849903
 20
6.1481837331
 30
0.0
 10
4.7707899685
 20
6.1556878585
 30
0.0
 10
4.7629993685
 20
6.1639677265
 30
0.0
 10
4.7572337154
 20
6.1714565683
 30
0.0
 10
4.7530977019
 20
6.1777501437
 30
0.0
 10
4.7502414044
 20
6.1826082718
 30
0.0
 10
4.7476360168
 20
6.1875956993
 30
0.0
 10
4.7445075651
 20
6.1943958549
 30
0.0
 10
4.74125066
 20
6.2031632897
 30
0.0
 10
4.7388995171
 20
6.2122059906
 30
0.0
 10
4.7375783708
 20
6.2195425543
 30
0.0
 10
4.7368689188
 20
6.225084624
 30
0.0
 10
4.7364426994
 20
6.2306532089
 30
0.0
 10
4.7363478261
 20
6.2343750949
 30
0.0
 10
4.7363478261
 20
6.2362353789
 30
0.0
  0
SPLINE
  5
3A1
100
AcDbEntity
  8
0
100
AcDbSpline
 62
7
  6
CONTINUOUS
 70
0
 71
3
 72
47
 73
43
 74
0
 42
0.0000001
 43
0.0000001
 44
0.0000000001
 40
0.0
 40
0.0
 40
0.0
 40
0.0
 40
0.015337055
 40
0.0306792027
 40
0.0460256251
 40
0.0613803226
 40
0.0921161364
 40
0.1229158213
 40
0.1383500783
 40
0.1538065483
 40
0.1692868785
 40
0.1847924723
 40
0.2158742828
 40
0.2470677455
 40
0.2783746293
 40
0.3097923671
 40
0.3413141645
 40
0.3729293218
 40
0.4046236615
 40
0.4363800682
 40
0.4681791659
 40
0.5
 40
0.5318208341
 40
0.5636199318
 40
0.5953763385
 40
0.6270706782
 40
0.6586858355
 40
0.6902076329
 40
0.7216253707
 40
0.7529322545
 40
0.7841257172
 40
0.8152075277
 40
0.8307131215
 40
0.8461934517
 40
0.8616499217
 40
0.8770841787
 40
0.9078838636
 40
0.9386196774
 40
0.9539743749
 40
0.9693207973
 40
0.984662945
 40
1.0
 40
1.0
 40
1.0
 40
1.0
 10
4.9723478261
 20
6.2362353789
 30
0.0
 10
4.9723478261
 20
6.238095663
 30
0.0
 10
4.9722529528
 20
6.241817549
 30
0.0
 10
4.9718267334
 20
6.2473861338
 30
0.0
 10
4.9711172813
 20
6.2529282036
 30
0.0
 10
4.9697961351
 20
6.2602647672
 30
0.0
 10
4.9674449922
 20
6.2693074682
 30
0.0
 10
4.9641880871
 20
6.278074903
 30
0.0
 10
4.9610596354
 20
6.2848750586
 30
0.0
 10
4.9584542478
 20
6.2898624861
 30
0.0
 10
4.9555979503
 20
6.2947206141
 30
0.0
 10
4.9514619368
 20
6.3010141895
 30
0.0
 10
4.9456962837
 20
6.3085030314
 30
0.0
 10
4.9379056836
 20
6.3167828994
 30
0.0
 10
4.9293106619
 20
6.3242870247
 30
0.0
 10
4.9199945072
 20
6.3309427026
 30
0.0
 10
4.9100468823
 20
6.3366862156
 30
0.0
 10
4.8995636092
 20
6.3414624218
 30
0.0
 10
4.8886455795
 20
6.3452255593
 30
0.0
 10
4.8773978186
 20
6.3479395682
 30
0.0
 10
4.8659284816
 20
6.3495784488
 30
0.0
 10
4.8543478261
 20
6.3501264966
 30
0.0
 10
4.8427671706
 20
6.3495784488
 30
0.0
 10
4.8312978336
 20
6.3479395682
 30
0.0
 10
4.8200500727
 20
6.3452255593
 30
0.0
 10
4.809132043
 20
6.3414624218
 30
0.0
 10
4.7986487699
 20
6.3366862156
 30
0.0
 10
4.7887011449
 20
6.3309427026
 30
0.0
 10
4.7793849903
 20
6.3242870247
 30
0.0
 10
4.7707899685
 20
6.3167828994
 30
0.0
 10
4.7629993685
 20
6.3085030314
 30
0.0
 10
4.7572337154
 20
6.3010141895
 30
0.0
 10
4.7530977019
 20
6.2947206141
 30
0.0
 10
4.7502414044
 20
6.2898624861
 30
0.0
 10
4.7476360168
 20
6.2848750586
 30
0.0
 10
4.7445075651
 20
6.278074903
 30
0.0
 10
4.74125066
 20
6.2693074682
 30
0.0
 10
4.7388995171
 20
6.2602647672
 30
0.0
 10
4.7375783708
 20
6.2529282036
 30
0.0
 10
4.7368689188
 20
6.2473861338
 30
0.0
 10
4.7364426994
 20
6.241817549
 30
0.0
 10
4.7363478261
 20
6.238095663
 30
0.0
 10
4.7363478261
 20
6.2362353789
 30
0.0
  0
SPLINE
  5
3A2
100
AcDbEntity
  8
0
100
AcDbSpline
 62
7
  6
CONTINUOUS
 70
0
 71
3
 72
10
 73
6
 74
0
 42
0.0000001
 43
0.0000001
 44
0.0000000001
 40
0.0
 40
0.0
 40
0.0
 40
0.0
 40
0.4999990211
 40
0.7499996024
 40
1.0
 40
1.0
 40
1.0
 40
1.0
 10
4.448571753
 20
4.7791032361
 30
0.0
 10
4.4414755252
 20
4.8458431783
 30
0.0
 10
4.4313012304
 20
4.9460049919
 30
0.0
 10
4.4190423354
 20
5.0796774438
 30
0.0
 10
4.4134100132
 20
5.1465579671
 30
0.0
 10
4.4107331848
 20
5.1800092251
 30
0.0
  0
SPLINE
  5
3A3
100
AcDbEntity
  8
0
100
AcDbSpline
 62
7
  6
CONTINUOUS
 70
0
 71
3
 72
39
 73
35
 74
0
 42
0.0000001
 43
0.0000001
 44
0.0000000001
 40
0.0
 40
0.0
 40
0.0
 40
0.0
 40
0.0306716261
 40
0.0613652551
 40
0.0921034551
 40
0.1229055749
 40
0.1537889843
 40
0.1847676917
 40
0.2158519459
 40
0.247047858
 40
0.2783572069
 40
0.3097774138
 40
0.3413016892
 40
0.3729193319
 40
0.4046161613
 40
0.4363750681
 40
0.4681766636
 40
0.5
 40
0.5318233364
 40
0.5636249319
 40
0.5953838387
 40
0.6270806681
 40
0.6586983108
 40
0.6902225862
 40
0.7216427931
 40
0.752952142
 40
0.7841480541
 40
0.8152323083
 40
0.8462110157
 40
0.8770944251
 40
0.9078965449
 40
0.9386347449
 40
0.9693283739
 40
1.0
 40
1.0
 40
1.0
 40
1.0
 10
5.0020978261
 20
6.2362353789
 30
0.0
 10
5.0020978261
 20
6.2315775292
 30
0.0
 10
5.0016223626
 20
6.2222515214
 30
0.0
 10
4.9994898435
 20
6.208404793
 30
0.0
 10
4.9959587653
 20
6.1948252069
 30
0.0
 10
4.9910632155
 20
6.1816456102
 30
0.0
 10
4.9848506537
 20
6.1689926262
 30
0.0
 10
4.9773812283
 20
6.1569882801
 30
0.0
 10
4.9687271877
 20
6.1457480964
 30
0.0
 10
4.958972136
 20
6.1353802125
 30
0.0
 10
4.9482102187
 20
6.1259843017
 30
0.0
 10
4.9365452531
 20
6.1176505825
 30
0.0
 10
4.9240896549
 20
6.1104590277
 30
0.0
 10
4.9109633611
 20
6.104478624
 30
0.0
 10
4.8972926889
 20
6.099766734
 30
0.0
 10
4.8832091544
 20
6.0963684816
 30
0.0
 10
4.868848182
 20
6.0943164106
 30
0.0
 10
4.8543478261
 20
6.0936301858
 30
0.0
 10
4.8398474702
 20
6.0943164106
 30
0.0
 10
4.8254864977
 20
6.0963684816
 30
0.0
 10
4.8114029633
 20
6.099766734
 30
0.0
 10
4.7977322911
 20
6.104478624
 30
0.0
 10
4.7846059973
 20
6.1104590277
 30
0.0
 10
4.7721503991
 20
6.1176505825
 30
0.0
 10
4.7604854335
 20
6.1259843017
 30
0.0
 10
4.7497235162
 20
6.1353802125
 30
0.0
 10
4.7399684645
 20
6.1457480964
 30
0.0
 10
4.7313144239
 20
6.1569882801
 30
0.0
 10
4.7238449984
 20
6.1689926262
 30
0.0
 10
4.7176324367
 20
6.1816456102
 30
0.0
 10
4.7127368869
 20
6.1948252069
 30
0.0
 10
4.7092058087
 20
6.208404793
 30
0.0
 10
4.7070732896
 20
6.2222515214
 30
0.0
 10
4.7065978261
 20
6.2315775292
 30
0.0
 10
4.7065978261
 20
6.2362353789
 30
0.0
  0
SPLINE
  5
3A4
100
AcDbEntity
  8
0
100
AcDbSpline
 62
7
  6
CONTINUOUS
 70
0
 71
3
 72
39
 73
35
 74
0
 42
0.0000001
 43
0.0000001
 44
0.0000000001
 40
0.0
 40
0.0
 40
0.0
 40
0.0
 40
0.0306716261
 40
0.0613652551
 40
0.0921034551
 40
0.1229055749
 40
0.1537889843
 40
0.1847676917
 40
0.2158519459
 40
0.247047858
 40
0.2783572069
 40
0.3097774138
 40
0.3413016892
 40
0.3729193319
 40
0.4046161613
 40
0.4363750681
 40
0.4681766636
 40
0.5
 40
0.5318233364
 40
0.5636249319
 40
0.5953838387
 40
0.6270806681
 40
0.6586983108
 40
0.6902225862
 40
0.7216427931
 40
0.752952142
 40
0.7841480541
 40
0.8152323083
 40
0.8462110157
 40
0.8770944251
 40
0.9078965449
 40
0.9386347449
 40
0.9693283739
 40
1.0
 40
1.0
 40
1.0
 40
1.0
 10
5.0020978261
 20
6.2362353789
 30
0.0
 10
5.0020978261
 20
6.2408932286
 30
0.0
 10
5.0016223626
 20
6.2502192365
 30
0.0
 10
4.9994898435
 20
6.2640659648
 30
0.0
 10
4.9959587653
 20
6.277645551
 30
0.0
 10
4.9910632155
 20
6.2908251477
 30
0.0
 10
4.9848506537
 20
6.3034781317
 30
0.0
 10
4.9773812283
 20
6.3154824777
 30
0.0
 10
4.9687271877
 20
6.3267226615
 30
0.0
 10
4.958972136
 20
6.3370905454
 30
0.0
 10
4.9482102187
 20
6.3464864562
 30
0.0
 10
4.9365452531
 20
6.3548201754
 30
0.0
 10
4.9240896549
 20
6.3620117302
 30
0.0
 10
4.9109633611
 20
6.3679921338
 30
0.0
 10
4.8972926889
 20
6.3727040238
 30
0.0
 10
4.8832091544
 20
6.3761022763
 30
0.0
 10
4.868848182
 20
6.3781543473
 30
0.0
 10
4.8543478261
 20
6.3788405721
 30
0.0
 10
4.8398474702
 20
6.3781543473
 30
0.0
 10
4.8254864977
 20
6.3761022763
 30
0.0
 10
4.8114029633
 20
6.3727040238
 30
0.0
 10
4.7977322911
 20
6.3679921338
 30
0.0
 10
4.7846059973
 20
6.3620117302
 30
0.0
 10
4.7721503991
 20
6.3548201754
 30
0.0
 10
4.7604854335
 20
6.3464864562
 30
0.0
 10
4.7497235162
 20
6.3370905454
 30
0.0
 10
4.7399684645
 20
6.3267226615
 30
0.0
 10
4.7313144239
 20
6.3154824777
 30
0.0
 10
4.7238449984
 20
6.3034781317
 30
0.0
 10
4.7176324367
 20
6.2908251477
 30
0.0
 10
4.7127368869
 20
6.277645551
 30
0.0
 10
4.7092058087
 20
6.2640659648
 30
0.0
 10
4.7070732896
 20
6.2502192365
 30
0.0
 10
4.7065978261
 20
6.2408932286
 30
0.0
 10
4.7065978261
 20
6.2362353789
 30
0.0
  0
SPLINE
  5
3A5
100
AcDbEntity
  8
0
100
AcDbSpline
 62
7
  6
CONTINUOUS
 70
0
 71
3
 72
11
 73
7
 74
0
 42
0.0000001
 43
0.0000001
 44
0.0000000001
 40
0.0
 40
0.0
 40
0.0
 40
0.0
 40
0.2499966753
 40
0.4999966849
 40
0.7499981331
 40
1.0
 40
1.0
 40
1.0
 40
1.0
 10
5.2337755251
 20
4.5419069706
 30
0.0
 10
5.2354797028
 20
4.556146104
 30
0.0
 10
5.23887283
 20
4.5846263918
 30
0.0
 10
5.2438929757
 20
4.6273552398
 30
0.0
 10
5.248829939
 20
4.6700940837
 30
0.0
 10
5.2520585904
 20
4.6985938898
 30
0.0
 10
5.2536554101
 20
4.7128457616
 30
0.0
  0
SPLINE
  5
3A6
100
AcDbEntity
  8
0
100
AcDbSpline
 62
7
  6
CONTINUOUS
 70
0
 71
3
 72
33
 73
29
 74
0
 42
0.0000001
 43
0.0000001
 44
0.0000000001
 40
0.0
 40
0.0
 40
0.0
 40
0.0
 40
0.0409184231
 40
0.0815238484
 40
0.1217180276
 40
0.1614141913
 40
0.2005373769
 40
0.2390337532
 40
0.276860346
 40
0.3139753346
 40
0.3503492577
 40
0.3859781652
 40
0.4208647017
 40
0.455008155
 40
0.4884149159
 40
0.5211065982
 40
0.5531234442
 40
0.584494914
 40
0.645356158
 40
0.7036647952
 40
0.7593902042
 40
0.8125093306
 40
0.838093056
 40
0.8630350276
 40
0.887348566
 40
0.9110473492
 40
0.9566549325
 40
1.0
 40
1.0
 40
1.0
 40
1.0
 10
5.0130693833
 20
3.7832954274
 30
0.0
 10
5.0136057352
 20
3.7939824243
 30
0.0
 10
5.014729802
 20
3.8152719087
 30
0.0
 10
5.016546185
 20
3.8470502284
 30
0.0
 10
5.0184827086
 20
3.8785012352
 30
0.0
 10
5.0205245917
 20
3.9095571138
 30
0.0
 10
5.0226502596
 20
3.9401623072
 30
0.0
 10
5.0248338137
 20
3.9702732332
 30
0.0
 10
5.0270470518
 20
3.9998553734
 30
0.0
 10
5.0292638264
 20
4.0288806203
 30
0.0
 10
5.0314766724
 20
4.0573297517
 30
0.0
 10
5.0336648267
 20
4.0851962743
 30
0.0
 10
5.0358078096
 20
4.1124812656
 30
0.0
 10
5.0378888256
 20
4.1391882254
 30
0.0
 10
5.0398959981
 20
4.1653252187
 30
0.0
 10
5.0418186566
 20
4.1909109139
 30
0.0
 10
5.0436461502
 20
4.2159699715
 30
0.0
 10
5.0459188286
 20
4.2483825338
 30
0.0
 10
5.0484706196
 20
4.2876677635
 30
0.0
 10
5.0510343085
 20
4.3333328647
 30
0.0
 10
5.0530412292
 20
4.3769992745
 30
0.0
 10
5.054268435
 20
4.412132569
 30
0.0
 10
5.0549817412
 20
4.4392271343
 30
0.0
 10
5.0553864552
 20
4.4587940259
 30
0.0
 10
5.0556761017
 20
4.4778699696
 30
0.0
 10
5.0559166986
 20
4.50235113
 30
0.0
 10
5.0559768113
 20
4.5318107368
 30
0.0
 10
5.0557898588
 20
4.5550721365
 30
0.0
 10
5.0556434132
 20
4.5664062219
 30
0.0
  0
SPLINE
  5
3A7
100
AcDbEntity
  8
0
100
AcDbSpline
 62
7
  6
CONTINUOUS
 70
0
 71
3
 72
11
 73
7
 74
0
 42
0.0000001
 43
0.0000001
 44
0.0000000001
 40
0.0
 40
0.0
 40
0.0
 40
0.0
 40
0.23611425
 40
0.4812427742
 40
0.735906117
 40
1.0
 40
1.0
 40
1.0
 40
1.0
 10
4.737301565
 20
5.6358581315
 30
0.0
 10
4.7377908197
 20
5.6359855049
 30
0.0
 10
4.7388090631
 20
5.6361693143
 30
0.0
 10
4.740388017
 20
5.6362313846
 30
0.0
 10
4.7420211841
 20
5.6360849609
 30
0.0
 10
4.7431106027
 20
5.6358540495
 30
0.0
 10
4.7436565445
 20
5.6357067172
 30
0.0
  0
SPLINE
  5
3A8
100
AcDbEntity
  8
0
100
AcDbSpline
 62
7
  6
CONTINUOUS
 70
0
 71
3
 72
11
 73
7
 74
0
 42
0.0000001
 43
0.0000001
 44
0.0000000001
 40
0.0
 40
0.0
 40
0.0
 40
0.0
 40
0.2316761376
 40
0.4752110042
 40
0.7313725918
 40
1.0
 40
1.0
 40
1.0
 40
1.0
 10
4.736977537
 20
5.6355550086
 30
0.0
 10
4.7374675245
 20
5.6356635469
 30
0.0
 10
4.7384930274
 20
5.6358005178
 30
0.0
 10
4.7400822093
 20
5.6357708061
 30
0.0
 10
4.7417311526
 20
5.6355131236
 30
0.0
 10
4.7428270913
 20
5.6351996768
 30
0.0
 10
4.7433768922
 20
5.6350090513
 30
0.0
  0
SPLINE
  5
3A9
100
AcDbEntity
  8
0
100
AcDbSpline
 62
7
  6
CONTINUOUS
 70
0
 71
3
 72
14
 73
10
 74
0
 42
0.0000001
 43
0.0000001
 44
0.0000000001
 40
0.0
 40
0.0
 40
0.0
 40
0.0
 40
0.0846462511
 40
0.1845550973
 40
0.2981435974
 40
0.423566648
 40
0.5587626874
 40
0.7014956939
 40
1.0
 40
1.0
 40
1.0
 40
1.0
 10
4.727775879
 20
5.6176404699
 30
0.0
 10
4.7281382264
 20
5.6176694505
 30
0.0
 10
4.7289300104
 20
5.61771063
 30
0.0
 10
4.7302103108
 20
5.6177328327
 30
0.0
 10
4.7316658559
 20
5.6177196926
 30
0.0
 10
4.7332722134
 20
5.617671195
 30
0.0
 10
4.7350024527
 20
5.6175879631
 30
0.0
 10
4.7374729047
 20
5.6174299385
 30
0.0
 10
4.7393611301
 20
5.6172678089
 30
0.0
 10
4.7406367782
 20
5.6171414041
 30
0.0
  0
SPLINE
  5
3AA
100
AcDbEntity
  8
0
100
AcDbSpline
 62
7
  6
CONTINUOUS
 70
0
 71
3
 72
14
 73
10
 74
0
 42
0.0000001
 43
0.0000001
 44
0.0000000001
 40
0.0
 40
0.0
 40
0.0
 40
0.0
 40
0.084762684
 40
0.1847723244
 40
0.2984379073
 40
0.423905373
 40
0.5591036865
 40
0.7017871957
 40
1.0
 40
1.0
 40
1.0
 40
1.0
 10
4.7276924616
 20
5.6168174936
 30
0.0
 10
4.7280552167
 20
5.6168608995
 30
0.0
 10
4.7288486161
 20
5.6169334292
 30
0.0
 10
4.7301330405
 20
5.6170059582
 30
0.0
 10
4.7315943016
 20
5.617049696
 30
0.0
 10
4.7332077735
 20
5.6170636679
 30
0.0
 10
4.7349462954
 20
5.6170474471
 30
0.0
 10
4.7374286471
 20
5.6169847681
 30
0.0
 10
4.7393272087
 20
5.6168951426
 30
0.0
 10
4.7406102159
 20
5.616817539
 30
0.0
  0
SPLINE
  5
3AB
100
AcDbEntity
  8
0
100
AcDbSpline
 62
7
  6
CONTINUOUS
 70
0
 71
3
 72
11
 73
7
 74
0
 42
0.0000001
 43
0.0000001
 44
0.0000000001
 40
0.0
 40
0.0
 40
0.0
 40
0.0
 40
0.2640938785
 40
0.5187572311
 40
0.763885744
 40
1.0
 40
1.0
 40
1.0
 40
1.0
 10
4.9650391058
 20
5.635706718
 30
0.0
 10
4.9655850476
 20
5.6358540503
 30
0.0
 10
4.9666744662
 20
5.6360849619
 30
0.0
 10
4.9683076335
 20
5.6362313855
 30
0.0
 10
4.9698865874
 20
5.6361693155
 30
0.0
 10
4.9709048309
 20
5.6359855061
 30
0.0
 10
4.9713940856
 20
5.6358581327
 30
0.0
  0
SPLINE
  5
3AC
100
AcDbEntity
  8
0
100
AcDbSpline
 62
7
  6
CONTINUOUS
 70
0
 71
3
 72
11
 73
7
 74
0
 42
0.0000001
 43
0.0000001
 44
0.0000000001
 40
0.0
 40
0.0
 40
0.0
 40
0.0
 40
0.2686275096
 40
0.52478852
 40
0.7683236084
 40
1.0
 40
1.0
 40
1.0
 40
1.0
 10
4.9653187589
 20
5.6350090769
 30
0.0
 10
4.9658685618
 20
5.6351996961
 30
0.0
 10
4.9669645007
 20
5.6355131332
 30
0.0
 10
4.9686134424
 20
5.6357708148
 30
0.0
 10
4.9702026232
 20
5.6358005175
 30
0.0
 10
4.971228126
 20
5.6356635462
 30
0.0
 10
4.9717181137
 20
5.635555008
 30
0.0
  0
SPLINE
  5
3AD
100
AcDbEntity
  8
0
100
AcDbSpline
 62
7
  6
CONTINUOUS
 70
0
 71
3
 72
14
 73
10
 74
0
 42
0.0000001
 43
0.0000001
 44
0.0000000001
 40
0.0
 40
0.0
 40
0.0
 40
0.0
 40
0.2985263663
 40
0.4412658373
 40
0.5764640007
 40
0.7018845821
 40
0.8154664119
 40
0.9153653809
 40
1.0
 40
1.0
 40
1.0
 40
1.0
 10
4.9680588739
 20
5.6171412104
 30
0.0
 10
4.9693342735
 20
5.6172675822
 30
0.0
 10
4.9712221138
 20
5.617429662
 30
0.0
 10
4.9736920339
 20
5.6175876187
 30
0.0
 10
4.9754218349
 20
5.6176707991
 30
0.0
 10
4.9770277308
 20
5.6177192468
 30
0.0
 10
4.9784828026
 20
5.6177323417
 30
0.0
 10
4.9797626364
 20
5.6177101009
 30
0.0
 10
4.9805541132
 20
5.6176689012
 30
0.0
 10
4.9809163116
 20
5.6176399127
 30
0.0
  0
SPLINE
  5
3AE
100
AcDbEntity
  8
0
100
AcDbSpline
 62
7
  6
CONTINUOUS
 70
0
 71
3
 72
14
 73
10
 74
0
 42
0.0000001
 43
0.0000001
 44
0.0000000001
 40
0.0
 40
0.0
 40
0.0
 40
0.0
 40
0.2982097981
 40
0.4408924627
 40
0.5760905114
 40
0.7015583155
 40
0.8152247897
 40
0.9152357515
 40
1.0
 40
1.0
 40
1.0
 40
1.0
 10
4.9680854363
 20
5.616817539
 30
0.0
 10
4.9693684588
 20
5.6168951307
 30
0.0
 10
4.9712670448
 20
5.616984744
 30
0.0
 10
4.973749432
 20
5.6170474184
 30
0.0
 10
4.9754879877
 20
5.6170636415
 30
0.0
 10
4.9771014983
 20
5.6170496774
 30
0.0
 10
4.978562802
 20
5.6170059521
 30
0.0
 10
4.9798472712
 20
5.6169334399
 30
0.0
 10
4.9806407014
 20
5.6168609254
 30
0.0
 10
4.9810034722
 20
5.6168175281
 30
0.0
  0
SPLINE
  5
3AF
100
AcDbEntity
  8
0
100
AcDbSpline
 62
7
  6
CONTINUOUS
 70
0
 71
3
 72
29
 73
25
 74
0
 42
0.0000001
 43
0.0000001
 44
0.0000000001
 40
0.0
 40
0.0
 40
0.0
 40
0.0
 40
0.0189983534
 40
0.038419438
 40
0.0585018045
 40
0.0794600959
 40
0.1014651177
 40
0.1246439718
 40
0.1490838179
 40
0.1748366095
 40
0.201921763
 40
0.2303313207
 40
0.2600340918
 40
0.2909777842
 40
0.3562788676
 40
0.4255354979
 40
0.4978518981
 40
0.5722113028
 40
0.6475214545
 40
0.7226561974
 40
0.7964954586
 40
0.8679664926
 40
0.9360825189
 40
1.0
 40
1.0
 40
1.0
 40
1.0
 10
4.7918478272
 20
5.6685843938
 30
0.0
 10
4.7921439849
 20
5.6686059239
 30
0.0
 10
4.7927405667
 20
5.6686922937
 30
0.0
 10
4.7936215105
 20
5.6689467592
 30
0.0
 10
4.7944900867
 20
5.6693253616
 30
0.0
 10
4.7953416213
 20
5.6698254612
 30
0.0
 10
4.7961722155
 20
5.6704440597
 30
0.0
 10
4.7969779045
 20
5.6711778767
 30
0.0
 10
4.7977550205
 20
5.6720230242
 30
0.0
 10
4.798499882
 20
5.6729752928
 30
0.0
 10
4.7992089839
 20
5.6740299355
 30
0.0
 10
4.7998789338
 20
5.6751817302
 30
0.0
 10
4.800506463
 20
5.6764250271
 30
0.0
 10
4.8012966554
 20
5.6782288787
 30
0.0
 10
4.8021514335
 20
5.680674843
 30
0.0
 10
4.8029476847
 20
5.6838122962
 30
0.0
 10
4.8035166471
 20
5.6871423359
 30
0.0
 10
4.8038470025
 20
5.6905991729
 30
0.0
 10
4.8039321753
 20
5.694114685
 30
0.0
 10
4.8037704519
 20
5.6976193924
 30
0.0
 10
4.8033650934
 20
5.7010440408
 30
0.0
 10
4.8027240923
 20
5.7043212167
 30
0.0
 10
4.8018603569
 20
5.707386143
 30
0.0
 10
4.8011208157
 20
5.7093170019
 30
0.0
 10
4.8007131702
 20
5.7102290615
 30
0.0
  0
SPLINE
  5
3B0
100
AcDbEntity
  8
0
100
AcDbSpline
 62
7
  6
CONTINUOUS
 70
0
 71
3
 72
29
 73
25
 74
0
 42
0.0000001
 43
0.0000001
 44
0.0000000001
 40
0.0
 40
0.0
 40
0.0
 40
0.0
 40
0.0189981661
 40
0.038419083
 40
0.0585013049
 40
0.0794594759
 40
0.1014644019
 40
0.1246431836
 40
0.1490829791
 40
0.1748357399
 40
0.2019208807
 40
0.2303304413
 40
0.2600332289
 40
0.2909769494
 40
0.3562781171
 40
0.4255348571
 40
0.4978513804
 40
0.572210911
 40
0.6475211823
 40
0.7226560306
 40
0.7964953763
 40
0.8679664685
 40
0.936082523
 40
1.0
 40
1.0
 40
1.0
 40
1.0
 10
4.9168478255
 20
5.6685843937
 30
0.0
 10
4.9165516712
 20
5.6686059238
 30
0.0
 10
4.915955096
 20
5.6686922936
 30
0.0
 10
4.9150741617
 20
5.6689467592
 30
0.0
 10
4.9142055944
 20
5.6693253617
 30
0.0
 10
4.9133540681
 20
5.6698254612
 30
0.0
 10
4.9125234815
 20
5.6704440597
 30
0.0
 10
4.9117177993
 20
5.6711778767
 30
0.0
 10
4.9109406894
 20
5.6720230241
 30
0.0
 10
4.9101958332
 20
5.6729752928
 30
0.0
 10
4.9094867359
 20
5.6740299354
 30
0.0
 10
4.9088167897
 20
5.6751817299
 30
0.0
 10
4.9081892635
 20
5.6764250269
 30
0.0
 10
4.9073990738
 20
5.6782288786
 30
0.0
 10
4.9065442975
 20
5.680674843
 30
0.0
 10
4.9057480455
 20
5.683812296
 30
0.0
 10
4.9051790795
 20
5.6871423355
 30
0.0
 10
4.9048487182
 20
5.6905991723
 30
0.0
 10
4.9047635372
 20
5.6941146844
 30
0.0
 10
4.9049252507
 20
5.6976193917
 30
0.0
 10
4.9053305979
 20
5.7010440401
 30
0.0
 10
4.9059715865
 20
5.704321216
 30
0.0
 10
4.9068353088
 20
5.7073861423
 30
0.0
 10
4.907574841
 20
5.7093170017
 30
0.0
 10
4.9079824821
 20
5.7102290615
 30
0.0
  0
LINE
  5
3B1
100
AcDbEntity
  8
0
100
AcDbLine
 62
7
  6
CONTINUOUS
 10
5.0556434132
 20
4.5664062219
 11
5.0556254776
 21
4.5677441167
  0
SPLINE
  5
3B2
100
AcDbEntity
  8
0
100
AcDbSpline
 62
7
  6
CONTINUOUS
 70
0
 71
3
 72
14
 73
10
 74
0
 42
0.0000001
 43
0.0000001
 44
0.0000000001
 40
0.0
 40
0.0
 40
0.0
 40
0.0
 40
0.271560222
 40
0.402901815
 40
0.53074984
 40
0.654726089
 40
0.7744738639
 40
0.8896648897
 40
1.0
 40
1.0
 40
1.0
 40
1.0
 10
4.7867051311
 20
5.7591203546
 30
0.0
 10
4.7887912109
 20
5.7619893827
 30
0.0
 10
4.7917948438
 20
5.7663140255
 30
0.0
 10
4.795541203
 20
5.7721481849
 30
0.0
 10
4.7981389891
 20
5.7764270385
 30
0.0
 10
4.8005466772
 20
5.7806421215
 30
0.0
 10
4.8027556004
 20
5.7847782615
 30
0.0
 10
4.8047577591
 20
5.7888204373
 30
0.0
 10
4.8059772333
 20
5.791502905
 30
0.0
 10
4.8065491718
 20
5.7928258184
 30
0.0
  0
SPLINE
  5
3B3
100
AcDbEntity
  8
0
100
AcDbSpline
 62
7
  6
CONTINUOUS
 70
0
 71
3
 72
15
 73
11
 74
0
 42
0.0000001
 43
0.0000001
 44
0.0000000001
 40
0.0
 40
0.0
 40
0.0
 40
0.0
 40
0.1207006734
 40
0.2433335867
 40
0.3674431482
 40
0.4926958193
 40
0.6188077945
 40
0.7455369361
 40
0.8726701155
 40
1.0
 40
1.0
 40
1.0
 40
1.0
 10
4.7867051311
 20
5.7591203546
 30
0.0
 10
4.7893858554
 20
5.7585779462
 30
0.0
 10
4.7948137957
 20
5.7575988783
 30
0.0
 10
4.8030560159
 20
5.7564101589
 30
0.0
 10
4.8114324566
 20
5.7554575551
 30
0.0
 10
4.81990892
 20
5.7547145689
 30
0.0
 10
4.8284590624
 20
5.7541592026
 30
0.0
 10
4.8370611414
 20
5.7537748071
 30
0.0
 10
4.8456963616
 20
5.753549207
 30
0.0
 10
4.8514625613
 20
5.7534998404
 30
0.0
 10
4.854347826
 20
5.7534998379
 30
0.0
  0
SPLINE
  5
3B4
100
AcDbEntity
  8
0
100
AcDbSpline
 62
7
  6
CONTINUOUS
 70
0
 71
3
 72
15
 73
11
 74
0
 42
0.0000001
 43
0.0000001
 44
0.0000000001
 40
0.0
 40
0.0
 40
0.0
 40
0.0
 40
0.1274079211
 40
0.2546109948
 40
0.3813943746
 40
0.5075378335
 40
0.6327924048
 40
0.7568679772
 40
0.8794249898
 40
1.0
 40
1.0
 40
1.0
 40
1.0
 10
4.854347826
 20
5.7534998379
 30
0.0
 10
4.8572721985
 20
5.7534998391
 30
0.0
 10
4.8631163658
 20
5.7535485305
 30
0.0
 10
4.8718680277
 20
5.753771942
 30
0.0
 10
4.8805852618
 20
5.7541536124
 30
0.0
 10
4.8892486277
 20
5.754706231
 30
0.0
 10
4.8978357229
 20
5.7554469975
 30
0.0
 10
4.9063194829
 20
5.7563988013
 30
0.0
 10
4.914664749
 20
5.7575896336
 30
0.0
 10
4.9201595892
 20
5.7585738284
 30
0.0
 10
4.9228726271
 20
5.7591203546
 30
0.0
  0
SPLINE
  5
3B5
100
AcDbEntity
  8
0
100
AcDbSpline
 62
7
  6
CONTINUOUS
 70
0
 71
3
 72
36
 73
32
 74
0
 42
0.0000001
 43
0.0000001
 44
0.0000000001
 40
0.0
 40
0.0
 40
0.0
 40
0.0
 40
0.0433447348
 40
0.0658552212
 40
0.088953937
 40
0.1126541246
 40
0.1369686025
 40
0.1619107572
 40
0.1874938008
 40
0.2137260509
 40
0.2406123942
 40
0.2681520558
 40
0.2963387628
 40
0.3251693972
 40
0.3546451568
 40
0.4155066872
 40
0.4468784161
 40
0.4788944815
 40
0.5449904093
 40
0.5791340119
 40
0.6140209377
 40
0.6496495744
 40
0.6860234599
 40
0.7231397775
 40
0.7609676733
 40
0.7994642141
 40
0.8385866927
 40
0.8782822728
 40
0.9184762885
 40
0.9590815577
 40
1.0
 40
1.0
 40
1.0
 40
1.0
 10
4.6530515156
 20
4.5664070575
 30
0.0
 10
4.6529053627
 20
4.5550730425
 30
0.0
 10
4.6527662526
 20
4.5378516331
 30
0.0
 10
4.6527531998
 20
4.5145894759
 30
0.0
 10
4.6528371191
 20
4.4964646814
 30
0.0
 10
4.6530211125
 20
4.4778688505
 30
0.0
 10
4.6533114813
 20
4.4587922388
 30
0.0
 10
4.6537163035
 20
4.4392252168
 30
0.0
 10
4.6542440072
 20
4.4191594284
 30
0.0
 10
4.6549010286
 20
4.3985887692
 30
0.0
 10
4.6556936154
 20
4.3775108458
 30
0.0
 10
4.6566246613
 20
4.3559269989
 30
0.0
 10
4.6576940485
 20
4.3338405164
 30
0.0
 10
4.6589015054
 20
4.3112541128
 30
0.0
 10
4.6607133552
 20
4.2801434674
 30
0.0
 10
4.6627770056
 20
4.2483822601
 30
0.0
 10
4.6650500187
 20
4.2159697568
 30
0.0
 10
4.667512293
 20
4.1821984425
 30
0.0
 10
4.6701410235
 20
4.1477126298
 30
0.0
 10
4.672886403
 20
4.1124829103
 30
0.0
 10
4.6750298541
 20
4.0851978534
 30
0.0
 10
4.6772177301
 20
4.0573312567
 30
0.0
 10
4.6794304041
 20
4.0288818124
 30
0.0
 10
4.6816485218
 20
3.9998559556
 30
0.0
 10
4.6838631669
 20
3.9702731537
 30
0.0
 10
4.6860469718
 20
3.9401620113
 30
0.0
 10
4.6881717064
 20
3.9095570132
 30
0.0
 10
4.6902127839
 20
3.878501429
 30
0.0
 10
4.6921493002
 20
3.8470506232
 30
0.0
 10
4.6939652381
 20
3.8152723211
 30
0.0
 10
4.6950895718
 20
3.7939828637
 30
0.0
 10
4.695626074
 20
3.7832958573
 30
0.0
  0
ENDSEC
  0
SECTION
  2
OBJECTS
  0
DICTIONARY
  5
C
100
AcDbDictionary
280
0
281
1
  3
ACAD_GROUP
350
D
  3
ACAD_MLINESTYLE
350
17
  3
ACAD_LAYOUT
350
1A
  3
ACAD_PLOTSETTINGS
350
19
  3
ACAD_PLOTSTYLENAME
350
E
  0
DICTIONARY
  5
D
102
{ACAD_REACTORS
330
C
102
}
100
AcDbDictionary
280
0
281
1
  0
ACDBDICTIONARYWDFLT
  5
E
102
{ACAD_REACTORS
330
C
102
}
100
AcDbDictionary
281
1
  3
Normal
350
F
100
AcDbDictionaryWithDefault
340
F
  0
DICTIONARY
  5
17
102
{ACAD_REACTORS
330
C
102
}
100
AcDbDictionary
280
0
281
1
  3
Standard
350
18
  0
DICTIONARY
  5
19
102
{ACAD_REACTORS
330
C
102
}
100
AcDbDictionary
281
1
  0
DICTIONARY
  5
1A
102
{ACAD_REACTORS
330
C
102
}
100
AcDbDictionary
281
1
  3
Model
350
3B6
  3
Layout1
350
3B7
  0
ACDBPLACEHOLDER
  5
F
102
{ACAD_REACTORS
330
E
102
}
  0
MLINESTYLE
  5
18
102
{ACAD_REACTORS
330
17
102
}
100
AcDbMlineStyle
  2
STANDARD
 70
0
  3

 62
256
 51
90.0
 52
90.0
 71
2
 49
0.5
 62
256
  6
BYLAYER
 49
-0.5
 62
256
  6
BYLAYER
  0
LAYOUT
  5
3B6
102
{ACAD_REACTORS
330
1A
102
}
100
AcDbPlotSettings
  1

  2
none_device
  4
ANSI_A_(11.00_x_8.50_Inches)
  6

 40
0.0
 41
0.0
 42
0.0
 43
0.0
 44
279.4
 45
215.9
 46
0.0
 47
0.0
 48
0.0
 49
0.0
140
0.0
141
0.0
142
1.0
143
1.0
 70
1024
 72
0
 73
0
 74
0
  7

 75
0
147
1.0
148
0.0
149
0.0
100
AcDbLayout
  1
Model
 70
0
 71
0
 10
0.0
 20
0.0
 11
11.0
 21
8.5
 12
0.0
 22
0.0
 32
0.0
 14
0.0
 24
0.0
 34
0.0
 15
0.0
 25
0.0
 35
0.0
146
0.0
 13
0.0
 23
0.0
 33
0.0
 16
1.0
 26
0.0
 36
0.0
 17
0.0
 27
1.0
 37
0.0
 76
0
330
202
345
0
346
0
  0
LAYOUT
  5
3B7
102
{ACAD_REACTORS
330
1A
102
}
100
AcDbPlotSettings
  1

  2
none_device
  4
ANSI_A_(11.00_x_8.50_Inches)
  6

 40
0.0
 41
0.0
 42
0.0
 43
0.0
 44
279.4
 45
215.9
 46
0.0
 47
0.0
 48
0.0
 49
0.0
140
0.0
141
0.0
142
1.0
143
1.0
 70
0
 72
0
 73
0
 74
0
  7

 75
0
147
1.0
148
0.0
149
0.0
100
AcDbLayout
  1
Layout1
 70
0
 71
1
 10
0.0
 20
0.0
 11
11.0
 21
8.5
 12
0.0
 22
0.0
 32
0.0
 14
0.0
 24
0.0
 34
0.0
 15
0.0
 25
0.0
 35
0.0
146
0.0
 13
0.0
 23
0.0
 33
0.0
 16
1.0
 26
0.0
 36
0.0
 17
0.0
 27
1.0
 37
0.0
 76
0
330
203
345
0
346
0
  0
ENDSEC
  0
EOF
