999
DXF file: 1203_right.dxf
999
Pro/ENGINEER 2018400 by Parametric Technology Corporation
  0
SECTION
  2
HEADER
  9
$ACADVER
  1
AC1027
  9
$DWGCODEPAGE
  3
ANSI_1252
  9
$EXTMAX
 10
11.0
 20
8.5
 30
0.0
  9
$EXTMIN
 10
0.0
 20
0.0
 30
0.0
  9
$LIMMIN
 10
0.0
 20
0.0
  9
$LIMMAX
 10
11.0
 20
8.5
  9
$VIEWCTR
 10
5.5
 20
4.25
  9
$VIEWSIZE
 40
8.5
  9
$CLAYER
  8
0
  9
$LTSCALE
 40
0.605
  9
$CELTYPE
  6
BYLAYER
  9
$DIMSCALE
 40
1.0
  9
$DIMASZ
 40
0.1
  9
$DIMEXO
 40
0.0625
  9
$DIMDLI
 40
0.418
  9
$DIMEXE
 40
0.125
  9
$DIMCEN
 40
0.099
  9
$DIMLFAC
 40
1.0
  9
$DIMBLK
  1
_FILLED
  9
$DIMALT
 70
1
  9
$DIMALTD
 70
2
  9
$DIMALTTD
 70
2
  9
$DIMALTF
 40
25.4
  9
$DIMTXT
 40
0.08
  9
$DIMTOL
 70
1
  9
$DIMLIM
 70
0
  9
$DIMTFAC
 40
1.0
  9
$DIMTP
 40
0.001
  9
$DIMTM
 40
0.001
  9
$DIMGAP
 40
0.09
  9
$DIMDSEP
 70
46
  9
$AUNITS
 70
0
  9
$PDMODE
 70
3
  9
$PDSIZE
 40
0.3125
  9
$HANDSEED
  5
32F
  9
$TILEMODE
 70
1
  9
$MEASUREMENT
 70
0
  9
$INSUNITS
 70
1
  0
ENDSEC
  0
SECTION
  2
CLASSES
  0
CLASS
  1
ACDBDICTIONARYWDFLT
  2
AcDbDictionaryWithDefault
  3
AutoCAD 2000
 90
0
 91
1
280
0
281
0
  0
CLASS
  1
ACDBPLACEHOLDER
  2
AcDbPlaceHolder
  3
AutoCAD 2000
 90
0
 91
1
280
0
281
0
  0
CLASS
  1
LAYOUT
  2
AcDbLayout
  3
AutoCAD 2000
 90
0
 91
0
280
0
281
0
  0
ENDSEC
  0
SECTION
  2
TABLES
  0
TABLE
  2
VPORT
  5
8
100
AcDbSymbolTable
 70
2
  0
VPORT
  5
1F4
100
AcDbSymbolTableRecord
100
AcDbViewportTableRecord
  2
*ACTIVE
 70
0
 10
0.0
 20
0.0
 11
1.0
 21
1.0
 12
5.5
 22
4.25
 13
0.0
 23
0.0
 14
1.0
 24
1.0
 15
0.0
 25
0.0
 16
0.0
 26
0.0
 36
1.0
 17
0.0
 27
0.0
 37
0.0
 40
8.5
 41
1.2941176471
 42
50.0
 43
0.0
 44
0.0
 50
0.0
 51
0.0
 71
0
 72
100
 73
1
 74
1
 75
0
 76
0
 77
0
 78
0
  0
ENDTAB
  0
TABLE
  2
LTYPE
  5
5
100
AcDbSymbolTable
 70
6
  0
LTYPE
  5
14
100
AcDbSymbolTableRecord
100
AcDbLinetypeTableRecord
  2
BYBLOCK
 70
0
  3

 72
65
 73
0
 40
0.0
  0
LTYPE
  5
15
100
AcDbSymbolTableRecord
100
AcDbLinetypeTableRecord
  2
BYLAYER
 70
0
  3

 72
65
 73
0
 40
0.0
  0
LTYPE
  5
16
100
AcDbSymbolTableRecord
100
AcDbLinetypeTableRecord
  2
CONTINUOUS
 70
64
  3
Solid line
 72
65
 73
0
 40
0.0
  0
LTYPE
  5
1F5
100
AcDbSymbolTableRecord
100
AcDbLinetypeTableRecord
  2
CENTER
 70
64
  3
____ _ ____ _ ____ _ ____ _ ____ _ ____ _ ____
 72
65
 73
4
 40
0.6
 49
0.375
 74
0
 49
-0.075
 74
0
 49
0.075
 74
0
 49
-0.075
 74
0
  0
LTYPE
  5
1F6
100
AcDbSymbolTableRecord
100
AcDbLinetypeTableRecord
  2
HIDDEN
 70
64
  3
- - - - - - - - - - - - - - - - - - - -
 72
65
 73
2
 40
0.2
 49
0.1
 74
0
 49
-0.1
 74
0
  0
LTYPE
  5
1F7
100
AcDbSymbolTableRecord
100
AcDbLinetypeTableRecord
  2
PHANTOM
 70
64
  3
_____ _ _ _____ _ _ _____ _ _ _____
 72
65
 73
6
 40
0.8
 49
0.45
 74
0
 49
-0.05
 74
0
 49
0.1
 74
0
 49
-0.05
 74
0
 49
0.1
 74
0
 49
-0.05
 74
0
  0
LTYPE
  5
1F8
100
AcDbSymbolTableRecord
100
AcDbLinetypeTableRecord
  2
DOT
 70
64
  3
. . . . . . . . . . . . . . . . . . . .
 72
65
 73
2
 40
0.2
 49
0.1
 74
0
 49
-0.1
 74
0
  0
LTYPE
  5
1F9
100
AcDbSymbolTableRecord
100
AcDbLinetypeTableRecord
  2
DASHED
 70
64
  3
- - - - - - - - - - - - - - - - - - - -
 72
65
 73
2
 40
0.2
 49
0.1
 74
0
 49
-0.1
 74
0
  0
ENDTAB
  0
TABLE
  2
LAYER
  5
2
100
AcDbSymbolTable
 70
36
  0
LAYER
  5
10
100
AcDbSymbolTableRecord
100
AcDbLayerTableRecord
  2
0
 70
0
 62
7
  6
CONTINUOUS
370
-3
390
F
  0
LAYER
  5
1FA
100
AcDbSymbolTableRecord
100
AcDbLayerTableRecord
  2
DEFAULT_1
 70
0
 62
7
  6
CENTER
370
-3
390
F
  0
LAYER
  5
1FB
100
AcDbSymbolTableRecord
100
AcDbLayerTableRecord
  2
DEFAULT_2
 70
0
 62
8
  6
HIDDEN
370
-3
390
F
  0
LAYER
  5
1FC
100
AcDbSymbolTableRecord
100
AcDbLayerTableRecord
  2
DEFAULT_3
 70
0
 62
7
  6
PHANTOM
370
-3
390
F
  0
LAYER
  5
1FD
100
AcDbSymbolTableRecord
100
AcDbLayerTableRecord
  2
DEFAULT_COORDINATE_SYSTEM
 70
0
 62
7
  6
CONTINUOUS
370
-3
390
F
  0
LAYER
  5
1FE
100
AcDbSymbolTableRecord
100
AcDbLayerTableRecord
  2
DEFAULT_DATUM_AXES
 70
0
 62
7
  6
CONTINUOUS
370
-3
390
F
  0
LAYER
  5
1FF
100
AcDbSymbolTableRecord
100
AcDbLayerTableRecord
  2
DEFAULT_DATUM_PLANES
 70
0
 62
7
  6
CONTINUOUS
370
-3
390
F
  0
ENDTAB
  0
TABLE
  2
STYLE
  5
3
100
AcDbSymbolTable
 70
1
  0
STYLE
  5
11
100
AcDbSymbolTableRecord
100
AcDbTextStyleTableRecord
  2
STANDARD
 70
0
 40
0.0
 41
0.8
 50
0.0
 71
0
 42
0.2
  3
txt
  4

  0
STYLE
  5
200
100
AcDbSymbolTableRecord
100
AcDbTextStyleTableRecord
  2
TEXTSTYLE_1
 70
0
 40
0.0
 41
0.8
 50
0.0
 71
0
 42
0.2
  3
gdt
  4

  0
ENDTAB
  0
TABLE
  2
VIEW
  5
6
100
AcDbSymbolTable
 70
0
  0
ENDTAB
  0
TABLE
  2
UCS
  5
7
100
AcDbSymbolTable
 70
0
  0
ENDTAB
  0
TABLE
  2
APPID
  5
9
100
AcDbSymbolTable
 70
1
  0
APPID
  5
201
100
AcDbSymbolTableRecord
100
AcDbRegAppTableRecord
  2
ACAD
 70
0
  0
ENDTAB
  0
TABLE
  2
BLOCK_RECORD
  5
1
100
AcDbSymbolTable
 70
0
  0
BLOCK_RECORD
  5
202
100
AcDbSymbolTableRecord
100
AcDbBlockTableRecord
  2
*Model_Space
  0
BLOCK_RECORD
  5
203
100
AcDbSymbolTableRecord
100
AcDbBlockTableRecord
  2
*Paper_Space
  0
BLOCK_RECORD
  5
204
100
AcDbSymbolTableRecord
100
AcDbBlockTableRecord
  2
_FILLED
  0
ENDTAB
  0
TABLE
  2
DIMSTYLE
  5
A
100
AcDbSymbolTable
 70
1
100
AcDbDimStyleTable
 71
0
  0
DIMSTYLE
105
205
100
AcDbSymbolTableRecord
100
AcDbDimStyleTableRecord
  2
STANDARD
 70
0
  3

  4

 40
1.0
 41
0.1
 42
0.0625
 43
0.38
 44
0.125
 45
0.0
 46
0.0
 47
0.001
 48
0.001
140
0.08
141
0.09
142
0.0
143
25.4
144
1.0
145
0.0
146
1.0
147
0.09
 71
1.0
 72
0.0
 73
1
 74
1
 75
0
 76
0
 77
0
 78
4
 79
1
170
1
171
2
172
0
173
0
174
0
175
0
176
0
177
0
178
0
270
2
179
3
271
3
272
3
273
2
274
2
275
0
280
0
281
0
282
0
283
1
284
4
285
0
286
0
287
3
288
0
340
11
278
46
341
204
342
204
343
204
344
204
  0
ENDTAB
  0
ENDSEC
  0
SECTION
  2
BLOCKS
  0
BLOCK
  5
20
100
AcDbEntity
  8
0
100
AcDbBlockBegin
  2
*Model_Space
 70
0
 10
0.0
 20
0.0
 30
0.0
  3
*Model_Space
  1

  0
ENDBLK
  5
21
100
AcDbEntity
  8
0
100
AcDbBlockEnd
  0
BLOCK
  5
1C
100
AcDbEntity
  8
0
100
AcDbBlockBegin
  2
*Paper_Space
 70
0
 10
0.0
 20
0.0
 30
0.0
  3
*Paper_Space
  1

  0
ENDBLK
  5
1D
100
AcDbEntity
  8
0
100
AcDbBlockEnd
  0
BLOCK
  5
206
100
AcDbEntity
  8
0
100
AcDbBlockBegin
  2
_FILLED
 70
64
 10
0.0
 20
0.0
  3
_FILLED
  1

  0
SOLID
  5
207
100
AcDbEntity
  8
0
  6
BYBLOCK
 62
0
100
AcDbTrace
 10
0.0
 20
0.0
 11
-1.0
 21
0.2
 12
-1.0
 22
-0.2
 13
-1.0
 23
-0.2
  0
ENDBLK
  5
208
100
AcDbEntity
  8
0
  6
BYBLOCK
 62
0
100
AcDbBlockEnd
  0
ENDSEC
  0
SECTION
  2
ENTITIES
  0
MTEXT
  5
209
100
AcDbEntity
  8
0
100
AcDbMText
 62
2
  6
CONTINUOUS
  7
STANDARD
 71
3
 72
1
 10
6.5229797754
 20
1.3754120334
 30
0.0
 11
1.0
 21
0.0
 31
0.0
 73
2
 44
0.9
  1
SCALE  .500
 40
0.08
 41
0.704
  0
LINE
  5
20A
100
AcDbEntity
  8
0
100
AcDbLine
 62
7
  6
CONTINUOUS
 10
0.0
 20
0.0
 11
0.0
 21
8.5
  0
LINE
  5
20B
100
AcDbEntity
  8
0
100
AcDbLine
 62
7
  6
CONTINUOUS
 10
0.0
 20
0.0
 11
11.0
 21
0.0
  0
LINE
  5
20C
100
AcDbEntity
  8
0
100
AcDbLine
 62
7
  6
CONTINUOUS
 10
0.0
 20
8.5
 11
11.0
 21
8.5
  0
LINE
  5
20D
100
AcDbEntity
  8
0
100
AcDbLine
 62
7
  6
CONTINUOUS
 10
11.0
 20
0.0
 11
11.0
 21
8.5
  0
LINE
  5
20E
100
AcDbEntity
  8
0
100
AcDbLine
 62
7
  6
CONTINUOUS
 10
6.6634370102
 20
2.8078343937
 11
5.5134370102
 21
2.8078343937
  0
LINE
  5
20F
100
AcDbEntity
  8
0
100
AcDbLine
 62
7
  6
CONTINUOUS
 10
6.6039977221
 20
2.9228343937
 11
6.5549132496
 21
2.9228343937
  0
LINE
  5
210
100
AcDbEntity
  8
0
100
AcDbLine
 62
7
  6
CONTINUOUS
 10
6.1375214828
 20
2.9228343937
 11
6.0393525377
 21
2.9228343937
  0
LINE
  5
211
100
AcDbEntity
  8
0
100
AcDbLine
 62
7
  6
CONTINUOUS
 10
5.6219607709
 20
2.9228343937
 11
5.5728762983
 21
2.9228343937
  0
LINE
  5
212
100
AcDbEntity
  8
0
100
AcDbLine
 62
7
  6
CONTINUOUS
 10
3.3220611413
 20
5.0703269633
 11
3.2950667692
 21
4.9695825919
  0
LINE
  5
213
100
AcDbEntity
  8
0
100
AcDbLine
 62
7
  6
CONTINUOUS
 10
4.6770564248
 20
6.3862878142
 11
4.668440343
 21
6.3814130697
  0
LWPOLYLINE
  5
214
100
AcDbEntity
  8
0
100
AcDbPolyline
 62
7
  6
CONTINUOUS
 90
96
 70
0
 10
3.6050199206
 20
5.0093691965
 10
3.605322818
 20
5.0105838535
 10
3.6056712302
 20
5.0118583766
 10
3.6060549681
 20
5.0131517823
 10
3.6064733691
 20
5.0144632123
 10
3.6069259547
 20
5.0157922669
 10
3.6074120405
 20
5.0171378374
 10
3.6079309884
 20
5.0184989436
 10
3.6084825413
 20
5.0198755193
 10
3.6090660099
 20
5.0212663182
 10
3.6096809155
 20
5.0226706042
 10
3.6103275095
 20
5.0240891829
 10
3.6110053058
 20
5.0255212065
 10
3.6117136499
 20
5.0269655416
 10
3.6124526839
 20
5.0284226176
 10
3.6132217308
 20
5.0298911437
 10
3.6140203957
 20
5.0313703779
 10
3.6148494449
 20
5.0328616057
 10
3.6157082855
 20
5.0343635148
 10
3.6165966136
 20
5.0358753077
 10
3.6175158909
 20
5.0373990504
 10
3.618466
 20
5.0389339735
 10
3.6194463697
 20
5.0404785679
 10
3.6204580012
 20
5.0420337445
 10
3.6215005239
 20
5.0435981798
 10
3.6225736196
 20
5.0451706277
 10
3.6236785138
 20
5.0467520164
 10
3.6248147627
 20
5.0483407502
 10
3.6259820986
 20
5.049935466
 10
3.6271825383
 20
5.0515374163
 10
3.6284170808
 20
5.0531457825
 10
3.6296859056
 20
5.0547585583
 10
3.6309904231
 20
5.0563752201
 10
3.6323315424
 20
5.0579944671
 10
3.6337097057
 20
5.0596143389
 10
3.6351256882
 20
5.0612331915
 10
3.6365801547
 20
5.0628491572
 10
3.6380738692
 20
5.0644603841
 10
3.6396077958
 20
5.0660651227
 10
3.6411826653
 20
5.0676612598
 10
3.6427992902
 20
5.0692466597
 10
3.6444588157
 20
5.0708193825
 10
3.6461623596
 20
5.0723773047
 10
3.6479105047
 20
5.0739176807
 10
3.6497040161
 20
5.0754375812
 10
3.651545623
 20
5.0769351191
 10
3.6534368697
 20
5.0784071972
 10
3.6553773553
 20
5.0798492304
 10
3.6573692945
 20
5.0812586519
 10
3.6594149422
 20
5.0826327765
 10
3.6615137054
 20
5.0839670172
 10
3.6636683377
 20
5.0852590124
 10
3.6658805503
 20
5.0865056349
 10
3.6681477803
 20
5.0877015403
 10
3.6704717413
 20
5.0888439903
 10
3.6728548343
 20
5.089930514
 10
3.6752949381
 20
5.0909566899
 10
3.6777912494
 20
5.0919199111
 10
3.6803440631
 20
5.0928217799
 10
3.6829525048
 20
5.0936643233
 10
3.6856134324
 20
5.0944488154
 10
3.6883249641
 20
5.0951769917
 10
3.6910881755
 20
5.0958512741
 10
3.6939002997
 20
5.0964730168
 10
3.6967590873
 20
5.0970437765
 10
3.6996665921
 20
5.0975658927
 10
3.7026200657
 20
5.0980407106
 10
3.705617073
 20
5.0984697261
 10
3.7086602745
 20
5.0988551177
 10
3.7117467333
 20
5.0991982395
 10
3.7148739294
 20
5.0995000516
 10
3.7180453224
 20
5.0997612012
 10
3.7212578679
 20
5.099981581
 10
3.7245090115
 20
5.1001611819
 10
3.7278029593
 20
5.1003002774
 10
3.7311360188
 20
5.10039865
 10
3.7345053898
 20
5.1004561843
 10
3.7379163961
 20
5.1004727925
 10
3.7413640402
 20
5.1004481617
 10
3.7448453391
 20
5.1003820572
 10
3.7483680767
 20
5.1002738696
 10
3.7519257559
 20
5.1001231791
 10
3.7555154966
 20
5.0999294907
 10
3.7591495333
 20
5.099691236
 10
3.7628236958
 20
5.099407513
 10
3.7665309989
 20
5.0990777342
 10
3.7702779685
 20
5.0987000291
 10
3.7740569509
 20
5.0982736979
 10
3.7778602653
 20
5.0977981756
 10
3.7816923521
 20
5.0972712556
 10
3.7855426778
 20
5.0966925164
 10
3.7894025412
 20
5.0960623954
 10
3.7932825836
 20
5.0953817234
 10
3.7971805074
 20
5.0946548596
 10
3.8010957598
 20
5.093886948
 10
3.8050420187
 20
5.0930813529
  0
LINE
  5
215
100
AcDbEntity
  8
0
100
AcDbLine
 62
7
  6
CONTINUOUS
 10
3.874721301
 20
5.3082483203
 11
3.9234715959
 21
5.490186982
  0
LINE
  5
216
100
AcDbEntity
  8
0
100
AcDbLine
 62
7
  6
CONTINUOUS
 10
3.8710617755
 20
5.294590709
 11
3.8234514922
 21
5.116906568
  0
LINE
  5
217
100
AcDbEntity
  8
0
100
AcDbLine
 62
7
  6
CONTINUOUS
 10
3.8164171774
 20
5.0906528727
 11
3.8204100032
 21
5.1055555578
  0
LINE
  5
218
100
AcDbEntity
  8
0
100
AcDbLine
 62
7
  6
CONTINUOUS
 10
3.9262910598
 20
5.5007093473
 11
3.9298967503
 21
5.5141665802
  0
LWPOLYLINE
  5
219
100
AcDbEntity
  8
0
100
AcDbPolyline
 62
7
  6
CONTINUOUS
 90
23
 70
0
 10
3.5948212551
 20
4.9962566894
 10
3.5955375189
 20
4.9966499043
 10
3.5962007485
 20
4.9970491116
 10
3.5968485288
 20
4.9974740106
 10
3.597479814
 20
4.9979239958
 10
3.598093509
 20
4.998398356
 10
3.5986886548
 20
4.9988964098
 10
3.5992643344
 20
4.999417452
 10
3.5998195712
 20
4.9999606549
 10
3.6003534942
 20
5.000525215
 10
3.6008652829
 20
5.0011103149
 10
3.601354096
 20
5.0017150405
 10
3.6018191632
 20
5.002338481
 10
3.6022597714
 20
5.0029797243
 10
3.602675224
 20
5.0036378037
 10
3.6030648718
 20
5.0043117393
 10
3.6034281012
 20
5.0050005216
 10
3.6037643298
 20
5.0057030985
 10
3.6040730269
 20
5.0064184144
 10
3.6043537032
 20
5.0071453944
 10
3.604605905
 20
5.0078829239
 10
3.6048292281
 20
5.0086298833
 10
3.6050195489
 20
5.0093692395
  0
LINE
  5
21A
100
AcDbEntity
  8
0
100
AcDbLine
 62
7
  6
CONTINUOUS
 10
3.6050173456
 20
5.0093678922
 11
3.6050198499
 21
5.0093688991
  0
LINE
  5
21B
100
AcDbEntity
  8
0
100
AcDbLine
 62
7
  6
CONTINUOUS
 10
4.5471848475
 20
6.0938589795
 11
4.6261537876
 21
6.3786117784
  0
LINE
  5
21C
100
AcDbEntity
  8
0
100
AcDbLine
 62
7
  6
CONTINUOUS
 10
4.5815900582
 20
6.0682410601
 11
4.6688390131
 21
6.3828506277
  0
LINE
  5
21D
100
AcDbEntity
  8
0
100
AcDbLine
 62
7
  6
CONTINUOUS
 10
4.5868634729
 20
6.0610625363
 11
4.6770564248
 21
6.3862878142
  0
LINE
  5
21E
100
AcDbEntity
  8
0
100
AcDbLine
 62
7
  6
CONTINUOUS
 10
6.3670245886
 20
5.3676195749
 11
6.0884370102
 21
5.2435843937
  0
LINE
  5
21F
100
AcDbEntity
  8
0
100
AcDbLine
 62
7
  6
CONTINUOUS
 10
3.4954776998
 20
4.9158826449
 11
3.0946561308
 21
5.0232824607
  0
LWPOLYLINE
  5
220
100
AcDbEntity
  8
0
100
AcDbPolyline
 62
7
  6
CONTINUOUS
 90
3
 70
0
 10
3.0463220718
 20
5.1605298643
 10
3.0463890134
 20
5.1605135246
 10
3.0465864819
 20
5.1604602441
  0
LINE
  5
221
100
AcDbEntity
  8
0
100
AcDbLine
 62
7
  6
CONTINUOUS
 10
3.0465864819
 20
5.1604602441
 11
3.0486928495
 21
5.1598747537
  0
LINE
  5
222
100
AcDbEntity
  8
0
100
AcDbLine
 62
7
  6
CONTINUOUS
 10
3.0463220718
 20
5.1605298643
 11
3.0833181685
 21
5.1501306626
  0
LINE
  5
223
100
AcDbEntity
  8
0
100
AcDbLine
 62
7
  6
CONTINUOUS
 10
3.051657601
 20
5.1590429406
 11
3.0529080111
 21
5.1586915198
  0
LWPOLYLINE
  5
224
100
AcDbEntity
  8
0
100
AcDbPolyline
 62
7
  6
CONTINUOUS
 90
61
 70
0
 10
5.2142778881
 20
4.5414206496
 10
5.2335441455
 20
4.5298061381
 10
5.2531486155
 20
4.5176970393
 10
5.2724296882
 20
4.5054846737
 10
5.2913692015
 20
4.4931786728
 10
5.309971667
 20
4.480774962
 10
5.3282635776
 20
4.4682543174
 10
5.3462365549
 20
4.4556226624
 10
5.3638707704
 20
4.4428983916
 10
5.38117478
 20
4.4300795037
 10
5.3981278731
 20
4.4171847977
 10
5.4147178997
 20
4.4042269302
 10
5.4309660071
 20
4.3911915265
 10
5.4468694479
 20
4.3780836984
 10
5.4624180446
 20
4.3649211293
 10
5.4776211538
 20
4.3517062019
 10
5.4924862009
 20
4.338442088
 10
5.5070069702
 20
4.3251438262
 10
5.5211727827
 20
4.3118312239
 10
5.5349854313
 20
4.2985128697
 10
5.5484526101
 20
4.285190888
 10
5.5615745649
 20
4.2718747063
 10
5.5743611421
 20
4.258564561
 10
5.5868232149
 20
4.2452594981
 10
5.5989630644
 20
4.2319678608
 10
5.6107959617
 20
4.2186839172
 10
5.6223242774
 20
4.2054145582
 10
5.633522693
 20
4.1921909299
 10
5.6443935549
 20
4.1790102371
 10
5.6549258972
 20
4.1658863306
 10
5.6650813742
 20
4.1528670725
 10
5.674877185
 20
4.1399281755
 10
5.6843284002
 20
4.1270493982
 10
5.6934076682
 20
4.1142730078
 10
5.7021117594
 20
4.1016135439
 10
5.7104668614
 20
4.08904377
 10
5.7184890081
 20
4.0765510988
 10
5.7261805256
 20
4.0641456693
 10
5.7335489823
 20
4.0518273323
 10
5.7406102608
 20
4.0395745985
 10
5.7473530815
 20
4.02741177
 10
5.7537740166
 20
4.0153520526
 10
5.7598993449
 20
4.0033524348
 10
5.7657281729
 20
3.9914283855
 10
5.7712611132
 20
3.9795984175
 10
5.7765257077
 20
3.9678203998
 10
5.7815234661
 20
3.9561041431
 10
5.7862533939
 20
3.9444657549
 10
5.7907349851
 20
3.9328684194
 10
5.7949672117
 20
3.9213228522
 10
5.7989498592
 20
3.9098381799
 10
5.8026991013
 20
3.8983724624
 10
5.8062131396
 20
3.886931446
 10
5.8094902328
 20
3.8755263962
 10
5.812543388
 20
3.8641235308
 10
5.8153736848
 20
3.8527257632
 10
5.8179783137
 20
3.8413510623
 10
5.8203609965
 20
3.8299877192
 10
5.8225200678
 20
3.8186451083
 10
5.8244569655
 20
3.8073218994
 10
5.8261781126
 20
3.7959882086
  0
LWPOLYLINE
  5
225
100
AcDbEntity
  8
0
100
AcDbPolyline
 62
7
  6
CONTINUOUS
 90
84
 70
0
 10
5.6877860088
 20
5.1999096711
 10
5.6872429957
 20
5.1991865732
 10
5.6859955586
 20
5.1976091865
 10
5.6846796676
 20
5.1960562816
 10
5.6832967312
 20
5.1945298263
 10
5.6818470954
 20
5.1930300021
 10
5.6803296917
 20
5.1915555246
 10
5.6787458904
 20
5.1901076281
 10
5.6770969073
 20
5.1886872126
 10
5.6753812437
 20
5.1872929031
 10
5.6736009951
 20
5.1859263774
 10
5.6717574391
 20
5.184588467
 10
5.6698476539
 20
5.1832771049
 10
5.667873057
 20
5.1819934789
 10
5.665835198
 20
5.1807385609
 10
5.6637311203
 20
5.1795103854
 10
5.6615614631
 20
5.1783091226
 10
5.659327369
 20
5.1771349492
 10
5.6570266342
 20
5.1759861217
 10
5.6546595688
 20
5.1748621012
 10
5.6522287492
 20
5.1737631228
 10
5.6497354609
 20
5.1726885872
 10
5.6471801022
 20
5.1716381653
 10
5.6445635346
 20
5.170611897
 10
5.6418871689
 20
5.1696097756
 10
5.6391522756
 20
5.1686314643
 10
5.6363591757
 20
5.1676760447
 10
5.63350806
 20
5.1667423516
 10
5.630600407
 20
5.1658296084
 10
5.6276361465
 20
5.1649382014
 10
5.6246131177
 20
5.1640689161
 10
5.6215313319
 20
5.1632232431
 10
5.6183907865
 20
5.1624026701
 10
5.6151893045
 20
5.1616081628
 10
5.611926574
 20
5.1608412332
 10
5.6086031514
 20
5.1601036045
 10
5.6052182022
 20
5.1593967001
 10
5.6017709419
 20
5.1587220101
 10
5.5982627202
 20
5.1580814581
 10
5.594696005
 20
5.1574770987
 10
5.5910711541
 20
5.1569105516
 10
5.587388719
 20
5.1563831327
 10
5.5836515354
 20
5.1558960362
 10
5.5798604007
 20
5.1554500319
 10
5.5760155428
 20
5.1550457609
 10
5.5721190514
 20
5.1546839826
 10
5.5681717434
 20
5.1543652291
 10
5.5641741916
 20
5.1540899494
 10
5.5601282221
 20
5.1538586019
 10
5.5560346826
 20
5.153671495
 10
5.5518944928
 20
5.1535288752
 10
5.547709591
 20
5.1534309195
 10
5.5434804286
 20
5.1533775587
 10
5.5392072759
 20
5.1533686049
 10
5.5348914371
 20
5.1534037765
 10
5.5305332685
 20
5.1534826917
 10
5.526133099
 20
5.1536048852
 10
5.5216922237
 20
5.1537697664
 10
5.517211437
 20
5.1539766499
 10
5.5126907568
 20
5.1542247942
 10
5.508130339
 20
5.1545133855
 10
5.5035310663
 20
5.154841975
 10
5.4988919939
 20
5.1552108289
 10
5.4942104156
 20
5.1556204074
 10
5.4894860566
 20
5.1560709729
 10
5.4847186278
 20
5.1565627539
 10
5.4799053785
 20
5.1570962243
 10
5.4750458733
 20
5.1576716109
 10
5.4701398792
 20
5.1582890768
 10
5.465184921
 20
5.158949056
 10
5.4601802962
 20
5.1596518619
 10
5.4551259176
 20
5.1603977632
 10
5.4500201984
 20
5.1611872218
 10
5.4448633055
 20
5.1620204049
 10
5.4396541486
 20
5.16289764
 10
5.4343892133
 20
5.1638196634
 10
5.4290688637
 20
5.1647865309
 10
5.4236917132
 20
5.1657985664
 10
5.4182524712
 20
5.1668568661
 10
5.4127524933
 20
5.1679612899
 10
5.4071929079
 20
5.1691116919
 10
5.4015688914
 20
5.1703091639
 10
5.3958798534
 20
5.1715539511
 10
5.3901294425
 20
5.1728453237
  0
LINE
  5
226
100
AcDbEntity
  8
0
100
AcDbLine
 62
7
  6
CONTINUOUS
 10
3.8050420187
 20
5.0930813529
 11
3.8130347375
 21
5.0913862148
  0
LINE
  5
227
100
AcDbEntity
  8
0
100
AcDbLine
 62
7
  6
CONTINUOUS
 10
3.8210276445
 20
5.1054231528
 11
3.8204100032
 21
5.1055555578
  0
LWPOLYLINE
  5
228
100
AcDbEntity
  8
0
100
AcDbPolyline
 62
7
  6
CONTINUOUS
 90
37
 70
0
 10
3.8130347375
 20
5.0913862148
 10
3.8572661622
 20
5.0816881679
 10
3.8986677004
 20
5.0722166725
 10
3.9398980624
 20
5.0623945867
 10
3.9809559151
 20
5.0522230106
 10
4.0218431635
 20
5.0417022571
 10
4.0625648937
 20
5.0308317117
 10
4.1031212602
 20
5.0196119608
 10
4.1435125666
 20
5.0080435498
 10
4.1837440182
 20
4.9961255447
 10
4.2238158778
 20
4.9838583511
 10
4.2637282324
 20
4.9712424275
 10
4.3034859188
 20
4.9582766624
 10
4.3430890021
 20
4.9449613841
 10
4.3825376669
 20
4.9312968811
 10
4.4218368269
 20
4.9172817285
 10
4.4609865378
 20
4.9029161107
 10
4.4999868883
 20
4.8882002002
 10
4.5388427358
 20
4.8731322945
 10
4.577554109
 20
4.8577124376
 10
4.6161210178
 20
4.8419406809
 10
4.6545481859
 20
4.8258150726
 10
4.6928355817
 20
4.80933553
 10
4.7309831703
 20
4.7925019719
 10
4.768995566
 20
4.775312189
 10
4.8068727255
 20
4.7577659498
 10
4.8446145202
 20
4.7398630615
 10
4.8822253329
 20
4.7216011177
 10
4.9197049618
 20
4.7029798129
 10
4.9570533354
 20
4.6839987775
 10
4.9942749277
 20
4.6646552505
 10
5.0313696047
 20
4.6449487313
 10
5.0683371192
 20
4.6248787785
 10
5.1051816705
 20
4.6044424607
 10
5.1419044741
 20
4.5836383451
 10
5.1785038188
 20
4.5624666394
 10
5.2142447169
 20
4.5413649989
  0
LINE
  5
229
100
AcDbEntity
  8
0
100
AcDbLine
 62
7
  6
CONTINUOUS
 10
5.3811620838
 20
5.1592375407
 11
5.3851169119
 21
5.1739973534
  0
LINE
  5
22A
100
AcDbEntity
  8
0
100
AcDbLine
 62
7
  6
CONTINUOUS
 10
5.3148509121
 20
4.9137776701
 11
5.2213848794
 21
4.5677444713
  0
LINE
  5
22B
100
AcDbEntity
  8
0
100
AcDbLine
 62
7
  6
CONTINUOUS
 10
5.3786727841
 20
5.1500656592
 11
5.3154957036
 21
4.9161644468
  0
LINE
  5
22C
100
AcDbEntity
  8
0
100
AcDbLine
 62
7
  6
CONTINUOUS
 10
5.2187061691
 20
4.5578249997
 11
5.2142447169
 21
4.5413649989
  0
LINE
  5
22D
100
AcDbEntity
  8
0
100
AcDbLine
 62
7
  6
CONTINUOUS
 10
5.6625815435
 20
5.8050914102
 11
5.7309616563
 21
6.0516621311
  0
LINE
  5
22E
100
AcDbEntity
  8
0
100
AcDbLine
 62
7
  6
CONTINUOUS
 10
5.6981695237
 20
5.787695207
 11
5.7704262157
 21
6.048244421
  0
LINE
  5
22F
100
AcDbEntity
  8
0
100
AcDbLine
 62
7
  6
CONTINUOUS
 10
4.5868634729
 20
6.0610625363
 11
4.5819887283
 21
6.0696786181
  0
LWPOLYLINE
  5
230
100
AcDbEntity
  8
0
100
AcDbPolyline
 62
7
  6
CONTINUOUS
 90
51
 70
0
 10
5.88679567
 20
5.9931115166
 10
5.8865351958
 20
5.992048888
 10
5.8862331909
 20
5.9909867068
 10
5.8858886193
 20
5.9899256502
 10
5.8855011836
 20
5.9888686622
 10
5.8850717318
 20
5.9878207967
 10
5.8846002365
 20
5.9867839573
 10
5.8840866413
 20
5.9857598344
 10
5.8835325353
 20
5.9847529081
 10
5.8829383877
 20
5.9837648875
 10
5.8823047034
 20
5.982797416
 10
5.8816338263
 20
5.9818545232
 10
5.8809270223
 20
5.9809380692
 10
5.8801849834
 20
5.9800490277
 10
5.879409681
 20
5.9791897593
 10
5.8786027719
 20
5.9783619279
 10
5.8777651002
 20
5.977566234
 10
5.8768975622
 20
5.9768034612
 10
5.8760014233
 20
5.9760746998
 10
5.8750780526
 20
5.9753810416
 10
5.8741284941
 20
5.9747232756
 10
5.8731539911
 20
5.9741023081
 10
5.8721561131
 20
5.973519183
 10
5.8711364293
 20
5.9729748407
 10
5.8700964334
 20
5.9724700945
 10
5.869037673
 20
5.9720057113
 10
5.8679618581
 20
5.9715824459
 10
5.8668706326
 20
5.9712009371
 10
5.8657655709
 20
5.9708617273
 10
5.8646483199
 20
5.9705653166
 10
5.8635205505
 20
5.9703121419
 10
5.8623839233
 20
5.9701025693
 10
5.8612400923
 20
5.9699368998
 10
5.8600907479
 20
5.9698153765
 10
5.8589376001
 20
5.9697381783
 10
5.8577823432
 20
5.9697054174
 10
5.8566266855
 20
5.9697171418
 10
5.8554723454
 20
5.9697733338
 10
5.8543210336
 20
5.9698739094
 10
5.8531744241
 20
5.9700187236
 10
5.8520342515
 20
5.9702075583
 10
5.8509023054
 20
5.9704401103
 10
5.849780228
 20
5.9707160312
 10
5.8486697163
 20
5.9710348923
 10
5.8475726118
 20
5.9713961387
 10
5.846490526
 20
5.9717992004
 10
5.8454250553
 20
5.9722434426
 10
5.8443779672
 20
5.9727280729
 10
5.8433507776
 20
5.9732523195
 10
5.8423449893
 20
5.9738153429
 10
5.8413622809
 20
5.9744161115
  0
LINE
  5
231
100
AcDbEntity
  8
0
100
AcDbLine
 62
7
  6
CONTINUOUS
 10
5.8070563022
 20
5.1800075971
 11
6.0734729197
 21
5.1800092283
  0
LINE
  5
232
100
AcDbEntity
  8
0
100
AcDbLine
 62
7
  6
CONTINUOUS
 10
6.1034011023
 20
5.1800092251
 11
6.4651365076
 21
5.1800092195
  0
LINE
  5
233
100
AcDbEntity
  8
0
100
AcDbLine
 62
7
  6
CONTINUOUS
 10
5.711916465
 20
5.2120843937
 11
6.4501724383
 21
5.2120843937
  0
LINE
  5
234
100
AcDbEntity
  8
0
100
AcDbLine
 62
7
  6
CONTINUOUS
 10
5.7410548116
 20
5.2435843937
 11
6.0884370102
 21
5.2435843937
  0
LWPOLYLINE
  5
235
100
AcDbEntity
  8
0
100
AcDbPolyline
 62
7
  6
CONTINUOUS
 90
10
 70
0
 10
5.3901294425
 20
5.1728453237
 10
5.2239857152
 20
5.2114451794
 10
5.0620925117
 20
5.2491247111
 10
4.9002116799
 20
5.2868561092
 10
4.7383432033
 20
5.3246393775
 10
4.5764870985
 20
5.3624745121
 10
4.4146434155
 20
5.4003615012
 10
4.2528121709
 20
5.4383003408
 10
4.0909933479
 20
5.4762910348
 10
3.9298967503
 20
5.5141665802
  0
LWPOLYLINE
  5
236
100
AcDbEntity
  8
0
100
AcDbPolyline
 62
7
  6
CONTINUOUS
 90
91
 70
0
 10
3.9298957029
 20
5.5141620678
 10
3.9088701165
 20
5.519087273
 10
3.8878756674
 20
5.5239011131
 10
3.8675671126
 20
5.528382529
 10
3.8480984543
 20
5.5324631672
 10
3.8294334279
 20
5.5361452528
 10
3.8112496922
 20
5.5394918506
 10
3.7935530199
 20
5.5425018544
 10
3.7764699314
 20
5.5451637482
 10
3.7598086542
 20
5.5475193889
 10
3.7435744198
 20
5.5495765029
 10
3.727856428
 20
5.5513346564
 10
3.7125583049
 20
5.5528135395
 10
3.6977597279
 20
5.5540131719
 10
3.6834284286
 20
5.5549464708
 10
3.669285226
 20
5.5556356405
 10
3.6553397167
 20
5.556078934
 10
3.6416112729
 20
5.5562834371
 10
3.6278284655
 20
5.5562597031
 10
3.613896421
 20
5.5560041736
 10
3.5999363137
 20
5.5555155022
 10
3.5859990607
 20
5.5547953493
 10
3.5720711152
 20
5.5538429691
 10
3.5581924134
 20
5.5526608501
 10
3.544492688
 20
5.5512632344
 10
3.5310060096
 20
5.5496601344
 10
3.5177195317
 20
5.5478563653
 10
3.5046896737
 20
5.5458665107
 10
3.4919325971
 20
5.5437018178
 10
3.4794481098
 20
5.5413709883
 10
3.4672657174
 20
5.5388884446
 10
3.4554080267
 20
5.5362685543
 10
3.4438615842
 20
5.5335179337
 10
3.4326007377
 20
5.5306387044
 10
3.4216355226
 20
5.5276409654
 10
3.4109623147
 20
5.524531186
 10
3.4005366599
 20
5.5213023575
 10
3.390353618
 20
5.5179573136
 10
3.3804252732
 20
5.514504367
 10
3.3707345089
 20
5.5109416656
 10
3.3612741006
 20
5.5072702766
 10
3.3520549143
 20
5.5034982871
 10
3.3430859804
 20
5.4996338132
 10
3.3343698163
 20
5.4956827065
 10
3.3259045517
 20
5.4916489104
 10
3.3176915953
 20
5.4875379074
 10
3.3097435247
 20
5.48336247
 10
3.3020336799
 20
5.4791171824
 10
3.2945063059
 20
5.474777866
 10
3.287160719
 20
5.4703492212
 10
3.2799823561
 20
5.4658276679
 10
3.2729007898
 20
5.461171241
 10
3.2659066983
 20
5.4563734457
 10
3.2590013154
 20
5.4514348351
 10
3.2521356732
 20
5.4463182448
 10
3.2452970467
 20
5.4410095971
 10
3.2384938266
 20
5.4355109475
 10
3.2317111913
 20
5.429805937
 10
3.2249443665
 20
5.4238856463
 10
3.218192614
 20
5.4177447411
 10
3.2114472654
 20
5.4113707887
 10
3.2047085913
 20
5.404759888
 10
3.1979667862
 20
5.397898659
 10
3.191198063
 20
5.3907582817
 10
3.1843978795
 20
5.383328871
 10
3.1775595927
 20
5.3755986754
 10
3.170658242
 20
5.3675342809
 10
3.1636602014
 20
5.3590878364
 10
3.1565995234
 20
5.3502921508
 10
3.1495555305
 20
5.3412448525
 10
3.1424994919
 20
5.3319113989
 10
3.1354572922
 20
5.3223288303
 10
3.1285932106
 20
5.3127284013
 10
3.1219539771
 20
5.303182719
 10
3.1155245846
 20
5.2936765672
 10
3.1093819509
 20
5.2843327096
 10
3.1035722019
 20
5.2752377035
 10
3.0980598967
 20
5.2663533036
 10
3.09279577
 20
5.2576120773
 10
3.0877832581
 20
5.2490292396
 10
3.0830236402
 20
5.2406171518
 10
3.0784695295
 20
5.232298525
 10
3.0741250506
 20
5.2240833506
 10
3.0699936195
 20
5.2159808169
 10
3.0660353716
 20
5.2079107139
 10
3.0622593532
 20
5.1998841036
 10
3.0586722448
 20
5.19190703
 10
3.0552422202
 20
5.183892819
 10
3.0519718651
 20
5.1758199937
 10
3.0488908636
 20
5.1677310533
 10
3.046322028
 20
5.160529751
  0
LINE
  5
237
100
AcDbEntity
  8
0
100
AcDbLine
 62
7
  6
CONTINUOUS
 10
5.5134370102
 20
2.8078343937
 11
5.5182597154
 21
2.9018362744
  0
LINE
  5
238
100
AcDbEntity
  8
0
100
AcDbLine
 62
7
  6
CONTINUOUS
 10
5.6877265129
 20
5.1993576015
 11
5.6876943474
 21
5.1989968739
  0
LINE
  5
239
100
AcDbEntity
  8
0
100
AcDbLine
 62
7
  6
CONTINUOUS
 10
5.6877851457
 20
5.1999091484
 11
5.6876943474
 21
5.1989968739
  0
LWPOLYLINE
  5
23A
100
AcDbEntity
  8
0
100
AcDbPolyline
 62
7
  6
CONTINUOUS
 90
3
 70
0
 10
5.6877836151
 20
5.1998974289
 10
5.6877735598
 20
5.1998097891
 10
5.6877538003
 20
5.1996295056
  0
LINE
  5
23B
100
AcDbEntity
  8
0
100
AcDbLine
 62
7
  6
CONTINUOUS
 10
5.8868595532
 20
5.9934009861
 11
5.8868391339
 21
5.9933069717
  0
LINE
  5
23C
100
AcDbEntity
  8
0
100
AcDbLine
 62
7
  6
CONTINUOUS
 10
5.8868391339
 20
5.9933069717
 11
5.88679567
 21
5.9931115166
  0
LINE
  5
23D
100
AcDbEntity
  8
0
100
AcDbLine
 62
7
  6
CONTINUOUS
 10
5.8261781126
 20
3.7959882086
 11
5.8276884166
 21
3.7846111921
  0
LINE
  5
23E
100
AcDbEntity
  8
0
100
AcDbLine
 62
7
  6
CONTINUOUS
 10
5.8279657022
 20
3.7824565612
 11
5.826249934
 21
3.795788832
  0
LINE
  5
23F
100
AcDbEntity
  8
0
100
AcDbLine
 62
7
  6
CONTINUOUS
 10
5.6876944275
 20
5.1989969922
 11
5.7003901956
 21
5.1903057695
  0
LWPOLYLINE
  5
240
100
AcDbEntity
  8
0
100
AcDbPolyline
 62
7
  6
CONTINUOUS
 90
3
 70
0
 10
5.8276884166
 20
3.7846111921
 10
5.8289825068
 20
3.7732446048
 10
5.8299975608
 20
3.7626470524
  0
LINE
  5
241
100
AcDbEntity
  8
0
100
AcDbLine
 62
7
  6
CONTINUOUS
 10
5.9634370102
 20
5.6685843937
 11
6.2134370102
 21
5.6685843937
  0
LINE
  5
242
100
AcDbEntity
  8
0
100
AcDbLine
 62
7
  6
CONTINUOUS
 10
5.9811676968
 20
5.710229061
 11
6.1957063237
 21
5.710229061
  0
LINE
  5
243
100
AcDbEntity
  8
0
100
AcDbLine
 62
7
  6
CONTINUOUS
 10
6.2590313179
 20
5.7429517973
 11
5.9178427026
 21
5.7429517973
  0
LINE
  5
244
100
AcDbEntity
  8
0
100
AcDbLine
 62
7
  6
CONTINUOUS
 10
6.2745233905
 20
5.7591203546
 11
5.9154269164
 21
5.7591203546
  0
LINE
  5
245
100
AcDbEntity
  8
0
100
AcDbLine
 62
7
  6
CONTINUOUS
 10
6.0735011684
 20
4.7791032351
 11
6.0734729284
 21
5.1800092252
  0
LINE
  5
246
100
AcDbEntity
  8
0
100
AcDbLine
 62
7
  6
CONTINUOUS
 10
6.0884370103
 20
5.6685843937
 11
6.0884370103
 21
5.7102290615
  0
LINE
  5
247
100
AcDbEntity
  8
0
100
AcDbLine
 62
7
  6
CONTINUOUS
 10
6.1033743591
 20
4.7790993665
 11
6.1034010909
 21
5.1800092251
  0
LINE
  5
248
100
AcDbEntity
  8
0
100
AcDbLine
 62
7
  6
CONTINUOUS
 10
6.2904646641
 20
5.9870911884
 11
6.2745233905
 21
5.7591203546
  0
LINE
  5
249
100
AcDbEntity
  8
0
100
AcDbLine
 62
7
  6
CONTINUOUS
 10
5.6660391864
 20
5.8175592676
 11
4.5868634729
 21
6.0610625363
  0
LINE
  5
24A
100
AcDbEntity
  8
0
100
AcDbLine
 62
7
  6
CONTINUOUS
 10
6.2904646641
 20
5.9870911884
 11
5.8912567942
 21
5.9870911884
  0
LINE
  5
24B
100
AcDbEntity
  8
0
100
AcDbLine
 62
7
  6
CONTINUOUS
 10
6.2758877472
 20
6.0097400891
 11
5.9009862733
 21
6.0097400891
  0
LINE
  5
24C
100
AcDbEntity
  8
0
100
AcDbLine
 62
7
  6
CONTINUOUS
 10
6.3003186536
 20
5.6171414047
 11
6.3002825979
 21
5.6174631096
  0
LINE
  5
24D
100
AcDbEntity
  8
0
100
AcDbLine
 62
7
  6
CONTINUOUS
 10
6.6634370102
 20
2.8078343937
 11
6.6586143051
 21
2.9018362744
  0
LINE
  5
24E
100
AcDbEntity
  8
0
100
AcDbLine
 62
7
  6
CONTINUOUS
 10
5.7275040129
 20
6.0391942718
 11
4.6770564248
 21
6.3862878142
  0
LINE
  5
24F
100
AcDbEntity
  8
0
100
AcDbLine
 62
7
  6
CONTINUOUS
 10
5.8413622809
 20
5.9744161115
 11
5.8411925966
 21
5.9745251772
  0
LINE
  5
250
100
AcDbEntity
  8
0
100
AcDbLine
 62
7
  6
CONTINUOUS
 10
5.8411925966
 20
5.9745251772
 11
5.8411309001
 21
5.974565234
  0
LINE
  5
251
100
AcDbEntity
  8
0
100
AcDbLine
 62
7
  6
CONTINUOUS
 10
5.8868829721
 20
5.9933762556
 11
5.8868814524
 21
5.9933778628
  0
LINE
  5
252
100
AcDbEntity
  8
0
100
AcDbLine
 62
7
  6
CONTINUOUS
 10
5.8868837474
 20
5.9933802644
 11
5.8868809134
 21
5.9933838456
  0
ARC
  5
253
100
AcDbEntity
  8
0
100
AcDbCircle
 62
7
  6
CONTINUOUS
 10
5.1481974901
 20
3.7014454914
 40
0.699426723
100
AcDbArc
 50
5.0199454453
 51
6.7189208531
  0
ARC
  5
254
100
AcDbEntity
  8
0
100
AcDbCircle
 62
7
  6
CONTINUOUS
 10
5.1835511704
 20
3.7062761347
 40
0.6488994406
100
AcDbArc
 50
4.9836569508
 51
6.7419939239
  0
ARC
  5
255
100
AcDbEntity
  8
0
100
AcDbCircle
 62
7
  6
CONTINUOUS
 10
5.3624474698
 20
3.3853582279
 40
0.5081422922
100
AcDbArc
 50
294.4635321562
 51
297.3734611762
  0
ARC
  5
256
100
AcDbEntity
  8
0
100
AcDbCircle
 62
7
  6
CONTINUOUS
 10
5.3949242937
 20
3.3491210523
 40
0.4444460172
100
AcDbArc
 50
297.5608785122
 51
298.4068494746
  0
ARC
  5
257
100
AcDbEntity
  8
0
100
AcDbCircle
 62
7
  6
CONTINUOUS
 10
5.3964426075
 20
3.3462570583
 40
0.4412046973
100
AcDbArc
 50
295.5970286577
 51
298.6041308215
  0
ARC
  5
258
100
AcDbEntity
  8
0
100
AcDbCircle
 62
7
  6
CONTINUOUS
 10
5.3981570714
 20
3.3427765657
 40
0.4373251035
100
AcDbArc
 50
295.8481924829
 51
296.3163805563
  0
ARC
  5
259
100
AcDbEntity
  8
0
100
AcDbCircle
 62
7
  6
CONTINUOUS
 10
5.4055579296
 20
3.3265885939
 40
0.4195285138
100
AcDbArc
 50
288.6145270716
 51
295.6350601511
  0
ARC
  5
25A
100
AcDbEntity
  8
0
100
AcDbCircle
 62
7
  6
CONTINUOUS
 10
6.0884371063
 20
2.9266058612
 40
0.0330848563
100
AcDbArc
 50
77.4662959128
 51
102.5340305776
  0
ARC
  5
25B
100
AcDbEntity
  8
0
100
AcDbCircle
 62
7
  6
CONTINUOUS
 10
5.5482206215
 20
2.9002989244
 40
0.0300000224
100
AcDbArc
 50
108.4526666723
 51
177.062622844
  0
ARC
  5
25C
100
AcDbEntity
  8
0
100
AcDbCircle
 62
7
  6
CONTINUOUS
 10
-69.4709627105
 20
5.67768602
 40
75.5668800009
100
AcDbArc
 50
359.6729667849
 51
359.9535959477
  0
ARC
  5
25D
100
AcDbEntity
  8
0
100
AcDbCircle
 62
7
  6
CONTINUOUS
 10
-2.0348986126
 20
4.7847176527
 40
8.1382763183
100
AcDbArc
 50
359.4948439461
 51
359.9604456571
  0
ARC
  5
25E
100
AcDbEntity
  8
0
100
AcDbCircle
 62
7
  6
CONTINUOUS
 10
0.5319041212
 20
4.6909657938
 40
5.5423013571
100
AcDbArc
 50
0.2292936977
 51
0.911126989
  0
ARC
  5
25F
100
AcDbEntity
  8
0
100
AcDbCircle
 62
7
  6
CONTINUOUS
 10
6.0484219415
 20
4.7168844965
 40
0.759534973
100
AcDbArc
 50
164.7892014308
 51
164.9757263117
  0
ARC
  5
260
100
AcDbEntity
  8
0
100
AcDbCircle
 62
7
  6
CONTINUOUS
 10
6.0884370102
 20
5.5075530559
 40
0.5360313377
100
AcDbArc
 50
69.5309671574
 51
110.4690328426
  0
ARC
  5
261
100
AcDbEntity
  8
0
100
AcDbCircle
 62
7
  6
CONTINUOUS
 10
6.0884370102
 20
5.1396123991
 40
0.3062
100
AcDbArc
 50
160.1494411375
 51
166.3092148314
  0
ARC
  5
262
100
AcDbEntity
  8
0
100
AcDbCircle
 62
7
  6
CONTINUOUS
 10
6.0884370102
 20
5.1396123991
 40
0.3062
100
AcDbArc
 50
13.6907851686
 51
42.0713251453
  0
ARC
  5
263
100
AcDbEntity
  8
0
100
AcDbCircle
 62
7
  6
CONTINUOUS
 10
5.8048266952
 20
5.5895809779
 40
0.225
100
AcDbArc
 50
86.8578612207
 51
118.2963341054
  0
ARC
  5
264
100
AcDbEntity
  8
0
100
AcDbCircle
 62
7
  6
CONTINUOUS
 10
5.9638856265
 20
6.1631289552
 40
0.225
100
AcDbArc
 50
210.7036658523
 51
236.9359167317
  0
ARC
  5
265
100
AcDbEntity
  8
0
100
AcDbCircle
 62
7
  6
CONTINUOUS
 10
2.8799509472
 20
5.0353830955
 40
0.2000000005
100
AcDbArc
 50
1.8801290261
 51
32.6296794842
  0
ARC
  5
266
100
AcDbEntity
  8
0
100
AcDbCircle
 62
7
  6
CONTINUOUS
 10
3.6874681605
 20
4.8190095103
 40
0.2000000005
100
AcDbArc
 50
117.595919316
 51
148.1198709739
  0
ARC
  5
267
100
AcDbEntity
  8
0
100
AcDbCircle
 62
7
  6
CONTINUOUS
 10
4.6695191235
 20
6.2132590943
 40
0.146
100
AcDbArc
 50
110.5776965749
 51
218.4223034251
  0
ARC
  5
268
100
AcDbEntity
  8
0
100
AcDbCircle
 62
7
  6
CONTINUOUS
 10
3.2973637215
 20
4.9875407258
 40
0.1012223861
100
AcDbArc
 50
73.3645470546
 51
73.6870237119
  0
ARC
  5
269
100
AcDbEntity
  8
0
100
AcDbCircle
 62
7
  6
CONTINUOUS
 10
5.9066124266
 20
5.6435843937
 40
0.1
100
AcDbArc
 50
41.7934061786
 51
83.5519233076
  0
ARC
  5
26A
100
AcDbEntity
  8
0
100
AcDbCircle
 62
7
  6
CONTINUOUS
 10
5.8116795967
 20
5.7144158932
 40
0.0999771287
100
AcDbArc
 50
23.0123079786
 51
86.857861221
  0
ARC
  5
26B
100
AcDbEntity
  8
0
100
AcDbCircle
 62
7
  6
CONTINUOUS
 10
5.9721684329
 20
5.6111392646
 40
0.0883716408
100
AcDbArc
 50
175.7811283245
 51
176.3159227183
  0
ARC
  5
26C
100
AcDbEntity
  8
0
100
AcDbCircle
 62
7
  6
CONTINUOUS
 10
5.7119160623
 20
5.1820843937
 40
0.03
100
AcDbArc
 50
90.0
 51
143.5460927895
  0
ARC
  5
26D
100
AcDbEntity
  8
0
100
AcDbCircle
 62
7
  6
CONTINUOUS
 10
5.7124725445
 20
5.1820847349
 40
0.0299996588
100
AcDbArc
 50
89.9998561961
 51
145.6845822675
  0
ARC
  5
26E
100
AcDbEntity
  8
0
100
AcDbCircle
 62
7
  6
CONTINUOUS
 10
5.9016139978
 20
5.6144727331
 40
0.0252014792
100
AcDbArc
 50
125.4272673158
 51
173.9210775142
  0
ARC
  5
26F
100
AcDbEntity
  8
0
100
AcDbCircle
 62
7
  6
CONTINUOUS
 10
5.9015793117
 20
5.6160655829
 40
0.025
100
AcDbArc
 50
128.3673603972
 51
174.0748068043
  0
ARC
  5
270
100
AcDbEntity
  8
0
100
AcDbCircle
 62
7
  6
CONTINUOUS
 10
5.9625288802
 20
5.6935678942
 40
0.0249999999
100
AcDbArc
 50
272.0817387426
 51
41.7934076709
  0
ARC
  5
271
100
AcDbEntity
  8
0
100
AcDbCircle
 62
7
  6
CONTINUOUS
 10
5.90143269
 20
5.6147638843
 40
0.0248601644
100
AcDbArc
 50
122.6028169135
 51
125.4757411136
  0
ARC
  5
272
100
AcDbEntity
  8
0
100
AcDbCircle
 62
7
  6
CONTINUOUS
 10
5.6866149968
 20
5.8091575818
 40
0.024375
100
AcDbArc
 50
189.6028210589
 51
298.2963341054
  0
ARC
  5
273
100
AcDbEntity
  8
0
100
AcDbCircle
 62
7
  6
CONTINUOUS
 10
5.7494681128
 20
6.0357985964
 40
0.024375
100
AcDbArc
 50
30.7036658946
 51
139.3971789411
  0
ARC
  5
274
100
AcDbEntity
  8
0
100
AcDbCircle
 62
7
  6
CONTINUOUS
 10
4.5693483479
 20
6.0877124968
 40
0.023
100
AcDbArc
 50
164.5
 51
302.1573945478
  0
ARC
  5
275
100
AcDbEntity
  8
0
100
AcDbCircle
 62
7
  6
CONTINUOUS
 10
4.648317288
 20
6.3724652958
 40
0.023
100
AcDbArc
 50
26.8426054522
 51
164.5
  0
ARC
  5
276
100
AcDbEntity
  8
0
100
AcDbCircle
 62
7
  6
CONTINUOUS
 10
5.9088545475
 20
5.9886607091
 40
0.0225
100
AcDbArc
 50
110.4690328385
 51
167.8379041344
  0
ARC
  5
277
100
AcDbEntity
  8
0
100
AcDbCircle
 62
7
  6
CONTINUOUS
 10
3.0652295417
 20
5.1540081632
 40
0.0200000347
100
AcDbArc
 50
160.9692917884
 51
212.627724971
  0
ARC
  5
278
100
AcDbEntity
  8
0
100
AcDbCircle
 62
7
  6
CONTINUOUS
 10
3.5006540113
 20
4.9352011801
 40
0.02
100
AcDbArc
 50
255.0002057424
 51
328.1199307145
  0
ARC
  5
279
100
AcDbEntity
  8
0
100
AcDbCircle
 62
7
  6
CONTINUOUS
 10
3.0998325811
 20
5.0426009586
 40
0.02
100
AcDbArc
 50
181.8800692855
 51
254.9997942576
  0
ARC
  5
27A
100
AcDbEntity
  8
0
100
AcDbCircle
 62
7
  6
CONTINUOUS
 10
5.9198080009
 20
5.7603410929
 40
0.0175
100
AcDbArc
 50
203.0123079787
 51
263.551923308
  0
ARC
  5
27B
100
AcDbEntity
  8
0
100
AcDbCircle
 62
7
  6
CONTINUOUS
 10
6.0884370117
 20
5.6190266306
 40
0.0168316655
100
AcDbArc
 50
77.73763873
 51
102.2623691638
  0
ARC
  5
27C
100
AcDbEntity
  8
0
100
AcDbCircle
 62
7
  6
CONTINUOUS
 10
5.8972692932
 20
5.6280609357
 40
0.0094267562
100
AcDbArc
 50
124.1944611905
 51
127.2003397604
  0
ARC
  5
27D
100
AcDbEntity
  8
0
100
AcDbCircle
 62
7
  6
CONTINUOUS
 10
6.8137971954
 20
3.3840662407
 40
0.5067056696
100
AcDbArc
 50
242.6225685752
 51
245.5407449009
  0
ARC
  5
27E
100
AcDbEntity
  8
0
100
AcDbCircle
 62
7
  6
CONTINUOUS
 10
6.7827857842
 20
3.3506740699
 40
0.4462097757
100
AcDbArc
 50
241.4019907975
 51
241.5961388731
  0
ARC
  5
27F
100
AcDbEntity
  8
0
100
AcDbCircle
 62
7
  6
CONTINUOUS
 10
6.7804314202
 20
3.3462570723
 40
0.4412047131
100
AcDbArc
 50
241.3958659947
 51
244.4029660926
  0
ARC
  5
280
100
AcDbEntity
  8
0
100
AcDbCircle
 62
7
  6
CONTINUOUS
 10
6.7801967668
 20
3.3457520825
 40
0.4406482807
100
AcDbArc
 50
242.4385116673
 51
243.6835600851
  0
ARC
  5
281
100
AcDbEntity
  8
0
100
AcDbCircle
 62
7
  6
CONTINUOUS
 10
6.7780726887
 20
3.341448675
 40
0.4358491751
100
AcDbArc
 50
244.1559628157
 51
244.4095203089
  0
ARC
  5
282
100
AcDbEntity
  8
0
100
AcDbCircle
 62
7
  6
CONTINUOUS
 10
6.7775366363
 20
3.3403285651
 40
0.4346074028
100
AcDbArc
 50
244.4092599485
 51
244.7577839955
  0
ARC
  5
283
100
AcDbEntity
  8
0
100
AcDbCircle
 62
7
  6
CONTINUOUS
 10
6.7713118006
 20
3.3265786363
 40
0.4195176802
100
AcDbArc
 50
244.3648775976
 51
251.3899303504
  0
ARC
  5
284
100
AcDbEntity
  8
0
100
AcDbCircle
 62
7
  6
CONTINUOUS
 10
6.7710579326
 20
3.3259020739
 40
0.4187957382
100
AcDbArc
 50
244.7178290606
 51
251.3483584888
  0
ARC
  5
285
100
AcDbEntity
  8
0
100
AcDbCircle
 62
7
  6
CONTINUOUS
 10
6.628653399
 20
2.9002989244
 40
0.0300000224
100
AcDbArc
 50
2.937377156
 51
71.5473333277
  0
ARC
  5
286
100
AcDbEntity
  8
0
100
AcDbCircle
 62
7
  6
CONTINUOUS
 10
81.7093661004
 20
5.6779277538
 40
75.6284099608
100
AcDbArc
 50
180.0465492211
 51
180.3290585919
  0
ARC
  5
287
100
AcDbEntity
  8
0
100
AcDbCircle
 62
7
  6
CONTINUOUS
 10
6.2702615939
 20
5.6435843937
 40
0.1
100
AcDbArc
 50
96.4480766924
 51
138.2065938214
  0
ARC
  5
288
100
AcDbEntity
  8
0
100
AcDbCircle
 62
7
  6
CONTINUOUS
 10
6.2152358312
 20
5.6118666012
 40
0.0778164389
100
AcDbArc
 50
3.6480919386
 51
4.2551776213
  0
ARC
  5
289
100
AcDbEntity
  8
0
100
AcDbCircle
 62
7
  6
CONTINUOUS
 10
6.4501724575
 20
5.1820843937
 40
0.03
100
AcDbArc
 50
356.0335492633
 51
90.0000367897
  0
ARC
  5
28A
100
AcDbEntity
  8
0
100
AcDbCircle
 62
7
  6
CONTINUOUS
 10
6.2752546786
 20
5.6144686678
 40
0.0252080044
100
AcDbArc
 50
8.3835066778
 51
54.5682050784
  0
ARC
  5
28B
100
AcDbEntity
  8
0
100
AcDbCircle
 62
7
  6
CONTINUOUS
 10
6.2754028124
 20
5.6145109192
 40
0.0250543192
100
AcDbArc
 50
6.7669732909
 51
8.337307017
  0
ARC
  5
28C
100
AcDbEntity
  8
0
100
AcDbCircle
 62
7
  6
CONTINUOUS
 10
6.2752947087
 20
5.6160655831
 40
0.025
100
AcDbArc
 50
5.9251927046
 51
51.6326392626
  0
ARC
  5
28D
100
AcDbEntity
  8
0
100
AcDbCircle
 62
7
  6
CONTINUOUS
 10
6.2143451403
 20
5.6935678942
 40
0.0249999999
100
AcDbArc
 50
138.2065923291
 51
267.9182612574
  0
ARC
  5
28E
100
AcDbEntity
  8
0
100
AcDbCircle
 62
7
  6
CONTINUOUS
 10
6.2754616626
 20
5.6147939807
 40
0.0248238539
100
AcDbArc
 50
54.5221750237
 51
57.3992599734
  0
ARC
  5
28F
100
AcDbEntity
  8
0
100
AcDbCircle
 62
7
  6
CONTINUOUS
 10
6.268019473
 20
5.9886607091
 40
0.0225
100
AcDbArc
 50
355.9999999994
 51
69.5309671615
  0
ARC
  5
290
100
AcDbEntity
  8
0
100
AcDbCircle
 62
7
  6
CONTINUOUS
 10
6.2570660196
 20
5.7603410929
 40
0.0175
100
AcDbArc
 50
276.448076692
 51
355.9999999996
  0
ARC
  5
291
100
AcDbEntity
  8
0
100
AcDbCircle
 62
7
  6
CONTINUOUS
 10
6.2792034908
 20
5.6274931511
 40
0.0101218942
100
AcDbArc
 50
52.7950038594
 51
55.7331903104
  0
LINE
  5
292
100
AcDbEntity
  8
0
100
AcDbLine
 62
7
  6
CONTINUOUS
 10
5.5394712638
 20
2.9290066617
 11
5.5387248659
 21
2.9287567923
  0
SPLINE
  5
293
100
AcDbEntity
  8
0
100
AcDbSpline
 62
7
  6
CONTINUOUS
 70
0
 71
3
 72
10
 73
6
 74
0
 42
0.0000001
 43
0.0000001
 44
0.0000000001
 40
0.0
 40
0.0
 40
0.0
 40
0.0
 40
0.311916927
 40
0.4955327655
 40
1.0
 40
1.0
 40
1.0
 40
1.0
 10
5.6076715726
 20
2.9589020413
 30
0.0
 10
5.6895323807
 20
3.0035302595
 30
0.0
 10
5.801379822
 20
3.1173434284
 30
0.0
 10
5.8537927784
 20
3.411681422
 30
0.0
 10
5.8429190088
 20
3.6143864005
 30
0.0
 10
5.8299975608
 20
3.7626470524
 30
0.0
  0
SPLINE
  5
294
100
AcDbEntity
  8
0
100
AcDbSpline
 62
7
  6
CONTINUOUS
 70
0
 71
3
 72
12
 73
8
 74
0
 42
0.0000001
 43
0.0000001
 44
0.0000000001
 40
0.0
 40
0.0
 40
0.0
 40
0.0
 40
0.1193974656
 40
0.1896830879
 40
0.4194633841
 40
0.6976492773
 40
1.0
 40
1.0
 40
1.0
 40
1.0
 10
6.5692023408
 20
2.9589020997
 30
0.0
 10
6.4873415784
 20
3.003530322
 30
0.0
 10
6.3754941914
 20
3.1173434685
 30
0.0
 10
6.3180592265
 20
3.4398837994
 30
0.0
 10
6.3562816109
 20
3.8849623761
 30
0.0
 10
6.4219572674
 20
4.5038355865
 30
0.0
 10
6.4639826866
 20
4.9475564097
 30
0.0
 10
6.480100599
 20
5.1800092195
 30
0.0
  0
LINE
  5
295
100
AcDbEntity
  8
0
100
AcDbLine
 62
7
  6
CONTINUOUS
 10
6.638149136
 20
2.9287567985
 11
6.6374328545
 21
2.9289965545
  0
LINE
  5
296
100
AcDbEntity
  8
0
100
AcDbLine
 62
7
  6
CONTINUOUS
 10
6.6371214366
 20
2.9291012607
 11
6.6374027566
 21
2.9290066618
  0
LINE
  5
297
100
AcDbEntity
  8
0
100
AcDbLine
 62
7
  6
CONTINUOUS
 10
6.3002337342
 20
5.617949647
 11
6.3001611469
 21
5.6186463305
  0
LINE
  5
298
100
AcDbEntity
  8
0
100
AcDbLine
 62
7
  6
CONTINUOUS
 10
6.3001611469
 20
5.6186463305
 11
6.3003186536
 21
5.6171414047
  0
LINE
  5
299
100
AcDbEntity
  8
0
100
AcDbLine
 62
7
  6
CONTINUOUS
 10
6.3003528949
 20
5.6168175388
 11
6.3003186536
 21
5.6171414047
  0
SPLINE
  5
29A
100
AcDbEntity
  8
0
100
AcDbSpline
 62
7
  6
CONTINUOUS
 70
0
 71
3
 72
9
 73
5
 74
0
 42
0.0000001
 43
0.0000001
 44
0.0000000001
 40
0.0
 40
0.0
 40
0.0
 40
0.0
 40
0.2961033548
 40
1.0
 40
1.0
 40
1.0
 40
1.0
 10
6.3670245886
 20
5.3676195749
 30
0.0
 10
6.356610185
 20
5.3908785956
 30
0.0
 10
6.325272503
 20
5.4707660377
 30
0.0
 10
6.3068824379
 20
5.5551691226
 30
0.0
 10
6.3003528949
 20
5.6168175388
 30
0.0
  0
SPLINE
  5
29B
100
AcDbEntity
  8
0
100
AcDbSpline
 62
7
  6
CONTINUOUS
 70
0
 71
3
 72
15
 73
11
 74
0
 42
0.0000001
 43
0.0000001
 44
0.0000000001
 40
0.0
 40
0.0
 40
0.0
 40
0.0
 40
0.1282237836
 40
0.2544330298
 40
0.3791575493
 40
0.5029462179
 40
0.6263603986
 40
0.7499665567
 40
0.8743285341
 40
1.0
 40
1.0
 40
1.0
 40
1.0
 10
6.2134370102
 20
5.6685843937
 30
0.0
 10
6.2170376428
 20
5.6680734964
 30
0.0
 10
6.2241535428
 20
5.6668409946
 30
0.0
 10
6.2346175563
 20
5.664330599
 30
0.0
 10
6.2447745178
 20
5.6611751107
 30
0.0
 10
6.2546232828
 20
5.6573745159
 30
0.0
 10
6.2641633068
 20
5.6529289052
 30
0.0
 10
6.2733940631
 20
5.6478384511
 30
0.0
 10
6.2823145952
 20
5.6421039155
 30
0.0
 10
6.2880176563
 20
5.6378791367
 30
0.0
 10
6.2908122421
 20
5.6356667655
 30
0.0
  0
SPLINE
  5
29C
100
AcDbEntity
  8
0
100
AcDbSpline
 62
7
  6
CONTINUOUS
 70
0
 71
3
 72
9
 73
5
 74
0
 42
0.0000001
 43
0.0000001
 44
0.0000000001
 40
0.0
 40
0.0
 40
0.0
 40
0.0
 40
0.5439078797
 40
1.0
 40
1.0
 40
1.0
 40
1.0
 10
5.7410548116
 20
5.2435843934
 30
0.0
 10
5.7823888705
 20
5.3054025198
 30
0.0
 10
5.841609805
 20
5.424908051
 30
0.0
 10
5.8699915825
 20
5.5551691227
 30
0.0
 10
5.8765211256
 20
5.6168175389
 30
0.0
  0
LINE
  5
29D
100
AcDbEntity
  8
0
100
AcDbLine
 62
7
  6
CONTINUOUS
 10
5.8765211256
 20
5.6168175389
 11
5.8765553669
 21
5.6171414051
  0
LINE
  5
29E
100
AcDbEntity
  8
0
100
AcDbLine
 62
7
  6
CONTINUOUS
 10
5.8765553669
 20
5.6171414051
 11
5.8767128736
 21
5.6186463305
  0
SPLINE
  5
29F
100
AcDbEntity
  8
0
100
AcDbSpline
 62
7
  6
CONTINUOUS
 70
0
 71
3
 72
15
 73
11
 74
0
 42
0.0000001
 43
0.0000001
 44
0.0000000001
 40
0.0
 40
0.0
 40
0.0
 40
0.0
 40
0.1282237836
 40
0.2544330298
 40
0.3791575493
 40
0.5029462179
 40
0.6263603986
 40
0.7499665567
 40
0.8743285341
 40
1.0
 40
1.0
 40
1.0
 40
1.0
 10
5.9634370102
 20
5.6685843937
 30
0.0
 10
5.9598363777
 20
5.6680734964
 30
0.0
 10
5.9527204777
 20
5.6668409946
 30
0.0
 10
5.9422564641
 20
5.664330599
 30
0.0
 10
5.9320995026
 20
5.6611751107
 30
0.0
 10
5.9222507377
 20
5.6573745159
 30
0.0
 10
5.9127107137
 20
5.6529289052
 30
0.0
 10
5.9034799574
 20
5.6478384511
 30
0.0
 10
5.8945594253
 20
5.6421039155
 30
0.0
 10
5.8888563642
 20
5.6378791367
 30
0.0
 10
5.8860617784
 20
5.6356667655
 30
0.0
  0
SPLINE
  5
2A0
100
AcDbEntity
  8
0
100
AcDbSpline
 62
7
  6
CONTINUOUS
 70
0
 71
3
 72
12
 73
8
 74
0
 42
0.0000001
 43
0.0000001
 44
0.0000000001
 40
0.0
 40
0.0
 40
0.0
 40
0.0
 40
0.2499208981
 40
0.4998887151
 40
0.6248933431
 40
0.7499129373
 40
1.0
 40
1.0
 40
1.0
 40
1.0
 10
6.0735183111
 20
4.5419069706
 30
0.0
 10
6.0736328253
 20
4.5561470162
 30
0.0
 10
6.0738160147
 20
4.5846301612
 30
0.0
 10
6.0739536374
 20
4.6202363777
 30
0.0
 10
6.0740241198
 20
4.6487258658
 30
0.0
 10
6.0740735427
 20
4.6772221927
 30
0.0
 10
6.0740904725
 20
4.6985957885
 30
0.0
 10
6.0740957939
 20
4.7128457616
 30
0.0
  0
SPLINE
  5
2A1
100
AcDbEntity
  8
0
100
AcDbSpline
 62
7
  6
CONTINUOUS
 70
0
 71
3
 72
53
 73
49
 74
0
 42
0.0000001
 43
0.0000001
 44
0.0000000001
 40
0.0
 40
0.0
 40
0.0
 40
0.0
 40
0.0312415642
 40
0.0468613914
 40
0.0624792291
 40
0.0780953956
 40
0.0937100356
 40
0.1093231147
 40
0.1249347149
 40
0.1405450109
 40
0.1561540868
 40
0.171762404
 40
0.1873699426
 40
0.2029769429
 40
0.2185836934
 40
0.2341903325
 40
0.2497970414
 40
0.2654037037
 40
0.2810106216
 40
0.2966181281
 40
0.3122260764
 40
0.3434431354
 40
0.3746641068
 40
0.39027682
 40
0.4058905265
 40
0.4371211706
 40
0.4527389636
 40
0.4683578849
 40
0.4839781975
 40
0.4996000571
 40
0.5152234241
 40
0.5308481936
 40
0.5621014158
 40
0.5777303314
 40
0.5933606099
 40
0.6246247326
 40
0.655893618
 40
0.6871665712
 40
0.7184429996
 40
0.749722405
 40
0.7810041215
 40
0.812287511
 40
0.8435721771
 40
0.8748572849
 40
0.9061430898
 40
0.9374293741
 40
0.9687155096
 40
1.0
 40
1.0
 40
1.0
 40
1.0
 10
5.8428266337
 20
3.7832954274
 30
0.0
 10
5.8418378047
 20
3.7940111465
 30
0.0
 10
5.839926387
 20
3.8100492573
 30
0.0
 10
5.8365300619
 20
3.8313023966
 30
0.0
 10
5.8335679304
 20
3.8471691658
 30
0.0
 10
5.8302017929
 20
3.862953048
 30
0.0
 10
5.8264400932
 20
3.8786456876
 30
0.0
 10
5.8222902548
 20
3.8942384881
 30
0.0
 10
5.8177610586
 20
3.9097237355
 30
0.0
 10
5.8128624928
 20
3.9250946216
 30
0.0
 10
5.8076046902
 20
3.9403450876
 30
0.0
 10
5.8020014424
 20
3.9554709287
 30
0.0
 10
5.7960664169
 20
3.9704688486
 30
0.0
 10
5.7898091367
 20
3.9853345739
 30
0.0
 10
5.7832376438
 20
4.0000637131
 30
0.0
 10
5.7763604032
 20
4.014652435
 30
0.0
 10
5.7691869478
 20
4.0290977227
 30
0.0
 10
5.7617258441
 20
4.0433966126
 30
0.0
 10
5.7539888425
 20
4.0575483339
 30
0.0
 10
5.7459893028
 20
4.071553792
 30
0.0
 10
5.7349905379
 20
4.0900344717
 30
0.0
 10
5.72064036
 20
4.1127738028
 30
0.0
 10
5.7055460265
 20
4.1350271894
 30
0.0
 10
5.6930578231
 20
4.1525418659
 30
0.0
 10
5.6803034947
 20
4.169867797
 30
0.0
 10
5.6671715713
 20
4.1869148124
 30
0.0
 10
5.6537064941
 20
4.2036985063
 30
0.0
 10
5.6434491505
 20
4.2161605363
 30
0.0
 10
5.6330396042
 20
4.2284974587
 30
0.0
 10
5.622483638
 20
4.2407113325
 30
0.0
 10
5.6117872669
 20
4.2528044905
 30
0.0
 10
5.5973436021
 20
4.2687695502
 30
0.0
 10
5.5826304851
 20
4.284491746
 30
0.0
 10
5.5676556067
 20
4.2999649545
 30
0.0
 10
5.5525066232
 20
4.3152730903
 30
0.0
 10
5.5332533632
 20
4.3340963508
 30
0.0
 10
5.5096663388
 20
4.3561837814
 30
0.0
 10
5.4856133834
 20
4.3777692704
 30
0.0
 10
5.4611097243
 20
4.3988471747
 30
0.0
 10
5.4361737847
 20
4.4194164622
 30
0.0
 10
5.4108258154
 20
4.4394795006
 30
0.0
 10
5.385086619
 20
4.4590408778
 30
0.0
 10
5.35898025
 20
4.4781112006
 30
0.0
 10
5.3325286202
 20
4.4967008983
 30
0.0
 10
5.3057516368
 20
4.5148196111
 30
0.0
 10
5.2786675703
 20
4.5324764596
 30
0.0
 10
5.2512988381
 20
4.5496874838
 30
0.0
 10
5.2328781735
 20
4.5608783645
 30
0.0
 10
5.2236280026
 20
4.5664062219
 30
0.0
  0
LINE
  5
2A2
100
AcDbEntity
  8
0
100
AcDbLine
 62
7
  6
CONTINUOUS
 10
5.2236280026
 20
4.5664062219
 11
5.2213853421
 21
4.5677441167
  0
SPLINE
  5
2A3
100
AcDbEntity
  8
0
100
AcDbSpline
 62
7
  6
CONTINUOUS
 70
0
 71
3
 72
29
 73
25
 74
0
 42
0.0000001
 43
0.0000001
 44
0.0000000001
 40
0.0
 40
0.0
 40
0.0
 40
0.0
 40
0.0735281203
 40
0.1464431574
 40
0.2185368001
 40
0.2896079217
 40
0.3594641693
 40
0.4279210656
 40
0.4948006193
 40
0.5599302614
 40
0.6231419323
 40
0.6842728887
 40
0.7140095578
 40
0.7431683306
 40
0.7717315392
 40
0.7996825108
 40
0.8270060646
 40
0.8536891379
 40
0.8797211863
 40
0.9050943075
 40
0.9298043168
 40
0.9538530734
 40
0.9772481043
 40
1.0
 40
1.0
 40
1.0
 40
1.0
 10
6.0354575914
 20
2.9483544256
 30
0.0
 10
6.0258781923
 20
2.9464639024
 30
0.0
 10
6.0067290645
 20
2.9430473213
 30
0.0
 10
5.9780068388
 20
2.9388685261
 30
0.0
 10
5.9495030213
 20
2.9355380079
 30
0.0
 10
5.9213304742
 20
2.9329550824
 30
0.0
 10
5.8935895397
 20
2.9310352249
 30
0.0
 10
5.8663713916
 20
2.9297108747
 30
0.0
 10
5.8397602377
 20
2.9289331684
 30
0.0
 10
5.8138355561
 20
2.9286722371
 30
0.0
 10
5.788674104
 20
2.9289179845
 30
0.0
 10
5.7682211576
 20
2.9295582647
 30
0.0
 10
5.7523016502
 20
2.9303521711
 30
0.0
 10
5.7407103408
 20
2.9310850028
 30
0.0
 10
5.7293671935
 20
2.9319668127
 30
0.0
 10
5.7182820408
 20
2.9330058972
 30
0.0
 10
5.7074647782
 20
2.934210899
 30
0.0
 10
5.6969254382
 20
2.935592201
 30
0.0
 10
5.6866741088
 20
2.9371606144
 30
0.0
 10
5.6767211122
 20
2.9389285491
 30
0.0
 10
5.6670767027
 20
2.9409089557
 30
0.0
 10
5.6577510485
 20
2.9431161149
 30
0.0
 10
5.6487548378
 20
2.9455644605
 30
0.0
 10
5.6429039148
 20
2.9473929208
 30
0.0
 10
5.6400396534
 20
2.9483544256
 30
0.0
  0
SPLINE
  5
2A4
100
AcDbEntity
  8
0
100
AcDbSpline
 62
7
  6
CONTINUOUS
 70
0
 71
3
 72
9
 73
5
 74
0
 42
0.0000001
 43
0.0000001
 44
0.0000000001
 40
0.0
 40
0.0
 40
0.0
 40
0.0
 40
0.5006033921
 40
1.0
 40
1.0
 40
1.0
 40
1.0
 10
6.0812570962
 20
2.9589021109
 30
0.0
 10
6.0736773532
 20
2.9568849562
 30
0.0
 10
6.0584624213
 20
2.9531285672
 30
0.0
 10
6.0431341845
 20
2.9498693772
 30
0.0
 10
6.0354575914
 20
2.9483544256
 30
0.0
  0
SPLINE
  5
2A5
100
AcDbEntity
  8
0
100
AcDbSpline
 62
7
  6
CONTINUOUS
 70
0
 71
3
 72
9
 73
5
 74
0
 42
0.0000001
 43
0.0000001
 44
0.0000000001
 40
0.0
 40
0.0
 40
0.0
 40
0.0
 40
0.5003356223
 40
1.0
 40
1.0
 40
1.0
 40
1.0
 10
6.0884370125
 20
2.9341133894
 30
0.0
 10
6.0803166652
 20
2.9319613846
 30
0.0
 10
6.0640096328
 20
2.927947572
 30
0.0
 10
6.0475832357
 20
2.9244584468
 30
0.0
 10
6.0393525377
 20
2.9228343937
 30
0.0
  0
SPLINE
  5
2A6
100
AcDbEntity
  8
0
100
AcDbSpline
 62
7
  6
CONTINUOUS
 70
0
 71
3
 72
33
 73
29
 74
0
 42
0.0000001
 43
0.0000001
 44
0.0000000001
 40
0.0
 40
0.0
 40
0.0
 40
0.0
 40
0.0316554049
 40
0.0633206818
 40
0.0949892741
 40
0.1266588077
 40
0.1583285512
 40
0.1899983118
 40
0.221667961
 40
0.2533372662
 40
0.2850057034
 40
0.316672486
 40
0.3799958182
 40
0.4432921989
 40
0.5065377144
 40
0.5696969027
 40
0.6012281349
 40
0.6327166853
 40
0.664151303
 40
0.6955202482
 40
0.757997279
 40
0.8199865979
 40
0.8507282968
 40
0.8812504619
 40
0.9115052245
 40
0.9414328555
 40
0.9709612362
 40
1.0
 40
1.0
 40
1.0
 40
1.0
 10
5.3154957013
 20
4.9161644876
 30
0.0
 10
5.3234920706
 20
4.9139757668
 30
0.0
 10
5.3395084968
 20
4.9096748755
 30
0.0
 10
5.3635822939
 20
4.9034017531
 30
0.0
 10
5.3876947364
 20
4.8972640282
 30
0.0
 10
5.4118343963
 20
4.8912296166
 30
0.0
 10
5.4359935939
 20
4.8852727278
 30
0.0
 10
5.4601667801
 20
4.8793727987
 30
0.0
 10
5.4843495657
 20
4.8735128646
 30
0.0
 10
5.508538193
 20
4.8676785888
 30
0.0
 10
5.5327293598
 20
4.8618580684
 30
0.0
 10
5.5649814314
 20
4.8541015117
 30
0.0
 10
5.6052829424
 20
4.8443904281
 30
0.0
 10
5.6536014914
 20
4.8326456367
 30
0.0
 10
5.701839805
 20
4.8207536471
 30
0.0
 10
5.7419557027
 20
4.8106717441
 30
0.0
 10
5.773969388
 20
4.8024759832
 30
0.0
 10
5.797913754
 20
4.796262142
 30
0.0
 10
5.8217938699
 20
4.7899705265
 30
0.0
 10
5.8534874409
 20
4.7814810743
 30
0.0
 10
5.8928378983
 20
4.7706505086
 30
0.0
 10
5.9319041547
 20
4.7594143034
 30
0.0
 10
5.9628273311
 20
4.7501534754
 30
0.0
 10
5.9857312041
 20
4.7430880145
 30
0.0
 10
6.0083652124
 20
4.7358742696
 30
0.0
 10
6.0306746702
 20
4.7285032069
 30
0.0
 10
6.0525920092
 20
4.7209656309
 30
0.0
 10
6.0670267126
 20
4.7157758087
 30
0.0
 10
6.0741626365
 20
4.7131456427
 30
0.0
  0
SPLINE
  5
2A7
100
AcDbEntity
  8
0
100
AcDbSpline
 62
7
  6
CONTINUOUS
 70
0
 71
3
 72
42
 73
38
 74
0
 42
0.0000001
 43
0.0000001
 44
0.0000000001
 40
0.0
 40
0.0
 40
0.0
 40
0.0
 40
0.0630677917
 40
0.0945127237
 40
0.125865263
 40
0.1571125217
 40
0.1882553767
 40
0.2193050087
 40
0.2502828402
 40
0.2812121436
 40
0.3121173524
 40
0.3430191672
 40
0.3739324454
 40
0.404870692
 40
0.4358436944
 40
0.497922164
 40
0.5601972768
 40
0.5914109801
 40
0.6226695101
 40
0.65396837
 40
0.6853028486
 40
0.7166653825
 40
0.7323559553
 40
0.7480515877
 40
0.7637518785
 40
0.779456398
 40
0.7951660808
 40
0.8108827169
 40
0.84233365
 40
0.8580733728
 40
0.8738213754
 40
0.905335399
 40
0.9368734311
 40
0.9526529379
 40
0.9684345111
 40
0.9842182146
 40
1.0
 40
1.0
 40
1.0
 40
1.0
 10
5.3786727069
 20
5.1500655914
 30
0.0
 10
5.3856419574
 20
5.1484587319
 30
0.0
 10
5.3961128704
 20
5.1461654198
 30
0.0
 10
5.4101010605
 20
5.1433249286
 30
0.0
 10
5.4205738213
 20
5.1413081303
 30
0.0
 10
5.4310335263
 20
5.1394078217
 30
0.0
 10
5.4414800298
 20
5.1376305369
 30
0.0
 10
5.4519171916
 20
5.1359848624
 30
0.0
 10
5.4623517099
 20
5.134483651
 30
0.0
 10
5.4727913124
 20
5.1331404526
 30
0.0
 10
5.483243274
 20
5.1319714779
 30
0.0
 10
5.493712867
 20
5.1309910763
 30
0.0
 10
5.5042030755
 20
5.1302107648
 30
0.0
 10
5.5147153358
 20
5.1296447617
 30
0.0
 10
5.5287704799
 20
5.1292100592
 30
0.0
 10
5.5463935138
 20
5.129330645
 30
0.0
 10
5.564010081
 20
5.130488142
 30
0.0
 10
5.5780651656
 20
5.132117168
 30
0.0
 10
5.5885812891
 20
5.1337115417
 30
0.0
 10
5.5990453088
 20
5.1356940039
 30
0.0
 10
5.6094375457
 20
5.1380772128
 30
0.0
 10
5.6180215479
 20
5.140396595
 30
0.0
 10
5.6248343058
 20
5.1424527854
 30
0.0
 10
5.6299153315
 20
5.1440959619
 30
0.0
 10
5.6349645535
 20
5.1458392956
 30
0.0
 10
5.63997724
 20
5.147689821
 30
0.0
 10
5.6449478217
 20
5.1496560989
 30
0.0
 10
5.6515116891
 20
5.1524428653
 30
0.0
 10
5.6579628047
 20
5.1555005212
 30
0.0
 10
5.6642545877
 20
5.1588732897
 30
0.0
 10
5.6704255232
 20
5.1624767033
 30
0.0
 10
5.6778700618
 20
5.167439739
 30
0.0
 10
5.6848374404
 20
5.1730656913
 30
0.0
 10
5.690044282
 20
5.1779783098
 30
0.0
 10
5.693745125
 20
5.1818721553
 30
0.0
 10
5.69721619
 20
5.1859724595
 30
0.0
 10
5.6993626464
 20
5.1888404553
 30
0.0
 10
5.7003901773
 20
5.1903057976
 30
0.0
  0
SPLINE
  5
2A8
100
AcDbEntity
  8
0
100
AcDbSpline
 62
7
  6
CONTINUOUS
 70
0
 71
3
 72
12
 73
8
 74
0
 42
0.0000001
 43
0.0000001
 44
0.0000000001
 40
0.0
 40
0.0
 40
0.0
 40
0.0
 40
0.2525068009
 40
0.503943922
 40
0.628988162
 40
0.7534303032
 40
1.0
 40
1.0
 40
1.0
 40
1.0
 10
5.7003901773
 20
5.1903057976
 30
0.0
 10
5.7093773561
 20
5.1895249671
 30
0.0
 10
5.7273121556
 20
5.1879493412
 30
0.0
 10
5.7496890193
 20
5.1858914884
 30
0.0
 10
5.7675018231
 20
5.184167977
 30
0.0
 10
5.7851350301
 20
5.1823954707
 30
0.0
 10
5.7983149962
 20
5.1809869689
 30
0.0
 10
5.807068645
 20
5.1800016643
 30
0.0
  0
SPLINE
  5
2A9
100
AcDbEntity
  8
0
100
AcDbSpline
 62
7
  6
CONTINUOUS
 70
0
 71
3
 72
45
 73
41
 74
0
 42
0.0000001
 43
0.0000001
 44
0.0000000001
 40
0.0
 40
0.0
 40
0.0
 40
0.0
 40
0.062894224
 40
0.094276281
 40
0.1255937998
 40
0.15684108
 40
0.1880185488
 40
0.2191360003
 40
0.2502048367
 40
0.2812379038
 40
0.3122497035
 40
0.343255752
 40
0.3742683933
 40
0.4052945221
 40
0.4208153315
 40
0.4363425955
 40
0.4674174176
 40
0.4985235615
 40
0.5608422484
 40
0.5920601142
 40
0.6233120488
 40
0.6545963024
 40
0.6859091543
 40
0.7172457376
 40
0.7329220005
 40
0.7486021368
 40
0.7642854867
 40
0.7799716572
 40
0.795660818
 40
0.8113530091
 40
0.827047857
 40
0.8427474941
 40
0.8741590367
 40
0.8898768998
 40
0.9056003509
 40
0.9370547151
 40
0.9527914774
 40
0.9685283533
 40
0.984265529
 40
1.0
 40
1.0
 40
1.0
 40
1.0
 10
5.3811620715
 20
5.1592374829
 30
0.0
 10
5.3877598488
 20
5.1576928195
 30
0.0
 10
5.3976777105
 20
5.155494165
 30
0.0
 10
5.4109430756
 20
5.1528227137
 30
0.0
 10
5.420892498
 20
5.150960843
 30
0.0
 10
5.4308463571
 20
5.1492482942
 30
0.0
 10
5.4408041356
 20
5.1476924623
 30
0.0
 10
5.4507663855
 20
5.1462978826
 30
0.0
 10
5.4607347983
 20
5.1450691172
 30
0.0
 10
5.4707114004
 20
5.1440114118
 30
0.0
 10
5.4806984595
 20
5.1431310585
 30
0.0
 10
5.4906978082
 20
5.1424338224
 30
0.0
 10
5.5007101948
 20
5.1419269658
 30
0.0
 10
5.5090631743
 20
5.1416721909
 30
0.0
 10
5.5157504045
 20
5.1415740318
 30
0.0
 10
5.5224435291
 20
5.1415479003
 30
0.0
 10
5.5308159853
 20
5.1416569538
 30
0.0
 10
5.544220861
 20
5.1421633473
 30
0.0
 10
5.5576176031
 20
5.1432126852
 30
0.0
 10
5.5709612486
 20
5.1448720717
 30
0.0
 10
5.5809415537
 20
5.1464414977
 30
0.0
 10
5.5908721885
 20
5.148355006
 30
0.0
 10
5.6007371336
 20
5.1506240423
 30
0.0
 10
5.6088878513
 20
5.1528182161
 30
0.0
 10
5.6153586968
 20
5.1547562098
 30
0.0
 10
5.6201858739
 20
5.1563010254
 30
0.0
 10
5.6249840273
 20
5.1579370586
 30
0.0
 10
5.629750201
 20
5.1596669737
 30
0.0
 10
5.6344814697
 20
5.1614928879
 30
0.0
 10
5.6391743018
 20
5.163418018
 30
0.0
 10
5.6438209802
 20
5.1654553943
 30
0.0
 10
5.6499440875
 20
5.1683367231
 30
0.0
 10
5.6559394529
 20
5.1714923335
 30
0.0
 10
5.6617486056
 20
5.1749756926
 30
0.0
 10
5.6674104604
 20
5.1787013065
 30
0.0
 10
5.67281107
 20
5.1828208604
 30
0.0
 10
5.6778438634
 20
5.1873684681
 30
0.0
 10
5.6814063312
 20
5.1910040607
 30
0.0
 10
5.6847196214
 20
5.1948680272
 30
0.0
 10
5.6867387267
 20
5.197596672
 30
0.0
 10
5.6876943474
 20
5.1989968739
 30
0.0
  0
SPLINE
  5
2AA
100
AcDbEntity
  8
0
100
AcDbSpline
 62
7
  6
CONTINUOUS
 70
0
 71
3
 72
9
 73
5
 74
0
 42
0.0000001
 43
0.0000001
 44
0.0000000001
 40
0.0
 40
0.0
 40
0.0
 40
0.0
 40
0.4996643679
 40
1.0
 40
1.0
 40
1.0
 40
1.0
 10
6.1375214828
 20
2.9228343937
 30
0.0
 10
6.1292907853
 20
2.9244584445
 30
0.0
 10
6.1128643904
 20
2.9279475754
 30
0.0
 10
6.0965573651
 20
2.9319614064
 30
0.0
 10
6.0884370125
 20
2.9341133894
 30
0.0
  0
LINE
  5
2AB
100
AcDbEntity
  8
0
100
AcDbLine
 62
7
  6
CONTINUOUS
 10
5.3811620911
 20
5.1592374782
 11
5.3786724273
 21
5.1500656609
  0
LINE
  5
2AC
100
AcDbEntity
  8
0
100
AcDbLine
 62
7
  6
CONTINUOUS
 10
3.9262911031
 20
5.5007093371
 11
3.9234715961
 21
5.490186982
  0
LINE
  5
2AD
100
AcDbEntity
  8
0
100
AcDbLine
 62
7
  6
CONTINUOUS
 10
3.8747212281
 20
5.3082483398
 11
3.8710617147
 21
5.2945907253
  0
SPLINE
  5
2AE
100
AcDbEntity
  8
0
100
AcDbSpline
 62
7
  6
CONTINUOUS
 70
0
 71
3
 72
15
 73
11
 74
0
 42
0.0000001
 43
0.0000001
 44
0.0000000001
 40
0.0
 40
0.0
 40
0.0
 40
0.0
 40
0.1461647045
 40
0.2848302379
 40
0.4164119635
 40
0.5416137109
 40
0.6613587388
 40
0.7767794231
 40
0.8891868091
 40
1.0
 40
1.0
 40
1.0
 40
1.0
 10
5.6148514945
 20
2.9589020403
 30
0.0
 10
5.6145138685
 20
2.9590293467
 30
0.0
 10
5.6138468348
 20
2.9592542957
 30
0.0
 10
5.6128483701
 20
2.9595037953
 30
0.0
 10
5.611882439
 20
2.9596549306
 30
0.0
 10
5.6109526925
 20
2.959706978
 30
0.0
 10
5.610062422
 20
2.9596593044
 30
0.0
 10
5.6092149281
 20
2.9595117588
 30
0.0
 10
5.6084140136
 20
2.9592644437
 30
0.0
 10
5.6079117898
 20
2.9590329921
 30
0.0
 10
5.6076716048
 20
2.9589020499
 30
0.0
  0
LINE
  5
2AF
100
AcDbEntity
  8
0
100
AcDbLine
 62
7
  6
CONTINUOUS
 10
3.1091698245
 20
5.0340867806
 11
3.0798432786
 21
5.0419448061
  0
SPLINE
  5
2B0
100
AcDbEntity
  8
0
100
AcDbSpline
 62
7
  6
CONTINUOUS
 70
0
 71
3
 72
28
 73
24
 74
0
 42
0.0000001
 43
0.0000001
 44
0.0000000001
 40
0.0
 40
0.0
 40
0.0
 40
0.0
 40
0.0016490361
 40
0.0034604248
 40
0.0055584758
 40
0.0080242008
 40
0.0142331275
 40
0.0223121084
 40
0.0323482589
 40
0.0443784692
 40
0.0584184859
 40
0.0744726182
 40
0.0925342918
 40
0.1125916582
 40
0.1586318251
 40
0.2124298909
 40
0.273780001
 40
0.3424317221
 40
0.4181060099
 40
0.5004875062
 40
0.5892321851
 40
0.7842864954
 40
1.0
 40
1.0
 40
1.0
 40
1.0
 10
5.8299974627
 20
3.7626470578
 30
0.0
 10
5.82999818
 20
3.7626388269
 30
0.0
 10
5.8300026762
 20
3.7626217179
 30
0.0
 10
5.8300176242
 20
3.762597858
 30
0.0
 10
5.8300403557
 20
3.7625751402
 30
0.0
 10
5.8300843954
 20
3.762543648
 30
0.0
 10
5.8301609112
 20
3.7625078531
 30
0.0
 10
5.8302769267
 20
3.7624702204
 30
0.0
 10
5.8304240065
 20
3.7624352769
 30
0.0
 10
5.8306020707
 20
3.7624030859
 30
0.0
 10
5.8308111214
 20
3.7623737647
 30
0.0
 10
5.831050973
 20
3.7623473923
 30
0.0
 10
5.8313214041
 20
3.7623240156
 30
0.0
 10
5.8317421212
 20
3.7622956005
 30
0.0
 10
5.8323423305
 20
3.7622693759
 30
0.0
 10
5.8331497566
 20
3.7622513322
 30
0.0
 10
5.8340706519
 20
3.7622457768
 30
0.0
 10
5.835101133
 20
3.7622527616
 30
0.0
 10
5.8362368364
 20
3.7622723408
 30
0.0
 10
5.837472958
 20
3.7623044457
 30
0.0
 10
5.839306591
 20
3.7623658118
 30
0.0
 10
5.8418069632
 20
3.7624744312
 30
0.0
 10
5.8438620767
 20
3.7625846962
 30
0.0
 10
5.8449410476
 20
3.7626470754
 30
0.0
  0
SPLINE
  5
2B1
100
AcDbEntity
  8
0
100
AcDbSpline
 62
7
  6
CONTINUOUS
 70
0
 71
3
 72
21
 73
17
 74
0
 42
0.0000001
 43
0.0000001
 44
0.0000000001
 40
0.0
 40
0.0
 40
0.0
 40
0.0
 40
0.0401490122
 40
0.0844096275
 40
0.1325499502
 40
0.1843426163
 40
0.2395606978
 40
0.2979777103
 40
0.3593671281
 40
0.4234922496
 40
0.4900903807
 40
0.5588617178
 40
0.6294914679
 40
0.701675488
 40
0.8495170388
 40
1.0
 40
1.0
 40
1.0
 40
1.0
 10
3.0848319899
 20
5.1337794685
 30
0.0
 10
3.0880000956
 20
5.1329053913
 30
0.0
 10
3.0946619899
 20
5.131072224
 30
0.0
 10
3.1051259228
 20
5.1282031894
 30
0.0
 10
3.1165114321
 20
5.1250908495
 30
0.0
 10
3.1287646901
 20
5.1217513367
 30
0.0
 10
3.1418321015
 20
5.1181999522
 30
0.0
 10
3.15566053
 20
5.1144534322
 30
0.0
 10
3.1701953379
 20
5.1105260346
 30
0.0
 10
3.1853803384
 20
5.1064376512
 30
0.0
 10
3.2011529726
 20
5.1022076207
 30
0.0
 10
3.2174435791
 20
5.0978534772
 30
0.0
 10
3.2341802297
 20
5.0933974076
 30
0.0
 10
3.2571779141
 20
5.0873004773
 30
0.0
 10
3.286506606
 20
5.0795766276
 30
0.0
 10
3.3101367658
 20
5.0734163034
 30
0.0
 10
3.3220611413
 20
5.0703269633
 30
0.0
  0
SPLINE
  5
2B2
100
AcDbEntity
  8
0
100
AcDbSpline
 62
7
  6
CONTINUOUS
 70
0
 71
3
 72
29
 73
25
 74
0
 42
0.0000001
 43
0.0000001
 44
0.0000000001
 40
0.0
 40
0.0
 40
0.0
 40
0.0
 40
0.0011791911
 40
0.0025808277
 40
0.004342266
 40
0.0065338693
 40
0.009191756
 40
0.012335762
 40
0.0201227659
 40
0.0299447425
 40
0.0418160474
 40
0.0557391697
 40
0.071710047
 40
0.0897164772
 40
0.109742669
 40
0.1557824432
 40
0.2096497435
 40
0.2711290245
 40
0.3399632536
 40
0.4158686133
 40
0.49852605
 40
0.5875885375
 40
0.7833945576
 40
1.0
 40
1.0
 40
1.0
 40
1.0
 10
5.8279657022
 20
3.7824565612
 30
0.0
 10
5.8279664283
 20
3.7824507365
 30
0.0
 10
5.8279713236
 20
3.782438329
 30
0.0
 10
5.8279865482
 20
3.7824225414
 30
0.0
 10
5.8280091075
 20
3.7824080851
 30
0.0
 10
5.828039232
 20
3.7823946403
 30
0.0
 10
5.8280770398
 20
3.782382099
 30
0.0
 10
5.8281426278
 20
3.7823653877
 30
0.0
 10
5.8282445878
 20
3.7823479716
 30
0.0
 10
5.8283904678
 20
3.7823317236
 30
0.0
 10
5.8285673545
 20
3.7823191633
 30
0.0
 10
5.828775085
 20
3.7823103258
 30
0.0
 10
5.8290134868
 20
3.7823052887
 30
0.0
 10
5.8292823139
 20
3.782304068
 30
0.0
 10
5.8297008058
 20
3.7823077543
 30
0.0
 10
5.8302976559
 20
3.7823230688
 30
0.0
 10
5.8311003638
 20
3.7823557581
 30
0.0
 10
5.8320159531
 20
3.7824035913
 30
0.0
 10
5.8330405644
 20
3.7824663867
 30
0.0
 10
5.8341698575
 20
3.7825439377
 30
0.0
 10
5.8353990641
 20
3.7826359263
 30
0.0
 10
5.8372227091
 20
3.782782045
 30
0.0
 10
5.8397095642
 20
3.7829988046
 30
0.0
 10
5.8417534156
 20
3.7831916666
 30
0.0
 10
5.842826574
 20
3.7832960773
 30
0.0
  0
LINE
  5
2B3
100
AcDbEntity
  8
0
100
AcDbLine
 62
7
  6
CONTINUOUS
 10
5.2164585224
 20
4.5591594611
 11
5.2213867461
 21
4.5677464779
  0
LINE
  5
2B4
100
AcDbEntity
  8
0
100
AcDbLine
 62
7
  6
CONTINUOUS
 10
3.5679807894
 20
5.0168845719
 11
3.5690552992
 21
5.0166179499
  0
LINE
  5
2B5
100
AcDbEntity
  8
0
100
AcDbLine
 62
7
  6
CONTINUOUS
 10
3.8204097746
 20
5.1055552487
 11
3.822833624
 21
5.1170398883
  0
SPLINE
  5
2B6
100
AcDbEntity
  8
0
100
AcDbSpline
 62
7
  6
CONTINUOUS
 70
0
 71
3
 72
9
 73
5
 74
0
 42
0.0000001
 43
0.0000001
 44
0.0000000001
 40
0.0
 40
0.0
 40
0.0
 40
0.0
 40
0.4888349908
 40
1.0
 40
1.0
 40
1.0
 40
1.0
 10
6.5807885718
 20
2.9341133354
 30
0.0
 10
6.5767431706
 20
2.9319169983
 30
0.0
 10
6.5682503973
 20
2.9278171683
 30
0.0
 10
6.5594585705
 20
2.9244184662
 30
0.0
 10
6.5549132496
 20
2.9228343937
 30
0.0
  0
LINE
  5
2B7
100
AcDbEntity
  8
0
100
AcDbLine
 62
7
  6
CONTINUOUS
 10
3.2987400587
 20
4.9832915895
 11
3.1091698245
 21
5.0340867806
  0
SPLINE
  5
2B8
100
AcDbEntity
  8
0
100
AcDbSpline
 62
7
  6
CONTINUOUS
 70
0
 71
3
 72
25
 73
21
 74
0
 42
0.0000001
 43
0.0000001
 44
0.0000000001
 40
0.0
 40
0.0
 40
0.0
 40
0.0
 40
0.0751148484
 40
0.1498725018
 40
0.2239589413
 40
0.2970713502
 40
0.3689111641
 40
0.4391822588
 40
0.5075882162
 40
0.5738279021
 40
0.637616748
 40
0.6987189643
 40
0.7569381916
 40
0.8120980915
 40
0.8640502833
 40
0.9126880217
 40
0.9357513846
 40
0.9579762849
 40
0.9793712021
 40
1.0
 40
1.0
 40
1.0
 40
1.0
 10
3.3220618773
 20
5.07032971
 30
0.0
 10
3.3280167374
 20
5.0686939068
 30
0.0
 10
3.3398996948
 20
5.0654357401
 30
0.0
 10
3.3576568957
 20
5.0605674947
 30
0.0
 10
3.3752566227
 20
5.0557475006
 30
0.0
 10
3.3926267163
 20
5.0509972006
 30
0.0
 10
3.4096963626
 20
5.0463373842
 30
0.0
 10
3.426395479
 20
5.041789533
 30
0.0
 10
3.4426539697
 20
5.0373759012
 30
0.0
 10
3.4584029416
 20
5.0331195846
 30
0.0
 10
3.4735783528
 20
5.0290425881
 30
0.0
 10
3.4881246688
 20
5.0251654767
 30
0.0
 10
3.5019954133
 20
5.0215084337
 30
0.0
 10
3.5151516899
 20
5.0180924803
 30
0.0
 10
3.5275629361
 20
5.0149422353
 30
0.0
 10
3.5374368057
 20
5.0125219101
 30
0.0
 10
3.5449545427
 20
5.0107573487
 30
0.0
 10
3.5503020735
 20
5.0095490796
 30
0.0
 10
3.5554660724
 20
5.0084378444
 30
0.0
 10
3.558853654
 20
5.0077581435
 30
0.0
 10
3.5605195011
 20
5.0074399436
 30
0.0
  0
SPLINE
  5
2B9
100
AcDbEntity
  8
0
100
AcDbSpline
 62
7
  6
CONTINUOUS
 70
0
 71
3
 72
13
 73
9
 74
0
 42
0.0000001
 43
0.0000001
 44
0.0000000001
 40
0.0
 40
0.0
 40
0.0
 40
0.0
 40
0.1212371344
 40
0.2436588303
 40
0.3672390406
 40
0.4919310832
 40
0.7442445992
 40
1.0
 40
1.0
 40
1.0
 40
1.0
 10
3.5605195011
 20
5.0074399436
 30
0.0
 10
3.5568721263
 20
5.0052580289
 30
0.0
 10
3.5496910201
 20
5.0006179823
 30
0.0
 10
3.5393659726
 20
4.992912732
 30
0.0
 10
3.5294802202
 20
4.9844626117
 30
0.0
 10
3.5169009671
 20
4.972211251
 30
0.0
 10
3.5025271589
 20
4.9552351434
 30
0.0
 10
3.4927559362
 20
4.9402826468
 30
0.0
 10
3.4883104626
 20
4.9324963528
 30
0.0
  0
LINE
  5
2BA
100
AcDbEntity
  8
0
100
AcDbLine
 62
7
  6
CONTINUOUS
 10
3.4883104626
 20
4.9324963528
 11
3.2987400587
 21
4.9832915895
  0
SPLINE
  5
2BB
100
AcDbEntity
  8
0
100
AcDbSpline
 62
7
  6
CONTINUOUS
 70
0
 71
3
 72
37
 73
33
 74
0
 42
0.0000001
 43
0.0000001
 44
0.0000000001
 40
0.0
 40
0.0
 40
0.0
 40
0.0
 40
0.1179393246
 40
0.2287026289
 40
0.3322450106
 40
0.4285361401
 40
0.5175457263
 40
0.5992315504
 40
0.6735467418
 40
0.740436728
 40
0.7998432998
 40
0.826719851
 40
0.8517006087
 40
0.8747768568
 40
0.8959385953
 40
0.9151754355
 40
0.9324770138
 40
0.9478329322
 40
0.9612324593
 40
0.9726648259
 40
0.9776400148
 40
0.9821194658
 40
0.9861019045
 40
0.989586043
 40
0.9925706524
 40
0.9950546566
 40
0.9970372879
 40
0.998518509
 40
0.9990716973
 40
0.9995008699
 40
0.9998081285
 40
1.0
 40
1.0
 40
1.0
 40
1.0
 10
3.5605132864
 20
5.0074362258
 30
0.0
 10
3.5618593908
 20
5.0069879446
 30
0.0
 10
3.5644694385
 20
5.0061178852
 30
0.0
 10
3.568260736
 20
5.0048526637
 30
0.0
 10
3.571805009
 20
5.0036698997
 30
0.0
 10
3.5751013955
 20
5.0025710203
 30
0.0
 10
3.578149063
 20
5.0015574424
 30
0.0
 10
3.5809468993
 20
5.0006303808
 30
0.0
 10
3.583493516
 20
4.9997911565
 30
0.0
 10
3.585787106
 20
4.9990404519
 30
0.0
 10
3.5875397911
 20
4.9984717417
 30
0.0
 10
3.5888139487
 20
4.9980617941
 30
0.0
 10
3.5896725669
 20
4.997787274
 30
0.0
 10
3.5904662325
 20
4.9975353533
 30
0.0
 10
3.591194583
 20
4.9973060606
 30
0.0
 10
3.5918572341
 20
4.9970994236
 30
0.0
 10
3.592453796
 20
4.996915471
 30
0.0
 10
3.5929838737
 20
4.9967542314
 30
0.0
 10
3.5934470554
 20
4.9966157053
 30
0.0
 10
3.5937911981
 20
4.9965149932
 30
0.0
 10
3.5940327944
 20
4.9964459542
 30
0.0
 10
3.5941884365
 20
4.9964023077
 30
0.0
 10
3.5943270393
 20
4.9963643395
 30
0.0
 10
3.594448548
 20
4.9963320427
 30
0.0
 10
3.5945529044
 20
4.9963054132
 30
0.0
 10
3.5946400562
 20
4.9962844174
 30
0.0
 10
3.5947099366
 20
4.9962690656
 30
0.0
 10
3.5947574619
 20
4.9962601177
 30
0.0
 10
3.5947868142
 20
4.9962561188
 30
0.0
 10
3.5948023187
 20
4.9962547813
 30
0.0
 10
3.594813422
 20
4.9962548024
 30
0.0
 10
3.5948195318
 20
4.9962557551
 30
0.0
 10
3.5948215768
 20
4.9962568255
 30
0.0
  0
SPLINE
  5
2BC
100
AcDbEntity
  8
0
100
AcDbSpline
 62
7
  6
CONTINUOUS
 70
0
 71
3
 72
15
 73
11
 74
0
 42
0.0000001
 43
0.0000001
 44
0.0000000001
 40
0.0
 40
0.0
 40
0.0
 40
0.0
 40
0.110819073
 40
0.2232340639
 40
0.3386560293
 40
0.4584003351
 40
0.5836035199
 40
0.715183483
 40
0.8538408578
 40
1.0
 40
1.0
 40
1.0
 40
1.0
 10
6.5692022686
 20
2.958901971
 30
0.0
 10
6.5689620694
 20
2.9590329206
 30
0.0
 10
6.5684598125
 20
2.9592643862
 30
0.0
 10
6.567658863
 20
2.9595117264
 30
0.0
 10
6.566811344
 20
2.9596592768
 30
0.0
 10
6.5659210637
 20
2.9597069407
 30
0.0
 10
6.5649913148
 20
2.9596549026
 30
0.0
 10
6.5640253985
 20
2.9595037642
 30
0.0
 10
6.5630269824
 20
2.9592542
 30
0.0
 10
6.562359992
 20
2.959029222
 30
0.0
 10
6.5620223781
 20
2.958901917
 30
0.0
  0
SPLINE
  5
2BD
100
AcDbEntity
  8
0
100
AcDbSpline
 62
7
  6
CONTINUOUS
 70
0
 71
3
 72
27
 73
23
 74
0
 42
0.0000001
 43
0.0000001
 44
0.0000000001
 40
0.0
 40
0.0
 40
0.0
 40
0.0
 40
0.2162981946
 40
0.4118784511
 40
0.5834420186
 40
0.6592931035
 40
0.7280878125
 40
0.7895421859
 40
0.8433996892
 40
0.8894463495
 40
0.9094832918
 40
0.9275061752
 40
0.9435002329
 40
0.9574547854
 40
0.9693681342
 40
0.9792466105
 40
0.9871112946
 40
0.9930210818
 40
0.9952895258
 40
0.9971482813
 40
0.9986733475
 40
1.0
 40
1.0
 40
1.0
 40
1.0
 10
6.4651364873
 20
5.1800092223
 30
0.0
 10
6.4662186073
 20
5.1799593603
 30
0.0
 10
6.4682795222
 20
5.1798711959
 30
0.0
 10
6.4711998113
 20
5.1797701435
 30
0.0
 10
6.4734178218
 20
5.1797158296
 30
0.0
 10
6.4750013312
 20
5.1796940165
 30
0.0
 10
6.4760335244
 20
5.1796884382
 30
0.0
 10
6.4769555809
 20
5.1796928764
 30
0.0
 10
6.4777635951
 20
5.1797072972
 30
0.0
 10
6.4783639707
 20
5.1797282565
 30
0.0
 10
6.4787845933
 20
5.1797509774
 30
0.0
 10
6.4790546745
 20
5.1797696597
 30
0.0
 10
6.4792940165
 20
5.179790733
 30
0.0
 10
6.4795023885
 20
5.1798141533
 30
0.0
 10
6.4796795884
 20
5.1798398581
 30
0.0
 10
6.4798255834
 20
5.179867709
 30
0.0
 10
6.4799402389
 20
5.1798976699
 30
0.0
 10
6.4800158234
 20
5.1799260884
 30
0.0
 10
6.4800594021
 20
5.1799514154
 30
0.0
 10
6.4800814522
 20
5.1799694313
 30
0.0
 10
6.4800959167
 20
5.1799884773
 30
0.0
 10
6.4801000965
 20
5.1800025955
 30
0.0
 10
6.4801005561
 20
5.1800092238
 30
0.0
  0
LINE
  5
2BE
100
AcDbEntity
  8
0
100
AcDbLine
 62
7
  6
CONTINUOUS
 10
3.5176371788
 20
4.9246382841
 11
3.4883104626
 21
4.9324963528
  0
SPLINE
  5
2BF
100
AcDbEntity
  8
0
100
AcDbSpline
 62
7
  6
CONTINUOUS
 70
0
 71
3
 72
27
 73
23
 74
0
 42
0.0000001
 43
0.0000001
 44
0.0000000001
 40
0.0
 40
0.0
 40
0.0
 40
0.0
 40
0.0285207516
 40
0.0571213706
 40
0.0858330496
 40
0.1147027809
 40
0.1730245401
 40
0.2323783803
 40
0.2625151088
 40
0.2929597902
 40
0.3547442592
 40
0.4177269835
 40
0.4817732526
 40
0.5466722474
 40
0.6121546351
 40
0.6450347213
 40
0.6779431456
 40
0.7436498159
 40
0.8089825778
 40
0.873643758
 40
0.9373777542
 40
1.0
 40
1.0
 40
1.0
 40
1.0
 10
5.9801838344
 20
5.6685843937
 30
0.0
 10
5.9806942176
 20
5.6686058157
 30
0.0
 10
5.9817151434
 20
5.668690607
 30
0.0
 10
5.9832333797
 20
5.6689421759
 30
0.0
 10
5.984732519
 20
5.6693172807
 30
0.0
 10
5.9867013763
 20
5.6699812281
 30
0.0
 10
5.9890816008
 20
5.6711145168
 30
0.0
 10
5.9912783058
 20
5.6726109395
 30
0.0
 10
5.992911225
 20
5.674009174
 30
0.0
 10
5.9944699518
 20
5.6755522877
 30
0.0
 10
5.9962320147
 20
5.6777151611
 30
0.0
 10
5.9979976315
 20
5.6806109273
 30
0.0
 10
5.9993920538
 20
5.683763597
 30
0.0
 10
6.0003878705
 20
5.6871099017
 30
0.0
 10
6.0008690819
 20
5.6900023806
 30
0.0
 10
6.0010403039
 20
5.6923485837
 30
0.0
 10
6.0010677158
 20
5.6947048908
 30
0.0
 10
6.000832003
 20
5.697639907
 30
0.0
 10
6.0001226923
 20
5.7010815029
 30
0.0
 10
5.9990005682
 20
5.7043748965
 30
0.0
 10
5.9974879924
 20
5.7074538775
 30
0.0
 10
5.9962256557
 20
5.7093421453
 30
0.0
 10
5.9955390599
 20
5.7102290615
 30
0.0
  0
SPLINE
  5
2C0
100
AcDbEntity
  8
0
100
AcDbSpline
 62
7
  6
CONTINUOUS
 70
0
 71
3
 72
27
 73
23
 74
0
 42
0.0000001
 43
0.0000001
 44
0.0000000001
 40
0.0
 40
0.0
 40
0.0
 40
0.0
 40
0.0285206684
 40
0.0571212121
 40
0.0858328247
 40
0.1147024989
 40
0.1730241733
 40
0.2323779682
 40
0.2625146881
 40
0.2929593694
 40
0.3547438609
 40
0.4177266319
 40
0.4817729639
 40
0.5466720298
 40
0.6121544888
 40
0.6450346086
 40
0.677943064
 40
0.7436497868
 40
0.8089825847
 40
0.8736437817
 40
0.9373777751
 40
1.0
 40
1.0
 40
1.0
 40
1.0
 10
6.1966901854
 20
5.6685843938
 30
0.0
 10
6.1961798042
 20
5.6686058158
 30
0.0
 10
6.1951588823
 20
5.6686906071
 30
0.0
 10
6.1936406515
 20
5.6689421761
 30
0.0
 10
6.1921415174
 20
5.669317281
 30
0.0
 10
6.1901726662
 20
5.6699812287
 30
0.0
 10
6.1877924484
 20
5.6711145178
 30
0.0
 10
6.1855957494
 20
5.6726109403
 30
0.0
 10
6.183962834
 20
5.6740091746
 30
0.0
 10
6.1824041099
 20
5.6755522885
 30
0.0
 10
6.1806420496
 20
5.6777151621
 30
0.0
 10
6.1788764342
 20
5.6806109281
 30
0.0
 10
6.1774820117
 20
5.6837635977
 30
0.0
 10
6.1764861931
 20
5.687109902
 30
0.0
 10
6.1760049789
 20
5.6900023808
 30
0.0
 10
6.175833754
 20
5.692348584
 30
0.0
 10
6.1758063388
 20
5.6947048909
 30
0.0
 10
6.1760420467
 20
5.6976399067
 30
0.0
 10
6.1767513507
 20
5.7010815025
 30
0.0
 10
6.1778734676
 20
5.7043748961
 30
0.0
 10
6.1793860357
 20
5.7074538771
 30
0.0
 10
6.1806483674
 20
5.7093421451
 30
0.0
 10
6.1813349607
 20
5.7102290615
 30
0.0
  0
SPLINE
  5
2C1
100
AcDbEntity
  8
0
100
AcDbSpline
 62
7
  6
CONTINUOUS
 70
0
 71
3
 72
19
 73
15
 74
0
 42
0.0000001
 43
0.0000001
 44
0.0000000001
 40
0.0
 40
0.0
 40
0.0
 40
0.0
 40
0.0402296767
 40
0.0845628419
 40
0.13276498
 40
0.1846039729
 40
0.239852826
 40
0.2982858013
 40
0.4237891469
 40
0.4903718709
 40
0.5591148242
 40
0.7018472839
 40
0.8495950459
 40
1.0
 40
1.0
 40
1.0
 40
1.0
 10
3.0834679993
 20
5.150085828
 30
0.0
 10
3.0867275282
 20
5.1492463232
 30
0.0
 10
3.0935780006
 20
5.1474775471
 30
0.0
 10
3.1043277712
 20
5.1446790321
 30
0.0
 10
3.1160141797
 20
5.1416229837
 30
0.0
 10
3.1285804417
 20
5.1383216839
 30
0.0
 10
3.1419711216
 20
5.1347896913
 30
0.0
 10
3.1613161177
 20
5.1296663156
 30
0.0
 10
3.181567757
 20
5.1242623575
 30
0.0
 10
3.2026417153
 20
5.1185945575
 30
0.0
 10
3.2250992841
 20
5.1125210988
 30
0.0
 10
3.2540972537
 20
5.1046195998
 30
0.0
 10
3.2896594372
 20
5.0948200918
 30
0.0
 10
3.3136841903
 20
5.0881045856
 30
0.0
 10
3.3257954799
 20
5.0846880774
 30
0.0
  0
SPLINE
  5
2C2
100
AcDbEntity
  8
0
100
AcDbSpline
 62
7
  6
CONTINUOUS
 70
0
 71
3
 72
80
 73
76
 74
0
 42
0.0000001
 43
0.0000001
 44
0.0000000001
 40
0.0
 40
0.0
 40
0.0
 40
0.0
 40
0.0078186483
 40
0.015638054
 40
0.0234570481
 40
0.0312752229
 40
0.0390930398
 40
0.0469103379
 40
0.054727178
 40
0.0625437932
 40
0.0703600208
 40
0.0781756521
 40
0.0859908677
 40
0.0938057122
 40
0.1250583747
 40
0.1406830283
 40
0.1484947535
 40
0.1563060148
 40
0.1641167043
 40
0.1719267311
 40
0.1797361129
 40
0.1875448921
 40
0.1953531267
 40
0.2031607869
 40
0.2109677246
 40
0.2187739471
 40
0.2343847448
 40
0.2499930969
 40
0.2655994704
 40
0.2812040023
 40
0.2890064248
 40
0.2968086145
 40
0.3046103997
 40
0.3124119952
 40
0.3202135823
 40
0.3280151868
 40
0.3358169257
 40
0.3436189725
 40
0.3592234627
 40
0.3670268574
 40
0.3748307234
 40
0.3826349383
 40
0.3904394275
 40
0.4060488612
 40
0.4216591184
 40
0.437270654
 40
0.4528830901
 40
0.4606901813
 40
0.4684976573
 40
0.484113346
 40
0.4997306071
 40
0.5309670515
 40
0.5622094587
 40
0.5778337732
 40
0.5934593855
 40
0.6247125888
 40
0.6559704298
 40
0.671601838
 40
0.6872345793
 40
0.7028686534
 40
0.7185039353
 40
0.734140232
 40
0.7497773686
 40
0.7654154606
 40
0.7810541121
 40
0.7966926125
 40
0.8123312528
 40
0.827970069
 40
0.8436088478
 40
0.8592477464
 40
0.8748867047
 40
0.9061644988
 40
0.9374427907
 40
0.9687213712
 40
1.0
 40
1.0
 40
1.0
 40
1.0
 10
3.0834679993
 20
5.150085828
 30
0.0
 10
3.0842639001
 20
5.15260335
 30
0.0
 10
3.0859268933
 20
5.1576164109
 30
0.0
 10
3.0886139438
 20
5.1650689047
 30
0.0
 10
3.0914728388
 20
5.172456925
 30
0.0
 10
3.0944874188
 20
5.1797821014
 30
0.0
 10
3.0976453071
 20
5.1870459392
 30
0.0
 10
3.1009332928
 20
5.194251244
 30
0.0
 10
3.1043410382
 20
5.2014001834
 30
0.0
 10
3.1078598668
 20
5.2084946492
 30
0.0
 10
3.111480729
 20
5.215537079
 30
0.0
 10
3.1151955617
 20
5.2225298198
 30
0.0
 10
3.1189989376
 20
5.2294742671
 30
0.0
 10
3.126770543
 20
5.2432679911
 30
0.0
 10
3.1362889809
 20
5.2591031273
 30
0.0
 10
3.1462237284
 20
5.2746721832
 30
0.0
 10
3.1520060738
 20
5.2834992455
 30
0.0
 10
3.1563923502
 20
5.290085968
 30
0.0
 10
3.1608247641
 20
5.2966410369
 30
0.0
 10
3.1653013984
 20
5.3031652147
 30
0.0
 10
3.1698230417
 20
5.3096574979
 30
0.0
 10
3.1743901081
 20
5.3161171682
 30
0.0
 10
3.179002784
 20
5.322543636
 30
0.0
 10
3.1836625001
 20
5.328935321
 30
0.0
 10
3.1883754642
 20
5.3352870434
 30
0.0
 10
3.1947374841
 20
5.3436958682
 30
0.0
 10
3.2028507965
 20
5.3540826229
 30
0.0
 10
3.2128882827
 20
5.366303658
 30
0.0
 10
3.2232695324
 20
5.378231924
 30
0.0
 10
3.232238325
 20
5.3878864202
 30
0.0
 10
3.2396192634
 20
5.3954102823
 30
0.0
 10
3.2452612937
 20
5.4009468147
 30
0.0
 10
3.2510121323
 20
5.406369879
 30
0.0
 10
3.2568746961
 20
5.4116717317
 30
0.0
 10
3.2628488857
 20
5.416847406
 30
0.0
 10
3.2689326799
 20
5.4218938607
 30
0.0
 10
3.275124659
 20
5.4268073227
 30
0.0
 10
3.283521233
 20
5.4331775772
 30
0.0
 10
3.2921226374
 20
5.4392750168
 30
0.0
 10
3.3009120532
 20
5.4450933111
 30
0.0
 10
3.3075951161
 20
5.4493183544
 30
0.0
 10
3.3143646568
 20
5.4534040491
 30
0.0
 10
3.3235004166
 20
5.458666212
 30
0.0
 10
3.3351127725
 20
5.4649044538
 30
0.0
 10
3.3493141913
 20
5.4718707165
 30
0.0
 10
3.363744551
 20
5.4783507776
 30
0.0
 10
3.3759328541
 20
5.4833738733
 30
0.0
 10
3.3857679593
 20
5.4871790883
 30
0.0
 10
3.395656073
 20
5.4908474958
 30
0.0
 10
3.4081087616
 20
5.4951822725
 30
0.0
 10
3.4282076565
 20
5.5015968331
 30
0.0
 10
3.4536262834
 20
5.5086682334
 30
0.0
 10
3.479346114
 20
5.5145534627
 30
0.0
 10
3.5000643371
 20
5.5185751558
 30
0.0
 10
3.5208687796
 20
5.5221456057
 30
0.0
 10
3.5470138892
 20
5.5257691128
 30
0.0
 10
3.5732894884
 20
5.5282926819
 30
0.0
 10
3.5943595921
 20
5.5296643661
 30
0.0
 10
3.6101822123
 20
5.5303737429
 30
0.0
 10
3.6260170446
 20
5.5307678002
 30
0.0
 10
3.6418577763
 20
5.5308486432
 30
0.0
 10
3.6576980656
 20
5.5306178996
 30
0.0
 10
3.6735316862
 20
5.5300764091
 30
0.0
 10
3.6893530302
 20
5.5292374069
 30
0.0
 10
3.7051572146
 20
5.5281155303
 30
0.0
 10
3.7209401336
 20
5.5267249726
 30
0.0
 10
3.7366985894
 20
5.5250804273
 30
0.0
 10
3.7524302839
 20
5.5231968328
 30
0.0
 10
3.7681333766
 20
5.5210878039
 30
0.0
 10
3.7838058577
 20
5.5187619713
 30
0.0
 10
3.8046593307
 20
5.5153833943
 30
0.0
 10
3.8306438926
 20
5.5106676914
 30
0.0
 10
3.8616927392
 20
5.5043267618
 30
0.0
 10
3.8926244896
 20
5.4974399172
 30
0.0
 10
3.9131913905
 20
5.4926136915
 30
0.0
 10
3.9234712028
 20
5.4901854739
 30
0.0
  0
SPLINE
  5
2C3
100
AcDbEntity
  8
0
100
AcDbSpline
 62
7
  6
CONTINUOUS
 70
0
 71
3
 72
15
 73
11
 74
0
 42
0.0000001
 43
0.0000001
 44
0.0000000001
 40
0.0
 40
0.0
 40
0.0
 40
0.0
 40
0.1189476938
 40
0.2436062522
 40
0.3720348536
 40
0.5022189989
 40
0.6321201385
 40
0.7597042261
 40
0.8829707531
 40
1.0
 40
1.0
 40
1.0
 40
1.0
 10
6.0740958591
 20
4.7129992962
 30
0.0
 10
6.0752429221
 20
4.7129308763
 30
0.0
 10
6.0775933933
 20
4.7128115577
 30
0.0
 10
6.0811853197
 20
4.7126841708
 30
0.0
 10
6.0848872137
 20
4.7126051885
 30
0.0
 10
6.0886404747
 20
4.7125759318
 30
0.0
 10
6.0923856335
 20
4.7125968057
 30
0.0
 10
6.096063353
 20
4.7126674476
 30
0.0
 10
6.0996154038
 20
4.7127865881
 30
0.0
 10
6.1019341226
 20
4.7129006033
 30
0.0
 10
6.1030627779
 20
4.7129663469
 30
0.0
  0
SPLINE
  5
2C4
100
AcDbEntity
  8
0
100
AcDbSpline
 62
7
  6
CONTINUOUS
 70
0
 71
3
 72
15
 73
11
 74
0
 42
0.0000001
 43
0.0000001
 44
0.0000000001
 40
0.0
 40
0.0
 40
0.0
 40
0.0
 40
0.117513676
 40
0.2414022421
 40
0.3696099472
 40
0.4999943458
 40
0.630379467
 40
0.7585893289
 40
0.8824814382
 40
1.0
 40
1.0
 40
1.0
 40
1.0
 10
6.0735181641
 20
4.5418958836
 30
0.0
 10
6.0746855809
 20
4.5418194572
 30
0.0
 10
6.0770853665
 20
4.5416866235
 30
0.0
 10
6.0807625227
 20
4.5415463664
 30
0.0
 10
6.0845695385
 20
4.5414612873
 30
0.0
 10
6.0884420663
 20
4.5414329003
 30
0.0
 10
6.0923146125
 20
4.5414617017
 30
0.0
 10
6.0961216832
 20
4.5415471863
 30
0.0
 10
6.09979893
 20
4.5416878307
 30
0.0
 10
6.1021987859
 20
4.5418209116
 30
0.0
 10
6.1033662437
 20
4.5418974562
 30
0.0
  0
LINE
  5
2C5
100
AcDbEntity
  8
0
100
AcDbLine
 62
7
  6
CONTINUOUS
 10
5.2187061808
 20
4.5578249928
 11
5.2236280026
 21
4.5664062219
  0
SPLINE
  5
2C6
100
AcDbEntity
  8
0
100
AcDbSpline
 62
7
  6
CONTINUOUS
 70
0
 71
3
 72
36
 73
32
 74
0
 42
0.0000001
 43
0.0000001
 44
0.0000000001
 40
0.0
 40
0.0
 40
0.0
 40
0.0
 40
0.0000575001
 40
0.0002301687
 40
0.0005180395
 40
0.0009211465
 40
0.0014395235
 40
0.0020732044
 40
0.0036866139
 40
0.0057616474
 40
0.0082985775
 40
0.0112976778
 40
0.0147592224
 40
0.0186834859
 40
0.0230707966
 40
0.0332376931
 40
0.0452671456
 40
0.059166609
 40
0.0749435666
 40
0.0926056202
 40
0.1121634764
 40
0.1336316869
 40
0.1823586026
 40
0.2389068255
 40
0.3034325842
 40
0.3761416683
 40
0.457246184
 40
0.5470105501
 40
0.6457799418
 40
0.753911549
 40
1.0
 40
1.0
 40
1.0
 40
1.0
 10
5.9037006352
 20
5.7534998379
 30
0.0
 10
5.9037003904
 20
5.753499885
 30
0.0
 10
5.9037024703
 20
5.7535003844
 30
0.0
 10
5.9037034269
 20
5.7535011289
 30
0.0
 10
5.9037075254
 20
5.7535026261
 30
0.0
 10
5.9037120877
 20
5.7535046042
 30
0.0
 10
5.9037184261
 20
5.7535071979
 30
0.0
 10
5.9037294493
 20
5.7535117885
 30
0.0
 10
5.9037467895
 20
5.7535189839
 30
0.0
 10
5.9037716944
 20
5.7535293574
 30
0.0
 10
5.9038021582
 20
5.7535420623
 30
0.0
 10
5.9038381535
 20
5.7535571046
 30
0.0
 10
5.9038796901
 20
5.753574494
 30
0.0
 10
5.9039267651
 20
5.7535942391
 30
0.0
 10
5.9040006317
 20
5.7536252786
 30
0.0
 10
5.9041068456
 20
5.7536700578
 30
0.0
 10
5.904250958
 20
5.7537311128
 30
0.0
 10
5.9044173345
 20
5.7538019729
 30
0.0
 10
5.9046060197
 20
5.7538827806
 30
0.0
 10
5.9048170739
 20
5.7539736774
 30
0.0
 10
5.9050505704
 20
5.7540748505
 30
0.0
 10
5.9054072764
 20
5.7542304626
 30
0.0
 10
5.9059100736
 20
5.7544523113
 30
0.0
 10
5.90658196
 20
5.7547534
 30
0.0
 10
5.9073465574
 20
5.7551018503
 30
0.0
 10
5.9082052422
 20
5.7555005525
 30
0.0
 10
5.9091598421
 20
5.7559524744
 30
0.0
 10
5.9102126378
 20
5.7564609814
 30
0.0
 10
5.9113663684
 20
5.7570298714
 30
0.0
 10
5.9131207525
 20
5.7579131481
 30
0.0
 10
5.9144836574
 20
5.7586215085
 30
0.0
 10
5.9154269164
 20
5.7591203546
 30
0.0
  0
SPLINE
  5
2C7
100
AcDbEntity
  8
0
100
AcDbSpline
 62
7
  6
CONTINUOUS
 70
0
 71
3
 72
15
 73
11
 74
0
 42
0.0000001
 43
0.0000001
 44
0.0000000001
 40
0.0
 40
0.0
 40
0.0
 40
0.0
 40
0.1174139181
 40
0.241289753
 40
0.369542339
 40
0.5000000135
 40
0.6304576865
 40
0.7587102679
 40
0.882586096
 40
1.0
 40
1.0
 40
1.0
 40
1.0
 10
6.0734729387
 20
5.180009231
 30
0.0
 10
6.0746433909
 20
5.179955471
 30
0.0
 10
6.0770495143
 20
5.1798620468
 30
0.0
 10
6.0807359717
 20
5.1797633824
 30
0.0
 10
6.0845534446
 20
5.1797034693
 30
0.0
 10
6.0884370109
 20
5.1796833794
 30
0.0
 10
6.0923205771
 20
5.1797034694
 30
0.0
 10
6.0961380498
 20
5.1797633815
 30
0.0
 10
6.0998245069
 20
5.1798620483
 30
0.0
 10
6.1022306303
 20
5.179955468
 30
0.0
 10
6.1034010823
 20
5.1800092279
 30
0.0
  0
SPLINE
  5
2C8
100
AcDbEntity
  8
0
100
AcDbSpline
 62
7
  6
CONTINUOUS
 70
0
 71
3
 72
15
 73
11
 74
0
 42
0.0000001
 43
0.0000001
 44
0.0000000001
 40
0.0
 40
0.0
 40
0.0
 40
0.0
 40
0.117487859
 40
0.241375152
 40
0.3695975414
 40
0.5000039709
 40
0.6304098964
 40
0.7586307794
 40
0.8825155899
 40
1.0
 40
1.0
 40
1.0
 40
1.0
 10
6.0735011746
 20
4.7790995756
 30
0.0
 10
6.0746695617
 20
4.7790286245
 30
0.0
 10
6.0770713735
 20
4.7789052954
 30
0.0
 10
6.0807515239
 20
4.7787750199
 30
0.0
 10
6.0845618675
 20
4.7786959043
 30
0.0
 10
6.0884378772
 20
4.7786693603
 30
0.0
 10
6.0923138723
 20
4.7786958533
 30
0.0
 10
6.0961241722
 20
4.7787749175
 30
0.0
 10
6.0998042503
 20
4.778905141
 30
0.0
 10
6.1022060048
 20
4.7790284339
 30
0.0
 10
6.1033743586
 20
4.7790993666
 30
0.0
  0
SPLINE
  5
2C9
100
AcDbEntity
  8
0
100
AcDbSpline
 62
7
  6
CONTINUOUS
 70
0
 71
3
 72
25
 73
21
 74
0
 42
0.0000001
 43
0.0000001
 44
0.0000000001
 40
0.0
 40
0.0
 40
0.0
 40
0.0
 40
0.0200354653
 40
0.0402353323
 40
0.0607422755
 40
0.0816963524
 40
0.1254109529
 40
0.1722600665
 40
0.2228012909
 40
0.277342981
 40
0.3359802285
 40
0.3986349315
 40
0.465089713
 40
0.5350157136
 40
0.6079953195
 40
0.6835402772
 40
0.7611093138
 40
0.8401165975
 40
0.9199588275
 40
1.0
 40
1.0
 40
1.0
 40
1.0
 10
5.8220199386
 20
5.2120843937
 30
0.0
 10
5.8217635111
 20
5.2120843716
 30
0.0
 10
5.8212481712
 20
5.2120577652
 30
0.0
 10
5.8204786529
 20
5.2119387411
 30
0.0
 10
5.8197133638
 20
5.2117407365
 30
0.0
 10
5.8186876396
 20
5.2113673729
 30
0.0
 10
5.8174201076
 20
5.2106942944
 30
0.0
 10
5.8159764186
 20
5.2095986522
 30
0.0
 10
5.8146004
 20
5.2082171232
 30
0.0
 10
5.8133048671
 20
5.2065649232
 30
0.0
 10
5.812101745
 20
5.2046591031
 30
0.0
 10
5.8110027254
 20
5.2025191504
 30
0.0
 10
5.8100187602
 20
5.2001669544
 30
0.0
 10
5.8091598564
 20
5.1976267026
 30
0.0
 10
5.8084348641
 20
5.1949246405
 30
0.0
 10
5.8078512946
 20
5.1920887765
 30
0.0
 10
5.8074152687
 20
5.1891486255
 30
0.0
 10
5.80713129
 20
5.1861347238
 30
0.0
 10
5.8070024165
 20
5.1830786752
 30
0.0
 10
5.8070207855
 20
5.1810314028
 30
0.0
 10
5.8070563022
 20
5.1800075971
 30
0.0
  0
LINE
  5
2CA
100
AcDbEntity
  8
0
100
AcDbLine
 62
7
  6
CONTINUOUS
 10
5.7124726198
 20
5.2120843937
 11
5.7114888559
 21
5.2119923236
  0
SPLINE
  5
2CB
100
AcDbEntity
  8
0
100
AcDbSpline
 62
7
  6
CONTINUOUS
 70
0
 71
3
 72
24
 73
20
 74
0
 42
0.0000001
 43
0.0000001
 44
0.0000000001
 40
0.0
 40
0.0
 40
0.0
 40
0.0
 40
0.0385024077
 40
0.0787936722
 40
0.1217133828
 40
0.167819496
 40
0.2174878024
 40
0.2709635135
 40
0.3283578684
 40
0.3896779276
 40
0.4548453109
 40
0.52370888
 40
0.5960623515
 40
0.6716527158
 40
0.7501761451
 40
0.8313076669
 40
0.8727564733
 40
0.9147331042
 40
1.0
 40
1.0
 40
1.0
 40
1.0
 10
5.7114888559
 20
5.2119923236
 30
0.0
 10
5.7111657357
 20
5.2119319919
 30
0.0
 10
5.7105143793
 20
5.2117488051
 30
0.0
 10
5.7095706889
 20
5.2113044614
 30
0.0
 10
5.7086478634
 20
5.2106921945
 30
0.0
 10
5.7077499449
 20
5.2099161766
 30
0.0
 10
5.7068812625
 20
5.2089810343
 30
0.0
 10
5.7060456325
 20
5.2078925201
 30
0.0
 10
5.7052469756
 20
5.2066567113
 30
0.0
 10
5.7044893819
 20
5.2052804731
 30
0.0
 10
5.7037768029
 20
5.2037715638
 30
0.0
 10
5.7031132361
 20
5.2021384673
 30
0.0
 10
5.7025026906
 20
5.2003903879
 30
0.0
 10
5.7019486438
 20
5.1985374218
 30
0.0
 10
5.7014554454
 20
5.1965899878
 30
0.0
 10
5.7011013672
 20
5.1949095578
 30
0.0
 10
5.7008494174
 20
5.1935274069
 30
0.0
 10
5.7006164318
 20
5.1921061609
 30
0.0
 10
5.7004716205
 20
5.1910291455
 30
0.0
 10
5.7003901956
 20
5.1903057695
 30
0.0
  0
SPLINE
  5
2CC
100
AcDbEntity
  8
0
100
AcDbSpline
 62
7
  6
CONTINUOUS
 70
0
 71
3
 72
13
 73
9
 74
0
 42
0.0000001
 43
0.0000001
 44
0.0000000001
 40
0.0
 40
0.0
 40
0.0
 40
0.0
 40
0.2852921692
 40
0.5426151785
 40
0.6625926343
 40
0.777986978
 40
0.8900137692
 40
1.0
 40
1.0
 40
1.0
 40
1.0
 10
6.2849025964
 20
5.6358581311
 30
0.0
 10
6.2852692528
 20
5.6359769858
 30
0.0
 10
6.2859832087
 20
5.6361570196
 30
0.0
 10
6.2868821991
 20
5.636222677
 30
0.0
 10
6.2875464085
 20
5.6361623115
 30
0.0
 10
6.288006883
 20
5.6360655869
 30
0.0
 10
6.2884389269
 20
5.6359165229
 30
0.0
 10
6.2887081688
 20
5.6357819615
 30
0.0
 10
6.2888363045
 20
5.635706717
 30
0.0
  0
SPLINE
  5
2CD
100
AcDbEntity
  8
0
100
AcDbSpline
 62
7
  6
CONTINUOUS
 70
0
 71
3
 72
13
 73
9
 74
0
 42
0.0000001
 43
0.0000001
 44
0.0000000001
 40
0.0
 40
0.0
 40
0.0
 40
0.0
 40
0.2795552476
 40
0.5355502298
 40
0.6563100786
 40
0.7732770962
 40
0.8874778268
 40
1.0
 40
1.0
 40
1.0
 40
1.0
 10
6.2853238822
 20
5.6355550086
 30
0.0
 10
6.2857505346
 20
5.6356564074
 30
0.0
 10
6.2865832541
 20
5.6357941007
 30
0.0
 10
6.2876196688
 20
5.6357820345
 30
0.0
 10
6.2883842978
 20
5.6356502986
 30
0.0
 10
6.2889157231
 20
5.6354961626
 30
0.0
 10
6.2894132662
 20
5.6352852785
 30
0.0
 10
6.2897221569
 20
5.6351068024
 30
0.0
 10
6.2898691317
 20
5.6350090522
 30
0.0
  0
SPLINE
  5
2CE
100
AcDbEntity
  8
0
100
AcDbSpline
 62
7
  6
CONTINUOUS
 70
0
 71
3
 72
24
 73
20
 74
0
 42
0.0000001
 43
0.0000001
 44
0.0000000001
 40
0.0
 40
0.0
 40
0.0
 40
0.0
 40
0.2116650915
 40
0.4032238637
 40
0.4904708631
 40
0.571559355
 40
0.6461594516
 40
0.7139888056
 40
0.7747939422
 40
0.8283735347
 40
0.8745696203
 40
0.913307654
 40
0.9446162823
 40
0.9575603528
 40
0.9687737805
 40
0.9783684158
 40
0.9865345028
 40
0.9935844194
 40
1.0
 40
1.0
 40
1.0
 40
1.0
 10
6.292837763
 20
5.6176404712
 30
0.0
 10
6.2933747253
 20
5.6176656274
 30
0.0
 10
6.2943980632
 20
5.6177051596
 30
0.0
 10
6.2956435856
 20
5.617728188
 30
0.0
 10
6.2965576106
 20
5.6177271344
 30
0.0
 10
6.2971745257
 20
5.6177173502
 30
0.0
 10
6.2977419023
 20
5.6176986124
 30
0.0
 10
6.298257349
 20
5.6176710477
 30
0.0
 10
6.2987187452
 20
5.6176347947
 30
0.0
 10
6.2991241816
 20
5.6175900907
 30
0.0
 10
6.2994721123
 20
5.6175372114
 30
0.0
 10
6.2997611655
 20
5.6174764831
 30
0.0
 10
6.2999637381
 20
5.617416597
 30
0.0
 10
6.300094059
 20
5.6173627737
 30
0.0
 10
6.3001702071
 20
5.6173230968
 30
0.0
 10
6.3002311619
 20
5.6172814684
 30
0.0
 10
6.300276971
 20
5.6172376391
 30
0.0
 10
6.3003074231
 20
5.617191184
 30
0.0
 10
6.3003169429
 20
5.6171576078
 30
0.0
 10
6.3003186529
 20
5.6171414046
 30
0.0
  0
SPLINE
  5
2CF
100
AcDbEntity
  8
0
100
AcDbSpline
 62
7
  6
CONTINUOUS
 70
0
 71
3
 72
22
 73
18
 74
0
 42
0.0000001
 43
0.0000001
 44
0.0000000001
 40
0.0
 40
0.0
 40
0.0
 40
0.0
 40
0.2076086621
 40
0.3963445401
 40
0.5633020921
 40
0.6378077726
 40
0.7059474522
 40
0.7674660752
 40
0.8221425903
 40
0.8697841989
 40
0.910240011
 40
0.9434070843
 40
0.9692574424
 40
0.9794734308
 40
0.9879292232
 40
0.9947118433
 40
1.0
 40
1.0
 40
1.0
 40
1.0
 10
6.2928944007
 20
5.6168174941
 30
0.0
 10
6.2934103992
 20
5.616853668
 30
0.0
 10
6.2943958339
 20
5.6169179811
 30
0.0
 10
6.2957973586
 20
5.61699283
 30
0.0
 10
6.2968684653
 20
5.6170344899
 30
0.0
 10
6.2976396457
 20
5.6170529281
 30
0.0
 10
6.2981483028
 20
5.6170592253
 30
0.0
 10
6.2986075966
 20
5.6170585389
 30
0.0
 10
6.2990157583
 20
5.6170509119
 30
0.0
 10
6.2993712198
 20
5.6170364086
 30
0.0
 10
6.2996726891
 20
5.6170152246
 30
0.0
 10
6.2999190258
 20
5.6169874828
 30
0.0
 10
6.300089188
 20
5.6169575611
 30
0.0
 10
6.3001963415
 20
5.6169285851
 30
0.0
 10
6.3002561029
 20
5.6169069875
 30
0.0
 10
6.3003018649
 20
5.6168838956
 30
0.0
 10
6.3003259378
 20
5.616865159
 30
0.0
 10
6.3003346903
 20
5.6168553106
 30
0.0
  0
SPLINE
  5
2D0
100
AcDbEntity
  8
0
100
AcDbSpline
 62
7
  6
CONTINUOUS
 70
0
 71
3
 72
9
 73
5
 74
0
 42
0.0000001
 43
0.0000001
 44
0.0000000001
 40
0.0
 40
0.0
 40
0.0
 40
0.0
 40
0.5276228117
 40
1.0
 40
1.0
 40
1.0
 40
1.0
 10
6.3003346903
 20
5.6168553106
 30
0.0
 10
6.3003396505
 20
5.6168497293
 30
0.0
 10
6.3003479977
 20
5.6168380525
 30
0.0
 10
6.3003521925
 20
5.6168241868
 30
0.0
 10
6.3003528978
 20
5.6168175391
 30
0.0
  0
SPLINE
  5
2D1
100
AcDbEntity
  8
0
100
AcDbSpline
 62
7
  6
CONTINUOUS
 70
0
 71
3
 72
20
 73
16
 74
0
 42
0.0000001
 43
0.0000001
 44
0.0000000001
 40
0.0
 40
0.0
 40
0.0
 40
0.0
 40
0.05886773
 40
0.1178781149
 40
0.1771201502
 40
0.2367192958
 40
0.2967785249
 40
0.3573828689
 40
0.4186044901
 40
0.4804979248
 40
0.6063213512
 40
0.7350232785
 40
0.8004366144
 40
0.8664627879
 40
1.0
 40
1.0
 40
1.0
 40
1.0
 10
3.4686276727
 20
4.923077088
 30
0.0
 10
3.4690724218
 20
4.9229579189
 30
0.0
 10
3.46997456
 20
4.9227602869
 30
0.0
 10
3.4713511538
 20
4.9225890334
 30
0.0
 10
3.4727434535
 20
4.9225440359
 30
0.0
 10
3.4741422391
 20
4.9226255193
 30
0.0
 10
3.4755387225
 20
4.9228328047
 30
0.0
 10
3.4769239346
 20
4.9231646414
 30
0.0
 10
3.4782891286
 20
4.9236188479
 30
0.0
 10
3.4800802176
 20
4.9243874287
 30
0.0
 10
3.4822261429
 20
4.9256434489
 30
0.0
 10
3.4841689871
 20
4.9272369113
 30
0.0
 10
3.4855890515
 20
4.9286964364
 30
0.0
 10
3.4869218269
 20
4.9302854133
 30
0.0
 10
3.4877925539
 20
4.931589331
 30
0.0
 10
3.4883104236
 20
4.932496375
 30
0.0
  0
LINE
  5
2D2
100
AcDbEntity
  8
0
100
AcDbLine
 62
7
  6
CONTINUOUS
 10
5.8765211248
 20
5.616817539
 11
5.877047904
 21
5.6169973022
  0
SPLINE
  5
2D3
100
AcDbEntity
  8
0
100
AcDbSpline
 62
7
  6
CONTINUOUS
 70
0
 71
3
 72
15
 73
11
 74
0
 42
0.0000001
 43
0.0000001
 44
0.0000000001
 40
0.0
 40
0.0
 40
0.0
 40
0.0
 40
0.0302357822
 40
0.0652652651
 40
0.1494583094
 40
0.2519064457
 40
0.371704165
 40
0.5077553441
 40
0.6587792593
 40
1.0
 40
1.0
 40
1.0
 40
1.0
 10
5.877047904
 20
5.6169973022
 30
0.0
 10
5.8771173554
 20
5.61700558
 30
0.0
 10
5.8772676712
 20
5.617020094
 30
0.0
 10
5.8776126833
 20
5.617042932
 30
0.0
 10
5.8781253682
 20
5.6170585184
 30
0.0
 10
5.8788342847
 20
5.6170599744
 30
0.0
 10
5.879663022
 20
5.6170445338
 30
0.0
 10
5.8806036973
 20
5.6170122857
 30
0.0
 10
5.8820555377
 20
5.6169442348
 30
0.0
 10
5.8831920614
 20
5.6168727178
 30
0.0
 10
5.8839794592
 20
5.6168175281
 30
0.0
  0
SPLINE
  5
2D4
100
AcDbEntity
  8
0
100
AcDbSpline
 62
7
  6
CONTINUOUS
 70
0
 71
3
 72
57
 73
53
 74
0
 42
0.0000001
 43
0.0000001
 44
0.0000000001
 40
0.0
 40
0.0
 40
0.0
 40
0.0
 40
0.0156284717
 40
0.0312592149
 40
0.0625140531
 40
0.0781430932
 40
0.0937724283
 40
0.1250275088
 40
0.1406559455
 40
0.1562840059
 40
0.1719115707
 40
0.1875386257
 40
0.203165129
 40
0.2109783453
 40
0.2187914172
 40
0.2344163344
 40
0.2500401642
 40
0.2812812927
 40
0.3125178966
 40
0.3281374607
 40
0.3437562809
 40
0.3593748789
 40
0.3749933942
 40
0.3906119239
 40
0.3984216346
 40
0.4062315089
 40
0.4218509737
 40
0.4374707791
 40
0.4530915739
 40
0.4687127702
 40
0.484334674
 40
0.4999570236
 40
0.5155803332
 40
0.5312038688
 40
0.5468279855
 40
0.5624524953
 40
0.5937009344
 40
0.6249510977
 40
0.6562027723
 40
0.6874555614
 40
0.7187088132
 40
0.7499624423
 40
0.7655898052
 40
0.7812172297
 40
0.8124710518
 40
0.8437251271
 40
0.8593528472
 40
0.8749805664
 40
0.9062352855
 40
0.9374901902
 40
0.9687451202
 40
1.0
 40
1.0
 40
1.0
 40
1.0
 10
3.3257954799
 20
5.0846880774
 30
0.0
 10
3.3267193567
 20
5.0880454795
 30
0.0
 10
3.3287060067
 20
5.0947233572
 30
0.0
 10
3.3331740409
 20
5.1079185138
 30
0.0
 10
3.3383082177
 20
5.1208785622
 30
0.0
 10
3.3439976881
 20
5.1335935516
 30
0.0
 10
3.3500356594
 20
5.1461471278
 30
0.0
 10
3.3565599871
 20
5.1584611874
 30
0.0
 10
3.3635371081
 20
5.170517119
 30
0.0
 10
3.3689922739
 20
5.179427232
 30
0.0
 10
3.3746674723
 20
5.1881983821
 30
0.0
 10
3.3805601736
 20
5.1968244961
 30
0.0
 10
3.3856499962
 20
5.2038870503
 30
0.0
 10
3.3898278524
 20
5.2094582005
 30
0.0
 10
3.3940758986
 20
5.2149755526
 30
0.0
 10
3.3995202297
 20
5.2217674103
 30
0.0
 10
3.4085241396
 20
5.232389576
 30
0.0
 10
3.4203479526
 20
5.2451729933
 30
0.0
 10
3.4329782301
 20
5.25716392
 30
0.0
 10
3.443572962
 20
5.2661969459
 30
0.0
 10
3.4517649137
 20
5.2726733777
 30
0.0
 10
3.4601980721
 20
5.2788320814
 30
0.0
 10
3.4688627286
 20
5.2846604685
 30
0.0
 10
3.4762683432
 20
5.2892310983
 30
0.0
 10
3.4822980767
 20
5.2927084893
 30
0.0
 10
3.4883958113
 20
5.2960656254
 30
0.0
 10
3.4961395833
 20
5.300037482
 30
0.0
 10
3.5056072908
 20
5.3044448567
 30
0.0
 10
3.5152276959
 20
5.3085085521
 30
0.0
 10
3.5249805599
 20
5.3122438559
 30
0.0
 10
3.534849526
 20
5.315661218
 30
0.0
 10
3.54481951
 20
5.3187725272
 30
0.0
 10
3.5548757859
 20
5.3215931279
 30
0.0
 10
3.5650053658
 20
5.3241389075
 30
0.0
 10
3.5751977507
 20
5.3264212089
 30
0.0
 10
3.58885826
 20
5.3291285015
 30
0.0
 10
3.606048078
 20
5.3319087662
 30
0.0
 10
3.6267991041
 20
5.3343524136
 30
0.0
 10
3.647632311
 20
5.335957392
 30
0.0
 10
3.6685114015
 20
5.3367719337
 30
0.0
 10
3.6894061098
 20
5.3368399336
 30
0.0
 10
3.7068105579
 20
5.3363077259
 30
0.0
 10
3.7207177515
 20
5.3355455827
 30
0.0
 10
3.7346112467
 20
5.3345641769
 30
0.0
 10
3.7519469972
 20
5.3329319393
 30
0.0
 10
3.7692230004
 20
5.3307553425
 30
0.0
 10
3.7829966313
 20
5.3286851665
 30
0.0
 10
3.7967349634
 20
5.3263911933
 30
0.0
 10
3.8138328483
 20
5.3230926425
 30
0.0
 10
3.83422346
 20
5.3185342479
 30
0.0
 10
3.8545122872
 20
5.3135467526
 30
0.0
 10
3.8679890246
 20
5.3100295479
 30
0.0
 10
3.874721628
 20
5.3082495375
 30
0.0
  0
SPLINE
  5
2D5
100
AcDbEntity
  8
0
100
AcDbSpline
 62
7
  6
CONTINUOUS
 70
0
 71
3
 72
25
 73
21
 74
0
 42
0.0000001
 43
0.0000001
 44
0.0000000001
 40
0.0
 40
0.0
 40
0.0
 40
0.0
 40
0.0200356102
 40
0.0402354875
 40
0.0607423473
 40
0.0816962567
 40
0.125410268
 40
0.1722585719
 40
0.2227988871
 40
0.2773396767
 40
0.3359761301
 40
0.3986302165
 40
0.4650846083
 40
0.535010532
 40
0.6079903925
 40
0.6835358606
 40
0.7611056256
 40
0.8401138264
 40
0.9199570852
 40
1.0
 40
1.0
 40
1.0
 40
1.0
 10
6.4501724263
 20
5.2120843937
 30
0.0
 10
6.4504288484
 20
5.2120843938
 30
0.0
 10
6.4509441779
 20
5.2120578328
 30
0.0
 10
6.4517136854
 20
5.2119388779
 30
0.0
 10
6.4524789661
 20
5.2117409427
 30
0.0
 10
6.4535046803
 20
5.2113676738
 30
0.0
 10
6.4547722071
 20
5.2106947138
 30
0.0
 10
6.4562158989
 20
5.2095992082
 30
0.0
 10
6.4575919264
 20
5.208217813
 30
0.0
 10
6.4588874746
 20
5.2065657428
 30
0.0
 10
6.4600906186
 20
5.204660047
 30
0.0
 10
6.4611896665
 20
5.2025202115
 30
0.0
 10
6.4621736665
 20
5.2001681237
 30
0.0
 10
6.4630326113
 20
5.1976279691
 30
0.0
 10
6.4637576501
 20
5.1949259928
 30
0.0
 10
6.4643412709
 20
5.192090204
 30
0.0
 10
6.464777352
 20
5.1891501189
 30
0.0
 10
6.4650613891
 20
5.1861362749
 30
0.0
 10
6.4651903247
 20
5.183080269
 30
0.0
 10
6.4651720019
 20
5.181033019
 30
0.0
 10
6.4651365076
 20
5.1800092195
 30
0.0
  0
SPLINE
  5
2D6
100
AcDbEntity
  8
0
100
AcDbSpline
 62
7
  6
CONTINUOUS
 70
0
 71
3
 72
25
 73
21
 74
0
 42
0.0000001
 43
0.0000001
 44
0.0000000001
 40
0.0
 40
0.0
 40
0.0
 40
0.0
 40
0.0200355994
 40
0.0402354578
 40
0.0607423101
 40
0.0816962232
 40
0.1254102406
 40
0.1722585464
 40
0.2227988645
 40
0.2773396562
 40
0.3359761113
 40
0.3986301992
 40
0.465084592
 40
0.5350105167
 40
0.6079903784
 40
0.6835358481
 40
0.7611056151
 40
0.8401138183
 40
0.9199570809
 40
1.0
 40
1.0
 40
1.0
 40
1.0
 10
6.0884370224
 20
5.2120843937
 30
0.0
 10
6.0886934443
 20
5.2120843938
 30
0.0
 10
6.0892087733
 20
5.2120578329
 30
0.0
 10
6.0899782801
 20
5.2119388777
 30
0.0
 10
6.0907435603
 20
5.2117409424
 30
0.0
 10
6.0917692743
 20
5.2113676736
 30
0.0
 10
6.093036801
 20
5.2106947136
 30
0.0
 10
6.0944804926
 20
5.2095992082
 30
0.0
 10
6.0958565198
 20
5.2082178132
 30
0.0
 10
6.0971520679
 20
5.2065657433
 30
0.0
 10
6.0983552118
 20
5.2046600479
 30
0.0
 10
6.0994542595
 20
5.2025202129
 30
0.0
 10
6.1004382594
 20
5.2001681255
 30
0.0
 10
6.1012972042
 20
5.1976279715
 30
0.0
 10
6.1020222431
 20
5.1949259958
 30
0.0
 10
6.1026058639
 20
5.1920902075
 30
0.0
 10
6.1030419452
 20
5.1891501229
 30
0.0
 10
6.1033259823
 20
5.1861362795
 30
0.0
 10
6.1034549181
 20
5.1830802741
 30
0.0
 10
6.1034365966
 20
5.1810330245
 30
0.0
 10
6.1034011023
 20
5.1800092251
 30
0.0
  0
SPLINE
  5
2D7
100
AcDbEntity
  8
0
100
AcDbSpline
 62
7
  6
CONTINUOUS
 70
0
 71
3
 72
25
 73
21
 74
0
 42
0.0000001
 43
0.0000001
 44
0.0000000001
 40
0.0
 40
0.0
 40
0.0
 40
0.0
 40
0.020035635
 40
0.0402355558
 40
0.0607424346
 40
0.0816963383
 40
0.1254103407
 40
0.1722586441
 40
0.2227989547
 40
0.2773397395
 40
0.3359761868
 40
0.3986302663
 40
0.4650846506
 40
0.5350105664
 40
0.607990419
 40
0.68353588
 40
0.7611056377
 40
0.8401138336
 40
0.9199570872
 40
1.0
 40
1.0
 40
1.0
 40
1.0
 10
6.0884370001
 20
5.2120843937
 30
0.0
 10
6.0881805777
 20
5.2120843938
 30
0.0
 10
6.0876652474
 20
5.2120578328
 30
0.0
 10
6.0868957389
 20
5.211938878
 30
0.0
 10
6.0861304575
 20
5.2117409428
 30
0.0
 10
6.0851047435
 20
5.2113676738
 30
0.0
 10
6.0838372171
 20
5.2106947139
 30
0.0
 10
6.0823935256
 20
5.2095992088
 30
0.0
 10
6.0810174984
 20
5.2082178139
 30
0.0
 10
6.0797219503
 20
5.2065657443
 30
0.0
 10
6.0785188065
 20
5.2046600491
 30
0.0
 10
6.0774197587
 20
5.2025202143
 30
0.0
 10
6.0764357588
 20
5.2001681272
 30
0.0
 10
6.0755768139
 20
5.1976279735
 30
0.0
 10
6.0748517751
 20
5.194925998
 30
0.0
 10
6.0742681539
 20
5.19209021
 30
0.0
 10
6.0738320729
 20
5.1891501256
 30
0.0
 10
6.0735480351
 20
5.1861362824
 30
0.0
 10
6.0734190985
 20
5.1830802771
 30
0.0
 10
6.0734374255
 20
5.1810330277
 30
0.0
 10
6.0734729197
 20
5.1800092283
 30
0.0
  0
SPLINE
  5
2D8
100
AcDbEntity
  8
0
100
AcDbSpline
 62
7
  6
CONTINUOUS
 70
0
 71
3
 72
15
 73
11
 74
0
 42
0.0000001
 43
0.0000001
 44
0.0000000001
 40
0.0
 40
0.0
 40
0.0
 40
0.0
 40
0.1284950462
 40
0.2575859212
 40
0.3864120998
 40
0.5141160832
 40
0.6399112688
 40
0.7631270565
 40
0.8832530836
 40
1.0
 40
1.0
 40
1.0
 40
1.0
 10
5.6219607724
 20
2.9228343936
 30
0.0
 10
5.6221820138
 20
2.924207062
 30
0.0
 10
5.6227851696
 20
2.9269355696
 30
0.0
 10
5.6241455761
 20
2.9308981523
 30
0.0
 10
5.6259397941
 20
2.9346753338
 30
0.0
 10
5.6281334096
 20
2.9381936121
 30
0.0
 10
5.6306844107
 20
2.9413852019
 30
0.0
 10
5.6335444121
 20
2.9441883325
 30
0.0
 10
5.6366579858
 20
2.9465480636
 30
0.0
 10
5.6388978986
 20
2.9478138435
 30
0.0
 10
5.6400396537
 20
2.9483544242
 30
0.0
  0
SPLINE
  5
2D9
100
AcDbEntity
  8
0
100
AcDbSpline
 62
7
  6
CONTINUOUS
 70
0
 71
3
 72
17
 73
13
 74
0
 42
0.0000001
 43
0.0000001
 44
0.0000000001
 40
0.0
 40
0.0
 40
0.0
 40
0.0
 40
0.1606926764
 40
0.3167351221
 40
0.4651123434
 40
0.60294593
 40
0.7275751772
 40
0.836607381
 40
0.88461451
 40
0.9279747429
 40
0.9664964508
 40
1.0
 40
1.0
 40
1.0
 40
1.0
 10
6.0393525767
 20
2.9228343705
 30
0.0
 10
6.0390775793
 20
2.9241906748
 30
0.0
 10
6.0385492631
 20
2.9268668392
 30
0.0
 10
6.0378156063
 20
2.9308047548
 30
0.0
 10
6.0371613931
 20
2.934556974
 30
0.0
 10
6.0365991515
 20
2.9380503386
 30
0.0
 10
6.0361396491
 20
2.9412166582
 30
0.0
 10
6.03583736
 20
2.9436237547
 30
0.0
 10
6.0356575045
 20
2.9453402766
 30
0.0
 10
6.0355588952
 20
2.9464546039
 30
0.0
 10
6.0354910672
 20
2.9474460672
 30
0.0
 10
6.035464543
 20
2.948065905
 30
0.0
 10
6.0354576077
 20
2.9483543577
 30
0.0
  0
LINE
  5
2DA
100
AcDbEntity
  8
0
100
AcDbLine
 62
7
  6
CONTINUOUS
 10
6.0884370145
 20
2.9341133308
 11
6.0812570856
 21
2.9589020517
  0
LINE
  5
2DB
100
AcDbEntity
  8
0
100
AcDbLine
 62
7
  6
CONTINUOUS
 10
6.0884370145
 20
2.9341133308
 11
6.0956169451
 21
2.9589021027
  0
SPLINE
  5
2DC
100
AcDbEntity
  8
0
100
AcDbSpline
 62
7
  6
CONTINUOUS
 70
0
 71
3
 72
17
 73
13
 74
0
 42
0.0000001
 43
0.0000001
 44
0.0000000001
 40
0.0
 40
0.0
 40
0.0
 40
0.0
 40
0.1606937571
 40
0.3167370765
 40
0.4651148996
 40
0.6029487607
 40
0.7275779117
 40
0.8366096186
 40
0.8846163437
 40
0.927976068
 40
0.9664971637
 40
1.0
 40
1.0
 40
1.0
 40
1.0
 10
6.1375214786
 20
2.9228343912
 30
0.0
 10
6.1377964788
 20
2.9241907058
 30
0.0
 10
6.1383247996
 20
2.9268668892
 30
0.0
 10
6.139058461
 20
2.9308048304
 30
0.0
 10
6.1397126758
 20
2.9345570684
 30
0.0
 10
6.1402749159
 20
2.9380504436
 30
0.0
 10
6.140734414
 20
2.9412167642
 30
0.0
 10
6.1410366971
 20
2.9436238553
 30
0.0
 10
6.1412165462
 20
2.9453403674
 30
0.0
 10
6.1413151501
 20
2.946454683
 30
0.0
 10
6.141382972
 20
2.947446132
 30
0.0
 10
6.1414094916
 20
2.9480659591
 30
0.0
 10
6.1414164244
 20
2.948354406
 30
0.0
  0
SPLINE
  5
2DD
100
AcDbEntity
  8
0
100
AcDbSpline
 62
7
  6
CONTINUOUS
 70
0
 71
3
 72
15
 73
11
 74
0
 42
0.0000001
 43
0.0000001
 44
0.0000000001
 40
0.0
 40
0.0
 40
0.0
 40
0.0
 40
0.1284948605
 40
0.2575855733
 40
0.3864116351
 40
0.514115565
 40
0.6399107715
 40
0.7631266581
 40
0.8832528562
 40
1.0
 40
1.0
 40
1.0
 40
1.0
 10
6.5549128957
 20
2.9228343715
 30
0.0
 10
6.5546916624
 20
2.9242070279
 30
0.0
 10
6.5540885254
 20
2.9269355127
 30
0.0
 10
6.5527281536
 20
2.9308980663
 30
0.0
 10
6.5509339762
 20
2.9346752258
 30
0.0
 10
6.5487404056
 20
2.9381934909
 30
0.0
 10
6.5461894521
 20
2.9413850775
 30
0.0
 10
6.5433294996
 20
2.9441882161
 30
0.0
 10
6.540215974
 20
2.9465479673
 30
0.0
 10
6.5379760925
 20
2.9478137689
 30
0.0
 10
6.5368343521
 20
2.9483543628
 30
0.0
  0
SPLINE
  5
2DE
100
AcDbEntity
  8
0
100
AcDbSpline
 62
7
  6
CONTINUOUS
 70
0
 71
3
 72
15
 73
11
 74
0
 42
0.0000001
 43
0.0000001
 44
0.0000000001
 40
0.0
 40
0.0
 40
0.0
 40
0.0
 40
0.1251640329
 40
0.2515975166
 40
0.378648943
 40
0.5056237366
 40
0.6318419096
 40
0.7566666656
 40
0.8795348248
 40
1.0
 40
1.0
 40
1.0
 40
1.0
 10
6.5807885926
 20
2.9341132538
 30
0.0
 10
6.5805426862
 20
2.9354355578
 30
0.0
 10
6.5798907973
 20
2.9380669966
 30
0.0
 10
6.5784531468
 20
2.9418827213
 30
0.0
 10
6.5765786489
 20
2.9455261701
 30
0.0
 10
6.5743001843
 20
2.9489287886
 30
0.0
 10
6.5716599943
 20
2.9520278397
 30
0.0
 10
6.568706532
 20
2.9547662169
 30
0.0
 10
6.5654949829
 20
2.9570922875
 30
0.0
 10
6.5631958495
 20
2.9583554282
 30
0.0
 10
6.5620223781
 20
2.958901917
 30
0.0
  0
SPLINE
  5
2DF
100
AcDbEntity
  8
0
100
AcDbSpline
 62
7
  6
CONTINUOUS
 70
0
 71
3
 72
15
 73
11
 74
0
 42
0.0000001
 43
0.0000001
 44
0.0000000001
 40
0.0
 40
0.0
 40
0.0
 40
0.0
 40
0.1352939914
 40
0.2675641876
 40
0.3965576099
 40
0.5222292635
 40
0.6448032486
 40
0.7647692001
 40
0.8828534069
 40
1.0
 40
1.0
 40
1.0
 40
1.0
 10
6.5807885926
 20
2.9341132538
 30
0.0
 10
6.5809137759
 20
2.9354135668
 30
0.0
 10
6.5810036665
 20
2.9380033021
 30
0.0
 10
6.5806550848
 20
2.9418265004
 30
0.0
 10
6.5798243909
 20
2.9454809672
 30
0.0
 10
6.5785270795
 20
2.9488977958
 30
0.0
 10
6.5767857299
 20
2.9520127772
 30
0.0
 10
6.5746309887
 20
2.9547665292
 30
0.0
 10
6.5721030398
 20
2.9571054868
 30
0.0
 10
6.5701953814
 20
2.9583605636
 30
0.0
 10
6.5692022686
 20
2.958901971
 30
0.0
  0
SPLINE
  5
2E0
100
AcDbEntity
  8
0
100
AcDbSpline
 62
7
  6
CONTINUOUS
 70
0
 71
3
 72
15
 73
11
 74
0
 42
0.0000001
 43
0.0000001
 44
0.0000000001
 40
0.0
 40
0.0
 40
0.0
 40
0.0
 40
0.1318370672
 40
0.2616636385
 40
0.3893058653
 40
0.5147419064
 40
0.6381298605
 40
0.7597985868
 40
0.8802225277
 40
1.0
 40
1.0
 40
1.0
 40
1.0
 10
6.6039976783
 20
2.9228343912
 30
0.0
 10
6.6040540987
 20
2.9241913246
 30
0.0
 10
6.6039937157
 20
2.9268951762
 30
0.0
 10
6.603373703
 20
2.9308690709
 30
0.0
 10
6.6022362623
 20
2.9346594305
 30
0.0
 10
6.6006023166
 20
2.9381913701
 30
0.0
 10
6.598502812
 20
2.9413955215
 30
0.0
 10
6.5959776735
 20
2.9442083111
 30
0.0
 10
6.5930771391
 20
2.9465730406
 30
0.0
 10
6.5909265783
 20
2.9478214693
 30
0.0
 10
6.5898137405
 20
2.9483544233
 30
0.0
  0
LINE
  5
2E1
100
AcDbEntity
  8
0
100
AcDbLine
 62
7
  6
CONTINUOUS
 10
5.8765572114
 20
5.6171412104
 11
5.8766265763
 21
5.6172631102
  0
SPLINE
  5
2E2
100
AcDbEntity
  8
0
100
AcDbSpline
 62
7
  6
CONTINUOUS
 70
0
 71
3
 72
19
 73
15
 74
0
 42
0.0000001
 43
0.0000001
 44
0.0000000001
 40
0.0
 40
0.0
 40
0.0
 40
0.0
 40
0.0181685111
 40
0.0420796767
 40
0.0721944307
 40
0.1086813076
 40
0.1515557252
 40
0.2007623701
 40
0.2561822911
 40
0.3176647029
 40
0.4580318691
 40
0.6200473444
 40
0.801540366
 40
1.0
 40
1.0
 40
1.0
 40
1.0
 10
5.8766265763
 20
5.6172631102
 30
0.0
 10
5.8766598049
 20
5.6172938603
 30
0.0
 10
5.8767496729
 20
5.6173505766
 30
0.0
 10
5.8769165717
 20
5.6174183804
 30
0.0
 10
5.8771338397
 20
5.6174803311
 30
0.0
 10
5.8774010568
 20
5.6175358739
 30
0.0
 10
5.8777177836
 20
5.6175848463
 30
0.0
 10
5.878082991
 20
5.6176268975
 30
0.0
 10
5.8784954853
 20
5.6176618691
 30
0.0
 10
5.8791354553
 20
5.6177004722
 30
0.0
 10
5.8800419706
 20
5.6177271885
 30
0.0
 10
5.8812478351
 20
5.6177286595
 30
0.0
 10
5.8825981474
 20
5.6177002478
 30
0.0
 10
5.8835442632
 20
5.6176630642
 30
0.0
 10
5.8840382582
 20
5.6176399127
 30
0.0
  0
SPLINE
  5
2E3
100
AcDbEntity
  8
0
100
AcDbSpline
 62
7
  6
CONTINUOUS
 70
0
 71
3
 72
20
 73
16
 74
0
 42
0.0000001
 43
0.0000001
 44
0.0000000001
 40
0.0
 40
0.0
 40
0.0
 40
0.0
 40
0.0588678371
 40
0.1178783264
 40
0.1771204588
 40
0.2367196907
 40
0.2967789926
 40
0.3573833927
 40
0.4186050513
 40
0.480498503
 40
0.6063218994
 40
0.7350237118
 40
0.8004369615
 40
0.8664630322
 40
1.0
 40
1.0
 40
1.0
 40
1.0
 10
3.1215060119
 20
5.0160880567
 30
0.0
 10
3.1210612629
 20
5.0162072296
 30
0.0
 10
3.1201811715
 20
5.0164871478
 30
0.0
 10
3.1189033786
 20
5.0170271394
 30
0.0
 10
3.1176751124
 20
5.0176843243
 30
0.0
 10
3.1165044698
 20
5.0184542872
 30
0.0
 10
3.1153987222
 20
5.0193320462
 30
0.0
 10
3.1143650119
 20
5.0203120336
 30
0.0
 10
3.1134098227
 20
5.0213879866
 30
0.0
 10
3.1122429853
 20
5.0229491429
 30
0.0
 10
3.111012571
 20
5.0251098509
 30
0.0
 10
3.1101267514
 20
5.0274612511
 30
0.0
 10
3.109626704
 20
5.0294352674
 30
0.0
 10
3.1092669772
 20
5.0314777467
 30
0.0
 10
3.1091648661
 20
5.0330423338
 30
0.0
 10
3.1091699011
 20
5.0340867901
 30
0.0
  0
SPLINE
  5
2E4
100
AcDbEntity
  8
0
100
AcDbSpline
 62
7
  6
CONTINUOUS
 70
0
 71
3
 72
13
 73
9
 74
0
 42
0.0000001
 43
0.0000001
 44
0.0000000001
 40
0.0
 40
0.0
 40
0.0
 40
0.0
 40
0.112521275
 40
0.2267219636
 40
0.3436896879
 40
0.4644502201
 40
0.7204450398
 40
1.0
 40
1.0
 40
1.0
 40
1.0
 10
5.8870048638
 20
5.6350090769
 30
0.0
 10
5.8871518394
 20
5.6351068244
 30
0.0
 10
5.8874607325
 20
5.6352852956
 30
0.0
 10
5.8879582794
 20
5.6354961739
 30
0.0
 10
5.8884897095
 20
5.635650307
 30
0.0
 10
5.8892543435
 20
5.6357820403
 30
0.0
 10
5.8902907618
 20
5.6357940998
 30
0.0
 10
5.891123483
 20
5.6356564066
 30
0.0
 10
5.8915501364
 20
5.635555008
 30
0.0
  0
SPLINE
  5
2E5
100
AcDbEntity
  8
0
100
AcDbSpline
 62
7
  6
CONTINUOUS
 70
0
 71
3
 72
13
 73
9
 74
0
 42
0.0000001
 43
0.0000001
 44
0.0000000001
 40
0.0
 40
0.0
 40
0.0
 40
0.0
 40
0.1099862526
 40
0.2220130484
 40
0.337407377
 40
0.4573848216
 40
0.7147078524
 40
1.0
 40
1.0
 40
1.0
 40
1.0
 10
5.8880377169
 20
5.635706718
 30
0.0
 10
5.8881658526
 20
5.6357819625
 30
0.0
 10
5.8884350945
 20
5.635916524
 30
0.0
 10
5.8888671383
 20
5.636065588
 30
0.0
 10
5.8893276128
 20
5.6361623127
 30
0.0
 10
5.8899918221
 20
5.6362226782
 30
0.0
 10
5.8908908125
 20
5.6361570211
 30
0.0
 10
5.8916047683
 20
5.6359769874
 30
0.0
 10
5.8919714247
 20
5.6358581327
 30
0.0
  0
SPLINE
  5
2E6
100
AcDbEntity
  8
0
100
AcDbSpline
 62
7
  6
CONTINUOUS
 70
0
 71
3
 72
49
 73
45
 74
0
 42
0.0000001
 43
0.0000001
 44
0.0000000001
 40
0.0
 40
0.0
 40
0.0
 40
0.0
 40
0.1207866833
 40
0.2339031427
 40
0.3393004455
 40
0.4369466271
 40
0.5268183991
 40
0.6088993461
 40
0.6831850216
 40
0.7496707326
 40
0.7799839803
 40
0.8083411447
 40
0.8347415838
 40
0.8591859722
 40
0.8816748945
 40
0.9022088092
 40
0.9207880814
 40
0.9374130114
 40
0.952083832
 40
0.9586863789
 40
0.9648001304
 40
0.970424899
 40
0.9755604964
 40
0.9802067341
 40
0.984363423
 40
0.9880303761
 40
0.99120757
 40
0.9938952438
 40
0.9950555925
 40
0.9960936593
 40
0.9970094768
 40
0.9978030776
 40
0.9984744943
 40
0.9990237594
 40
0.9992525954
 40
0.9994509058
 40
0.9996186948
 40
0.9997559665
 40
0.9998627253
 40
0.9999389759
 40
0.9999656626
 40
0.9999847249
 40
0.9999961656
 40
1.0
 40
1.0
 40
1.0
 40
1.0
 10
5.5728762983
 20
2.9228343937
 30
0.0
 10
5.570730013
 20
2.9218595269
 30
0.0
 10
5.5665603181
 20
2.9200010778
 30
0.0
 10
5.5604756442
 20
2.9173879331
 30
0.0
 10
5.5547754873
 20
2.915025212
 30
0.0
 10
5.5494682975
 20
2.912900357
 30
0.0
 10
5.544561679
 20
2.9110002671
 30
0.0
 10
5.5400623632
 20
2.909311683
 30
0.0
 10
5.5359762118
 20
2.9078217745
 30
0.0
 10
5.5328301591
 20
2.9067032438
 30
0.0
 10
5.5305238743
 20
2.9058986983
 30
0.0
 10
5.5289542209
 20
2.9053576885
 30
0.0
 10
5.5274910751
 20
2.9048591966
 30
0.0
 10
5.5261348265
 20
2.9044020974
 30
0.0
 10
5.5248858306
 20
2.9039852756
 30
0.0
 10
5.5237444501
 20
2.9036075892
 30
0.0
 10
5.5227109296
 20
2.9032682517
 30
0.0
 10
5.5217855006
 20
2.9029665186
 30
0.0
 10
5.5210819214
 20
2.9027384047
 30
0.0
 10
5.5205733217
 20
2.9025740529
 30
0.0
 10
5.5202326398
 20
2.9024642173
 30
0.0
 10
5.5199191372
 20
2.9023633808
 30
0.0
 10
5.5196328343
 20
2.9022715165
 30
0.0
 10
5.5193737517
 20
2.9021885965
 30
0.0
 10
5.5191419103
 20
2.9021145929
 30
0.0
 10
5.5189373274
 20
2.9020494774
 30
0.0
 10
5.5187600131
 20
2.9019932164
 30
0.0
 10
5.5186292886
 20
2.9019518737
 30
0.0
 10
5.5185383453
 20
2.9019231938
 30
0.0
 10
5.5184803708
 20
2.9019049466
 30
0.0
 10
5.518429214
 20
2.9018888792
 30
0.0
 10
5.5183848746
 20
2.9018749858
 30
0.0
 10
5.5183473526
 20
2.9018632609
 30
0.0
 10
5.5183203428
 20
2.9018548485
 30
0.0
 10
5.5183021434
 20
2.901849201
 30
0.0
 10
5.5182910507
 20
2.9018457674
 30
0.0
 10
5.5182816652
 20
2.9018428757
 30
0.0
 10
5.5182739756
 20
2.9018405089
 30
0.0
 10
5.5182680119
 20
2.901838709
 30
0.0
 10
5.5182640613
 20
2.901837482
 30
0.0
 10
5.5182618213
 20
2.9018368691
 30
0.0
 10
5.5182606775
 20
2.9018364584
 30
0.0
 10
5.5182601577
 20
2.9018364588
 30
0.0
 10
5.5182597369
 20
2.9018362027
 30
0.0
 10
5.5182597154
 20
2.9018362744
 30
0.0
  0
SPLINE
  5
2E7
100
AcDbEntity
  8
0
100
AcDbSpline
 62
7
  6
CONTINUOUS
 70
0
 71
3
 72
35
 73
31
 74
0
 42
0.0000001
 43
0.0000001
 44
0.0000000001
 40
0.0
 40
0.0
 40
0.0
 40
0.0
 40
0.0740140975
 40
0.1474861331
 40
0.2201828199
 40
0.2561682678
 40
0.2918731719
 40
0.3623279521
 40
0.3970235881
 40
0.4313281933
 40
0.4652152361
 40
0.4986584862
 40
0.5316323829
 40
0.5641117223
 40
0.5960720257
 40
0.627489315
 40
0.6583404578
 40
0.6886030773
 40
0.7182559434
 40
0.7472788803
 40
0.7756532524
 40
0.8033621142
 40
0.8303906757
 40
0.8567266485
 40
0.8823610322
 40
0.9072884051
 40
0.931507645
 40
0.9550240581
 40
0.9778495785
 40
1.0
 40
1.0
 40
1.0
 40
1.0
 10
6.0393525377
 20
2.9228343937
 30
0.0
 10
6.0291706992
 20
2.9208280071
 30
0.0
 10
6.0088087351
 20
2.9171922378
 30
0.0
 10
5.9782567635
 20
2.912728648
 30
0.0
 10
5.9528887333
 20
2.9097410236
 30
0.0
 10
5.9327417641
 20
2.9077497522
 30
0.0
 10
5.9128859794
 20
2.9060223676
 30
0.0
 10
5.893183068
 20
2.9046394829
 30
0.0
 10
5.8736586005
 20
2.9035751396
 30
0.0
 10
5.8592466034
 20
2.9029339333
 30
0.0
 10
5.8450045142
 20
2.9024408607
 30
0.0
 10
5.8309448081
 20
2.9020915814
 30
0.0
 10
5.8170797088
 20
2.9018832335
 30
0.0
 10
5.8034211451
 20
2.9018130694
 30
0.0
 10
5.7899808163
 20
2.9018810011
 30
0.0
 10
5.7767701975
 20
2.9020871024
 30
0.0
 10
5.7638006202
 20
2.9024340665
 30
0.0
 10
5.7510832242
 20
2.9029247239
 30
0.0
 10
5.7386290277
 20
2.9035634103
 30
0.0
 10
5.726448853
 20
2.9043549178
 30
0.0
 10
5.7145535388
 20
2.9053071674
 30
0.0
 10
5.7029537523
 20
2.9064281007
 30
0.0
 10
5.6916599964
 20
2.9077262618
 30
0.0
 10
5.6806825946
 20
2.9092112825
 30
0.0
 10
5.6700319207
 20
2.9108951081
 30
0.0
 10
5.6597181313
 20
2.9127897694
 30
0.0
 10
5.6497510086
 20
2.9149076128
 30
0.0
 10
5.6401400177
 20
2.9172625643
 30
0.0
 10
5.630895119
 20
2.9198694083
 30
0.0
 10
5.6248939365
 20
2.9218135079
 30
0.0
 10
5.6219607709
 20
2.9228343937
 30
0.0
  0
SPLINE
  5
2E8
100
AcDbEntity
  8
0
100
AcDbSpline
 62
7
  6
CONTINUOUS
 70
0
 71
3
 72
35
 73
31
 74
0
 42
0.0000001
 43
0.0000001
 44
0.0000000001
 40
0.0
 40
0.0
 40
0.0
 40
0.0
 40
0.0221504217
 40
0.0449759419
 40
0.0684923547
 40
0.0927115947
 40
0.1176389677
 40
0.1432733515
 40
0.1696093243
 40
0.1966378857
 40
0.2243467476
 40
0.2527211197
 40
0.2817440566
 40
0.3113969227
 40
0.3416595423
 40
0.372510685
 40
0.4039279742
 40
0.4358882777
 40
0.4683676173
 40
0.501341514
 40
0.5347847637
 40
0.5686718067
 40
0.6029764121
 40
0.637672048
 40
0.7081268281
 40
0.7438317322
 40
0.7798171801
 40
0.8525138669
 40
0.9259859024
 40
1.0
 40
1.0
 40
1.0
 40
1.0
 10
6.5549132496
 20
2.9228343937
 30
0.0
 10
6.5519800839
 20
2.9218135078
 30
0.0
 10
6.5459789016
 20
2.9198694078
 30
0.0
 10
6.5367340029
 20
2.917262564
 30
0.0
 10
6.5271230116
 20
2.9149076141
 30
0.0
 10
6.5171558889
 20
2.9127897708
 30
0.0
 10
6.5068420998
 20
2.9108951078
 30
0.0
 10
6.496191426
 20
2.9092112817
 30
0.0
 10
6.4852140241
 20
2.9077262621
 30
0.0
 10
6.4739202681
 20
2.9064281018
 30
0.0
 10
6.4623204815
 20
2.9053071686
 30
0.0
 10
6.4504251675
 20
2.9043549173
 30
0.0
 10
6.4382449928
 20
2.9035634084
 30
0.0
 10
6.4257907962
 20
2.9029247247
 30
0.0
 10
6.4130734001
 20
2.9024340699
 30
0.0
 10
6.4001038229
 20
2.9020871021
 30
0.0
 10
6.3868932042
 20
2.9018809971
 30
0.0
 10
6.3734528754
 20
2.9018130694
 30
0.0
 10
6.3597943116
 20
2.9018832374
 30
0.0
 10
6.3459292123
 20
2.9020915818
 30
0.0
 10
6.3318695061
 20
2.9024408575
 30
0.0
 10
6.317627417
 20
2.9029339325
 30
0.0
 10
6.30321542
 20
2.9035751414
 30
0.0
 10
6.2836909524
 20
2.904639483
 30
0.0
 10
6.2639880409
 20
2.906022366
 30
0.0
 10
6.2441322563
 20
2.9077497518
 30
0.0
 10
6.2239852873
 20
2.909741025
 30
0.0
 10
6.1986172567
 20
2.9127286456
 30
0.0
 10
6.1680652855
 20
2.9171922384
 30
0.0
 10
6.1477033213
 20
2.9208280073
 30
0.0
 10
6.1375214828
 20
2.9228343937
 30
0.0
  0
SPLINE
  5
2E9
100
AcDbEntity
  8
0
100
AcDbSpline
 62
7
  6
CONTINUOUS
 70
0
 71
3
 72
13
 73
9
 74
0
 42
0.0000001
 43
0.0000001
 44
0.0000000001
 40
0.0
 40
0.0
 40
0.0
 40
0.0
 40
0.1175408378
 40
0.2414387586
 40
0.5000000297
 40
0.7585612824
 40
0.8824591837
 40
1.0
 40
1.0
 40
1.0
 40
1.0
 10
6.0809790297
 20
5.616483978
 30
0.0
 10
6.0815624255
 20
5.6165247096
 30
0.0
 10
6.0827616912
 20
5.6165955315
 30
0.0
 10
6.0852474535
 20
5.6166966523
 30
0.0
 10
6.0884370096
 20
5.6167456352
 30
0.0
 10
6.0916265655
 20
5.6166966526
 30
0.0
 10
6.0941123276
 20
5.6165955319
 30
0.0
 10
6.0953115931
 20
5.6165247101
 30
0.0
 10
6.0958949888
 20
5.6164839785
 30
0.0
  0
SPLINE
  5
2EA
100
AcDbEntity
  8
0
100
AcDbSpline
 62
7
  6
CONTINUOUS
 70
0
 71
3
 72
49
 73
45
 74
0
 42
0.0000001
 43
0.0000001
 44
0.0000000001
 40
0.0
 40
0.0
 40
0.0
 40
0.0
 40
0.0000038313
 40
0.0000152664
 40
0.0000343226
 40
0.0000610031
 40
0.0001372414
 40
0.0002439879
 40
0.0003812477
 40
0.0005490251
 40
0.0007473243
 40
0.0009761497
 40
0.0015253953
 40
0.0021967949
 40
0.0029903815
 40
0.0039061879
 40
0.004944247
 40
0.0061045917
 40
0.00879227
 40
0.011969487
 40
0.0156364834
 40
0.0197932316
 40
0.0244395368
 40
0.0295752018
 40
0.0352000301
 40
0.0413138252
 40
0.0479163913
 40
0.0625871526
 40
0.0792119262
 40
0.0977910217
 40
0.118324818
 40
0.1408137357
 40
0.1652582045
 40
0.1916587611
 40
0.2200160314
 40
0.2503293454
 40
0.3168150605
 40
0.3911005916
 40
0.4731814407
 40
0.5630533006
 40
0.660699586
 40
0.766096905
 40
0.879213346
 40
1.0
 40
1.0
 40
1.0
 40
1.0
 10
6.6586143051
 20
2.9018362744
 30
0.0
 10
6.6586142846
 20
2.9018362025
 30
0.0
 10
6.658613861
 20
2.901836455
 30
0.0
 10
6.6586133436
 20
2.9018364554
 30
0.0
 10
6.6586121983
 20
2.9018368632
 30
0.0
 10
6.658609959
 20
2.9018374745
 30
0.0
 10
6.6586060075
 20
2.9018386984
 30
0.0
 10
6.658600044
 20
2.9018404957
 30
0.0
 10
6.6585923543
 20
2.9018428597
 30
0.0
 10
6.6585829687
 20
2.901845749
 30
0.0
 10
6.658571876
 20
2.9018491803
 30
0.0
 10
6.6585536765
 20
2.9018548249
 30
0.0
 10
6.6585266667
 20
2.9018632342
 30
0.0
 10
6.6584891449
 20
2.9018749563
 30
0.0
 10
6.6584448057
 20
2.9018888476
 30
0.0
 10
6.6583936492
 20
2.9019049137
 30
0.0
 10
6.658335675
 20
2.9019231604
 30
0.0
 10
6.6582447319
 20
2.9019518406
 30
0.0
 10
6.6581140077
 20
2.9019931858
 30
0.0
 10
6.6579366938
 20
2.9020494526
 30
0.0
 10
6.6577321111
 20
2.9021145768
 30
0.0
 10
6.6575002696
 20
2.9021885912
 30
0.0
 10
6.6572411868
 20
2.9022715228
 30
0.0
 10
6.6569548835
 20
2.9023633983
 30
0.0
 10
6.6566413804
 20
2.9024642444
 30
0.0
 10
6.6563006981
 20
2.9025740867
 30
0.0
 10
6.6557920995
 20
2.9027384419
 30
0.0
 10
6.6550885207
 20
2.9029665446
 30
0.0
 10
6.6541630906
 20
2.9032682498
 30
0.0
 10
6.6531295695
 20
2.9036075574
 30
0.0
 10
6.6519881887
 20
2.9039852241
 30
0.0
 10
6.650739194
 20
2.9044020471
 30
0.0
 10
6.6493829462
 20
2.9048591605
 30
0.0
 10
6.6479198009
 20
2.9053576723
 30
0.0
 10
6.6463501475
 20
2.9058986995
 30
0.0
 10
6.6440438639
 20
2.9067032589
 30
0.0
 10
6.6408978125
 20
2.9078217891
 30
0.0
 10
6.6368116557
 20
2.9093116693
 30
0.0
 10
6.6323123363
 20
2.9110002359
 30
0.0
 10
6.6274057233
 20
2.9129003458
 30
0.0
 10
6.6220985361
 20
2.9150252181
 30
0.0
 10
6.6163983775
 20
2.9173879406
 30
0.0
 10
6.6103137021
 20
2.9200010806
 30
0.0
 10
6.6061440069
 20
2.9218595269
 30
0.0
 10
6.6039977221
 20
2.9228343937
 30
0.0
  0
SPLINE
  5
2EB
100
AcDbEntity
  8
0
100
AcDbSpline
 62
7
  6
CONTINUOUS
 70
0
 71
3
 72
9
 73
5
 74
0
 42
0.0000001
 43
0.0000001
 44
0.0000000001
 40
0.0
 40
0.0
 40
0.0
 40
0.0
 40
0.5000051647
 40
1.0
 40
1.0
 40
1.0
 40
1.0
 10
3.9262910598
 20
5.5007093473
 30
0.0
 10
4.1687311921
 20
5.4436228413
 30
0.0
 10
4.6536454688
 20
5.3296166512
 30
0.0
 10
5.1386434767
 20
5.2159671535
 30
0.0
 10
5.3811620838
 20
5.1592375407
 30
0.0
  0
SPLINE
  5
2EC
100
AcDbEntity
  8
0
100
AcDbSpline
 62
7
  6
CONTINUOUS
 70
0
 71
3
 72
10
 73
6
 74
0
 42
0.0000001
 43
0.0000001
 44
0.0000000001
 40
0.0
 40
0.0
 40
0.0
 40
0.0
 40
0.2585776571
 40
0.5112085915
 40
1.0
 40
1.0
 40
1.0
 40
1.0
 10
5.6219607709
 20
2.9228343937
 30
0.0
 10
5.6196612684
 20
2.923635782
 30
0.0
 10
5.6151414472
 20
2.9252977852
 30
0.0
 10
5.6064292632
 20
2.9288764115
 30
0.0
 10
5.6001308502
 20
2.9319170524
 30
0.0
 10
5.5960854564
 20
2.9341134159
 30
0.0
  0
SPLINE
  5
2ED
100
AcDbEntity
  8
0
100
AcDbSpline
 62
7
  6
CONTINUOUS
 70
0
 71
3
 72
15
 73
11
 74
0
 42
0.0000001
 43
0.0000001
 44
0.0000000001
 40
0.0
 40
0.0
 40
0.0
 40
0.0
 40
0.1318372495
 40
0.2616639884
 40
0.3893063364
 40
0.5147424304
 40
0.6381303551
 40
0.7597989703
 40
0.8802227162
 40
1.0
 40
1.0
 40
1.0
 40
1.0
 10
5.5728781072
 20
2.9228342913
 30
0.0
 10
5.5728216722
 20
2.9241912378
 30
0.0
 10
5.5728820278
 20
2.9268951172
 30
0.0
 10
5.5735020051
 20
2.9308690578
 30
0.0
 10
5.5746394178
 20
2.9346594656
 30
0.0
 10
5.5762733436
 20
2.9381914536
 30
0.0
 10
5.5783728367
 20
2.9413956515
 30
0.0
 10
5.5808979724
 20
2.9442084837
 30
0.0
 10
5.5837985124
 20
2.9465732503
 30
0.0
 10
5.5859490826
 20
2.9478216987
 30
0.0
 10
5.5870619262
 20
2.9483546611
 30
0.0
  0
SPLINE
  5
2EE
100
AcDbEntity
  8
0
100
AcDbSpline
 62
7
  6
CONTINUOUS
 70
0
 71
3
 72
15
 73
11
 74
0
 42
0.0000001
 43
0.0000001
 44
0.0000000001
 40
0.0
 40
0.0
 40
0.0
 40
0.0
 40
0.1352938364
 40
0.2675640052
 40
0.3965574274
 40
0.5222291183
 40
0.6448031617
 40
0.7647691738
 40
0.882853418
 40
1.0
 40
1.0
 40
1.0
 40
1.0
 10
5.5960854633
 20
2.9341134432
 30
0.0
 10
5.5959602768
 20
2.9354137449
 30
0.0
 10
5.5958703802
 20
2.9380034597
 30
0.0
 10
5.5962189541
 20
2.941826629
 30
0.0
 10
5.597049632
 20
2.9454810715
 30
0.0
 10
5.5983469226
 20
2.9488978805
 30
0.0
 10
5.6000882457
 20
2.9520128486
 30
0.0
 10
5.602242956
 20
2.9547665943
 30
0.0
 10
5.6047708701
 20
2.9571055536
 30
0.0
 10
5.6066785041
 20
2.9583606375
 30
0.0
 10
5.6076716048
 20
2.9589020499
 30
0.0
  0
SPLINE
  5
2EF
100
AcDbEntity
  8
0
100
AcDbSpline
 62
7
  6
CONTINUOUS
 70
0
 71
3
 72
15
 73
11
 74
0
 42
0.0000001
 43
0.0000001
 44
0.0000000001
 40
0.0
 40
0.0
 40
0.0
 40
0.0
 40
0.1251641385
 40
0.2515975635
 40
0.3786489245
 40
0.5056236656
 40
0.631841814
 40
0.7566665785
 40
0.8795347739
 40
1.0
 40
1.0
 40
1.0
 40
1.0
 10
5.5960854633
 20
2.9341134432
 30
0.0
 10
5.5963313588
 20
2.935435743
 30
0.0
 10
5.5969832299
 20
2.9380671724
 30
0.0
 10
5.5984208704
 20
2.9418828772
 30
0.0
 10
5.6002953484
 20
2.945526309
 30
0.0
 10
5.6025737927
 20
2.9489289126
 30
0.0
 10
5.6052139593
 20
2.9520279536
 30
0.0
 10
5.6081673962
 20
2.9547663264
 30
0.0
 10
5.6113789181
 20
2.9570923994
 30
0.0
 10
5.6136780325
 20
2.9583555467
 30
0.0
 10
5.6148514945
 20
2.9589020403
 30
0.0
  0
LINE
  5
2F0
100
AcDbEntity
  8
0
100
AcDbLine
 62
7
  6
CONTINUOUS
 10
3.8210276445
 20
5.1054231528
 11
3.8234517943
 21
5.1169078693
  0
SPLINE
  5
2F1
100
AcDbEntity
  8
0
100
AcDbSpline
 62
7
  6
CONTINUOUS
 70
0
 71
3
 72
14
 73
10
 74
0
 42
0.0000001
 43
0.0000001
 44
0.0000000001
 40
0.0
 40
0.0
 40
0.0
 40
0.0
 40
0.2739042253
 40
0.4066664502
 40
0.5354458804
 40
0.6594378646
 40
0.778400699
 40
0.8924282103
 40
1.0
 40
1.0
 40
1.0
 40
1.0
 10
5.8840362527
 20
5.617640473
 30
0.0
 10
5.884170279
 20
5.6194484771
 30
0.0
 10
5.8845761314
 20
5.6221248276
 30
0.0
 10
5.8855365325
 20
5.6255393826
 30
0.0
 10
5.8864312732
 20
5.6279326187
 30
0.0
 10
5.8874812243
 20
5.6301608143
 30
0.0
 10
5.8886880221
 20
5.6321984361
 30
0.0
 10
5.8900615121
 20
5.6339899942
 30
0.0
 10
5.8910491803
 20
5.6350789532
 30
0.0
 10
5.8915652039
 20
5.6355695495
 30
0.0
  0
SPLINE
  5
2F2
100
AcDbEntity
  8
0
100
AcDbSpline
 62
7
  6
CONTINUOUS
 70
0
 71
3
 72
21
 73
17
 74
0
 42
0.0000001
 43
0.0000001
 44
0.0000000001
 40
0.0
 40
0.0
 40
0.0
 40
0.0
 40
0.1274480116
 40
0.1910047717
 40
0.2543890949
 40
0.3176039382
 40
0.3806616919
 40
0.5062752077
 40
0.5688622331
 40
0.6313356107
 40
0.6937440211
 40
0.7560315132
 40
0.8179878176
 40
0.8793689957
 40
0.9400493391
 40
1.0
 40
1.0
 40
1.0
 40
1.0
 10
3.5690589552
 20
5.016617299
 30
0.0
 10
3.5688145136
 20
5.0161349777
 30
0.0
 10
3.5684256736
 20
5.0154232033
 30
0.0
 10
3.5678648967
 20
5.0145008775
 30
0.0
 10
3.5674234938
 20
5.0138253662
 30
0.0
 10
3.5669597979
 20
5.0131675089
 30
0.0
 10
3.566311568
 20
5.0123176389
 30
0.0
 10
3.565617047
 20
5.0115072283
 30
0.0
 10
3.5648781448
 20
5.010741973
 30
0.0
 10
3.5643022721
 20
5.0101929665
 30
0.0
 10
3.5637037756
 20
5.0096706545
 30
0.0
 10
3.5630856117
 20
5.0091753539
 30
0.0
 10
3.5624538445
 20
5.0087049077
 30
0.0
 10
3.5618141824
 20
5.0082570817
 30
0.0
 10
3.5611688564
 20
5.0078327434
 30
0.0
 10
3.5607323221
 20
5.0075653529
 30
0.0
 10
3.5605131541
 20
5.0074362739
 30
0.0
  0
SPLINE
  5
2F3
100
AcDbEntity
  8
0
100
AcDbSpline
 62
7
  6
CONTINUOUS
 70
0
 71
3
 72
19
 73
15
 74
0
 42
0.0000001
 43
0.0000001
 44
0.0000000001
 40
0.0
 40
0.0
 40
0.0
 40
0.0
 40
0.1307401287
 40
0.2604611597
 40
0.3889411442
 40
0.5160232078
 40
0.5790065469
 40
0.6415799901
 40
0.7037094721
 40
0.7652061135
 40
0.8257064821
 40
0.8848637833
 40
0.9428147701
 40
1.0
 40
1.0
 40
1.0
 40
1.0
 10
3.5679805951
 20
5.0168846995
 30
0.0
 10
3.5677722166
 20
5.0163929767
 30
0.0
 10
3.5673230415
 20
5.0154273712
 30
0.0
 10
3.5665525495
 20
5.014036475
 30
0.0
 10
3.5656927773
 20
5.0127166467
 30
0.0
 10
3.564903878
 20
5.0116802043
 30
0.0
 10
3.5642330578
 20
5.010895715
 30
0.0
 10
3.5637132525
 20
5.0103319086
 30
0.0
 10
3.5631767005
 20
5.0097925744
 30
0.0
 10
3.5626278249
 20
5.0092781483
 30
0.0
 10
3.5620731995
 20
5.0087881623
 30
0.0
 10
3.5615184654
 20
5.0083204723
 30
0.0
 10
3.5609609407
 20
5.0078774912
 30
0.0
 10
3.5605813802
 20
5.0075994645
 30
0.0
 10
3.5603896918
 20
5.0074659685
 30
0.0
  0
LINE
  5
2F4
100
AcDbEntity
  8
0
100
AcDbLine
 62
7
  6
CONTINUOUS
 10
3.3263417251
 20
5.0845265327
 11
3.3223492523
 21
5.0702508566
  0
SPLINE
  5
2F5
100
AcDbEntity
  8
0
100
AcDbSpline
 62
7
  6
CONTINUOUS
 70
0
 71
3
 72
15
 73
11
 74
0
 42
0.0000001
 43
0.0000001
 44
0.0000000001
 40
0.0
 40
0.0
 40
0.0
 40
0.0
 40
0.1280930136
 40
0.2559387904
 40
0.3831638545
 40
0.5094470159
 40
0.6344881813
 40
0.7580370042
 40
0.879917958
 40
1.0
 40
1.0
 40
1.0
 40
1.0
 10
3.0833157137
 20
5.1501251427
 30
0.0
 10
3.0831125098
 20
5.1494356506
 30
0.0
 10
3.0827707926
 20
5.1480381011
 30
0.0
 10
3.0824573558
 20
5.1459078422
 30
0.0
 10
3.0823465104
 20
5.143767438
 30
0.0
 10
3.0824395008
 20
5.1416419104
 30
0.0
 10
3.0827353871
 20
5.1395557642
 30
0.0
 10
3.0832307765
 20
5.1375330354
 30
0.0
 10
3.0839200095
 20
5.1355975091
 30
0.0
 10
3.0845082168
 20
5.1343703368
 30
0.0
 10
3.0848321442
 20
5.1337794433
 30
0.0
  0
SPLINE
  5
2F6
100
AcDbEntity
  8
0
100
AcDbSpline
 62
7
  6
CONTINUOUS
 70
0
 71
3
 72
23
 73
19
 74
0
 42
0.0000001
 43
0.0000001
 44
0.0000000001
 40
0.0
 40
0.0
 40
0.0
 40
0.0
 40
0.0624988465
 40
0.1249983394
 40
0.1874974848
 40
0.2499968926
 40
0.3124963797
 40
0.3749959544
 40
0.4374956553
 40
0.4999954952
 40
0.5624954971
 40
0.6249956786
 40
0.6874960324
 40
0.7499965696
 40
0.8124972728
 40
0.8749979452
 40
0.9374991952
 40
1.0
 40
1.0
 40
1.0
 40
1.0
 10
5.2164585231
 20
4.5591594623
 30
0.0
 10
5.1894939281
 20
4.5751652467
 30
0.0
 10
5.1352441283
 20
4.6066408917
 30
0.0
 10
5.0529408223
 20
4.6522134902
 30
0.0
 10
4.9697336217
 20
4.6961156675
 30
0.0
 10
4.8856513706
 20
4.7383176629
 30
0.0
 10
4.8007245811
 20
4.7787939499
 30
0.0
 10
4.7149858394
 20
4.8175210874
 30
0.0
 10
4.6284695935
 20
4.8544791582
 30
0.0
 10
4.5412118923
 20
4.8896514989
 30
0.0
 10
4.4532500497
 20
4.9230244845
 30
0.0
 10
4.364622466
 20
4.9545876844
 30
0.0
 10
4.2753682305
 20
4.9843333913
 30
0.0
 10
4.1855269175
 20
5.0122565648
 30
0.0
 10
4.0951385544
 20
5.0383548521
 30
0.0
 10
4.0042429158
 20
5.0626288993
 30
0.0
 10
3.912881049
 20
5.0850827441
 30
0.0
 10
3.8516878061
 20
5.0988435919
 30
0.0
 10
3.8210276445
 20
5.1054231528
 30
0.0
  0
SPLINE
  5
2F7
100
AcDbEntity
  8
0
100
AcDbSpline
 62
7
  6
CONTINUOUS
 70
0
 71
3
 72
17
 73
13
 74
0
 42
0.0000001
 43
0.0000001
 44
0.0000000001
 40
0.0
 40
0.0
 40
0.0
 40
0.0
 40
0.1493132143
 40
0.2949565896
 40
0.4350669829
 40
0.5679265967
 40
0.6920083819
 40
0.8060095358
 40
0.8589008598
 40
0.9089145983
 40
0.9559711401
 40
1.0
 40
1.0
 40
1.0
 40
1.0
 10
6.0809790467
 20
5.6164844266
 30
0.0
 10
6.0810204696
 20
5.617454591
 30
0.0
 10
6.0811362179
 20
5.619369819
 30
0.0
 10
6.0814106358
 20
5.6221865539
 30
0.0
 10
6.0817799048
 20
5.6248845667
 30
0.0
 10
6.0822380391
 20
5.6274266852
 30
0.0
 10
6.0827778535
 20
5.6297788917
 30
0.0
 10
6.0833009329
 20
5.6315988181
 30
0.0
 10
6.0837580389
 20
5.6329336069
 30
0.0
 10
6.0841074044
 20
5.6338444153
 30
0.0
 10
6.0844706591
 20
5.6346873653
 30
0.0
 10
6.0847299209
 20
5.6352203055
 30
0.0
 10
6.0848621566
 20
5.635474281
 30
0.0
  0
SPLINE
  5
2F8
100
AcDbEntity
  8
0
100
AcDbSpline
 62
7
  6
CONTINUOUS
 70
0
 71
3
 72
24
 73
20
 74
0
 42
0.0000001
 43
0.0000001
 44
0.0000000001
 40
0.0
 40
0.0
 40
0.0
 40
0.0
 40
0.1404641787
 40
0.2102315781
 40
0.2794198004
 40
0.3478488543
 40
0.4153362354
 40
0.4816967633
 40
0.5467476329
 40
0.6103119736
 40
0.6722169037
 40
0.7322974389
 40
0.7616020797
 40
0.7903889709
 40
0.8463326863
 40
0.8734565702
 40
0.8999984152
 40
0.9512769963
 40
1.0
 40
1.0
 40
1.0
 40
1.0
 10
3.3257955677
 20
5.0846880446
 30
0.0
 10
3.3256177302
 20
5.0840160588
 30
0.0
 10
3.3253487532
 20
5.083011042
 30
0.0
 10
3.32498499
 20
5.0816769724
 30
0.0
 10
3.3247133657
 20
5.0806872787
 30
0.0
 10
3.3244454277
 20
5.0797082737
 30
0.0
 10
3.3241833049
 20
5.078742187
 30
0.0
 10
3.3239282164
 20
5.0777915172
 30
0.0
 10
3.3236817151
 20
5.07685865
 30
0.0
 10
3.3234459238
 20
5.0759457689
 30
0.0
 10
3.3232232884
 20
5.0750549237
 30
0.0
 10
3.3230453354
 20
5.0743276852
 30
0.0
 10
3.3229066249
 20
5.0737595712
 30
0.0
 10
3.3227727261
 20
5.0732113602
 30
0.0
 10
3.3226445424
 20
5.0726728387
 30
0.0
 10
3.3225284894
 20
5.0721429498
 30
0.0
 10
3.3224262628
 20
5.0716337397
 30
0.0
 10
3.3223186273
 20
5.0710167431
 30
0.0
 10
3.3222423429
 20
5.0705277769
 30
0.0
 10
3.322205236
 20
5.0702895322
 30
0.0
  0
LINE
  5
2F9
100
AcDbEntity
  8
0
100
AcDbLine
 62
7
  6
CONTINUOUS
 10
5.2187061691
 20
4.5578249997
 11
5.2164585231
 21
4.5591594623
  0
SPLINE
  5
2FA
100
AcDbEntity
  8
0
100
AcDbSpline
 62
7
  6
CONTINUOUS
 70
0
 71
3
 72
14
 73
10
 74
0
 42
0.0000001
 43
0.0000001
 44
0.0000000001
 40
0.0
 40
0.0
 40
0.0
 40
0.0
 40
0.2738683938
 40
0.4066070328
 40
0.535424226
 40
0.6596674486
 40
0.7788047873
 40
0.8923522568
 40
1.0
 40
1.0
 40
1.0
 40
1.0
 10
6.2928377678
 20
5.6176404726
 30
0.0
 10
6.2927040458
 20
5.6194461436
 30
0.0
 10
6.2922994536
 20
5.6221189294
 30
0.0
 10
6.2913441466
 20
5.62553044
 30
0.0
 10
6.2904504331
 20
5.6279229712
 30
0.0
 10
6.2893876505
 20
5.6301460299
 30
0.0
 10
6.2881726685
 20
5.6321733036
 30
0.0
 10
6.2868298353
 20
5.6339831552
 30
0.0
 10
6.2858368209
 20
5.6350616598
 30
0.0
 10
6.2853238824
 20
5.6355550087
 30
0.0
  0
LINE
  5
2FB
100
AcDbEntity
  8
0
100
AcDbLine
 62
7
  6
CONTINUOUS
 10
3.569055486
 20
5.0166180293
 11
3.6050173456
 21
5.0093678922
  0
SPLINE
  5
2FC
100
AcDbEntity
  8
0
100
AcDbSpline
 62
7
  6
CONTINUOUS
 70
0
 71
3
 72
56
 73
52
 74
0
 42
0.0000001
 43
0.0000001
 44
0.0000000001
 40
0.0
 40
0.0
 40
0.0
 40
0.0
 40
0.0314594626
 40
0.0471890344
 40
0.0629180852
 40
0.0786471738
 40
0.094376821
 40
0.1101059277
 40
0.1258334322
 40
0.1415586484
 40
0.1572812908
 40
0.1730014144
 40
0.1887190061
 40
0.2201448777
 40
0.2515562699
 40
0.2829510257
 40
0.3143282583
 40
0.3456851906
 40
0.3770196746
 40
0.3926784184
 40
0.4083310576
 40
0.4239775604
 40
0.4396166147
 40
0.45524739
 40
0.4708705609
 40
0.5020876485
 40
0.5332654782
 40
0.5488405688
 40
0.5644057661
 40
0.5721845426
 40
0.5799606703
 40
0.5955057307
 40
0.6110434312
 40
0.6265737337
 40
0.6420985553
 40
0.6576188547
 40
0.6886483802
 40
0.7196746803
 40
0.7507050759
 40
0.7817455348
 40
0.8128002706
 40
0.8438749236
 40
0.874976718
 40
0.906116961
 40
0.9217076783
 40
0.9373156407
 40
0.9529438079
 40
0.9685965932
 40
0.9764351557
 40
0.984283194
 40
1.0
 40
1.0
 40
1.0
 40
1.0
 10
3.820410022
 20
5.1055556646
 30
0.0
 10
3.8174149829
 20
5.1061975561
 30
0.0
 10
3.8129214124
 20
5.1071558129
 30
0.0
 10
3.8069202
 20
5.1083862934
 30
0.0
 10
3.8024126944
 20
5.1092760658
 30
0.0
 10
3.7978968917
 20
5.1101229429
 30
0.0
 10
3.7933716957
 20
5.1109182453
 30
0.0
 10
3.788837489
 20
5.1116595494
 30
0.0
 10
3.7842947254
 20
5.1123436634
 30
0.0
 10
3.7797439445
 20
5.1129677337
 30
0.0
 10
3.775185616
 20
5.1135282566
 30
0.0
 10
3.7706206396
 20
5.1140249704
 30
0.0
 10
3.7645272569
 20
5.1146044051
 30
0.0
 10
3.7568992728
 20
5.1151767575
 30
0.0
 10
3.7477346651
 20
5.1156312126
 30
0.0
 10
3.7385660035
 20
5.1158478054
 30
0.0
 10
3.7294000664
 20
5.1158221536
 30
0.0
 10
3.7202440949
 20
5.1155450291
 30
0.0
 10
3.712627582
 20
5.1150954645
 30
0.0
 10
3.7065480988
 20
5.1145990641
 30
0.0
 10
3.7019972937
 20
5.1141568149
 30
0.0
 10
3.6974558402
 20
5.113643795
 30
0.0
 10
3.6929259458
 20
5.1130530095
 30
0.0
 10
3.688410414
 20
5.1123755337
 30
0.0
 10
3.682415257
 20
5.1113462484
 30
0.0
 10
3.6749748969
 20
5.1097990901
 30
0.0
 10
3.6676354249
 20
5.1078379056
 30
0.0
 10
3.6618600648
 20
5.1059738464
 30
0.0
 10
3.6582982582
 20
5.104677528
 30
0.0
 10
3.655482154
 20
5.1035588005
 30
0.0
 10
3.6526908447
 20
5.102384588
 30
0.0
 10
3.6492482467
 20
5.1008125093
 30
0.0
 10
3.6451940686
 20
5.0987702632
 30
0.0
 10
3.6412189534
 20
5.0965822988
 30
0.0
 10
3.6373246792
 20
5.0942568705
 30
0.0
 10
3.6322424937
 20
5.0909840103
 30
0.0
 10
3.6260937683
 20
5.0865880241
 30
0.0
 10
3.619041193
 20
5.080888091
 30
0.0
 10
3.6123061138
 20
5.0748155078
 30
0.0
 10
3.6058795976
 20
5.0684142699
 30
0.0
 10
3.5997517934
 20
5.0617212969
 30
0.0
 10
3.5939139036
 20
5.0547666255
 30
0.0
 10
3.5883593946
 20
5.0475734667
 30
0.0
 10
3.5839647602
 20
5.0413971244
 30
0.0
 10
3.5805891479
 20
5.0363523997
 30
0.0
 10
3.5781261233
 20
5.0325152906
 30
0.0
 10
3.5757354022
 20
5.0286256331
 30
0.0
 10
3.5738067803
 20
5.0253407997
 30
0.0
 10
3.5723029267
 20
5.0226857002
 30
0.0
 10
3.5708235858
 20
5.0200097795
 30
0.0
 10
3.569749725
 20
5.0179817558
 30
0.0
 10
3.569055486
 20
5.0166180293
 30
0.0
  0
SPLINE
  5
2FD
100
AcDbEntity
  8
0
100
AcDbSpline
 62
7
  6
CONTINUOUS
 70
0
 71
3
 72
17
 73
13
 74
0
 42
0.0000001
 43
0.0000001
 44
0.0000000001
 40
0.0
 40
0.0
 40
0.0
 40
0.0
 40
0.1493131888
 40
0.2949563842
 40
0.4350666532
 40
0.5679263187
 40
0.692008331
 40
0.8060095622
 40
0.8589009808
 40
0.9089147441
 40
0.9559711433
 40
1.0
 40
1.0
 40
1.0
 40
1.0
 10
6.0958949828
 20
5.616484144
 30
0.0
 10
6.0958535242
 20
5.6174543199
 30
0.0
 10
6.0957377931
 20
5.6193695724
 30
0.0
 10
6.0954633945
 20
5.6221863457
 30
0.0
 10
6.0950941478
 20
5.6248843969
 30
0.0
 10
6.0946360185
 20
5.6274265533
 30
0.0
 10
6.0940961911
 20
5.6297787924
 30
0.0
 10
6.0935731153
 20
5.6315987491
 30
0.0
 10
6.0931159997
 20
5.6329335562
 30
0.0
 10
6.09276663
 20
5.6338443768
 30
0.0
 10
6.0924033805
 20
5.6346873416
 30
0.0
 10
6.0921441168
 20
5.635220289
 30
0.0
 10
6.0920118757
 20
5.635474266
 30
0.0
  0
SPLINE
  5
2FE
100
AcDbEntity
  8
0
100
AcDbSpline
 62
7
  6
CONTINUOUS
 70
0
 71
3
 72
20
 73
16
 74
0
 42
0.0000001
 43
0.0000001
 44
0.0000000001
 40
0.0
 40
0.0
 40
0.0
 40
0.0
 40
0.1115338908
 40
0.1696024443
 40
0.2290983231
 40
0.2899220108
 40
0.3519502894
 40
0.4150376579
 40
0.4790205383
 40
0.5437204893
 40
0.6089475602
 40
0.7401353543
 40
0.805737828
 40
0.8710557797
 40
1.0
 40
1.0
 40
1.0
 40
1.0
 10
5.9154269164
 20
5.7591203546
 30
0.0
 10
5.9139898959
 20
5.7630856914
 30
0.0
 10
5.9113015228
 20
5.7689445342
 30
0.0
 10
5.9068686783
 20
5.7763924277
 30
0.0
 10
5.9030263731
 20
5.7819440108
 30
0.0
 10
5.8987365191
 20
5.7873484749
 30
0.0
 10
5.8940250344
 20
5.792573913
 30
0.0
 10
5.8889209097
 20
5.7975881706
 30
0.0
 10
5.8834554879
 20
5.8023606485
 30
0.0
 10
5.8776619537
 20
5.806862376
 30
0.0
 10
5.8695340316
 20
5.8124759751
 30
0.0
 10
5.860921204
 20
5.8174224524
 30
0.0
 10
5.8519454952
 20
5.8216369202
 30
0.0
 10
5.8428299716
 20
5.8253170058
 30
0.0
 10
5.8357926109
 20
5.8274960635
 30
0.0
 10
5.8310579448
 20
5.82866182
 30
0.0
  0
SPLINE
  5
2FF
100
AcDbEntity
  8
0
100
AcDbSpline
 62
7
  6
CONTINUOUS
 70
0
 71
3
 72
23
 73
19
 74
0
 42
0.0000001
 43
0.0000001
 44
0.0000000001
 40
0.0
 40
0.0
 40
0.0
 40
0.0
 40
0.0560984419
 40
0.1133958085
 40
0.1720623854
 40
0.2321701785
 40
0.2936998904
 40
0.3565459519
 40
0.4205285979
 40
0.4854072164
 40
0.5508953369
 40
0.6166762538
 40
0.682418989
 40
0.7477944724
 40
0.8124913574
 40
0.8762328705
 40
0.9387896248
 40
1.0
 40
1.0
 40
1.0
 40
1.0
 10
5.8912567942
 20
5.9870911884
 30
0.0
 10
5.8911790511
 20
5.9859811264
 30
0.0
 10
5.8908559857
 20
5.9837458524
 30
0.0
 10
5.8898964611
 20
5.9804598495
 30
0.0
 10
5.8884740102
 20
5.9772589459
 30
0.0
 10
5.886612226
 20
5.9741943809
 30
0.0
 10
5.8843413461
 20
5.9713137544
 30
0.0
 10
5.8816977009
 20
5.9686620179
 30
0.0
 10
5.8787232643
 20
5.9662804333
 30
0.0
 10
5.8754650256
 20
5.9642061142
 30
0.0
 10
5.8719743222
 20
5.9624714255
 30
0.0
 10
5.8683060664
 20
5.9611034951
 30
0.0
 10
5.8645179172
 20
5.9601237763
 30
0.0
 10
5.8606693712
 20
5.9595477393
 30
0.0
 10
5.8568209189
 20
5.9593845671
 30
0.0
 10
5.853032843
 20
5.9596372283
 30
0.0
 10
5.8493653753
 20
5.9603018685
 30
0.0
 10
5.8470109029
 20
5.9610219202
 30
0.0
 10
5.8458741212
 20
5.9614484958
 30
0.0
  0
SPLINE
  5
300
100
AcDbEntity
  8
0
100
AcDbSpline
 62
7
  6
CONTINUOUS
 70
0
 71
3
 72
88
 73
84
 74
0
 42
0.0000001
 43
0.0000001
 44
0.0000000001
 40
0.0
 40
0.0
 40
0.0
 40
0.0
 40
0.015628433
 40
0.0234438556
 40
0.031258919
 40
0.0390739733
 40
0.0468887811
 40
0.0547035465
 40
0.0625183408
 40
0.0703328497
 40
0.0781471047
 40
0.0937749809
 40
0.1250272143
 40
0.1406532581
 40
0.1562789772
 40
0.1640916622
 40
0.1719042915
 40
0.1797169415
 40
0.1875296546
 40
0.1953423744
 40
0.2031550108
 40
0.2109676137
 40
0.2187803934
 40
0.2344060744
 40
0.2500316995
 40
0.2656573264
 40
0.2734702194
 40
0.2812833095
 40
0.2969081281
 40
0.3125321709
 40
0.320344126
 40
0.3281557529
 40
0.3359671357
 40
0.3437782715
 40
0.3593989724
 40
0.3672096138
 40
0.3750200366
 40
0.3828303233
 40
0.3906404756
 40
0.3984502908
 40
0.4062599215
 40
0.4140695323
 40
0.4218789359
 40
0.4374967372
 40
0.4453059632
 40
0.4531151414
 40
0.4687334014
 40
0.4765429627
 40
0.4843525846
 40
0.4999719168
 40
0.5155917467
 40
0.5312119325
 40
0.546832703
 40
0.5624538858
 40
0.5780755853
 40
0.593697689
 40
0.6249415031
 40
0.6405649634
 40
0.6561890171
 40
0.6718136635
 40
0.6874389038
 40
0.7030648417
 40
0.7186915409
 40
0.7265052086
 40
0.7343189523
 40
0.7421327084
 40
0.7499464405
 40
0.7655740903
 40
0.7812024217
 40
0.7968306734
 40
0.8124587771
 40
0.8280870495
 40
0.843715394
 40
0.8593438579
 40
0.8749723799
 40
0.9062290223
 40
0.9218576242
 40
0.93748622
 40
0.9453004851
 40
0.9531147253
 40
0.968743222
 40
0.9843716296
 40
1.0
 40
1.0
 40
1.0
 40
1.0
 10
3.0833181685
 20
5.1501306626
 30
0.0
 10
3.0848445201
 20
5.1552392477
 30
0.0
 10
3.0873577015
 20
5.1628373069
 30
0.0
 10
3.0910654528
 20
5.1728365971
 30
0.0
 10
3.0940089877
 20
5.1802746035
 30
0.0
 10
3.0971011238
 20
5.187651604
 30
0.0
 10
3.1003277338
 20
5.1949706286
 30
0.0
 10
3.1036783513
 20
5.202233554
 30
0.0
 10
3.1071430933
 20
5.2094425616
 30
0.0
 10
3.1107117945
 20
5.2166004357
 30
0.0
 10
3.115598809
 20
5.226078371
 30
0.0
 10
3.1244665725
 20
5.2424977946
 30
0.0
 10
3.1352244865
 20
5.2609172804
 30
0.0
 10
3.146453536
 20
5.2790452717
 30
0.0
 10
3.1536424037
 20
5.29026783
 30
0.0
 10
3.1594813431
 20
5.2991883035
 30
0.0
 10
3.1639033409
 20
5.3058503569
 30
0.0
 10
3.168366532
 20
5.3124848796
 30
0.0
 10
3.172868755
 20
5.3190930129
 30
0.0
 10
3.1774108458
 20
5.3256738151
 30
0.0
 10
3.1819993752
 20
5.3322222961
 30
0.0
 10
3.1866398975
 20
5.338734099
 30
0.0
 10
3.1929040168
 20
5.3473614036
 30
0.0
 10
3.2008929968
 20
5.3580297566
 30
0.0
 10
3.2107829251
 20
5.3705995123
 30
0.0
 10
3.2193170081
 20
5.3808385923
 30
0.0
 10
3.2263427909
 20
5.3888585692
 30
0.0
 10
3.2335078639
 20
5.3967539493
 30
0.0
 10
3.242736112
 20
5.406372773
 30
0.0
 10
3.2523519862
 20
5.4156047018
 30
0.0
 10
3.2602789659
 20
5.4227335917
 30
0.0
 10
3.2663420291
 20
5.4279460759
 30
0.0
 10
3.2725207628
 20
5.4330205067
 30
0.0
 10
3.2809083185
 20
5.4395987982
 30
0.0
 10
3.2895167063
 20
5.4458909724
 30
0.0
 10
3.2983255567
 20
5.4518924027
 30
0.0
 10
3.3050289831
 20
5.4562484054
 30
0.0
 10
3.3118235566
 20
5.4604603297
 30
0.0
 10
3.3187038291
 20
5.4645303244
 30
0.0
 10
3.3256648064
 20
5.468460166
 30
0.0
 10
3.3327007063
 20
5.4722537399
 30
0.0
 10
3.3398057328
 20
5.4759158668
 30
0.0
 10
3.3493635057
 20
5.4806298654
 30
0.0
 10
3.3590396614
 20
5.4850999109
 30
0.0
 10
3.3688166244
 20
5.4893398204
 30
0.0
 10
3.3786565545
 20
5.4934319672
 30
0.0
 10
3.3885854282
 20
5.4973074106
 30
0.0
 10
3.3985914294
 20
5.5009753091
 30
0.0
 10
3.4086462472
 20
5.5045084173
 30
0.0
 10
3.4213011384
 20
5.5086755958
 30
0.0
 10
3.4366087863
 20
5.513289759
 30
0.0
 10
3.4520250142
 20
5.5175287008
 30
0.0
 10
3.4675377557
 20
5.5214010522
 30
0.0
 10
3.4831358716
 20
5.5249156845
 30
0.0
 10
3.4988099509
 20
5.5280769262
 30
0.0
 10
3.5197968888
 20
5.5318270109
 30
0.0
 10
3.5409023299
 20
5.5348896014
 30
0.0
 10
3.56208816
 20
5.5372814969
 30
0.0
 10
3.5780131955
 20
5.5387429863
 30
0.0
 10
3.5939654962
 20
5.5398753058
 30
0.0
 10
3.6099385035
 20
5.5406773613
 30
0.0
 10
3.6259254043
 20
5.5411471069
 30
0.0
 10
3.6392536657
 20
5.5412609467
 30
0.0
 10
3.6499160919
 20
5.5411871881
 30
0.0
 10
3.6579121525
 20
5.5410497807
 30
0.0
 10
3.6659064121
 20
5.5408307044
 30
0.0
 10
3.6765619145
 20
5.5404300338
 30
0.0
 10
3.6898734299
 20
5.5397331532
 30
0.0
 10
3.7058294171
 20
5.5386080754
 30
0.0
 10
3.7217647695
 20
5.537220247
 30
0.0
 10
3.7376766902
 20
5.5355864699
 30
0.0
 10
3.7535629311
 20
5.5337197092
 30
0.0
 10
3.7694219456
 20
5.5316337391
 30
0.0
 10
3.7852516302
 20
5.5293351175
 30
0.0
 10
3.8063158635
 20
5.5259952247
 30
0.0
 10
3.8273153066
 20
5.5222578282
 30
0.0
 10
3.8482450646
 20
5.5181593994
 30
0.0
 10
3.8612982117
 20
5.5154580068
 30
0.0
 10
3.8717240583
 20
5.513218895
 30
0.0
 10
3.8821394891
 20
5.5109319611
 30
0.0
 10
3.8951413589
 20
5.5079948717
 30
0.0
 10
3.9107220095
 20
5.5043766983
 30
0.0
 10
3.9211014254
 20
5.5019319639
 30
0.0
 10
3.9262910766
 20
5.5007093911
 30
0.0
  0
SPLINE
  5
301
100
AcDbEntity
  8
0
100
AcDbSpline
 62
7
  6
CONTINUOUS
 70
0
 71
3
 72
53
 73
49
 74
0
 42
0.0000001
 43
0.0000001
 44
0.0000000001
 40
0.0
 40
0.0
 40
0.0
 40
0.0
 40
0.0156369703
 40
0.0312709138
 40
0.0469012475
 40
0.0625284797
 40
0.0781527881
 40
0.0937742041
 40
0.1250067431
 40
0.1562295678
 40
0.1874448603
 40
0.2030511723
 40
0.2186563986
 40
0.2342607544
 40
0.2498645177
 40
0.2654677407
 40
0.2810705422
 40
0.2966732384
 40
0.3122759279
 40
0.3278788709
 40
0.3434822517
 40
0.3590862908
 40
0.3746910909
 40
0.3902968534
 40
0.4059036105
 40
0.4215115523
 40
0.437120708
 40
0.4683424988
 40
0.4995702636
 40
0.5151867713
 40
0.5308049173
 40
0.5464247832
 40
0.5620464375
 40
0.5932946803
 40
0.6245500839
 40
0.655812491
 40
0.6870815721
 40
0.7183568751
 40
0.7496378646
 40
0.7809238195
 40
0.7965686657
 40
0.8122144289
 40
0.8435079953
 40
0.874804239
 40
0.9061022992
 40
0.9374014645
 40
0.9687012871
 40
1.0
 40
1.0
 40
1.0
 40
1.0
 10
5.8262497252
 20
3.7957888065
 30
0.0
 10
5.8255267846
 20
3.8009774311
 30
0.0
 10
5.8239545237
 20
3.8113365055
 30
0.0
 10
5.8212177655
 20
3.8268108415
 30
0.0
 10
5.8181079243
 20
3.842211259
 30
0.0
 10
5.814634812
 20
3.8575304174
 30
0.0
 10
5.8108063331
 20
3.8727616221
 30
0.0
 10
5.8052353212
 20
3.8929399138
 30
0.0
 10
5.7974088417
 20
3.9179092315
 30
0.0
 10
5.7867264008
 20
3.9474263827
 30
0.0
 10
5.776818676
 20
3.9716316268
 30
0.0
 10
5.7683222304
 20
3.9907436334
 30
0.0
 10
5.7616706615
 20
4.0049489265
 30
0.0
 10
5.7547445744
 20
4.0190213509
 30
0.0
 10
5.7475532563
 20
4.0329592944
 30
0.0
 10
5.740109061
 20
4.0467631598
 30
0.0
 10
5.7324236255
 20
4.0604336973
 30
0.0
 10
5.7245095551
 20
4.0739728742
 30
0.0
 10
5.7163773256
 20
4.0873821628
 30
0.0
 10
5.7080327144
 20
4.1006605721
 30
0.0
 10
5.6994821699
 20
4.1138078178
 30
0.0
 10
5.690732716
 20
4.1268242512
 30
0.0
 10
5.681791213
 20
4.1397104418
 30
0.0
 10
5.6726663276
 20
4.1524685061
 30
0.0
 10
5.6633663579
 20
4.1651007634
 30
0.0
 10
5.6539008045
 20
4.1776108159
 30
0.0
 10
5.6410720394
 20
4.1941342515
 30
0.0
 10
5.6246655546
 20
4.2145023095
 30
0.0
 10
5.607807284
 20
4.2345008283
 30
0.0
 10
5.5940640176
 20
4.2502821083
 30
0.0
 10
5.5836282875
 20
4.2620086657
 30
0.0
 10
5.5730650005
 20
4.2736227893
 30
0.0
 10
5.5588110369
 20
4.2889568854
 30
0.0
 10
5.5406805181
 20
4.3078372281
 30
0.0
 10
5.5184382313
 20
4.3300240389
 30
0.0
 10
5.4957222771
 20
4.3517358048
 30
0.0
 10
5.4725454421
 20
4.3729647155
 30
0.0
 10
5.4489180755
 20
4.3937004974
 30
0.0
 10
5.4248520289
 20
4.4139341632
 30
0.0
 10
5.4044439622
 20
4.4303719918
 30
0.0
 10
5.3879173822
 20
4.443271566
 30
0.0
 10
5.371260388
 20
4.4560064989
 30
0.0
 10
5.3502015944
 20
4.4716150432
 30
0.0
 10
5.3245675925
 20
4.4898472083
 30
0.0
 10
5.2985863121
 20
4.5075842679
 30
0.0
 10
5.2722759889
 20
4.5248314663
 30
0.0
 10
5.2456580152
 20
4.5415999691
 30
0.0
 10
5.2277197948
 20
4.5524670863
 30
0.0
 10
5.2187057819
 20
4.5578242706
 30
0.0
  0
SPLINE
  5
302
100
AcDbEntity
  8
0
100
AcDbSpline
 62
7
  6
CONTINUOUS
 70
0
 71
3
 72
10
 73
6
 74
0
 42
0.0000001
 43
0.0000001
 44
0.0000000001
 40
0.0
 40
0.0
 40
0.0
 40
0.0
 40
0.2500019499
 40
0.5000029031
 40
1.0
 40
1.0
 40
1.0
 40
1.0
 10
3.9234715959
 20
5.490186982
 30
0.0
 10
4.0446740269
 20
5.4615651206
 30
0.0
 10
4.2871159014
 20
5.4044801715
 30
0.0
 10
4.7721332124
 20
5.2908920356
 30
0.0
 10
5.1360313625
 20
5.2062834661
 30
0.0
 10
5.3786727293
 20
5.1500656758
 30
0.0
  0
SPLINE
  5
303
100
AcDbEntity
  8
0
100
AcDbSpline
 62
7
  6
CONTINUOUS
 70
0
 71
3
 72
21
 73
17
 74
0
 42
0.0000001
 43
0.0000001
 44
0.0000000001
 40
0.0
 40
0.0
 40
0.0
 40
0.0
 40
0.1250359553
 40
0.1875524492
 40
0.2500670018
 40
0.3125791326
 40
0.3750884268
 40
0.4375945037
 40
0.5000972723
 40
0.5625967582
 40
0.6250929724
 40
0.6875859368
 40
0.7500756744
 40
0.8125621915
 40
0.8750453071
 40
1.0
 40
1.0
 40
1.0
 40
1.0
 10
3.8710617755
 20
5.294590709
 30
0.0
 10
3.9311365769
 20
5.278342196
 30
0.0
 10
4.0212724166
 20
5.2540595053
 30
0.0
 10
4.1415014586
 20
5.2218670088
 30
0.0
 10
4.2316947673
 20
5.1978168151
 30
0.0
 10
4.321908712
 20
5.173858114
 30
0.0
 10
4.4121416999
 20
5.1499877234
 30
0.0
 10
4.502392645
 20
5.1262036044
 30
0.0
 10
4.5926582705
 20
5.1024944862
 30
0.0
 10
4.6829349228
 20
5.0788467653
 30
0.0
 10
4.7732193214
 20
5.0552479352
 30
0.0
 10
4.863507113
 20
5.0316813026
 30
0.0
 10
4.9537937523
 20
5.0081293737
 30
0.0
 10
5.0440743343
 20
4.9845736434
 30
0.0
 10
5.1644322243
 20
4.9531462409
 30
0.0
 10
5.2546886985
 20
4.9295406465
 30
0.0
 10
5.3148509121
 20
4.9137776701
 30
0.0
  0
SPLINE
  5
304
100
AcDbEntity
  8
0
100
AcDbSpline
 62
7
  6
CONTINUOUS
 70
0
 71
3
 72
22
 73
18
 74
0
 42
0.0000001
 43
0.0000001
 44
0.0000000001
 40
0.0
 40
0.0
 40
0.0
 40
0.0
 40
0.0624997103
 40
0.1250000764
 40
0.1875000277
 40
0.2500002158
 40
0.3125004349
 40
0.3750006717
 40
0.4375009612
 40
0.5000012961
 40
0.5625016936
 40
0.6250021653
 40
0.687502703
 40
0.7500033263
 40
0.8125040323
 40
0.8750046232
 40
1.0
 40
1.0
 40
1.0
 40
1.0
 10
5.2213867326
 20
4.5677464931
 30
0.0
 10
5.1943944218
 20
4.5838514284
 30
0.0
 10
5.1400875237
 20
4.6155253262
 30
0.0
 10
5.0576956202
 20
4.6613988239
 30
0.0
 10
4.9743951256
 20
4.7056026125
 30
0.0
 10
4.8902122256
 20
4.7481016909
 30
0.0
 10
4.805176634
 20
4.7888684421
 30
0.0
 10
4.719318614
 20
4.8278736212
 30
0.0
 10
4.6326711555
 20
4.8650924565
 30
0.0
 10
4.545269286
 20
4.9005037301
 30
0.0
 10
4.4571493742
 20
4.9340886506
 30
0.0
 10
4.3683495273
 20
4.9658324408
 30
0.0
 10
4.2789087716
 20
4.995723231
 30
0.0
 10
4.1888673254
 20
5.0237522264
 30
0.0
 10
4.0982651602
 20
5.0499144756
 30
0.0
 10
3.9767770284
 20
5.0823046988
 30
0.0
 10
3.8849325396
 20
5.1038054126
 30
0.0
 10
3.8234514922
 20
5.116906568
 30
0.0
  0
SPLINE
  5
305
100
AcDbEntity
  8
0
100
AcDbSpline
 62
7
  6
CONTINUOUS
 70
0
 71
3
 72
22
 73
18
 74
0
 42
0.0000001
 43
0.0000001
 44
0.0000000001
 40
0.0
 40
0.0
 40
0.0
 40
0.0
 40
0.1497536027
 40
0.2968188671
 40
0.3685993709
 40
0.4388245108
 40
0.5072043709
 40
0.5734442544
 40
0.6372633325
 40
0.6984335102
 40
0.7567635631
 40
0.8120748349
 40
0.8642024181
 40
0.9129920221
 40
0.9583007159
 40
0.979609376
 40
1.0
 40
1.0
 40
1.0
 40
1.0
 10
3.3263417981
 20
5.0845265138
 30
0.0
 10
3.338467439
 20
5.0813727225
 30
0.0
 10
3.3624968448
 20
5.0751055939
 30
0.0
 10
3.3923240022
 20
5.0672718402
 30
0.0
 10
3.4157049029
 20
5.0610873832
 30
0.0
 10
3.4327147616
 20
5.0565609378
 30
0.0
 10
3.4492682111
 20
5.0521220638
 30
0.0
 10
3.4652931359
 20
5.0477816987
 30
0.0
 10
3.4807222302
 20
5.0435490414
 30
0.0
 10
3.49549685
 20
5.0394325169
 30
0.0
 10
3.5095659554
 20
5.0354364398
 30
0.0
 10
3.5228820621
 20
5.0315591317
 30
0.0
 10
3.5353990565
 20
5.0277939616
 30
0.0
 10
3.547071589
 20
5.0241293472
 30
0.0
 10
3.5562357447
 20
5.021086338
 30
0.0
 10
3.5631044707
 20
5.0186751921
 30
0.0
 10
3.5663822332
 20
5.0174800173
 30
0.0
 10
3.5679810012
 20
5.0168848003
 30
0.0
  0
SPLINE
  5
306
100
AcDbEntity
  8
0
100
AcDbSpline
 62
7
  6
CONTINUOUS
 70
0
 71
3
 72
17
 73
13
 74
0
 42
0.0000001
 43
0.0000001
 44
0.0000000001
 40
0.0
 40
0.0
 40
0.0
 40
0.0
 40
0.1234339731
 40
0.2474065422
 40
0.3095851314
 40
0.3718841227
 40
0.4968122855
 40
0.5594349843
 40
0.6221521828
 40
0.7478333336
 40
0.8738043555
 40
1.0
 40
1.0
 40
1.0
 40
1.0
 10
6.361330338
 20
5.3650843278
 30
0.0
 10
6.3568577934
 20
5.3748923539
 30
0.0
 10
6.3482846155
 20
5.3947322879
 30
0.0
 10
6.3385662016
 20
5.4199699541
 30
0.0
 10
6.3313903175
 20
5.4404479343
 30
0.0
 10
6.3246083724
 20
5.4611473774
 30
0.0
 10
6.3184512552
 20
5.482087894
 30
0.0
 10
6.3129285623
 20
5.5032361314
 30
0.0
 10
6.3078219121
 20
5.5245564236
 30
0.0
 10
6.3022394708
 20
5.5514455224
 30
0.0
 10
6.2968258124
 20
5.5840044791
 30
0.0
 10
6.2940654912
 20
5.6058594634
 30
0.0
 10
6.2928945609
 20
5.6168179217
 30
0.0
  0
SPLINE
  5
307
100
AcDbEntity
  8
0
100
AcDbSpline
 62
7
  6
CONTINUOUS
 70
0
 71
3
 72
18
 73
14
 74
0
 42
0.0000001
 43
0.0000001
 44
0.0000000001
 40
0.0
 40
0.0
 40
0.0
 40
0.0
 40
0.1251420429
 40
0.25024909
 40
0.3127867922
 40
0.3753128287
 40
0.4378271096
 40
0.5003299364
 40
0.6253021116
 40
0.6877721071
 40
0.7502322369
 40
0.8751283424
 40
1.0
 40
1.0
 40
1.0
 40
1.0
 10
6.2928945609
 20
5.6168179217
 30
0.0
 10
6.2846779629
 20
5.6169938225
 30
0.0
 10
6.2682464214
 20
5.6173166794
 30
0.0
 10
6.2477068288
 20
5.617620021
 30
0.0
 10
6.2312781185
 20
5.6177859765
 30
0.0
 10
6.2189595091
 20
5.6178674218
 30
0.0
 10
6.2066429762
 20
5.6179046535
 30
0.0
 10
6.1902253523
 20
5.6178968002
 30
0.0
 10
6.1738107697
 20
5.6178040863
 30
0.0
 10
6.1573997965
 20
5.6176287247
 30
0.0
 10
6.1409944524
 20
5.6174015345
 30
0.0
 10
6.1204926643
 20
5.6170332398
 30
0.0
 10
6.1040935247
 20
5.6166737407
 30
0.0
 10
6.0958949931
 20
5.6164841442
 30
0.0
  0
SPLINE
  5
308
100
AcDbEntity
  8
0
100
AcDbSpline
 62
7
  6
CONTINUOUS
 70
0
 71
3
 72
18
 73
14
 74
0
 42
0.0000001
 43
0.0000001
 44
0.0000000001
 40
0.0
 40
0.0
 40
0.0
 40
0.0
 40
0.1248716534
 40
0.2497677714
 40
0.3122279058
 40
0.3746978997
 40
0.4996700529
 40
0.5621728654
 40
0.6246871349
 40
0.6872131681
 40
0.7497508767
 40
0.8748579503
 40
1.0
 40
1.0
 40
1.0
 40
1.0
 10
6.0809790188
 20
5.6164844273
 30
0.0
 10
6.0727804859
 20
5.6166740223
 30
0.0
 10
6.0563813411
 20
5.617033458
 30
0.0
 10
6.0358795459
 20
5.6174016227
 30
0.0
 10
6.0194741966
 20
5.617628737
 30
0.0
 10
6.0030632212
 20
5.6178040654
 30
0.0
 10
5.9866486382
 20
5.6178968039
 30
0.0
 10
5.9702310142
 20
5.6179046769
 30
0.0
 10
5.9579144809
 20
5.6178674443
 30
0.0
 10
5.9455958699
 20
5.617785965
 30
0.0
 10
5.9291671554
 20
5.6176199148
 30
0.0
 10
5.9086275585
 20
5.6173164151
 30
0.0
 10
5.8921960133
 20
5.6169934837
 30
0.0
 10
5.8839794133
 20
5.6168175827
 30
0.0
  0
SPLINE
  5
309
100
AcDbEntity
  8
0
100
AcDbSpline
 62
7
  6
CONTINUOUS
 70
0
 71
3
 72
60
 73
56
 74
0
 42
0.0000001
 43
0.0000001
 44
0.0000000001
 40
0.0
 40
0.0
 40
0.0
 40
0.0
 40
0.0312543363
 40
0.0468837884
 40
0.0625128087
 40
0.0781416298
 40
0.0937704688
 40
0.1093994749
 40
0.1250280703
 40
0.140656266
 40
0.1562842009
 40
0.1875368508
 40
0.2031635085
 40
0.2187894107
 40
0.2344146737
 40
0.2500391022
 40
0.2656621533
 40
0.281284659
 40
0.2969060237
 40
0.312526776
 40
0.3281467131
 40
0.3437662926
 40
0.3593853187
 40
0.3750042652
 40
0.3906233084
 40
0.3984333371
 40
0.4062434126
 40
0.4140534707
 40
0.4218635461
 40
0.437483846
 40
0.4531046212
 40
0.4687258987
 40
0.4843475771
 40
0.4999699731
 40
0.5155928764
 40
0.5312160401
 40
0.5468398623
 40
0.562463859
 40
0.5937114093
 40
0.6249605902
 40
0.6405865316
 40
0.6562126033
 40
0.687464206
 40
0.7187163384
 40
0.7343431295
 40
0.7499699141
 40
0.7655968563
 40
0.7812238407
 40
0.8124768104
 40
0.8437300203
 40
0.8749834718
 40
0.9062372994
 40
0.9374914293
 40
0.9687457017
 40
1.0
 40
1.0
 40
1.0
 40
1.0
 10
3.3263417981
 20
5.0845265138
 30
0.0
 10
3.3285461642
 20
5.0909857912
 30
0.0
 10
3.3322045331
 20
5.1005584955
 30
0.0
 10
3.3376490204
 20
5.1130778197
 30
0.0
 10
3.3419958538
 20
5.1223497721
 30
0.0
 10
3.3465834365
 20
5.1315043873
 30
0.0
 10
3.3513968223
 20
5.1405422899
 30
0.0
 10
3.3564236332
 20
5.1494630731
 30
0.0
 10
3.3616523275
 20
5.1582668234
 30
0.0
 10
3.3670805481
 20
5.1669487977
 30
0.0
 10
3.3745789836
 20
5.178355973
 30
0.0
 10
3.3824668298
 20
5.1895030901
 30
0.0
 10
3.3907364082
 20
5.2003633712
 30
0.0
 10
3.3971316475
 20
5.2083580293
 30
0.0
 10
3.4037207772
 20
5.2161929869
 30
0.0
 10
3.4105073121
 20
5.2238569706
 30
0.0
 10
3.4175022642
 20
5.2313306559
 30
0.0
 10
3.4247142172
 20
5.2385944867
 30
0.0
 10
3.4321508207
 20
5.2456277429
 30
0.0
 10
3.4398183796
 20
5.2524079383
 30
0.0
 10
3.4477189874
 20
5.2589147753
 30
0.0
 10
3.4558529714
 20
5.2651270787
 30
0.0
 10
3.4642171559
 20
5.2710257535
 30
0.0
 10
3.4728061296
 20
5.27659186
 30
0.0
 10
3.4801419579
 20
5.280943512
 30
0.0
 10
3.486110807
 20
5.2842471644
 30
0.0
 10
3.4906358858
 20
5.2866358107
 30
0.0
 10
3.4952073802
 20
5.2889343929
 30
0.0
 10
3.5013618638
 20
5.2918784388
 30
0.0
 10
3.5091586548
 20
5.2953378317
 30
0.0
 10
3.5186561917
 20
5.2991535541
 30
0.0
 10
3.5282766759
 20
5.3026482482
 30
0.0
 10
3.5380036985
 20
5.3058348709
 30
0.0
 10
3.5478222656
 20
5.3087277573
 30
0.0
 10
3.5577187505
 20
5.311342308
 30
0.0
 10
3.5676815723
 20
5.3136922015
 30
0.0
 10
3.5777008693
 20
5.3157890705
 30
0.0
 10
3.5911229662
 20
5.3182636657
 30
0.0
 10
3.6080024702
 20
5.3207758647
 30
0.0
 10
3.6249730443
 20
5.3225666131
 30
0.0
 10
3.6385837004
 20
5.3235921108
 30
0.0
 10
3.652212193
 20
5.3243540448
 30
0.0
 10
3.6692712232
 20
5.3248235022
 30
0.0
 10
3.6863358071
 20
5.3246796097
 30
0.0
 10
3.6999778366
 20
5.3242127264
 30
0.0
 10
3.7102024029
 20
5.3236910329
 30
0.0
 10
3.7204170937
 20
5.3230023975
 30
0.0
 10
3.7340201119
 20
5.3218684242
 30
0.0
 10
3.7509881935
 20
5.3200511156
 30
0.0
 10
3.7712712414
 20
5.317234348
 30
0.0
 10
3.7914552965
 20
5.3137751081
 30
0.0
 10
3.8115143515
 20
5.3096529883
 30
0.0
 10
3.831448651
 20
5.3049702364
 30
0.0
 10
3.8512876686
 20
5.2999031821
 30
0.0
 10
3.8644727095
 20
5.2963699092
 30
0.0
 10
3.8710614527
 20
5.2945895037
 30
0.0
  0
SPLINE
  5
30A
100
AcDbEntity
  8
0
100
AcDbSpline
 62
7
  6
CONTINUOUS
 70
0
 71
3
 72
38
 73
34
 74
0
 42
0.0000001
 43
0.0000001
 44
0.0000000001
 40
0.0
 40
0.0
 40
0.0
 40
0.0
 40
0.029126661
 40
0.0437501126
 40
0.0584139337
 40
0.0878647078
 40
0.1174873414
 40
0.147285869
 40
0.1772629931
 40
0.2074207276
 40
0.2225684116
 40
0.237761611
 40
0.2682816209
 40
0.2989768971
 40
0.3298398679
 40
0.3608612647
 40
0.3920315861
 40
0.4233406487
 40
0.4547770734
 40
0.4863303186
 40
0.5497389397
 40
0.5815799964
 40
0.6134979271
 40
0.6775270501
 40
0.7417706866
 40
0.7739578577
 40
0.806180468
 40
0.8384330458
 40
0.8707109634
 40
0.9030106341
 40
0.9353281017
 40
0.9676596065
 40
1.0
 40
1.0
 40
1.0
 40
1.0
 10
5.8070588147
 20
5.1800075972
 30
0.0
 10
5.8114531973
 20
5.1779791824
 30
0.0
 10
5.8179940585
 20
5.1748001461
 30
0.0
 10
5.8265912008
 20
5.1702927724
 30
0.0
 10
5.8351409863
 20
5.1655832716
 30
0.0
 10
5.8456889734
 20
5.1593412207
 30
0.0
 10
5.8580835448
 20
5.1513051448
 30
0.0
 10
5.8702139144
 20
5.1427230267
 30
0.0
 10
5.8820600611
 20
5.1336064475
 30
0.0
 10
5.8916647773
 20
5.12558588
 30
0.0
 10
5.8991864968
 20
5.1189152202
 30
0.0
 10
5.9066184139
 20
5.1120555657
 30
0.0
 10
5.9156925963
 20
5.1031699337
 30
0.0
 10
5.9262085265
 20
5.0920510447
 30
0.0
 10
5.936362127
 20
5.0804894235
 30
0.0
 10
5.9461498535
 20
5.0685146823
 30
0.0
 10
5.9555684357
 20
5.0561544209
 30
0.0
 10
5.9646193242
 20
5.0434380469
 30
0.0
 10
5.9733067355
 20
5.0303942444
 30
0.0
 10
5.9844299443
 20
5.0125751774
 30
0.0
 10
5.9948307219
 20
4.994236607
 30
0.0
 10
6.0045525952
 20
4.9754728494
 30
0.0
 10
6.0138670123
 20
4.956388269
 30
0.0
 10
6.0247214956
 20
4.9320733301
 30
0.0
 10
6.0345793843
 20
4.9072914264
 30
0.0
 10
6.0419181137
 20
4.8872113111
 30
0.0
 10
6.0471606977
 20
4.8720277744
 30
0.0
 10
6.0521490703
 20
4.8567431123
 30
0.0
 10
6.0568903741
 20
4.8413666423
 30
0.0
 10
6.0613889182
 20
4.8259062059
 30
0.0
 10
6.0656487296
 20
4.8103691279
 30
0.0
 10
6.069689018
 20
4.7947666785
 30
0.0
 10
6.0722501141
 20
4.7843295516
 30
0.0
 10
6.0735011684
 20
4.7791032351
 30
0.0
  0
LINE
  5
30B
100
AcDbEntity
  8
0
100
AcDbLine
 62
7
  6
CONTINUOUS
 10
5.8880377307
 20
5.6357067299
 11
5.8860617784
 21
5.6356667655
  0
SPLINE
  5
30C
100
AcDbEntity
  8
0
100
AcDbSpline
 62
7
  6
CONTINUOUS
 70
0
 71
3
 72
15
 73
11
 74
0
 42
0.0000001
 43
0.0000001
 44
0.0000000001
 40
0.0
 40
0.0
 40
0.0
 40
0.0
 40
0.1258005866
 40
0.2513477998
 40
0.3766422035
 40
0.5017069288
 40
0.6265574285
 40
0.7512113391
 40
0.8756939502
 40
1.0
 40
1.0
 40
1.0
 40
1.0
 10
5.8880377307
 20
5.6357067299
 30
0.0
 10
5.8915128914
 20
5.6379528835
 30
0.0
 10
5.8985875322
 20
5.6422413468
 30
0.0
 10
5.9095468999
 20
5.6480327764
 30
0.0
 10
5.9208078672
 20
5.6531562162
 30
0.0
 10
5.9323289208
 20
5.6576004243
 30
0.0
 10
5.9440674389
 20
5.6613641508
 30
0.0
 10
5.9559805772
 20
5.6644553972
 30
0.0
 10
5.9680261638
 20
5.6668891099
 30
0.0
 10
5.9761254035
 20
5.6680877297
 30
0.0
 10
5.9801838348
 20
5.6685843937
 30
0.0
  0
SPLINE
  5
30D
100
AcDbEntity
  8
0
100
AcDbSpline
 62
7
  6
CONTINUOUS
 70
0
 71
3
 72
17
 73
13
 74
0
 42
0.0000001
 43
0.0000001
 44
0.0000000001
 40
0.0
 40
0.0
 40
0.0
 40
0.0
 40
0.1850769111
 40
0.3550380335
 40
0.5087529934
 40
0.6451587121
 40
0.7632665516
 40
0.862216617
 40
0.9042818647
 40
0.941307488
 40
0.973230523
 40
1.0
 40
1.0
 40
1.0
 40
1.0
 10
6.0848621564
 20
5.6354742802
 30
0.0
 10
6.0850273141
 20
5.6375224312
 30
0.0
 10
6.085359437
 20
5.6414502459
 30
0.0
 10
6.0858842192
 20
5.6470742705
 30
0.0
 10
6.0864054366
 20
5.6521557002
 30
0.0
 10
6.0869104381
 20
5.6566598644
 30
0.0
 10
6.0873835091
 20
5.6605555958
 30
0.0
 10
6.0877536687
 20
5.6634085964
 30
0.0
 10
6.0880157223
 20
5.6653678315
 30
0.0
 10
6.0881801518
 20
5.6665893366
 30
0.0
 10
6.0883201446
 20
5.6676427755
 30
0.0
 10
6.0884019783
 20
5.6682892599
 30
0.0
 10
6.0884370102
 20
5.6685843937
 30
0.0
  0
LINE
  5
30E
100
AcDbEntity
  8
0
100
AcDbLine
 62
7
  6
CONTINUOUS
 10
6.0848621564
 20
5.6354742802
 11
5.8915698403
 21
5.6355695952
  0
SPLINE
  5
30F
100
AcDbEntity
  8
0
100
AcDbSpline
 62
7
  6
CONTINUOUS
 70
0
 71
3
 72
15
 73
11
 74
0
 42
0.0000001
 43
0.0000001
 44
0.0000000001
 40
0.0
 40
0.0
 40
0.0
 40
0.0
 40
0.1246424797
 40
0.2490106729
 40
0.3732718087
 40
0.4976341283
 40
0.6223014648
 40
0.7474695401
 40
0.8733239384
 40
1.0
 40
1.0
 40
1.0
 40
1.0
 10
5.891971424
 20
5.6358581348
 30
0.0
 10
5.8952333446
 20
5.6380798387
 30
0.0
 10
5.9018812103
 20
5.6423294889
 30
0.0
 10
5.9122121976
 20
5.6480854869
 30
0.0
 10
5.9228714913
 20
5.6531889421
 30
0.0
 10
5.9338361636
 20
5.6576232602
 30
0.0
 10
5.9450803949
 20
5.6613821466
 30
0.0
 10
5.9565756566
 20
5.6644700362
 30
0.0
 10
5.9682918123
 20
5.6669000042
 30
0.0
 10
5.9762032994
 20
5.6680905955
 30
0.0
 10
5.9801838348
 20
5.6685843937
 30
0.0
  0
SPLINE
  5
310
100
AcDbEntity
  8
0
100
AcDbSpline
 62
7
  6
CONTINUOUS
 70
0
 71
3
 72
17
 73
13
 74
0
 42
0.0000001
 43
0.0000001
 44
0.0000000001
 40
0.0
 40
0.0
 40
0.0
 40
0.0
 40
0.1850769139
 40
0.3550380478
 40
0.5087530074
 40
0.6451587311
 40
0.7632665728
 40
0.8622166307
 40
0.9042818722
 40
0.9413074894
 40
0.9732305241
 40
1.0
 40
1.0
 40
1.0
 40
1.0
 10
6.0920118661
 20
5.6354742642
 30
0.0
 10
6.0918467087
 20
5.6375224163
 30
0.0
 10
6.0915145854
 20
5.6414502331
 30
0.0
 10
6.0909898026
 20
5.6470742604
 30
0.0
 10
6.0904685848
 20
5.6521556927
 30
0.0
 10
6.0899635821
 20
5.6566598591
 30
0.0
 10
6.0894905101
 20
5.6605555923
 30
0.0
 10
6.0891203507
 20
5.6634085942
 30
0.0
 10
6.0888582978
 20
5.6653678302
 30
0.0
 10
6.0886938684
 20
5.6665893357
 30
0.0
 10
6.0885538758
 20
5.6676427751
 30
0.0
 10
6.0884720421
 20
5.6682892598
 30
0.0
 10
6.0884370102
 20
5.6685843937
 30
0.0
  0
SPLINE
  5
311
100
AcDbEntity
  8
0
100
AcDbSpline
 62
7
  6
CONTINUOUS
 70
0
 71
3
 72
15
 73
11
 74
0
 42
0.0000001
 43
0.0000001
 44
0.0000000001
 40
0.0
 40
0.0
 40
0.0
 40
0.0
 40
0.1246424713
 40
0.2490106687
 40
0.3732718206
 40
0.4976341388
 40
0.6223014716
 40
0.7474695439
 40
0.8733239387
 40
1.0
 40
1.0
 40
1.0
 40
1.0
 10
6.2849025971
 20
5.6358581334
 30
0.0
 10
6.2816406775
 20
5.6380798383
 30
0.0
 10
6.2749928121
 20
5.642329489
 30
0.0
 10
6.2646618234
 20
5.6480854856
 30
0.0
 10
6.2540025288
 20
5.6531889407
 30
0.0
 10
6.2430378564
 20
5.65762326
 30
0.0
 10
6.2317936253
 20
5.6613821464
 30
0.0
 10
6.2202983639
 20
5.6644700365
 30
0.0
 10
6.2085822082
 20
5.666900004
 30
0.0
 10
6.2006707211
 20
5.6680905949
 30
0.0
 10
6.1966901857
 20
5.6685843937
 30
0.0
  0
LINE
  5
312
100
AcDbEntity
  8
0
100
AcDbLine
 62
7
  6
CONTINUOUS
 10
6.2853238821
 20
5.635555009
 11
6.0920118661
 21
5.6354742642
  0
LINE
  5
313
100
AcDbEntity
  8
0
100
AcDbLine
 62
7
  6
CONTINUOUS
 10
6.2908122421
 20
5.6356667655
 11
6.2888363001
 21
5.6357067233
  0
SPLINE
  5
314
100
AcDbEntity
  8
0
100
AcDbSpline
 62
7
  6
CONTINUOUS
 70
0
 71
3
 72
15
 73
11
 74
0
 42
0.0000001
 43
0.0000001
 44
0.0000000001
 40
0.0
 40
0.0
 40
0.0
 40
0.0
 40
0.1258005935
 40
0.2513478009
 40
0.376642193
 40
0.5017069226
 40
0.6265574271
 40
0.7512113418
 40
0.8756939525
 40
1.0
 40
1.0
 40
1.0
 40
1.0
 10
6.2888363001
 20
5.6357067233
 30
0.0
 10
6.2853611397
 20
5.6379528787
 30
0.0
 10
6.2782864973
 20
5.6422413418
 30
0.0
 10
6.2673271285
 20
5.648032772
 30
0.0
 10
6.2560661606
 20
5.6531562133
 30
0.0
 10
6.2445451057
 20
5.6576004222
 30
0.0
 10
6.2328065856
 20
5.6613641496
 30
0.0
 10
6.2208934456
 20
5.664455397
 30
0.0
 10
6.2088478573
 20
5.6668891095
 30
0.0
 10
6.2007486167
 20
5.6680877291
 30
0.0
 10
6.196690185
 20
5.6685843938
 30
0.0
  0
SPLINE
  5
315
100
AcDbEntity
  8
0
100
AcDbSpline
 62
7
  6
CONTINUOUS
 70
0
 71
3
 72
23
 73
19
 74
0
 42
0.0000001
 43
0.0000001
 44
0.0000000001
 40
0.0
 40
0.0
 40
0.0
 40
0.0
 40
0.0609453185
 40
0.1221241468
 40
0.1835330917
 40
0.2451733661
 40
0.3070422972
 40
0.3691350914
 40
0.4314453525
 40
0.4939643243
 40
0.5566813776
 40
0.6195839652
 40
0.6826576062
 40
0.7458865561
 40
0.8092535726
 40
0.8727401125
 40
0.9363298632
 40
1.0
 40
1.0
 40
1.0
 40
1.0
 10
5.7472895052
 20
5.2435843934
 30
0.0
 10
5.7518496929
 20
5.2503473069
 30
0.0
 10
5.7608014921
 20
5.2640256269
 30
0.0
 10
5.7736699052
 20
5.2849523035
 30
0.0
 10
5.7859760989
 20
5.306322275
 30
0.0
 10
5.7976913334
 20
5.3281268669
 30
0.0
 10
5.808788166
 20
5.3503550987
 30
0.0
 10
5.819239863
 20
5.3729928057
 30
0.0
 10
5.8290212846
 20
5.396022764
 30
0.0
 10
5.8381095857
 20
5.4194246887
 30
0.0
 10
5.8464843011
 20
5.4431755021
 30
0.0
 10
5.8541278029
 20
5.4672495564
 30
0.0
 10
5.8610260596
 20
5.491618859
 30
0.0
 10
5.8671685927
 20
5.5162535798
 30
0.0
 10
5.8725486114
 20
5.5411224579
 30
0.0
 10
5.8771634552
 20
5.5661937084
 30
0.0
 10
5.8810141515
 20
5.5914343375
 30
0.0
 10
5.8830742179
 20
5.6083443814
 30
0.0
 10
5.8839794133
 20
5.6168175827
 30
0.0
  0
SPLINE
  5
316
100
AcDbEntity
  8
0
100
AcDbSpline
 62
7
  6
CONTINUOUS
 70
0
 71
3
 72
74
 73
70
 74
0
 42
0.0000001
 43
0.0000001
 44
0.0000000001
 40
0.0
 40
0.0
 40
0.0
 40
0.0
 40
0.0142898254
 40
0.0286866844
 40
0.0432032571
 40
0.050511421
 40
0.0578541395
 40
0.0726463697
 40
0.0801015038
 40
0.0875967724
 40
0.0951332767
 40
0.1027118799
 40
0.1065173513
 40
0.1103335063
 40
0.1141603615
 40
0.117997913
 40
0.1218457784
 40
0.1237735308
 40
0.1257037582
 40
0.1295711956
 40
0.1334472929
 40
0.1412219376
 40
0.1490229753
 40
0.1568454333
 40
0.1646847383
 40
0.1725367717
 40
0.1803985673
 40
0.1882670149
 40
0.1961407415
 40
0.2000790968
 40
0.2040182393
 40
0.2118987207
 40
0.2197819419
 40
0.2276675484
 40
0.2355550694
 40
0.2434439579
 40
0.2592243517
 40
0.2750064199
 40
0.2907883135
 40
0.3065683056
 40
0.3223456301
 40
0.3381194183
 40
0.3538897141
 40
0.3696562698
 40
0.3854198105
 40
0.3933006669
 40
0.4011809597
 40
0.4169401738
 40
0.4248192816
 40
0.4326981623
 40
0.4405768883
 40
0.4484555115
 40
0.456334036
 40
0.4642124578
 40
0.4799689776
 40
0.4957250429
 40
0.511480674
 40
0.5272359424
 40
0.5429909182
 40
0.5587456657
 40
0.5902546977
 40
0.6217634648
 40
0.6532724092
 40
0.6847819953
 40
0.7478048474
 40
0.8108353835
 40
0.8738765869
 40
0.9369311606
 40
1.0
 40
1.0
 40
1.0
 40
1.0
 10
6.5620224367
 20
2.9589020828
 30
0.0
 10
6.5522573181
 20
2.9640526714
 30
0.0
 10
6.5330158733
 20
2.9750955259
 30
0.0
 10
6.505285279
 20
2.993719164
 30
0.0
 10
6.4831945755
 20
3.0109413195
 30
0.0
 10
6.4661951521
 20
3.0257408435
 30
0.0
 10
6.4495965824
 20
3.0413009377
 30
0.0
 10
6.4338084016
 20
3.0578720243
 30
0.0
 10
6.4189671989
 20
3.0754217142
 30
0.0
 10
6.4082977715
 20
3.0891394759
 30
0.0
 10
6.3981643147
 20
3.1033748754
 30
0.0
 10
6.3902171421
 20
3.1156502348
 30
0.0
 10
6.3841781929
 20
3.1257231401
 30
0.0
 10
6.3798092132
 20
3.1334147862
 30
0.0
 10
6.3756141637
 20
3.1412307968
 30
0.0
 10
6.371600583
 20
3.1491690222
 30
0.0
 10
6.368417638
 20
3.1558804536
 30
0.0
 10
6.3659722951
 20
3.1613087085
 30
0.0
 10
6.3635926092
 20
3.166782551
 30
0.0
 10
6.3607459219
 20
3.1736940453
 30
0.0
 10
6.3564592857
 20
3.1848918452
 30
0.0
 10
6.3515986166
 20
3.1991186542
 30
0.0
 10
6.3465077982
 20
3.2164694291
 30
0.0
 10
6.3420886907
 20
3.2340539777
 30
0.0
 10
6.3382721625
 20
3.251818335
 30
0.0
 10
6.334985704
 20
3.2697184284
 30
0.0
 10
6.3321510415
 20
3.287717646
 30
0.0
 10
6.3296872884
 20
3.3057877571
 30
0.0
 10
6.3278919342
 20
3.3208870347
 30
0.0
 10
6.3265776951
 20
3.3329851913
 30
0.0
 10
6.3253422636
 20
3.3450969122
 30
0.0
 10
6.3239459997
 20
3.3602554661
 30
0.0
 10
6.3225043337
 20
3.3784702507
 30
0.0
 10
6.3212904275
 20
3.396707057
 30
0.0
 10
6.3202956085
 20
3.4149614899
 30
0.0
 10
6.3192504792
 20
3.4393200584
 30
0.0
 10
6.318451158
 20
3.4697919266
 30
0.0
 10
6.3182378295
 20
3.5063713971
 30
0.0
 10
6.3187017802
 20
3.542947914
 30
0.0
 10
6.3197740463
 20
3.5795075753
 30
0.0
 10
6.3213840681
 20
3.6160408986
 30
0.0
 10
6.3234622394
 20
3.6525427882
 30
0.0
 10
6.3259422431
 20
3.6890110041
 30
0.0
 10
6.3287580914
 20
3.7254466677
 30
0.0
 10
6.3313233055
 20
3.7557872037
 30
0.0
 10
6.333469766
 20
3.7800481698
 30
0.0
 10
6.3356661784
 20
3.8043013116
 30
0.0
 10
6.3379260466
 20
3.8285472923
 30
0.0
 10
6.340229256
 20
3.8527880576
 30
0.0
 10
6.3419731681
 20
3.8709661359
 30
0.0
 10
6.3437284219
 20
3.8891427443
 30
0.0
 10
6.3454903789
 20
3.9073184278
 30
0.0
 10
6.347259536
 20
3.9254931757
 30
0.0
 10
6.3496281451
 20
3.9497247371
 30
0.0
 10
6.3526075505
 20
3.9800117229
 30
0.0
 10
6.356214791
 20
4.0163521778
 30
0.0
 10
6.3598525391
 20
4.0526886189
 30
0.0
 10
6.3635151027
 20
4.0890217196
 30
0.0
 10
6.3671976387
 20
4.1253521145
 30
0.0
 10
6.3721276065
 20
4.1737896589
 30
0.0
 10
6.3783185911
 20
4.2343329835
 30
0.0
 10
6.3857650737
 20
4.306982955
 30
0.0
 10
6.3931982867
 20
4.3796347206
 30
0.0
 10
6.4030493957
 20
4.4765137125
 30
0.0
 10
6.4151735051
 20
4.5976405037
 30
0.0
 10
6.4291713789
 20
4.743061821
 30
0.0
 10
6.4423709248
 20
4.8885828852
 30
0.0
 10
6.4545259145
 20
5.0342250358
 30
0.0
 10
6.4617695809
 20
5.1313992066
 30
0.0
 10
6.4651364962
 20
5.1800092207
 30
0.0
  0
SPLINE
  5
317
100
AcDbEntity
  8
0
100
AcDbSpline
 62
7
  6
CONTINUOUS
 70
0
 71
3
 72
10
 73
6
 74
0
 42
0.0000001
 43
0.0000001
 44
0.0000000001
 40
0.0
 40
0.0
 40
0.0
 40
0.0
 40
0.4895595281
 40
0.7420278349
 40
1.0
 40
1.0
 40
1.0
 40
1.0
 10
6.5620224367
 20
2.9589020828
 30
0.0
 10
6.5580653599
 20
2.9568447848
 30
0.0
 10
6.5519217089
 20
2.9539999349
 30
0.0
 10
6.5434472166
 20
2.9506542344
 30
0.0
 10
6.5390623503
 20
2.9491022748
 30
0.0
 10
6.5368343671
 20
2.9483544256
 30
0.0
  0
SPLINE
  5
318
100
AcDbEntity
  8
0
100
AcDbSpline
 62
7
  6
CONTINUOUS
 70
0
 71
3
 72
29
 73
25
 74
0
 42
0.0000001
 43
0.0000001
 44
0.0000000001
 40
0.0
 40
0.0
 40
0.0
 40
0.0
 40
0.0227518964
 40
0.0461469276
 40
0.0701956836
 40
0.0949056924
 40
0.1202788138
 40
0.1463108623
 40
0.1729939353
 40
0.200317489
 40
0.2282684608
 40
0.2568316696
 40
0.2859904423
 40
0.3157271112
 40
0.3768580679
 40
0.4400697387
 40
0.5051993807
 40
0.5720789346
 40
0.6405358307
 40
0.7103920785
 40
0.7814632
 40
0.8535568427
 40
0.9264718795
 40
1.0
 40
1.0
 40
1.0
 40
1.0
 10
6.5368343671
 20
2.9483544256
 30
0.0
 10
6.5339701056
 20
2.9473929208
 30
0.0
 10
6.5281191824
 20
2.9455644607
 30
0.0
 10
6.5191229716
 20
2.9431161153
 30
0.0
 10
6.5097973176
 20
2.9409089557
 30
0.0
 10
6.5001529083
 20
2.938928549
 30
0.0
 10
6.4901999117
 20
2.9371606144
 30
0.0
 10
6.4799485822
 20
2.9355922011
 30
0.0
 10
6.4694092423
 20
2.9342108989
 30
0.0
 10
6.4585919797
 20
2.9330058971
 30
0.0
 10
6.447506827
 20
2.9319668127
 30
0.0
 10
6.4361636796
 20
2.9310850028
 30
0.0
 10
6.4245723702
 20
2.9303521711
 30
0.0
 10
6.4086528629
 20
2.9295582647
 30
0.0
 10
6.3881999164
 20
2.9289179846
 30
0.0
 10
6.3630384644
 20
2.9286722371
 30
0.0
 10
6.3371137827
 20
2.9289331684
 30
0.0
 10
6.3105026289
 20
2.9297108748
 30
0.0
 10
6.2832844807
 20
2.9310352247
 30
0.0
 10
6.2555435463
 20
2.9329550825
 30
0.0
 10
6.2273709991
 20
2.9355380078
 30
0.0
 10
6.1988671817
 20
2.9388685263
 30
0.0
 10
6.1701449559
 20
2.9430473208
 30
0.0
 10
6.1509958282
 20
2.9464639025
 30
0.0
 10
6.1414164291
 20
2.9483544256
 30
0.0
  0
SPLINE
  5
319
100
AcDbEntity
  8
0
100
AcDbSpline
 62
7
  6
CONTINUOUS
 70
0
 71
3
 72
9
 73
5
 74
0
 42
0.0000001
 43
0.0000001
 44
0.0000000001
 40
0.0
 40
0.0
 40
0.0
 40
0.0
 40
0.4993966073
 40
1.0
 40
1.0
 40
1.0
 40
1.0
 10
6.1414164291
 20
2.9483544256
 30
0.0
 10
6.133739839
 20
2.9498693757
 30
0.0
 10
6.1184116057
 20
2.9531285531
 30
0.0
 10
6.1031966878
 20
2.9568849692
 30
0.0
 10
6.0956169428
 20
2.9589021038
 30
0.0
  0
SPLINE
  5
31A
100
AcDbEntity
  8
0
100
AcDbSpline
 62
7
  6
CONTINUOUS
 70
0
 71
3
 72
14
 73
10
 74
0
 42
0.0000001
 43
0.0000001
 44
0.0000000001
 40
0.0
 40
0.0
 40
0.0
 40
0.0
 40
0.3579437345
 40
0.5110849777
 40
0.6461313398
 40
0.7627028512
 40
0.8606020947
 40
0.9397253781
 40
1.0
 40
1.0
 40
1.0
 40
1.0
 10
5.8458741212
 20
5.9614484958
 30
0.0
 10
5.8452037392
 20
5.9628593299
 30
0.0
 10
5.8443049787
 20
5.9649024611
 30
0.0
 10
5.8432831114
 20
5.9675306019
 30
0.0
 10
5.8426844205
 20
5.9691925439
 30
0.0
 10
5.8421999821
 20
5.9706389168
 30
0.0
 10
5.8418175347
 20
5.9718617845
 30
0.0
 10
5.8415265945
 20
5.9728556465
 30
0.0
 10
5.8413660324
 20
5.9734424345
 30
0.0
 10
5.8412999062
 20
5.9736970151
 30
0.0
  0
LINE
  5
31B
100
AcDbEntity
  8
0
100
AcDbLine
 62
7
  6
CONTINUOUS
 10
5.8412999062
 20
5.9736970151
 11
5.8411309129
 21
5.9745652255
  0
SPLINE
  5
31C
100
AcDbEntity
  8
0
100
AcDbSpline
 62
7
  6
CONTINUOUS
 70
0
 71
3
 72
42
 73
38
 74
0
 42
0.0000001
 43
0.0000001
 44
0.0000000001
 40
0.0
 40
0.0
 40
0.0
 40
0.0
 40
0.000013183
 40
0.0000526962
 40
0.0001185566
 40
0.0002107813
 40
0.000329388
 40
0.0004743946
 40
0.0008436804
 40
0.0013187885
 40
0.0018998737
 40
0.0025870962
 40
0.0033806212
 40
0.0052872616
 40
0.0076212229
 40
0.0103840119
 40
0.0135772169
 40
0.0172025236
 40
0.0212620823
 40
0.0257585786
 40
0.0306949301
 40
0.0418998145
 40
0.0549046906
 40
0.0697410374
 40
0.0864450691
 40
0.105058783
 40
0.1256297899
 40
0.1482094876
 40
0.1728476597
 40
0.2285156254
 40
0.2930666708
 40
0.366862343
 40
0.4501071782
 40
0.5428176205
 40
0.644774475
 40
0.7554717184
 40
1.0
 40
1.0
 40
1.0
 40
1.0
 10
5.8171596613
 20
5.8142427191
 30
0.0
 10
5.8171597508
 20
5.8142427264
 30
0.0
 10
5.8171596708
 20
5.8142432695
 30
0.0
 10
5.8171600211
 20
5.8142438668
 30
0.0
 10
5.8171602507
 20
5.8142452814
 30
0.0
 10
5.8171607425
 20
5.8142470645
 30
0.0
 10
5.8171613123
 20
5.8142494356
 30
0.0
 10
5.8171623688
 20
5.8142536096
 30
0.0
 10
5.8171640245
 20
5.814260149
 30
0.0
 10
5.8171664558
 20
5.8142695504
 30
0.0
 10
5.8171694717
 20
5.8142810408
 30
0.0
 10
5.8171730936
 20
5.8142946141
 30
0.0
 10
5.8171791329
 20
5.8143168903
 30
0.0
 10
5.817188318
 20
5.8143499383
 30
0.0
 10
5.8172014607
 20
5.8143958112
 30
0.0
 10
5.8172174491
 20
5.8144499859
 30
0.0
 10
5.8172364265
 20
5.8145124501
 30
0.0
 10
5.817258527
 20
5.8145831977
 30
0.0
 10
5.8172839497
 20
5.8146622079
 30
0.0
 10
5.8173129477
 20
5.8147494476
 30
0.0
 10
5.8173586674
 20
5.8148824262
 30
0.0
 10
5.8174263893
 20
5.8150691302
 30
0.0
 10
5.8175227939
 20
5.8153171165
 30
0.0
 10
5.8176393459
 20
5.8155973894
 30
0.0
 10
5.8177784444
 20
5.8159095684
 30
0.0
 10
5.8179426447
 20
5.8162532013
 30
0.0
 10
5.8181344537
 20
5.8166278431
 30
0.0
 10
5.8183563679
 20
5.817032997
 30
0.0
 10
5.8187107576
 20
5.8176379405
 30
0.0
 10
5.8192484954
 20
5.8184663435
 30
0.0
 10
5.8200333441
 20
5.8195310197
 30
0.0
 10
5.8210005992
 20
5.8206914833
 30
0.0
 10
5.8221649397
 20
5.8219337582
 30
0.0
 10
5.8235365718
 20
5.8232406395
 30
0.0
 10
5.8251201594
 20
5.824591766
 30
0.0
 10
5.8275926999
 20
5.8264883113
 30
0.0
 10
5.8296258639
 20
5.8278103158
 30
0.0
 10
5.8310579448
 20
5.82866182
 30
0.0
  0
SPLINE
  5
31D
100
AcDbEntity
  8
0
100
AcDbSpline
 62
7
  6
CONTINUOUS
 70
0
 71
3
 72
47
 73
43
 74
0
 42
0.0000001
 43
0.0000001
 44
0.0000000001
 40
0.0
 40
0.0
 40
0.0
 40
0.0
 40
0.0284463708
 40
0.0429743845
 40
0.0576690048
 40
0.0874726492
 40
0.1177257497
 40
0.132995725
 40
0.1483550654
 40
0.1793319065
 40
0.1949659439
 40
0.2107052635
 40
0.2265620039
 40
0.2425484864
 40
0.2586773354
 40
0.2749589496
 40
0.2913987518
 40
0.3079975248
 40
0.324748962
 40
0.3416424659
 40
0.3757797078
 40
0.4102781256
 40
0.4449907123
 40
0.4797884057
 40
0.4971860478
 40
0.5145646449
 40
0.5492223448
 40
0.5836746669
 40
0.6007979709
 40
0.6178383333
 40
0.6516278377
 40
0.6849573586
 40
0.7177390442
 40
0.7498848141
 40
0.781307935
 40
0.8119267172
 40
0.8416669189
 40
0.8704691636
 40
0.8982912844
 40
0.9251168939
 40
0.9509663136
 40
1.0
 40
1.0
 40
1.0
 40
1.0
 10
5.8310579448
 20
5.82866182
 30
0.0
 10
5.8322793524
 20
5.8293841515
 30
0.0
 10
5.8341223882
 20
5.8304791196
 30
0.0
 10
5.836580273
 20
5.8319740107
 30
0.0
 10
5.8390819282
 20
5.8335269828
 30
0.0
 10
5.8422129517
 20
5.835553181
 30
0.0
 10
5.8452860034
 20
5.8377183127
 30
0.0
 10
5.8476935727
 20
5.8395704304
 30
0.0
 10
5.8500677102
 20
5.8415222749
 30
0.0
 10
5.8523450181
 20
5.8436192779
 30
0.0
 10
5.8544794608
 20
5.8458831044
 30
0.0
 10
5.8560046057
 20
5.8476804448
 30
0.0
 10
5.8574357374
 20
5.8495757976
 30
0.0
 10
5.8587593335
 20
5.8515713423
 30
0.0
 10
5.8599633169
 20
5.8536658986
 30
0.0
 10
5.8610366009
 20
5.8558556302
 30
0.0
 10
5.8619721186
 20
5.8581330177
 30
0.0
 10
5.8627653422
 20
5.8604884332
 30
0.0
 10
5.8634164631
 20
5.8629103383
 30
0.0
 10
5.8641027019
 20
5.8662228547
 30
0.0
 10
5.8646277198
 20
5.8704646954
 30
0.0
 10
5.8648113448
 20
5.8756216536
 30
0.0
 10
5.864642359
 20
5.8808103178
 30
0.0
 10
5.8642774748
 20
5.8851317208
 30
0.0
 10
5.8638847521
 20
5.8885801643
 30
0.0
 10
5.8634356767
 20
5.8920147066
 30
0.0
 10
5.862783676
 20
5.8962800338
 30
0.0
 10
5.8620456095
 20
5.9005181097
 30
0.0
 10
5.8614184463
 20
5.9038830116
 30
0.0
 10
5.860775513
 20
5.9072112665
 30
0.0
 10
5.8599428542
 20
5.91132614
 30
0.0
 10
5.8589112122
 20
5.9162016679
 30
0.0
 10
5.8578596808
 20
5.9209890222
 30
0.0
 10
5.8567951988
 20
5.9256760388
 30
0.0
 10
5.8557196227
 20
5.9302497646
 30
0.0
 10
5.8546317273
 20
5.9346971558
 30
0.0
 10
5.8535272208
 20
5.939005648
 30
0.0
 10
5.8523980984
 20
5.9431634495
 30
0.0
 10
5.85123415
 20
5.9471604697
 30
0.0
 10
5.8500216568
 20
5.9509892011
 30
0.0
 10
5.8483477079
 20
5.9557788487
 30
0.0
 10
5.8469236485
 20
5.9592391188
 30
0.0
 10
5.8458741212
 20
5.9614484958
 30
0.0
  0
SPLINE
  5
31E
100
AcDbEntity
  8
0
100
AcDbSpline
 62
7
  6
CONTINUOUS
 70
0
 71
3
 72
52
 73
48
 74
0
 42
0.0000001
 43
0.0000001
 44
0.0000000001
 40
0.0
 40
0.0
 40
0.0
 40
0.0
 40
0.0074356284
 40
0.0155805426
 40
0.0244242375
 40
0.0339604943
 40
0.0441860127
 40
0.0551001784
 40
0.0667039383
 40
0.0789984092
 40
0.091982801
 40
0.1056513895
 40
0.1127380509
 40
0.11998924
 40
0.1274010012
 40
0.1349659172
 40
0.1388009059
 40
0.1426679906
 40
0.1504895132
 40
0.1584127642
 40
0.1664219875
 40
0.1745027958
 40
0.1826429161
 40
0.1990581487
 40
0.2155976809
 40
0.2322139627
 40
0.2488786862
 40
0.2655810276
 40
0.2823125542
 40
0.299064778
 40
0.3326040626
 40
0.3661540848
 40
0.3996843314
 40
0.4331773336
 40
0.4666265713
 40
0.5000339481
 40
0.5334089908
 40
0.5667629819
 40
0.6001073159
 40
0.6334460894
 40
0.6667790957
 40
0.7334306992
 40
0.8000706146
 40
0.8667066872
 40
0.9000258509
 40
0.9333471583
 40
1.0
 40
1.0
 40
1.0
 40
1.0
 10
6.0956169428
 20
2.9589021038
 30
0.0
 10
6.0958583101
 20
2.9628185062
 30
0.0
 10
6.0963261342
 20
2.9710272491
 30
0.0
 10
6.0969721389
 20
2.983899958
 30
0.0
 10
6.0975980191
 20
2.997883373
 30
0.0
 10
6.0982066076
 20
3.0129664454
 30
0.0
 10
6.0988001
 20
3.0291435011
 30
0.0
 10
6.0993798239
 20
3.0464127415
 30
0.0
 10
6.0999459621
 20
3.0647747814
 30
0.0
 10
6.1004973606
 20
3.0842302057
 30
0.0
 10
6.1010310092
 20
3.1047761372
 30
0.0
 10
6.1014510955
 20
3.1225758441
 30
0.0
 10
6.1017731977
 20
3.1373515301
 30
0.0
 10
6.1020089801
 20
3.1488265338
 30
0.0
 10
6.1022318105
 20
3.1605542227
 30
0.0
 10
6.1024011982
 20
3.1704798342
 30
0.0
 10
6.1025235042
 20
3.1785354051
 30
0.0
 10
6.1026363422
 20
3.1867265404
 30
0.0
 10
6.1027590999
 20
3.1970751366
 30
0.0
 10
6.1028835892
 20
3.2096096745
 30
0.0
 10
6.1029883377
 20
3.222281224
 30
0.0
 10
6.1030746145
 20
3.2350673577
 30
0.0
 10
6.1031684296
 20
3.2522894362
 30
0.0
 10
6.1032517889
 20
3.2739753477
 30
0.0
 10
6.1033129604
 20
3.3001342692
 30
0.0
 10
6.1033505492
 20
3.3264248897
 30
0.0
 10
6.1033782908
 20
3.3528014367
 30
0.0
 10
6.1033994235
 20
3.3792388052
 30
0.0
 10
6.1034158544
 20
3.4057223516
 30
0.0
 10
6.1034309131
 20
3.4410908724
 30
0.0
 10
6.1034386401
 20
3.4853346339
 30
0.0
 10
6.1034356552
 20
3.5384322755
 30
0.0
 10
6.1034248997
 20
3.5915054923
 30
0.0
 10
6.1034105208
 20
3.6445255235
 30
0.0
 10
6.1033953171
 20
3.6974807153
 30
0.0
 10
6.1033817646
 20
3.7503736594
 30
0.0
 10
6.1033735467
 20
3.8032163424
 30
0.0
 10
6.1033699973
 20
3.8560257578
 30
0.0
 10
6.1033672529
 20
3.9088160336
 30
0.0
 10
6.1033647313
 20
3.9615952356
 30
0.0
 10
6.1033621612
 20
4.0319509165
 30
0.0
 10
6.1033602414
 20
4.1198798426
 30
0.0
 10
6.1033590606
 20
4.2253830296
 30
0.0
 10
6.1033583133
 20
4.3132964552
 30
0.0
 10
6.1033594233
 20
4.3836274186
 30
0.0
 10
6.1033622721
 20
4.453967231
 30
0.0
 10
6.1033651087
 20
4.506724288
 30
0.0
 10
6.1033662339
 20
4.5418974582
 30
0.0
  0
LINE
  5
31F
100
AcDbEntity
  8
0
100
AcDbLine
 62
7
  6
CONTINUOUS
 10
6.1033662339
 20
4.5418974582
 11
6.1030627767
 21
4.7129663472
  0
LINE
  5
320
100
AcDbEntity
  8
0
100
AcDbLine
 62
7
  6
CONTINUOUS
 10
5.8912567942
 20
5.9870911884
 11
5.8868837474
 21
5.9933802644
  0
SPLINE
  5
321
100
AcDbEntity
  8
0
100
AcDbSpline
 62
7
  6
CONTINUOUS
 70
0
 71
3
 72
14
 73
10
 74
0
 42
0.0000001
 43
0.0000001
 44
0.0000000001
 40
0.0
 40
0.0
 40
0.0
 40
0.0
 40
0.4475369018
 40
0.6153111229
 40
0.7464229021
 40
0.8421190836
 40
0.9057578426
 40
0.9489554666
 40
1.0
 40
1.0
 40
1.0
 40
1.0
 10
5.8868809134
 20
5.9933838456
 30
0.0
 10
5.8868780917
 20
5.9933873669
 30
0.0
 10
5.8868741339
 20
5.9933921572
 30
0.0
 10
5.8868689497
 20
5.9933976076
 30
0.0
 10
5.8868660201
 20
5.993400324
 30
0.0
 10
5.8868636482
 20
5.9934020162
 30
0.0
 10
5.8868617561
 20
5.9934029465
 30
0.0
 10
5.886860019
 20
5.9934025404
 30
0.0
 10
5.8868596687
 20
5.9934015186
 30
0.0
 10
5.8868595596
 20
5.9934010156
 30
0.0
  0
LINE
  5
322
100
AcDbEntity
  8
0
100
AcDbLine
 62
7
  6
CONTINUOUS
 10
3.8234518235
 20
5.1169078631
 11
3.8228336435
 21
5.1170399777
  0
SPLINE
  5
323
100
AcDbEntity
  8
0
100
AcDbSpline
 62
7
  6
CONTINUOUS
 70
0
 71
3
 72
60
 73
56
 74
0
 42
0.0000001
 43
0.0000001
 44
0.0000000001
 40
0.0
 40
0.0
 40
0.0
 40
0.0
 40
0.0317449826
 40
0.0476172406
 40
0.0634887372
 40
0.0793600868
 40
0.0952316941
 40
0.1111020753
 40
0.1269698915
 40
0.1428342852
 40
0.1586949289
 40
0.1745518328
 40
0.1904048036
 40
0.2062533649
 40
0.2220967985
 40
0.2537654764
 40
0.2854089988
 40
0.3170245993
 40
0.3486076125
 40
0.380154394
 40
0.3959132529
 40
0.4116615756
 40
0.4273985097
 40
0.4431228795
 40
0.4588346937
 40
0.4745340955
 40
0.5058865713
 40
0.537176407
 40
0.5527981079
 40
0.5684016266
 40
0.5761965968
 40
0.5839871081
 40
0.5995542565
 40
0.6151029591
 40
0.6306328354
 40
0.6461447971
 40
0.6616392284
 40
0.6925758356
 40
0.7234554988
 40
0.754286613
 40
0.7850767231
 40
0.8158321895
 40
0.8465582759
 40
0.8772623019
 40
0.8926088509
 40
0.9079520738
 40
0.9232926902
 40
0.9386315506
 40
0.9539691919
 40
0.9616382226
 40
0.9693075514
 40
0.9769777785
 40
0.9846496359
 40
0.9923232008
 40
1.0
 40
1.0
 40
1.0
 40
1.0
 10
3.8228336435
 20
5.1170399777
 30
0.0
 10
3.819693215
 20
5.1177080176
 30
0.0
 10
3.814980874
 20
5.1187023046
 30
0.0
 10
3.808685928
 20
5.11997
 30
0.0
 10
3.8039570352
 20
5.1208811725
 30
0.0
 10
3.7992186885
 20
5.1217416908
 30
0.0
 10
3.7944699303
 20
5.1225422257
 30
0.0
 10
3.7897113514
 20
5.1232798942
 30
0.0
 10
3.784943632
 20
5.1239508751
 30
0.0
 10
3.7801675304
 20
5.1245516516
 30
0.0
 10
3.7753837979
 20
5.1250783539
 30
0.0
 10
3.7705938092
 20
5.1255325339
 30
0.0
 10
3.7657988899
 20
5.1259161434
 30
0.0
 10
3.7610003283
 20
5.1262309483
 30
0.0
 10
3.7546003912
 20
5.1265617209
 30
0.0
 10
3.7465972533
 20
5.1268089052
 30
0.0
 10
3.7369950172
 20
5.1268352889
 30
0.0
 10
3.7274044967
 20
5.126587151
 30
0.0
 10
3.7178352817
 20
5.1260553203
 30
0.0
 10
3.7098846586
 20
5.1253683135
 30
0.0
 10
3.7035457766
 20
5.1246673215
 30
0.0
 10
3.6988053509
 20
5.1240652699
 30
0.0
 10
3.694079186
 20
5.1233838201
 30
0.0
 10
3.6893700315
 20
5.1226156878
 30
0.0
 10
3.6846807961
 20
5.1217544418
 30
0.0
 10
3.6784630059
 20
5.1204735982
 30
0.0
 10
3.6707610188
 20
5.1185979356
 30
0.0
 10
3.6631841616
 20
5.1162869788
 30
0.0
 10
3.6572381811
 20
5.1141334302
 30
0.0
 10
3.6535787159
 20
5.1126529519
 30
0.0
 10
3.6506907676
 20
5.1113834671
 30
0.0
 10
3.6478327101
 20
5.1100567601
 30
0.0
 10
3.6443141014
 20
5.1082925342
 30
0.0
 10
3.6401818239
 20
5.1060138566
 30
0.0
 10
3.6361441032
 20
5.1035824312
 30
0.0
 10
3.632203439
 20
5.1010067406
 30
0.0
 10
3.6270842401
 20
5.0973933035
 30
0.0
 10
3.6209319074
 20
5.0925572257
 30
0.0
 10
3.6139429697
 20
5.0863071633
 30
0.0
 10
3.6073410729
 20
5.0796713534
 30
0.0
 10
3.6011154589
 20
5.0726991468
 30
0.0
 10
3.5952546918
 20
5.0654318454
 30
0.0
 10
3.5897483239
 20
5.0579038915
 30
0.0
 10
3.5854480528
 20
5.051434787
 30
0.0
 10
3.5821839013
 20
5.0461520892
 30
0.0
 10
3.5798251924
 20
5.0421378342
 30
0.0
 10
3.5775592847
 20
5.0380713637
 30
0.0
 10
3.5753899529
 20
5.033953165
 30
0.0
 10
3.5736700451
 20
5.0304765518
 30
0.0
 10
3.5723521669
 20
5.0276676798
 30
0.0
 10
3.5713957746
 20
5.025546087
 30
0.0
 10
3.570474211
 20
5.0234088197
 30
0.0
 10
3.56959013
 20
5.0212552689
 30
0.0
 10
3.5687522771
 20
5.0190825484
 30
0.0
 10
3.5682308603
 20
5.0176199326
 30
0.0
 10
3.5679810012
 20
5.0168848003
 30
0.0
  0
SPLINE
  5
324
100
AcDbEntity
  8
0
100
AcDbSpline
 62
7
  6
CONTINUOUS
 70
0
 71
3
 72
21
 73
17
 74
0
 42
0.0000001
 43
0.0000001
 44
0.0000000001
 40
0.0
 40
0.0
 40
0.0
 40
0.0
 40
0.1250339514
 40
0.1875494854
 40
0.2188066886
 40
0.2500634404
 40
0.3125754295
 40
0.375085187
 40
0.4375924272
 40
0.5000968383
 40
0.6250961164
 40
0.6875905369
 40
0.7500811622
 40
0.8125677292
 40
0.8750499302
 40
1.0
 40
1.0
 40
1.0
 40
1.0
 10
3.874721301
 20
5.3082483203
 30
0.0
 10
3.9348813883
 20
5.2923214452
 30
0.0
 10
4.0250951265
 20
5.2683340415
 30
0.0
 10
4.1302936107
 20
5.2401604936
 30
0.0
 10
4.1903905134
 20
5.2240053751
 30
0.0
 10
4.2504752879
 20
5.2078119887
 30
0.0
 10
4.3255602089
 20
5.1874997556
 30
0.0
 10
4.4156327456
 20
5.1630266961
 30
0.0
 10
4.5056784371
 20
5.1384693922
 30
0.0
 10
4.6257048386
 20
5.1056332344
 30
0.0
 10
4.7456941348
 20
5.0726857982
 30
0.0
 10
4.8656643268
 20
5.0396948183
 30
0.0
 10
4.9556324603
 20
5.0149482101
 30
0.0
 10
5.0455973892
 20
4.9902128853
 30
0.0
 10
5.1655440779
 20
4.9572593715
 30
0.0
 10
5.2555116554
 20
4.932584627
 30
0.0
 10
5.3154956912
 20
4.9161644501
 30
0.0
  0
LINE
  5
325
100
AcDbEntity
  8
0
100
AcDbLine
 62
7
  6
CONTINUOUS
 10
3.0483855872
 20
5.1432245171
 11
3.0848325327
 21
5.1337784747
  0
SPLINE
  5
326
100
AcDbEntity
  8
0
100
AcDbSpline
 62
7
  6
CONTINUOUS
 70
0
 71
3
 72
13
 73
9
 74
0
 42
0.0000001
 43
0.0000001
 44
0.0000000001
 40
0.0
 40
0.0
 40
0.0
 40
0.0
 40
0.1213044037
 40
0.2437740789
 40
0.3673816521
 40
0.4920801571
 40
0.744351409
 40
1.0
 40
1.0
 40
1.0
 40
1.0
 10
3.0848325327
 20
5.1337784747
 30
0.0
 10
3.0868420233
 20
5.1300996686
 30
0.0
 10
3.0906303212
 20
5.1225671782
 30
0.0
 10
3.095573701
 20
5.1108644119
 30
0.0
 10
3.099784507
 20
5.0987535348
 30
0.0
 10
3.1044133059
 20
5.0820757548
 30
0.0
 10
3.1082562147
 20
5.0604955315
 30
0.0
 10
3.1092123534
 20
5.0429210021
 30
0.0
 10
3.1091698245
 20
5.0340867806
 30
0.0
  0
SPLINE
  5
327
100
AcDbEntity
  8
0
100
AcDbSpline
 62
7
  6
CONTINUOUS
 70
0
 71
3
 72
50
 73
46
 74
0
 42
0.0000001
 43
0.0000001
 44
0.0000000001
 40
0.0
 40
0.0
 40
0.0
 40
0.0
 40
0.00743563
 40
0.0155805437
 40
0.0244242372
 40
0.033960489
 40
0.0441859992
 40
0.0551001542
 40
0.0667039001
 40
0.0789983554
 40
0.0919827264
 40
0.1056513043
 40
0.1127379658
 40
0.1199890944
 40
0.1274008134
 40
0.1349657642
 40
0.1388007681
 40
0.1426678509
 40
0.1504893391
 40
0.1584125714
 40
0.1664218017
 40
0.1826427299
 40
0.1990579498
 40
0.2155974845
 40
0.232213778
 40
0.2488785028
 40
0.2655808515
 40
0.2823123859
 40
0.2990646168
 40
0.3326039182
 40
0.3661539594
 40
0.399684227
 40
0.4331772496
 40
0.4666265079
 40
0.5000339073
 40
0.5334089685
 40
0.5667629766
 40
0.6001073314
 40
0.6334461235
 40
0.6667791483
 40
0.7334307858
 40
0.8000707355
 40
0.8667068732
 40
0.9333472655
 40
1.0
 40
1.0
 40
1.0
 40
1.0
 10
6.0812570962
 20
2.9589021109
 30
0.0
 10
6.0810157524
 20
2.9628184963
 30
0.0
 10
6.0805478928
 20
2.9710271971
 30
0.0
 10
6.0799018923
 20
2.9838998428
 30
0.0
 10
6.0792760294
 20
2.9978831859
 30
0.0
 10
6.078667439
 20
3.0129661761
 30
0.0
 10
6.0780739434
 20
3.0291431394
 30
0.0
 10
6.0774942225
 20
3.0464122774
 30
0.0
 10
6.0769280756
 20
3.0647742054
 30
0.0
 10
6.0763766872
 20
3.0842295076
 30
0.0
 10
6.0758430205
 20
3.1047753125
 30
0.0
 10
6.0754229147
 20
3.122574915
 30
0.0
 10
6.0751010797
 20
3.1373504965
 30
0.0
 10
6.0748649056
 20
3.1488253814
 30
0.0
 10
6.0746417747
 20
3.1605529714
 30
0.0
 10
6.0744728215
 20
3.1704785457
 30
0.0
 10
6.0743507507
 20
3.1785341058
 30
0.0
 10
6.0742379204
 20
3.1867251897
 30
0.0
 10
6.0741148688
 20
3.1970737024
 30
0.0
 10
6.0739902956
 20
3.2096081537
 30
0.0
 10
6.0738502448
 20
3.2265750683
 30
0.0
 10
6.0737221145
 20
3.2480234572
 30
0.0
 10
6.0736221397
 20
3.2739735003
 30
0.0
 10
6.0735609706
 20
3.3001322952
 30
0.0
 10
6.0735235539
 20
3.3264227945
 30
0.0
 10
6.0734957563
 20
3.3527992223
 30
0.0
 10
6.0734745875
 20
3.3792364695
 30
0.0
 10
6.0734581735
 20
3.4057198972
 30
0.0
 10
6.0734431165
 20
3.4410882607
 30
0.0
 10
6.0734353709
 20
3.4853318271
 30
0.0
 10
6.0734383682
 20
3.5384292374
 30
0.0
 10
6.0734491201
 20
3.5915022249
 30
0.0
 10
6.0734635065
 20
3.644522028
 30
0.0
 10
6.0734787154
 20
3.6974769927
 30
0.0
 10
6.0734922603
 20
3.7503697091
 30
0.0
 10
6.0735004688
 20
3.8032121628
 30
0.0
 10
6.0735040196
 20
3.856021348
 30
0.0
 10
6.0735067737
 20
3.9088113938
 30
0.0
 10
6.0735092993
 20
3.9615903666
 30
0.0
 10
6.0735118246
 20
4.0319457388
 30
0.0
 10
6.0735137199
 20
4.1198742781
 30
0.0
 10
6.073515416
 20
4.2253770163
 30
0.0
 10
6.0735144992
 20
4.3308738203
 30
0.0
 10
6.0735144807
 20
4.436377371
 30
0.0
 10
6.0735143563
 20
4.5067167392
 30
0.0
 10
6.0735132296
 20
4.5418896799
 30
0.0
  0
SPLINE
  5
328
100
AcDbEntity
  8
0
100
AcDbSpline
 62
7
  6
CONTINUOUS
 70
0
 71
3
 72
29
 73
25
 74
0
 42
0.0000001
 43
0.0000001
 44
0.0000000001
 40
0.0
 40
0.0
 40
0.0
 40
0.0
 40
0.0638609249
 40
0.0957494413
 40
0.1276065005
 40
0.1912181164
 40
0.2229704443
 40
0.2546852747
 40
0.3179940908
 40
0.3811309164
 40
0.4440807972
 40
0.5068292236
 40
0.5693615871
 40
0.631662998
 40
0.6937189487
 40
0.7555166272
 40
0.8170474773
 40
0.8477110555
 40
0.8783047462
 40
0.9088291789
 40
0.9240659497
 40
0.9392858855
 40
0.9696755052
 40
1.0
 40
1.0
 40
1.0
 40
1.0
 10
6.0735132296
 20
4.5418896799
 30
0.0
 10
6.0715694309
 20
4.5249919946
 30
0.0
 10
6.0684801544
 20
4.4996760264
 30
0.0
 10
6.0639555079
 20
4.4659906901
 30
0.0
 10
6.0591487138
 20
4.4324115377
 30
0.0
 10
6.0538853453
 20
4.3989355313
 30
0.0
 10
6.0481385923
 20
4.3655795236
 30
0.0
 10
6.0420706642
 20
4.3323624112
 30
0.0
 10
6.0338524673
 20
4.2910427627
 30
0.0
 10
6.0229005707
 20
4.241796602
 30
0.0
 10
6.0108035117
 20
4.1929721906
 30
0.0
 10
5.9975042532
 20
4.144627799
 30
0.0
 10
5.9829532154
 20
4.0968251439
 30
0.0
 10
5.9671008917
 20
4.04963192
 30
0.0
 10
5.9499030345
 20
4.0031199235
 30
0.0
 10
5.9313248758
 20
3.9573629734
 30
0.0
 10
5.9146676553
 20
3.9198736495
 30
0.0
 10
5.9006448048
 20
3.8903269826
 30
0.0
 10
5.8897918503
 20
3.8684211675
 30
0.0
 10
5.880453528
 20
3.8503538897
 30
0.0
 10
5.8728096356
 20
3.8360227208
 30
0.0
 10
5.8650590357
 20
3.8217898469
 30
0.0
 10
5.8551517763
 20
3.8041565826
 30
0.0
 10
5.8469721474
 20
3.7902055974
 30
0.0
 10
5.8428204727
 20
3.7832774987
 30
0.0
  0
SPLINE
  5
329
100
AcDbEntity
  8
0
100
AcDbSpline
 62
7
  6
CONTINUOUS
 70
0
 71
3
 72
33
 73
29
 74
0
 42
0.0000001
 43
0.0000001
 44
0.0000000001
 40
0.0
 40
0.0
 40
0.0
 40
0.0
 40
0.0281682967
 40
0.0574704465
 40
0.0877154688
 40
0.118758928
 40
0.1827948806
 40
0.2488835273
 40
0.2825345605
 40
0.3165113193
 40
0.3852112641
 40
0.4545233301
 40
0.5239352784
 40
0.5928644572
 40
0.6269455585
 40
0.6606472321
 40
0.6938709012
 40
0.72651284
 40
0.7584652977
 40
0.7896185398
 40
0.8198641898
 40
0.8490991271
 40
0.8772306849
 40
0.9041849064
 40
0.9299163465
 40
0.9544197396
 40
0.9777434228
 40
1.0
 40
1.0
 40
1.0
 40
1.0
 10
5.9154269164
 20
5.7591203546
 30
0.0
 10
5.9159359569
 20
5.7612579118
 30
0.0
 10
5.9169352779
 20
5.7656285033
 30
0.0
 10
5.9183463315
 20
5.7723241914
 30
0.0
 10
5.9196849182
 20
5.7792633708
 30
0.0
 10
5.9213679812
 20
5.7888940488
 30
0.0
 10
5.9231908985
 20
5.801336688
 30
0.0
 10
5.9245325009
 20
5.8140459913
 30
0.0
 10
5.9252773913
 20
5.8244510954
 30
0.0
 10
5.925784078
 20
5.8350744327
 30
0.0
 10
5.9259190279
 20
5.8484966399
 30
0.0
 10
5.9252112223
 20
5.8646698891
 30
0.0
 10
5.9235958229
 20
5.8807962015
 30
0.0
 10
5.9214972006
 20
5.8940895033
 30
0.0
 10
5.9193955404
 20
5.9045460002
 30
0.0
 10
5.9176342283
 20
5.9122268678
 30
0.0
 10
5.9157006863
 20
5.9197501855
 30
0.0
 10
5.9136171849
 20
5.9270915367
 30
0.0
 10
5.9114093506
 20
5.9342274478
 30
0.0
 10
5.909106063
 20
5.9411362291
 30
0.0
 10
5.9067389551
 20
5.9477987166
 30
0.0
 10
5.9043416453
 20
5.9541991469
 30
0.0
 10
5.9019490294
 20
5.9603263586
 30
0.0
 10
5.8995966451
 20
5.9661754364
 30
0.0
 10
5.8973194925
 20
5.9717495508
 30
0.0
 10
5.8951509055
 20
5.9770621021
 30
0.0
 10
5.8931223032
 20
5.9821389223
 30
0.0
 10
5.8918548729
 20
5.985461278
 30
0.0
 10
5.8912567942
 20
5.9870911884
 30
0.0
  0
SPLINE
  5
32A
100
AcDbEntity
  8
0
100
AcDbSpline
 62
7
  6
CONTINUOUS
 70
0
 71
3
 72
52
 73
48
 74
0
 42
0.0000001
 43
0.0000001
 44
0.0000000001
 40
0.0
 40
0.0
 40
0.0
 40
0.0
 40
0.0289443243
 40
0.0580544146
 40
0.0873452598
 40
0.1168326808
 40
0.1465316605
 40
0.1764571864
 40
0.206623473
 40
0.2218030325
 40
0.2370475716
 40
0.2523582182
 40
0.2677358491
 40
0.2831812354
 40
0.298694081
 40
0.3064759959
 40
0.3142742944
 40
0.3220888366
 40
0.3299190494
 40
0.3377637875
 40
0.3456217907
 40
0.3613737826
 40
0.3771695341
 40
0.3930028499
 40
0.4088671426
 40
0.4247575431
 40
0.4406684841
 40
0.4565964298
 40
0.4725371924
 40
0.4884879443
 40
0.5044470583
 40
0.520412062
 40
0.5363821538
 40
0.5523570273
 40
0.5683362589
 40
0.5843193208
 40
0.6003055743
 40
0.6162943091
 40
0.6482772548
 40
0.6802651294
 40
0.7122550014
 40
0.7442444935
 40
0.7762314238
 40
0.8082147807
 40
0.8721649556
 40
0.9360930959
 40
1.0
 40
1.0
 40
1.0
 40
1.0
 10
5.6148515112
 20
2.9589020617
 30
0.0
 10
5.6224817569
 20
2.9629266893
 30
0.0
 10
5.6375642849
 20
2.971427229
 30
0.0
 10
5.6595148925
 20
2.9854454849
 30
0.0
 10
5.6807919716
 20
3.0007471207
 30
0.0
 10
5.7013212022
 20
3.0173196107
 30
0.0
 10
5.7210175309
 20
3.0351584076
 30
0.0
 10
5.7397795787
 20
3.0542627928
 30
0.0
 10
5.7545069048
 20
3.0712069732
 30
0.0
 10
5.7656903639
 20
3.0853891014
 30
0.0
 10
5.7737763363
 20
3.0963658267
 30
0.0
 10
5.7815195792
 20
3.1076586458
 30
0.0
 10
5.788896229
 20
3.1192655497
 30
0.0
 10
5.79588078
 20
3.1311825524
 30
0.0
 10
5.8013446605
 20
3.1413575506
 30
0.0
 10
5.8054899712
 20
3.1496462845
 30
0.0
 10
5.8084849027
 20
3.1559434565
 30
0.0
 10
5.8113573365
 20
3.1623132261
 30
0.0
 10
5.8141053746
 20
3.1687526805
 30
0.0
 10
5.816729664
 20
3.1752575261
 30
0.0
 10
5.8200656732
 20
3.1840192378
 30
0.0
 10
5.8239294142
 20
3.1951131071
 30
0.0
 10
5.8281047631
 20
3.2086059091
 30
0.0
 10
5.8318523346
 20
3.2222581422
 30
0.0
 10
5.8352019665
 20
3.2360420292
 30
0.0
 10
5.838187775
 20
3.2499325814
 30
0.0
 10
5.8408451774
 20
3.2639086731
 30
0.0
 10
5.8432106582
 20
3.277952059
 30
0.0
 10
5.8453221354
 20
3.2920476322
 30
0.0
 10
5.8472146023
 20
3.306183471
 30
0.0
 10
5.8489209614
 20
3.3203500912
 30
0.0
 10
5.850475454
 20
3.3345399038
 30
0.0
 10
5.8518817301
 20
3.3487498936
 30
0.0
 10
5.8531429397
 20
3.3629777337
 30
0.0
 10
5.8542624146
 20
3.3772212944
 30
0.0
 10
5.8552434484
 20
3.3914784447
 30
0.0
 10
5.8560893741
 20
3.4057470857
 30
0.0
 10
5.857041495
 20
3.4247856199
 30
0.0
 10
5.8579115794
 20
3.4486022992
 30
0.0
 10
5.8584763036
 20
3.4771981773
 30
0.0
 10
5.8585941273
 20
3.5058012234
 30
0.0
 10
5.8582973101
 20
3.5344025155
 30
0.0
 10
5.857618491
 20
3.5629952256
 30
0.0
 10
5.8562489379
 20
3.6010969726
 30
0.0
 10
5.8537494357
 20
3.6486802744
 30
0.0
 10
5.849753538
 20
3.7057023318
 30
0.0
 10
5.846598338
 20
3.7436724082
 30
0.0
 10
5.8449409152
 20
3.7626470524
 30
0.0
  0
SPLINE
  5
32B
100
AcDbEntity
  8
0
100
AcDbSpline
 62
7
  6
CONTINUOUS
 70
0
 71
3
 72
9
 73
5
 74
0
 42
0.0000001
 43
0.0000001
 44
0.0000000001
 40
0.0
 40
0.0
 40
0.0
 40
0.0
 40
0.5103995406
 40
1.0
 40
1.0
 40
1.0
 40
1.0
 10
5.6400396534
 20
2.9483544256
 30
0.0
 10
5.6356319322
 20
2.9498339451
 30
0.0
 10
5.6270861536
 20
2.9530119951
 30
0.0
 10
5.6188085832
 20
2.9568447204
 30
0.0
 10
5.6148515112
 20
2.9589020617
 30
0.0
  0
SPLINE
  5
32C
100
AcDbEntity
  8
0
100
AcDbSpline
 62
7
  6
CONTINUOUS
 70
0
 71
3
 72
34
 73
30
 74
0
 42
0.0000001
 43
0.0000001
 44
0.0000000001
 40
0.0
 40
0.0
 40
0.0
 40
0.0
 40
0.0158268818
 40
0.031657857
 40
0.0633250196
 40
0.0949950544
 40
0.1266657817
 40
0.158336621
 40
0.1900074634
 40
0.2216782219
 40
0.2533486778
 40
0.3166863377
 40
0.3800123971
 40
0.4433120751
 40
0.5065619204
 40
0.5697270869
 40
0.6012620665
 40
0.6327549999
 40
0.6641946713
 40
0.69556926
 40
0.726863784
 40
0.7580593713
 40
0.8200614672
 40
0.8508076547
 40
0.8813313069
 40
0.9115825279
 40
0.9414984454
 40
0.9710030925
 40
1.0
 40
1.0
 40
1.0
 40
1.0
 10
5.3148508426
 20
4.9137774123
 30
0.0
 10
5.3188602352
 20
4.9127267617
 30
0.0
 10
5.3268863782
 20
4.9106492695
 30
0.0
 10
5.3429598105
 20
4.9065671855
 30
0.0
 10
5.3630798232
 20
4.9015638217
 30
0.0
 10
5.3872485578
 20
4.8956537784
 30
0.0
 10
5.4114320536
 20
4.8898003838
 30
0.0
 10
5.4356237528
 20
4.8839801332
 30
0.0
 10
5.4598195406
 20
4.8781768786
 30
0.0
 10
5.4840164206
 20
4.8723786135
 30
0.0
 10
5.5162765977
 20
4.8646422226
 30
0.0
 10
5.556591134
 20
4.8549433517
 30
0.0
 10
5.6049360902
 20
4.8432120671
 30
0.0
 10
5.65322563
 20
4.8313505893
 30
0.0
 10
5.7014309657
 20
4.8193241486
 30
0.0
 10
5.7415200686
 20
4.8091322507
 30
0.0
 10
5.773515412
 20
4.8008590069
 30
0.0
 10
5.7974485111
 20
4.7945946386
 30
0.0
 10
5.8213203383
 20
4.7882625527
 30
0.0
 10
5.8451191133
 20
4.7818583188
 30
0.0
 10
5.8688308938
 20
4.7753774284
 30
0.0
 10
5.9002422199
 20
4.7666460913
 30
0.0
 10
5.9314537749
 20
4.7577328404
 30
0.0
 10
5.9624178484
 20
4.7486001569
 30
0.0
 10
5.985362594
 20
4.7416721718
 30
0.0
 10
6.0080493925
 20
4.7346441034
 30
0.0
 10
6.030424179
 20
4.7275130317
 30
0.0
 10
6.0524205112
 20
4.7202793411
 30
0.0
 10
6.0669232788
 20
4.7153397775
 30
0.0
 10
6.0740957939
 20
4.7128457616
 30
0.0
  0
ENDSEC
  0
SECTION
  2
OBJECTS
  0
DICTIONARY
  5
C
100
AcDbDictionary
280
0
281
1
  3
ACAD_GROUP
350
D
  3
ACAD_MLINESTYLE
350
17
  3
ACAD_LAYOUT
350
1A
  3
ACAD_PLOTSETTINGS
350
19
  3
ACAD_PLOTSTYLENAME
350
E
  0
DICTIONARY
  5
D
102
{ACAD_REACTORS
330
C
102
}
100
AcDbDictionary
280
0
281
1
  0
ACDBDICTIONARYWDFLT
  5
E
102
{ACAD_REACTORS
330
C
102
}
100
AcDbDictionary
281
1
  3
Normal
350
F
100
AcDbDictionaryWithDefault
340
F
  0
DICTIONARY
  5
17
102
{ACAD_REACTORS
330
C
102
}
100
AcDbDictionary
280
0
281
1
  3
Standard
350
18
  0
DICTIONARY
  5
19
102
{ACAD_REACTORS
330
C
102
}
100
AcDbDictionary
281
1
  0
DICTIONARY
  5
1A
102
{ACAD_REACTORS
330
C
102
}
100
AcDbDictionary
281
1
  3
Model
350
32D
  3
Layout1
350
32E
  0
ACDBPLACEHOLDER
  5
F
102
{ACAD_REACTORS
330
E
102
}
  0
MLINESTYLE
  5
18
102
{ACAD_REACTORS
330
17
102
}
100
AcDbMlineStyle
  2
STANDARD
 70
0
  3

 62
256
 51
90.0
 52
90.0
 71
2
 49
0.5
 62
256
  6
BYLAYER
 49
-0.5
 62
256
  6
BYLAYER
  0
LAYOUT
  5
32D
102
{ACAD_REACTORS
330
1A
102
}
100
AcDbPlotSettings
  1

  2
none_device
  4
ANSI_A_(11.00_x_8.50_Inches)
  6

 40
0.0
 41
0.0
 42
0.0
 43
0.0
 44
279.4
 45
215.9
 46
0.0
 47
0.0
 48
0.0
 49
0.0
140
0.0
141
0.0
142
1.0
143
1.0
 70
1024
 72
0
 73
0
 74
0
  7

 75
0
147
1.0
148
0.0
149
0.0
100
AcDbLayout
  1
Model
 70
0
 71
0
 10
0.0
 20
0.0
 11
11.0
 21
8.5
 12
0.0
 22
0.0
 32
0.0
 14
0.0
 24
0.0
 34
0.0
 15
0.0
 25
0.0
 35
0.0
146
0.0
 13
0.0
 23
0.0
 33
0.0
 16
1.0
 26
0.0
 36
0.0
 17
0.0
 27
1.0
 37
0.0
 76
0
330
202
345
0
346
0
  0
LAYOUT
  5
32E
102
{ACAD_REACTORS
330
1A
102
}
100
AcDbPlotSettings
  1

  2
none_device
  4
ANSI_A_(11.00_x_8.50_Inches)
  6

 40
0.0
 41
0.0
 42
0.0
 43
0.0
 44
279.4
 45
215.9
 46
0.0
 47
0.0
 48
0.0
 49
0.0
140
0.0
141
0.0
142
1.0
143
1.0
 70
0
 72
0
 73
0
 74
0
  7

 75
0
147
1.0
148
0.0
149
0.0
100
AcDbLayout
  1
Layout1
 70
0
 71
1
 10
0.0
 20
0.0
 11
11.0
 21
8.5
 12
0.0
 22
0.0
 32
0.0
 14
0.0
 24
0.0
 34
0.0
 15
0.0
 25
0.0
 35
0.0
146
0.0
 13
0.0
 23
0.0
 33
0.0
 16
1.0
 26
0.0
 36
0.0
 17
0.0
 27
1.0
 37
0.0
 76
0
330
203
345
0
346
0
  0
ENDSEC
  0
EOF
