999
DXF file: E:\BRASSTECH\RAY\EN-4300m\Webdata\1220C\CAD\1220C_RIGHT.dxf
999
Pro/ENGINEER 2018400 by Parametric Technology Corporation
  0
SECTION
  2
HEADER
  9
$ACADVER
  1
AC1018
  9
$DWGCODEPAGE
  3
ANSI_1252
  9
$EXTMAX
 10
22.0
 20
17.0
 30
0.0
  9
$EXTMIN
 10
0.0
 20
0.0
 30
0.0
  9
$LIMMIN
 10
0.0
 20
0.0
  9
$LIMMAX
 10
22.0
 20
17.0
  9
$VIEWCTR
 10
11.0
 20
8.5
  9
$VIEWSIZE
 40
17.0
  9
$CLAYER
  8
0
  9
$LTSCALE
 40
1.21
  9
$CELTYPE
  6
BYLAYER
  9
$DIMSCALE
 40
1.0
  9
$DIMASZ
 40
0.1
  9
$DIMEXO
 40
0.0625
  9
$DIMDLI
 40
0.836
  9
$DIMEXE
 40
0.125
  9
$DIMCEN
 40
0.198
  9
$DIMLFAC
 40
1.0
  9
$DIMBLK
  1
_FILLED
  9
$DIMALT
 70
1
  9
$DIMALTD
 70
2
  9
$DIMALTTD
 70
2
  9
$DIMALTF
 40
25.4
  9
$DIMTXT
 40
0.08
  9
$DIMTOL
 70
1
  9
$DIMLIM
 70
0
  9
$DIMTFAC
 40
1.0
  9
$DIMTP
 40
0.001
  9
$DIMTM
 40
0.001
  9
$DIMGAP
 40
0.09
  9
$DIMDSEP
 70
46
  9
$AUNITS
 70
0
  9
$PDMODE
 70
3
  9
$PDSIZE
 40
0.06
  9
$HANDSEED
  5
3A9
  9
$TILEMODE
 70
1
  9
$MEASUREMENT
 70
0
  9
$INSUNITS
 70
1
  0
ENDSEC
  0
SECTION
  2
CLASSES
  0
CLASS
  1
ACDBDICTIONARYWDFLT
  2
AcDbDictionaryWithDefault
  3
AutoCAD 2000
 90
0
 91
1
280
0
281
0
  0
CLASS
  1
ACDBPLACEHOLDER
  2
AcDbPlaceHolder
  3
AutoCAD 2000
 90
0
 91
1
280
0
281
0
  0
CLASS
  1
LAYOUT
  2
AcDbLayout
  3
AutoCAD 2000
 90
0
 91
0
280
0
281
0
  0
ENDSEC
  0
SECTION
  2
TABLES
  0
TABLE
  2
VPORT
  5
8
100
AcDbSymbolTable
 70
2
  0
VPORT
  5
1F4
100
AcDbSymbolTableRecord
100
AcDbViewportTableRecord
  2
*ACTIVE
 70
0
 10
0.0
 20
0.0
 11
1.0
 21
1.0
 12
11.0
 22
8.5
 13
0.0
 23
0.0
 14
1.0
 24
1.0
 15
0.0
 25
0.0
 16
0.0
 26
0.0
 36
1.0
 17
0.0
 27
0.0
 37
0.0
 40
17.0
 41
1.2941176471
 42
50.0
 43
0.0
 44
0.0
 50
0.0
 51
0.0
 71
0
 72
100
 73
1
 74
1
 75
0
 76
0
 77
0
 78
0
  0
ENDTAB
  0
TABLE
  2
LTYPE
  5
5
100
AcDbSymbolTable
 70
6
  0
LTYPE
  5
14
100
AcDbSymbolTableRecord
100
AcDbLinetypeTableRecord
  2
BYBLOCK
 70
0
  3

 72
65
 73
0
 40
0.0
  0
LTYPE
  5
15
100
AcDbSymbolTableRecord
100
AcDbLinetypeTableRecord
  2
BYLAYER
 70
0
  3

 72
65
 73
0
 40
0.0
  0
LTYPE
  5
16
100
AcDbSymbolTableRecord
100
AcDbLinetypeTableRecord
  2
CONTINUOUS
 70
64
  3
Solid line
 72
65
 73
0
 40
0.0
  0
LTYPE
  5
1F5
100
AcDbSymbolTableRecord
100
AcDbLinetypeTableRecord
  2
CENTER
 70
64
  3
____ _ ____ _ ____ _ ____ _ ____ _ ____ _ ____
 72
65
 73
4
 40
0.6
 49
0.375
 74
0
 49
-0.075
 74
0
 49
0.075
 74
0
 49
-0.075
 74
0
  0
LTYPE
  5
1F6
100
AcDbSymbolTableRecord
100
AcDbLinetypeTableRecord
  2
HIDDEN
 70
64
  3
- - - - - - - - - - - - - - - - - - - -
 72
65
 73
2
 40
0.2
 49
0.1
 74
0
 49
-0.1
 74
0
  0
LTYPE
  5
1F7
100
AcDbSymbolTableRecord
100
AcDbLinetypeTableRecord
  2
PHANTOM
 70
64
  3
_____ _ _ _____ _ _ _____ _ _ _____
 72
65
 73
6
 40
0.8
 49
0.45
 74
0
 49
-0.05
 74
0
 49
0.1
 74
0
 49
-0.05
 74
0
 49
0.1
 74
0
 49
-0.05
 74
0
  0
LTYPE
  5
1F8
100
AcDbSymbolTableRecord
100
AcDbLinetypeTableRecord
  2
DOT
 70
64
  3
. . . . . . . . . . . . . . . . . . . .
 72
65
 73
2
 40
0.2
 49
0.1
 74
0
 49
-0.1
 74
0
  0
LTYPE
  5
1F9
100
AcDbSymbolTableRecord
100
AcDbLinetypeTableRecord
  2
DASHED
 70
64
  3
- - - - - - - - - - - - - - - - - - - -
 72
65
 73
2
 40
0.2
 49
0.1
 74
0
 49
-0.1
 74
0
  0
ENDTAB
  0
TABLE
  2
LAYER
  5
2
100
AcDbSymbolTable
 70
36
  0
LAYER
  5
10
100
AcDbSymbolTableRecord
100
AcDbLayerTableRecord
  2
0
 70
0
 62
7
  6
CONTINUOUS
370
-3
390
F
  0
LAYER
  5
1FA
100
AcDbSymbolTableRecord
100
AcDbLayerTableRecord
  2
DEFAULT_1
 70
0
 62
7
  6
CENTER
370
-3
390
F
  0
LAYER
  5
1FB
100
AcDbSymbolTableRecord
100
AcDbLayerTableRecord
  2
DEFAULT_2
 70
0
 62
8
  6
HIDDEN
370
-3
390
F
  0
LAYER
  5
1FC
100
AcDbSymbolTableRecord
100
AcDbLayerTableRecord
  2
DEFAULT_3
 70
0
 62
7
  6
PHANTOM
370
-3
390
F
  0
LAYER
  5
1FD
100
AcDbSymbolTableRecord
100
AcDbLayerTableRecord
  2
ALL_FEATURES
 70
0
 62
7
  6
CONTINUOUS
370
-3
390
F
  0
LAYER
  5
1FE
100
AcDbSymbolTableRecord
100
AcDbLayerTableRecord
  2
AXES_FEATURES
 70
0
 62
7
  6
CONTINUOUS
370
-3
390
F
  0
LAYER
  5
1FF
100
AcDbSymbolTableRecord
100
AcDbLayerTableRecord
  2
DIMENSIONS
 70
0
 62
7
  6
CONTINUOUS
370
-3
390
F
  0
ENDTAB
  0
TABLE
  2
STYLE
  5
3
100
AcDbSymbolTable
 70
1
  0
STYLE
  5
11
100
AcDbSymbolTableRecord
100
AcDbTextStyleTableRecord
  2
STANDARD
 70
0
 40
0.0
 41
0.8
 50
0.0
 71
0
 42
0.2
  3
txt
  4

  0
STYLE
  5
200
100
AcDbSymbolTableRecord
100
AcDbTextStyleTableRecord
  2
TEXTSTYLE_1
 70
0
 40
0.0
 41
0.8
 50
0.0
 71
0
 42
0.2
  3
gdt
  4

  0
ENDTAB
  0
TABLE
  2
VIEW
  5
6
100
AcDbSymbolTable
 70
0
  0
ENDTAB
  0
TABLE
  2
UCS
  5
7
100
AcDbSymbolTable
 70
0
  0
ENDTAB
  0
TABLE
  2
APPID
  5
9
100
AcDbSymbolTable
 70
1
  0
APPID
  5
201
100
AcDbSymbolTableRecord
100
AcDbRegAppTableRecord
  2
ACAD
 70
0
  0
ENDTAB
  0
TABLE
  2
BLOCK_RECORD
  5
1
100
AcDbSymbolTable
 70
0
  0
BLOCK_RECORD
  5
202
100
AcDbSymbolTableRecord
100
AcDbBlockTableRecord
  2
*Model_Space
  0
BLOCK_RECORD
  5
203
100
AcDbSymbolTableRecord
100
AcDbBlockTableRecord
  2
*Paper_Space
  0
BLOCK_RECORD
  5
204
100
AcDbSymbolTableRecord
100
AcDbBlockTableRecord
  2
_FILLED
  0
ENDTAB
  0
TABLE
  2
DIMSTYLE
  5
A
100
AcDbSymbolTable
 70
1
100
AcDbDimStyleTable
 71
0
  0
DIMSTYLE
105
205
100
AcDbSymbolTableRecord
100
AcDbDimStyleTableRecord
  2
STANDARD
 70
0
  3

  4

 40
1.0
 41
0.1
 42
0.0625
 43
0.38
 44
0.125
 45
0.0
 46
0.0
 47
0.001
 48
0.001
140
0.08
141
0.09
142
0.0
143
25.4
144
1.0
145
0.0
146
1.0
147
0.09
 71
1.0
 72
0.0
 73
1
 74
1
 75
0
 76
0
 77
0
 78
4
 79
1
170
1
171
2
172
0
173
0
174
0
175
0
176
0
177
0
178
0
270
2
179
3
271
3
272
3
273
2
274
2
275
0
280
0
281
0
282
0
283
1
284
4
285
0
286
0
287
3
288
0
340
11
278
46
341
204
342
204
343
204
344
204
  0
ENDTAB
  0
ENDSEC
  0
SECTION
  2
BLOCKS
  0
BLOCK
  5
20
100
AcDbEntity
  8
0
100
AcDbBlockBegin
  2
*Model_Space
 70
0
 10
0.0
 20
0.0
 30
0.0
  3
*Model_Space
  1

  0
ENDBLK
  5
21
100
AcDbEntity
  8
0
100
AcDbBlockEnd
  0
BLOCK
  5
1C
100
AcDbEntity
  8
0
100
AcDbBlockBegin
  2
*Paper_Space
 70
0
 10
0.0
 20
0.0
 30
0.0
  3
*Paper_Space
  1

  0
ENDBLK
  5
1D
100
AcDbEntity
  8
0
100
AcDbBlockEnd
  0
BLOCK
  5
206
100
AcDbEntity
  8
0
100
AcDbBlockBegin
  2
_FILLED
 70
64
 10
0.0
 20
0.0
  3
_FILLED
  1

  0
SOLID
  5
207
100
AcDbEntity
  8
0
  6
BYBLOCK
 62
0
100
AcDbTrace
 10
0.0
 20
0.0
 11
-1.0
 21
0.2
 12
-1.0
 22
-0.2
 13
-1.0
 23
-0.2
  0
ENDBLK
  5
208
100
AcDbEntity
  8
0
  6
BYBLOCK
 62
0
100
AcDbBlockEnd
  0
ENDSEC
  0
SECTION
  2
ENTITIES
  0
LINE
  5
209
100
AcDbEntity
  8
0
100
AcDbLine
 62
7
  6
CONTINUOUS
 10
6.9504076973
 20
10.7392405756
 11
6.9205402107
 21
10.5698536421
  0
LINE
  5
20A
100
AcDbEntity
  8
0
100
AcDbLine
 62
7
  6
CONTINUOUS
 10
8.086472497
 20
10.8951353129
 11
8.1154646419
 21
10.937251486
  0
LINE
  5
20B
100
AcDbEntity
  8
0
100
AcDbLine
 62
7
  6
CONTINUOUS
 10
7.8613548688
 20
10.5786160112
 11
7.8314873823
 21
10.4092290777
  0
LINE
  5
20C
100
AcDbEntity
  8
0
100
AcDbLine
 62
7
  6
CONTINUOUS
 10
8.0438802073
 20
10.8052986414
 11
8.0438808707
 21
10.8053020945
  0
LWPOLYLINE
  5
20D
100
AcDbEntity
  8
0
100
AcDbPolyline
 62
7
  6
CONTINUOUS
 90
3
 70
0
 10
7.9967743424
 20
10.6330220216
 10
8.0166621121
 20
10.7284991356
 10
8.0438801192
 20
10.8052984285
  0
LINE
  5
20E
100
AcDbEntity
  8
0
100
AcDbLine
 62
7
  6
CONTINUOUS
 10
8.0438848484
 20
10.8053004017
 11
8.0535224913
 21
10.8277925246
  0
LINE
  5
20F
100
AcDbEntity
  8
0
100
AcDbLine
 62
7
  6
CONTINUOUS
 10
8.0438853307
 20
10.8053003965
 11
8.0617202029
 21
10.8462740077
  0
LINE
  5
210
100
AcDbEntity
  8
0
100
AcDbLine
 62
7
  6
CONTINUOUS
 10
8.0617202029
 20
10.8462740077
 11
8.086472497
 21
10.8951353129
  0
LINE
  5
211
100
AcDbEntity
  8
0
100
AcDbLine
 62
7
  6
CONTINUOUS
 10
8.1154646419
 20
10.937251486
 11
8.1379595897
 21
10.9604287882
  0
LINE
  5
212
100
AcDbEntity
  8
0
100
AcDbLine
 62
7
  6
CONTINUOUS
 10
8.1379584962
 20
10.9604275591
 11
8.1587213141
 21
10.9777479737
  0
LINE
  5
213
100
AcDbEntity
  8
0
100
AcDbLine
 62
7
  6
CONTINUOUS
 10
8.1587213141
 20
10.9777479737
 11
8.1914397867
 21
11.0016904612
  0
LWPOLYLINE
  5
214
100
AcDbEntity
  8
0
100
AcDbPolyline
 62
7
  6
CONTINUOUS
 90
7
 70
0
 10
8.1914397867
 20
11.0016904612
 10
8.223195404
 20
11.0215354222
 10
8.253582581
 20
11.0378124414
 10
8.2832107934
 20
11.051345503
 10
8.3132542413
 20
11.0629703018
 10
8.3441557327
 20
11.0728670712
 10
8.3736608337
 20
11.0804252442
  0
LINE
  5
215
100
AcDbEntity
  8
0
100
AcDbLine
 62
7
  6
CONTINUOUS
 10
11.9534944704
 20
6.0209189008
 11
14.3284944704
 21
6.0209189008
  0
LINE
  5
216
100
AcDbEntity
  8
0
100
AcDbLine
 62
7
  6
CONTINUOUS
 10
7.9911885723
 20
10.5557228263
 11
7.9967743424
 21
10.6330220216
  0
LINE
  5
217
100
AcDbEntity
  8
0
100
AcDbLine
 62
9
  6
CONTINUOUS
 10
14.3107061158
 20
6.3426870275
 11
11.9712828251
 21
6.3426870275
  0
LINE
  5
218
100
AcDbEntity
  8
0
100
AcDbLine
 62
9
  6
CONTINUOUS
 10
8.5288385793
 20
11.9988647072
 11
8.4972208592
 21
11.0934491548
  0
LINE
  5
219
100
AcDbEntity
  8
0
100
AcDbLine
 62
9
  6
CONTINUOUS
 10
14.1460160749
 20
6.7034972243
 11
13.9972981151
 21
6.7034972243
  0
LINE
  5
21A
100
AcDbEntity
  8
0
100
AcDbLine
 62
9
  6
CONTINUOUS
 10
12.4764527864
 20
7.1551107506
 11
13.8055361545
 21
7.1551107506
  0
LINE
  5
21B
100
AcDbEntity
  8
0
100
AcDbLine
 62
7
  6
CONTINUOUS
 10
12.5636442013
 20
7.5479189008
 11
13.7183447396
 21
7.5479189008
  0
LINE
  5
21C
100
AcDbEntity
  8
0
100
AcDbLine
 62
7
  6
CONTINUOUS
 10
13.5709944704
 20
7.6679189008
 11
12.7109944704
 21
7.6679189008
  0
LINE
  5
21D
100
AcDbEntity
  8
0
100
AcDbLine
 62
7
  6
CONTINUOUS
 10
12.7974944704
 20
7.6879189008
 11
13.4844944704
 21
7.6879189008
  0
LINE
  5
21E
100
AcDbEntity
  8
0
100
AcDbLine
 62
7
  6
CONTINUOUS
 10
12.9571467073
 20
7.81982489
 11
12.9041136987
 21
7.81982489
  0
LINE
  5
21F
100
AcDbEntity
  8
0
100
AcDbLine
 62
7
  6
CONTINUOUS
 10
12.9571467073
 20
7.8660129116
 11
12.9041136987
 21
7.8660129116
  0
LINE
  5
220
100
AcDbEntity
  8
0
100
AcDbLine
 62
7
  6
CONTINUOUS
 10
12.7704944704
 20
8.0469189008
 11
13.5114944704
 21
8.0469189008
  0
LINE
  5
221
100
AcDbEntity
  8
0
100
AcDbLine
 62
9
  6
CONTINUOUS
 10
9.9411070465
 20
10.6477185261
 11
9.9412745356
 21
10.6144731211
  0
LINE
  5
222
100
AcDbEntity
  8
0
100
AcDbLine
 62
9
  6
CONTINUOUS
 10
10.0182090545
 20
11.6763861829
 11
10.0176385662
 21
11.6519541989
  0
LINE
  5
223
100
AcDbEntity
  8
0
100
AcDbLine
 62
9
  6
CONTINUOUS
 10
9.9551920713
 20
11.1874822386
 11
9.9411070465
 21
10.6477185261
  0
LINE
  5
224
100
AcDbEntity
  8
0
100
AcDbLine
 62
9
  6
CONTINUOUS
 10
10.0005549686
 20
11.1627451354
 11
9.9803944815
 21
10.585442918
  0
LINE
  5
225
100
AcDbEntity
  8
0
100
AcDbLine
 62
7
  6
CONTINUOUS
 10
13.6684944704
 20
8.0979189008
 11
12.6134944704
 21
8.0979189008
  0
LINE
  5
226
100
AcDbEntity
  8
0
100
AcDbLine
 62
7
  6
CONTINUOUS
 10
12.5834944704
 20
8.1769189008
 11
12.958887458
 21
8.1769189008
  0
LINE
  5
227
100
AcDbEntity
  8
0
100
AcDbLine
 62
7
  6
CONTINUOUS
 10
13.3231014829
 20
8.1769189008
 11
13.6984944704
 21
8.1769189008
  0
LINE
  5
228
100
AcDbEntity
  8
0
100
AcDbLine
 62
7
  6
CONTINUOUS
 10
13.6984944704
 20
8.5869189008
 11
13.3231014829
 21
8.5869189008
  0
LINE
  5
229
100
AcDbEntity
  8
0
100
AcDbLine
 62
7
  6
CONTINUOUS
 10
12.958887458
 20
8.5869189008
 11
12.5834944704
 21
8.5869189008
  0
LINE
  5
22A
100
AcDbEntity
  8
0
100
AcDbLine
 62
7
  6
CONTINUOUS
 10
12.6134944704
 20
8.6669189008
 11
13.6684944704
 21
8.6669189008
  0
LINE
  5
22B
100
AcDbEntity
  8
0
100
AcDbLine
 62
7
  6
CONTINUOUS
 10
13.6416476829
 20
8.6824189008
 11
12.640341258
 21
8.6824189008
  0
LINE
  5
22C
100
AcDbEntity
  8
0
100
AcDbLine
 62
7
  6
CONTINUOUS
 10
12.6134944704
 20
8.6979189008
 11
13.6684944704
 21
8.6979189008
  0
LINE
  5
22D
100
AcDbEntity
  8
0
100
AcDbLine
 62
9
  6
CONTINUOUS
 10
7.4695474734
 20
11.6495383371
 11
7.4514309092
 21
11.6681874759
  0
LINE
  5
22E
100
AcDbEntity
  8
0
100
AcDbLine
 62
7
  6
CONTINUOUS
 10
7.6743665764
 20
11.438507395
 11
7.46954747
 21
11.6495383348
  0
LINE
  5
22F
100
AcDbEntity
  8
0
100
AcDbLine
 62
7
  6
CONTINUOUS
 10
7.7818047539
 20
11.3278136816
 11
7.6743665764
 21
11.438507395
  0
LINE
  5
230
100
AcDbEntity
  8
0
100
AcDbLine
 62
7
  6
CONTINUOUS
 10
8.0435997297
 20
11.0577460948
 11
8.1055584728
 21
10.9938578679
  0
LINE
  5
231
100
AcDbEntity
  8
0
100
AcDbLine
 62
7
  6
CONTINUOUS
 10
7.999968571
 20
11.1027305125
 11
8.0435994033
 21
11.0577458743
  0
LINE
  5
232
100
AcDbEntity
  8
0
100
AcDbLine
 62
9
  6
CONTINUOUS
 10
7.9520947151
 20
11.1520874582
 11
7.999968571
 21
11.1027305125
  0
LINE
  5
233
100
AcDbEntity
  8
0
100
AcDbLine
 62
9
  6
CONTINUOUS
 10
8.1379596012
 20
10.9604287951
 11
8.1055583948
 21
10.9938578256
  0
LINE
  5
234
100
AcDbEntity
  8
0
100
AcDbLine
 62
7
  6
CONTINUOUS
 10
13.1404944704
 20
8.8407900623
 11
13.1409944704
 21
8.8407902803
  0
LINE
  5
235
100
AcDbEntity
  8
0
100
AcDbLine
 62
7
  6
CONTINUOUS
 10
13.6684944704
 20
8.7692029979
 11
12.6134944704
 21
8.7692029979
  0
LINE
  5
236
100
AcDbEntity
  8
0
100
AcDbLine
 62
7
  6
CONTINUOUS
 10
13.6542286227
 20
8.7888382528
 11
12.6277603182
 21
8.7888382528
  0
LINE
  5
237
100
AcDbEntity
  8
0
100
AcDbLine
 62
7
  6
CONTINUOUS
 10
13.5955044266
 20
8.8079189008
 11
12.6864845143
 21
8.8079189008
  0
LINE
  5
238
100
AcDbEntity
  8
0
100
AcDbLine
 62
9
  6
CONTINUOUS
 10
13.5361387347
 20
8.8317282974
 11
12.7458507968
 21
8.8317284531
  0
LINE
  5
239
100
AcDbEntity
  8
0
100
AcDbLine
 62
9
  6
CONTINUOUS
 10
13.7415852566
 20
9.0428774541
 11
12.9350818336
 21
9.0428774541
  0
LINE
  5
23A
100
AcDbEntity
  8
0
100
AcDbLine
 62
7
  6
CONTINUOUS
 10
12.6134944704
 20
8.0979189008
 11
12.7704944704
 21
8.0469189008
  0
LINE
  5
23B
100
AcDbEntity
  8
0
100
AcDbLine
 62
7
  6
CONTINUOUS
 10
14.3284944704
 20
6.3276661435
 11
14.3107061158
 21
6.3426870275
  0
LINE
  5
23C
100
AcDbEntity
  8
0
100
AcDbLine
 62
9
  6
CONTINUOUS
 10
12.1281230059
 20
10.0658683336
 11
11.3377494535
 21
9.1312493545
  0
LINE
  5
23D
100
AcDbEntity
  8
0
100
AcDbLine
 62
9
  6
CONTINUOUS
 10
12.1886060502
 20
9.9610752577
 11
12.2012242252
 21
9.9751055744
  0
LINE
  5
23E
100
AcDbEntity
  8
0
100
AcDbLine
 62
7
  6
CONTINUOUS
 10
12.6134944704
 20
8.6979189008
 11
12.640341258
 21
8.6824189008
  0
LINE
  5
23F
100
AcDbEntity
  8
0
100
AcDbLine
 62
7
  6
CONTINUOUS
 10
12.1983172475
 20
8.5497061964
 11
12.1162279904
 21
8.607185713
  0
LINE
  5
240
100
AcDbEntity
  8
0
100
AcDbLine
 62
7
  6
CONTINUOUS
 10
12.9041136987
 20
7.81982489
 11
12.93239797
 21
7.7967308793
  0
LINE
  5
241
100
AcDbEntity
  8
0
100
AcDbLine
 62
7
  6
CONTINUOUS
 10
12.9589144743
 20
7.8183815144
 11
12.9571467073
 21
7.81982489
  0
LINE
  5
242
100
AcDbEntity
  8
0
100
AcDbLine
 62
7
  6
CONTINUOUS
 10
12.9606822412
 20
7.8660129116
 11
12.93239797
 21
7.8891069223
  0
LWPOLYLINE
  5
243
100
AcDbEntity
  8
0
100
AcDbPolyline
 62
7
  6
CONTINUOUS
 90
4
 70
0
 10
11.3377490698
 20
9.1312497241
 10
11.4443130967
 20
8.9611919229
 10
11.543145513
 20
8.7889277195
 10
11.6179972772
 20
8.6471512699
  0
LINE
  5
244
100
AcDbEntity
  8
0
100
AcDbLine
 62
7
  6
CONTINUOUS
 10
11.6179972662
 20
8.6471512691
 11
11.3377494535
 21
9.1312493545
  0
LINE
  5
245
100
AcDbEntity
  8
0
100
AcDbLine
 62
7
  6
CONTINUOUS
 10
11.6252825071
 20
8.6327542629
 11
11.6179972662
 21
8.6471512691
  0
LINE
  5
246
100
AcDbEntity
  8
0
100
AcDbLine
 62
7
  6
CONTINUOUS
 10
11.6272808947
 20
8.6287852093
 11
11.6252825071
 21
8.6327542629
  0
LINE
  5
247
100
AcDbEntity
  8
0
100
AcDbLine
 62
7
  6
CONTINUOUS
 10
11.627280911
 20
8.6287852017
 11
11.6677029811
 21
8.5462631907
  0
LWPOLYLINE
  5
248
100
AcDbEntity
  8
0
100
AcDbPolyline
 62
7
  6
CONTINUOUS
 90
3
 70
0
 10
11.6252825071
 20
8.6327542629
 10
11.6744286417
 20
8.5322206236
 10
11.7003132953
 20
8.4749425611
  0
LINE
  5
249
100
AcDbEntity
  8
0
100
AcDbLine
 62
7
  6
CONTINUOUS
 10
11.6677029811
 20
8.5462631907
 11
11.7003687751
 21
8.4750776909
  0
LINE
  5
24A
100
AcDbEntity
  8
0
100
AcDbLine
 62
7
  6
CONTINUOUS
 10
12.6864845143
 20
8.8079189008
 11
12.6277603182
 21
8.7888382528
  0
LINE
  5
24B
100
AcDbEntity
  8
0
100
AcDbLine
 62
7
  6
CONTINUOUS
 10
13.7207119882
 20
9.8994989008
 11
12.5612769527
 21
9.8994989008
  0
LINE
  5
24C
100
AcDbEntity
  8
0
100
AcDbLine
 62
7
  6
CONTINUOUS
 10
13.5959905852
 20
10.0194989008
 11
12.6859983557
 21
10.0194989008
  0
LINE
  5
24D
100
AcDbEntity
  8
0
100
AcDbLine
 62
7
  6
CONTINUOUS
 10
6.934677558
 20
10.3947383223
 11
7.7583096546
 21
10.2495097615
  0
LINE
  5
24E
100
AcDbEntity
  8
0
100
AcDbLine
 62
9
  6
CONTINUOUS
 10
7.7683143062
 20
10.2537340848
 11
6.9267210644
 21
10.4021296801
  0
LINE
  5
24F
100
AcDbEntity
  8
0
100
AcDbLine
 62
9
  6
CONTINUOUS
 10
6.9205402107
 20
10.5698536421
 11
7.8314873823
 21
10.4092290777
  0
LINE
  5
250
100
AcDbEntity
  8
0
100
AcDbLine
 62
7
  6
CONTINUOUS
 10
13.5955044266
 20
8.8079189008
 11
13.6542286227
 21
8.7888382528
  0
LWPOLYLINE
  5
251
100
AcDbEntity
  8
0
100
AcDbPolyline
 62
7
  6
CONTINUOUS
 90
5
 70
0
 10
11.8373501795
 20
8.1355091466
 10
11.8657661589
 20
8.0572808034
 10
11.9308359081
 20
7.8534612909
 10
11.9919586684
 20
7.6326503927
 10
12.0173323477
 20
7.5300431391
  0
LWPOLYLINE
  5
252
100
AcDbEntity
  8
0
100
AcDbPolyline
 62
7
  6
CONTINUOUS
 90
5
 70
0
 10
11.8383066343
 20
8.1351024519
 10
11.8945135244
 20
7.9704650123
 10
11.9508668739
 20
7.7845640543
 10
12.0036627583
 20
7.5861377862
 10
12.014088146
 20
7.5431621915
  0
LINE
  5
253
100
AcDbEntity
  8
0
100
AcDbLine
 62
7
  6
CONTINUOUS
 10
12.101480626
 20
7.1212131535
 11
12.0173323471
 21
7.5300431389
  0
LINE
  5
254
100
AcDbEntity
  8
0
100
AcDbLine
 62
7
  6
CONTINUOUS
 10
11.9534944704
 20
6.0209189008
 11
11.9534944704
 21
6.3276661435
  0
LINE
  5
255
100
AcDbEntity
  8
0
100
AcDbLine
 62
7
  6
CONTINUOUS
 10
12.640341258
 20
8.6824189008
 11
12.6134944704
 21
8.6669189008
  0
LINE
  5
256
100
AcDbEntity
  8
0
100
AcDbLine
 62
9
  6
CONTINUOUS
 10
12.8018268903
 20
10.0553870998
 11
13.4801620506
 21
10.0553870998
  0
LINE
  5
257
100
AcDbEntity
  8
0
100
AcDbLine
 62
7
  6
CONTINUOUS
 10
6.8214725078
 20
10.7619753282
 11
7.9911912265
 21
10.5557223583
  0
LINE
  5
258
100
AcDbEntity
  8
0
100
AcDbLine
 62
7
  6
CONTINUOUS
 10
13.6416476829
 20
8.6824189008
 11
13.6684944704
 21
8.6669189008
  0
LINE
  5
259
100
AcDbEntity
  8
0
100
AcDbLine
 62
7
  6
CONTINUOUS
 10
14.0836716934
 20
8.2141316052
 11
14.1657609505
 21
8.1566520886
  0
LINE
  5
25A
100
AcDbEntity
  8
0
100
AcDbLine
 62
7
  6
CONTINUOUS
 10
13.7347444704
 20
6.3276661435
 11
13.7258502931
 21
6.3426870275
  0
LINE
  5
25B
100
AcDbEntity
  8
0
100
AcDbLine
 62
9
  6
CONTINUOUS
 10
12.1162279904
 20
8.607185713
 11
12.1162279904
 21
8.1566520886
  0
LINE
  5
25C
100
AcDbEntity
  8
0
100
AcDbLine
 62
9
  6
CONTINUOUS
 10
12.1983172475
 20
8.2141316052
 11
12.1983172475
 21
8.5497061964
  0
LINE
  5
25D
100
AcDbEntity
  8
0
100
AcDbLine
 62
7
  6
CONTINUOUS
 10
12.2234944704
 20
8.5710097905
 11
12.2234944704
 21
8.1928280111
  0
LINE
  5
25E
100
AcDbEntity
  8
0
100
AcDbLine
 62
9
  6
CONTINUOUS
 10
12.248357629
 20
8.1910016076
 11
12.248357629
 21
8.572836194
  0
LINE
  5
25F
100
AcDbEntity
  8
0
100
AcDbLine
 62
7
  6
CONTINUOUS
 10
12.6859944704
 20
10.0194989008
 11
12.6309944704
 21
9.8994989008
  0
LINE
  5
260
100
AcDbEntity
  8
0
100
AcDbLine
 62
7
  6
CONTINUOUS
 10
12.1983172475
 20
8.2141316052
 11
12.1162279904
 21
8.1566520886
  0
LINE
  5
261
100
AcDbEntity
  8
0
100
AcDbLine
 62
7
  6
CONTINUOUS
 10
12.5609944704
 20
10.4894989008
 11
13.7209944704
 21
10.4894989008
  0
LINE
  5
262
100
AcDbEntity
  8
0
100
AcDbLine
 62
7
  6
CONTINUOUS
 10
12.5609944704
 20
10.6994989008
 11
12.5609944704
 21
10.4894989008
  0
LINE
  5
263
100
AcDbEntity
  8
0
100
AcDbLine
 62
9
  6
CONTINUOUS
 10
12.6098284548
 20
8.2270210877
 11
12.6098284548
 21
8.537019829
  0
LINE
  5
264
100
AcDbEntity
  8
0
100
AcDbLine
 62
7
  6
CONTINUOUS
 10
12.6134944704
 20
8.7692029979
 11
12.6134944704
 21
8.6979189008
  0
LINE
  5
265
100
AcDbEntity
  8
0
100
AcDbLine
 62
9
  6
CONTINUOUS
 10
12.6319884918
 20
8.4788292648
 11
12.6319884918
 21
8.2855279513
  0
LINE
  5
266
100
AcDbEntity
  8
0
100
AcDbLine
 62
7
  6
CONTINUOUS
 10
12.7109944704
 20
7.6679189008
 11
12.7109944704
 21
7.5479189008
  0
LINE
  5
267
100
AcDbEntity
  8
0
100
AcDbLine
 62
7
  6
CONTINUOUS
 10
12.6134944704
 20
8.7692029979
 11
12.6277603182
 21
8.7888382528
  0
LINE
  5
268
100
AcDbEntity
  8
0
100
AcDbLine
 62
7
  6
CONTINUOUS
 10
13.6684944704
 20
8.6979189008
 11
13.6416476829
 21
8.6824189008
  0
LINE
  5
269
100
AcDbEntity
  8
0
100
AcDbLine
 62
7
  6
CONTINUOUS
 10
13.6684944704
 20
8.0979189008
 11
13.5114944704
 21
8.0469189008
  0
LINE
  5
26A
100
AcDbEntity
  8
0
100
AcDbLine
 62
7
  6
CONTINUOUS
 10
13.7209944704
 20
10.6994989008
 11
12.5609944704
 21
10.6994989008
  0
LINE
  5
26B
100
AcDbEntity
  8
0
100
AcDbLine
 62
7
  6
CONTINUOUS
 10
13.1485896288
 20
10.8795277444
 11
13.1335146996
 21
10.8795277444
  0
LINE
  5
26C
100
AcDbEntity
  8
0
100
AcDbLine
 62
7
  6
CONTINUOUS
 10
10.5409857919
 20
11.4017597972
 11
10.5389752351
 21
11.4029396914
  0
LINE
  5
26D
100
AcDbEntity
  8
0
100
AcDbLine
 62
7
  6
CONTINUOUS
 10
10.6715402188
 20
11.3229723988
 11
10.5389752351
 21
11.4029396914
  0
LINE
  5
26E
100
AcDbEntity
  8
0
100
AcDbLine
 62
7
  6
CONTINUOUS
 10
10.7993567619
 20
11.2415506553
 11
10.6715402188
 21
11.3229723988
  0
LINE
  5
26F
100
AcDbEntity
  8
0
100
AcDbLine
 62
7
  6
CONTINUOUS
 10
10.9206601814
 20
11.1601296257
 11
10.7993567619
 21
11.2415506553
  0
LINE
  5
270
100
AcDbEntity
  8
0
100
AcDbLine
 62
7
  6
CONTINUOUS
 10
11.0350755082
 20
11.0794174014
 11
10.9206601814
 21
11.1601296257
  0
LINE
  5
271
100
AcDbEntity
  8
0
100
AcDbLine
 62
7
  6
CONTINUOUS
 10
11.1421353476
 20
11.0002574861
 11
11.0350755082
 21
11.0794174014
  0
LINE
  5
272
100
AcDbEntity
  8
0
100
AcDbLine
 62
7
  6
CONTINUOUS
 10
11.2408374295
 20
10.9239905468
 11
11.1421353476
 21
11.0002574861
  0
LWPOLYLINE
  5
273
100
AcDbEntity
  8
0
100
AcDbPolyline
 62
7
  6
CONTINUOUS
 90
8
 70
0
 10
11.2459347808
 20
10.9199635814
 10
11.1623388196
 20
10.9849045073
 10
11.0704714863
 20
11.0536393019
 10
10.9722470733
 20
11.1242164467
 10
10.8683097058
 20
11.1957741634
 10
10.7591119053
 20
11.2676564546
 10
10.6452142923
 20
11.3392069145
 10
10.5409857978
 20
11.4017597937
  0
LINE
  5
274
100
AcDbEntity
  8
0
100
AcDbLine
 62
7
  6
CONTINUOUS
 10
11.2459347801
 20
10.9199635819
 11
11.2459198842
 21
10.9199753625
  0
LINE
  5
275
100
AcDbEntity
  8
0
100
AcDbLine
 62
7
  6
CONTINUOUS
 10
11.5606436598
 20
10.6534196709
 11
11.2408374295
 21
10.9239905468
  0
LINE
  5
276
100
AcDbEntity
  8
0
100
AcDbLine
 62
7
  6
CONTINUOUS
 10
11.8600342517
 20
10.3631280309
 11
11.5606436598
 21
10.6534196709
  0
LINE
  5
277
100
AcDbEntity
  8
0
100
AcDbLine
 62
7
  6
CONTINUOUS
 10
12.1281231117
 20
10.065868308
 11
11.8600342517
 21
10.3631280309
  0
LINE
  5
278
100
AcDbEntity
  8
0
100
AcDbLine
 62
7
  6
CONTINUOUS
 10
12.7974944704
 20
8.0469189008
 11
12.7974944704
 21
7.6879189008
  0
LINE
  5
279
100
AcDbEntity
  8
0
100
AcDbLine
 62
7
  6
CONTINUOUS
 10
12.9041136987
 20
7.81982489
 11
12.9041136987
 21
7.8660129116
  0
LINE
  5
27A
100
AcDbEntity
  8
0
100
AcDbLine
 62
7
  6
CONTINUOUS
 10
12.9571467073
 20
7.81982489
 11
12.9571467073
 21
7.8660129116
  0
LINE
  5
27B
100
AcDbEntity
  8
0
100
AcDbLine
 62
7
  6
CONTINUOUS
 10
12.9606822412
 20
7.8660129116
 11
12.9606822412
 21
7.81982489
  0
LINE
  5
27C
100
AcDbEntity
  8
0
100
AcDbLine
 62
7
  6
CONTINUOUS
 10
12.8087236284
 20
7.1551107506
 11
12.8523193359
 21
7.5479189008
  0
LINE
  5
27D
100
AcDbEntity
  8
0
100
AcDbLine
 62
7
  6
CONTINUOUS
 10
12.4764527864
 20
7.1551107506
 11
12.5636442013
 21
7.5479189008
  0
LINE
  5
27E
100
AcDbEntity
  8
0
100
AcDbLine
 62
7
  6
CONTINUOUS
 10
12.93239797
 20
7.8891069223
 11
12.9041136987
 21
7.8660129116
  0
LINE
  5
27F
100
AcDbEntity
  8
0
100
AcDbLine
 62
7
  6
CONTINUOUS
 10
12.9571467073
 20
7.8660129116
 11
12.9589144743
 21
7.8674562872
  0
LINE
  5
280
100
AcDbEntity
  8
0
100
AcDbLine
 62
7
  6
CONTINUOUS
 10
14.0836716934
 20
8.5497061964
 11
14.1657609505
 21
8.607185713
  0
LINE
  5
281
100
AcDbEntity
  8
0
100
AcDbLine
 62
9
  6
CONTINUOUS
 10
8.0118263603
 20
10.8002329025
 11
8.0438801192
 21
10.8052984285
  0
LINE
  5
282
100
AcDbEntity
  8
0
100
AcDbLine
 62
7
  6
CONTINUOUS
 10
8.4753361197
 20
11.0932621841
 11
8.4920400187
 21
11.0934841675
  0
LINE
  5
283
100
AcDbEntity
  8
0
100
AcDbLine
 62
7
  6
CONTINUOUS
 10
8.4920400187
 20
11.0934841675
 11
8.4918613453
 21
11.0934845045
  0
LINE
  5
284
100
AcDbEntity
  8
0
100
AcDbLine
 62
7
  6
CONTINUOUS
 10
8.4972208592
 20
11.0934491548
 11
8.4920400187
 21
11.0934841675
  0
LINE
  5
285
100
AcDbEntity
  8
0
100
AcDbLine
 62
7
  6
CONTINUOUS
 10
10.5389752351
 20
11.4029396914
 11
10.0182089693
 21
11.6763862226
  0
LINE
  5
286
100
AcDbEntity
  8
0
100
AcDbLine
 62
7
  6
CONTINUOUS
 10
13.6684944704
 20
8.7692029979
 11
13.6542286227
 21
8.7888382528
  0
LINE
  5
287
100
AcDbEntity
  8
0
100
AcDbLine
 62
7
  6
CONTINUOUS
 10
13.0559944704
 20
8.8805552171
 11
13.0559944704
 21
8.8723525036
  0
LINE
  5
288
100
AcDbEntity
  8
0
100
AcDbLine
 62
7
  6
CONTINUOUS
 10
13.0559944704
 20
8.8688856338
 11
13.0559944704
 21
8.8560606345
  0
LINE
  5
289
100
AcDbEntity
  8
0
100
AcDbLine
 62
7
  6
CONTINUOUS
 10
13.0787651152
 20
8.8758947042
 11
13.0787651152
 21
8.8785990249
  0
LINE
  5
28A
100
AcDbEntity
  8
0
100
AcDbLine
 62
7
  6
CONTINUOUS
 10
13.0799944704
 20
8.8579874902
 11
13.0799944704
 21
8.8626592837
  0
LINE
  5
28B
100
AcDbEntity
  8
0
100
AcDbLine
 62
7
  6
CONTINUOUS
 10
13.0799944704
 20
8.8690169735
 11
13.0799944704
 21
8.8700253635
  0
LINE
  5
28C
100
AcDbEntity
  8
0
100
AcDbLine
 62
7
  6
CONTINUOUS
 10
13.0799944704
 20
8.8806855669
 11
13.0799944704
 21
8.8816863629
  0
LINE
  5
28D
100
AcDbEntity
  8
0
100
AcDbLine
 62
9
  6
CONTINUOUS
 10
13.0932313447
 20
8.8751807009
 11
13.0932313447
 21
8.8741756824
  0
LINE
  5
28E
100
AcDbEntity
  8
0
100
AcDbLine
 62
9
  6
CONTINUOUS
 10
13.0961189859
 20
8.8693122177
 11
13.0961189859
 21
8.8683033595
  0
LINE
  5
28F
100
AcDbEntity
  8
0
100
AcDbLine
 62
9
  6
CONTINUOUS
 10
13.1087651152
 20
8.8822638903
 11
13.1087651152
 21
8.8812634674
  0
LINE
  5
290
100
AcDbEntity
  8
0
100
AcDbLine
 62
9
  6
CONTINUOUS
 10
13.112810797
 20
8.8501847572
 11
13.112810797
 21
8.849163178
  0
LINE
  5
291
100
AcDbEntity
  8
0
100
AcDbLine
 62
9
  6
CONTINUOUS
 10
13.1741781439
 20
8.8500837045
 11
13.1741781439
 21
8.8490620505
  0
LINE
  5
292
100
AcDbEntity
  8
0
100
AcDbLine
 62
9
  6
CONTINUOUS
 10
13.1782238257
 20
8.8811513619
 11
13.1782238257
 21
8.8821518571
  0
LINE
  5
293
100
AcDbEntity
  8
0
100
AcDbLine
 62
9
  6
CONTINUOUS
 10
13.1908699549
 20
8.8681491402
 11
13.1908699549
 21
8.8691580996
  0
LINE
  5
294
100
AcDbEntity
  8
0
100
AcDbLine
 62
7
  6
CONTINUOUS
 10
13.2069944704
 20
8.8814814363
 11
13.2069944704
 21
8.8804805078
  0
LINE
  5
295
100
AcDbEntity
  8
0
100
AcDbLine
 62
7
  6
CONTINUOUS
 10
13.2069944704
 20
8.8624518089
 11
13.2069944704
 21
8.85777938
  0
LINE
  5
296
100
AcDbEntity
  8
0
100
AcDbLine
 62
7
  6
CONTINUOUS
 10
13.2069944704
 20
8.8698188827
 11
13.2069944704
 21
8.8688103572
  0
LINE
  5
297
100
AcDbEntity
  8
0
100
AcDbLine
 62
7
  6
CONTINUOUS
 10
13.2249944704
 20
8.8561160865
 11
13.2249944704
 21
8.8689406231
  0
LINE
  5
298
100
AcDbEntity
  8
0
100
AcDbLine
 62
7
  6
CONTINUOUS
 10
13.2249944704
 20
8.8780821548
 11
13.2249944704
 21
8.8806097919
  0
LINE
  5
299
100
AcDbEntity
  8
0
100
AcDbLine
 62
7
  6
CONTINUOUS
 10
12.93239797
 20
7.7967308793
 11
12.9606822412
 21
7.81982489
  0
LWPOLYLINE
  5
29A
100
AcDbEntity
  8
0
100
AcDbPolyline
 62
7
  6
CONTINUOUS
 90
4
 70
0
 10
8.3736608337
 20
11.0804252442
 10
8.4033599307
 20
11.0862550789
 10
8.4372845325
 20
11.0908015143
 10
8.4753361197
 20
11.0932621841
  0
LINE
  5
29B
100
AcDbEntity
  8
0
100
AcDbLine
 62
7
  6
CONTINUOUS
 10
13.8055361545
 20
7.1551107506
 11
13.7183447396
 21
7.5479189008
  0
LINE
  5
29C
100
AcDbEntity
  8
0
100
AcDbLine
 62
7
  6
CONTINUOUS
 10
13.4732653124
 20
7.1551107506
 11
13.429669605
 21
7.5479189008
  0
LINE
  5
29D
100
AcDbEntity
  8
0
100
AcDbLine
 62
7
  6
CONTINUOUS
 10
13.4844944704
 20
8.0469189008
 11
13.4844944704
 21
7.6879189008
  0
LINE
  5
29E
100
AcDbEntity
  8
0
100
AcDbLine
 62
7
  6
CONTINUOUS
 10
13.5709944704
 20
7.6679189008
 11
13.5709944704
 21
7.5479189008
  0
LINE
  5
29F
100
AcDbEntity
  8
0
100
AcDbLine
 62
9
  6
CONTINUOUS
 10
13.6500004491
 20
8.2852422218
 11
13.6500004491
 21
8.4783017006
  0
LINE
  5
2A0
100
AcDbEntity
  8
0
100
AcDbLine
 62
7
  6
CONTINUOUS
 10
13.6684944704
 20
8.7692029979
 11
13.6684944704
 21
8.6979189008
  0
LINE
  5
2A1
100
AcDbEntity
  8
0
100
AcDbLine
 62
9
  6
CONTINUOUS
 10
13.6721604861
 20
8.5368053911
 11
13.6721604861
 21
8.2271268705
  0
LINE
  5
2A2
100
AcDbEntity
  8
0
100
AcDbLine
 62
7
  6
CONTINUOUS
 10
12.5472444704
 20
6.3276661435
 11
12.5561386478
 21
6.3426870275
  0
LINE
  5
2A3
100
AcDbEntity
  8
0
100
AcDbLine
 62
7
  6
CONTINUOUS
 10
11.9534944704
 20
6.3276661435
 11
11.9712828251
 21
6.3426870275
  0
LINE
  5
2A4
100
AcDbEntity
  8
0
100
AcDbLine
 62
7
  6
CONTINUOUS
 10
13.7209944704
 20
10.6994989008
 11
13.7209944704
 21
10.4894989008
  0
LINE
  5
2A5
100
AcDbEntity
  8
0
100
AcDbLine
 62
7
  6
CONTINUOUS
 10
13.5959944704
 20
10.0194989008
 11
13.6509944704
 21
9.8994989008
  0
LINE
  5
2A6
100
AcDbEntity
  8
0
100
AcDbLine
 62
9
  6
CONTINUOUS
 10
14.0336313119
 20
8.572836194
 11
14.0336313119
 21
8.1910016076
  0
LINE
  5
2A7
100
AcDbEntity
  8
0
100
AcDbLine
 62
7
  6
CONTINUOUS
 10
14.0584944704
 20
8.1928280111
 11
14.0584944704
 21
8.5710097905
  0
LINE
  5
2A8
100
AcDbEntity
  8
0
100
AcDbLine
 62
9
  6
CONTINUOUS
 10
14.0836716934
 20
8.5497061964
 11
14.0836716934
 21
8.2141316052
  0
LINE
  5
2A9
100
AcDbEntity
  8
0
100
AcDbLine
 62
9
  6
CONTINUOUS
 10
14.1657609505
 20
8.1566520886
 11
14.1657609505
 21
8.607185713
  0
LINE
  5
2AA
100
AcDbEntity
  8
0
100
AcDbLine
 62
7
  6
CONTINUOUS
 10
14.3284944704
 20
6.0209189008
 11
14.3284944704
 21
6.3276661435
  0
ARC
  5
2AB
100
AcDbEntity
  8
0
100
AcDbCircle
 62
7
  6
CONTINUOUS
 10
4.6736096383
 20
4.3273146858
 40
8.9030421281
100
AcDbArc
 50
24.0136097748
 51
24.6735730756
  0
ARC
  5
2AC
100
AcDbEntity
  8
0
100
AcDbCircle
 62
7
  6
CONTINUOUS
 10
5.7331562704
 20
4.8404796374
 40
8.2583464798
100
AcDbArc
 50
38.4440329249
 51
39.2525874067
  0
ARC
  5
2AD
100
AcDbEntity
  8
0
100
AcDbCircle
 62
7
  6
CONTINUOUS
 10
6.8772775852
 20
5.6054323724
 40
6.868912223
100
AcDbArc
 50
39.3540334886
 51
40.3182051244
  0
ARC
  5
2AE
100
AcDbEntity
  8
0
100
AcDbCircle
 62
7
  6
CONTINUOUS
 10
5.3360894759
 20
5.9410248204
 40
6.8675586594
100
AcDbArc
 50
9.6233031874
 51
9.8953856747
  0
ARC
  5
2AF
100
AcDbEntity
  8
0
100
AcDbCircle
 62
7
  6
CONTINUOUS
 10
7.3618397394
 20
5.9867268955
 40
6.2792954182
100
AcDbArc
 50
58.7323951251
 51
59.5829603985
  0
ARC
  5
2B0
100
AcDbEntity
  8
0
100
AcDbCircle
 62
9
  6
CONTINUOUS
 10
6.6591315238
 20
7.4459756154
 40
6.4759285383
100
AcDbArc
 50
12.7403335104
 51
14.2758418487
  0
ARC
  5
2B1
100
AcDbEntity
  8
0
100
AcDbCircle
 62
7
  6
CONTINUOUS
 10
7.4110407557
 20
6.0643142655
 40
6.1874405877
100
AcDbArc
 50
52.6355643691
 51
58.7489155119
  0
ARC
  5
2B2
100
AcDbEntity
  8
0
100
AcDbCircle
 62
7
  6
CONTINUOUS
 10
7.4076271439
 20
6.0752062606
 40
6.1796726801
100
AcDbArc
 50
65.0108506351
 51
65.5098720009
  0
ARC
  5
2B3
100
AcDbEntity
  8
0
100
AcDbCircle
 62
7
  6
CONTINUOUS
 10
7.4178281163
 20
6.0810975073
 40
6.1700124716
100
AcDbArc
 50
46.9227437333
 51
51.4998550852
  0
ARC
  5
2B4
100
AcDbEntity
  8
0
100
AcDbCircle
 62
7
  6
CONTINUOUS
 10
7.4189957453
 20
6.0821492725
 40
6.1684467568
100
AcDbArc
 50
45.683838836
 51
46.9239933799
  0
ARC
  5
2B5
100
AcDbEntity
  8
0
100
AcDbCircle
 62
7
  6
CONTINUOUS
 10
7.4711479311
 20
6.147106678
 40
6.0851603866
100
AcDbArc
 50
51.8573703261
 51
52.6122831658
  0
ARC
  5
2B6
100
AcDbEntity
  8
0
100
AcDbCircle
 62
7
  6
CONTINUOUS
 10
7.4917140766
 20
6.1542513765
 40
6.0660559656
100
AcDbArc
 50
40.1534498407
 51
45.6994981107
  0
ARC
  5
2B7
100
AcDbEntity
  8
0
100
AcDbCircle
 62
7
  6
CONTINUOUS
 10
7.2698428157
 20
6.2091250461
 40
5.6564247408
100
AcDbArc
 50
61.1339909772
 51
61.6573680319
  0
ARC
  5
2B8
100
AcDbEntity
  8
0
100
AcDbCircle
 62
9
  6
CONTINUOUS
 10
7.3896808555
 20
7.6507710879
 40
5.5036582991
100
AcDbArc
 50
12.4325166271
 51
14.0769802535
  0
ARC
  5
2B9
100
AcDbEntity
  8
0
100
AcDbCircle
 62
7
  6
CONTINUOUS
 10
7.9058688969
 20
6.8929141
 40
5.2065376018
100
AcDbArc
 50
66.0712921704
 51
66.6624639097
  0
ARC
  5
2BA
100
AcDbEntity
  8
0
100
AcDbCircle
 62
7
  6
CONTINUOUS
 10
7.1262587525
 20
6.5077394314
 40
5.0062758071
100
AcDbArc
 50
55.2252231739
 51
55.7874916082
  0
ARC
  5
2BB
100
AcDbEntity
  8
0
100
AcDbCircle
 62
9
  6
CONTINUOUS
 10
8.7906269497
 20
6.0762669154
 40
3.8021161259
100
AcDbArc
 50
15.3792915849
 51
17.5647066153
  0
ARC
  5
2BC
100
AcDbEntity
  8
0
100
AcDbCircle
 62
7
  6
CONTINUOUS
 10
13.1409928767
 20
7.3321585703
 40
1.5507603305
100
AcDbArc
 50
88.623298532
 51
89.9999771187
  0
ARC
  5
2BD
100
AcDbEntity
  8
0
100
AcDbCircle
 62
7
  6
CONTINUOUS
 10
13.1409949921
 20
7.3321982379
 40
1.5507206629
100
AcDbArc
 50
90.0000275052
 51
91.1802963938
  0
ARC
  5
2BE
100
AcDbEntity
  8
0
100
AcDbCircle
 62
7
  6
CONTINUOUS
 10
13.1409951836
 20
7.3322253944
 40
1.5506935162
100
AcDbArc
 50
91.1926211513
 51
92.3034495174
  0
ARC
  5
2BF
100
AcDbEntity
  8
0
100
AcDbCircle
 62
7
  6
CONTINUOUS
 10
13.1409942153
 20
7.3322473285
 40
1.5506715844
100
AcDbArc
 50
75.2369742915
 51
86.8897722488
  0
ARC
  5
2C0
100
AcDbEntity
  8
0
100
AcDbCircle
 62
7
  6
CONTINUOUS
 10
13.1409944672
 20
7.3322489491
 40
1.5506699505
100
AcDbArc
 50
93.1423144405
 51
104.7630318443
  0
ARC
  5
2C1
100
AcDbEntity
  8
0
100
AcDbCircle
 62
7
  6
CONTINUOUS
 10
13.1409957247
 20
7.3322634294
 40
1.5506554332
100
AcDbArc
 50
87.5557447231
 51
88.6233106447
  0
ARC
  5
2C2
100
AcDbEntity
  8
0
100
AcDbCircle
 62
7
  6
CONTINUOUS
 10
13.1409944704
 20
7.3322488853
 40
1.550637771
100
AcDbArc
 50
86.8946954693
 51
87.5605752481
  0
ARC
  5
2C3
100
AcDbEntity
  8
0
100
AcDbCircle
 62
7
  6
CONTINUOUS
 10
13.1409944704
 20
7.3322488853
 40
1.550637771
100
AcDbArc
 50
92.2545204889
 51
93.1423093317
  0
ARC
  5
2C4
100
AcDbEntity
  8
0
100
AcDbCircle
 62
7
  6
CONTINUOUS
 10
13.1409944704
 20
7.3322488853
 40
1.5503500401
100
AcDbArc
 50
88.6239946244
 51
91.1911755502
  0
ARC
  5
2C5
100
AcDbEntity
  8
0
100
AcDbCircle
 62
7
  6
CONTINUOUS
 10
13.1409944704
 20
7.3322488853
 40
1.5496377502
100
AcDbArc
 50
86.8926895707
 51
87.5590000722
  0
ARC
  5
2C6
100
AcDbEntity
  8
0
100
AcDbCircle
 62
7
  6
CONTINUOUS
 10
13.1409944704
 20
7.3322488853
 40
1.5496377502
100
AcDbArc
 50
92.2559761406
 51
93.1443391817
  0
ARC
  5
2C7
100
AcDbEntity
  8
0
100
AcDbCircle
 62
7
  6
CONTINUOUS
 10
13.1409944704
 20
7.3322488853
 40
1.5493498336
100
AcDbArc
 50
88.6231061521
 51
91.1919446428
  0
ARC
  5
2C8
100
AcDbEntity
  8
0
100
AcDbCircle
 62
7
  6
CONTINUOUS
 10
13.1409944704
 20
7.3322488853
 40
1.5492001959
100
AcDbArc
 50
88.6229731319
 51
91.1920597897
  0
ARC
  5
2C9
100
AcDbEntity
  8
0
100
AcDbCircle
 62
7
  6
CONTINUOUS
 10
13.1409944704
 20
7.3322488853
 40
1.5481138514
100
AcDbArc
 50
86.889627857
 51
87.5565957966
  0
ARC
  5
2CA
100
AcDbEntity
  8
0
100
AcDbCircle
 62
7
  6
CONTINUOUS
 10
13.1409944704
 20
7.3322488853
 40
1.5389858664
100
AcDbArc
 50
86.871161409
 51
87.5420946835
  0
ARC
  5
2CB
100
AcDbEntity
  8
0
100
AcDbCircle
 62
7
  6
CONTINUOUS
 10
13.1409944704
 20
7.3322488853
 40
1.5389858664
100
AcDbArc
 50
92.2715987345
 51
93.1661244052
  0
ARC
  5
2CC
100
AcDbEntity
  8
0
100
AcDbCircle
 62
7
  6
CONTINUOUS
 10
13.1409944704
 20
7.3322488853
 40
1.5379782693
100
AcDbArc
 50
92.2730877396
 51
93.1682007883
  0
ARC
  5
2CD
100
AcDbEntity
  8
0
100
AcDbCircle
 62
7
  6
CONTINUOUS
 10
13.1409944704
 20
7.3322488853
 40
1.5379782693
100
AcDbArc
 50
86.8691095275
 51
87.5404834123
  0
ARC
  5
2CE
100
AcDbEntity
  8
0
100
AcDbCircle
 62
7
  6
CONTINUOUS
 10
13.1409944704
 20
7.3322488853
 40
1.5377182762
100
AcDbArc
 50
88.1413005928
 51
91.6723095547
  0
ARC
  5
2CF
100
AcDbEntity
  8
0
100
AcDbCircle
 62
7
  6
CONTINUOUS
 10
13.1409944704
 20
7.3322488853
 40
1.536709848
100
AcDbArc
 50
88.1400804383
 51
91.6734072789
  0
ARC
  5
2D0
100
AcDbEntity
  8
0
100
AcDbCircle
 62
7
  6
CONTINUOUS
 10
13.1409944704
 20
7.3322488853
 40
1.5325626806
100
AcDbArc
 50
87.7562904206
 51
92.0566497773
  0
ARC
  5
2D1
100
AcDbEntity
  8
0
100
AcDbCircle
 62
7
  6
CONTINUOUS
 10
13.1111610398
 20
7.3786189947
 40
1.4947518677
100
AcDbArc
 50
90.7348503759
 51
92.1150865687
  0
ARC
  5
2D2
100
AcDbEntity
  8
0
100
AcDbCircle
 62
7
  6
CONTINUOUS
 10
13.1111591468
 20
7.3787064489
 40
1.4946643964
100
AcDbArc
 50
90.0446461744
 51
90.6867539635
  0
ARC
  5
2D3
100
AcDbEntity
  8
0
100
AcDbCircle
 62
7
  6
CONTINUOUS
 10
12.7778279129
 20
7.2013676081
 40
1.4559580233
100
AcDbArc
 50
340.0040448786
 51
342.0482213754
  0
ARC
  5
2D4
100
AcDbEntity
  8
0
100
AcDbCircle
 62
7
  6
CONTINUOUS
 10
11.11955363
 20
6.921682779
 40
1.0015423243
100
AcDbArc
 50
355.7468850209
 51
9.621130348
  0
ARC
  5
2D5
100
AcDbEntity
  8
0
100
AcDbCircle
 62
9
  6
CONTINUOUS
 10
7.6827649728
 20
7.8165060902
 40
5.3878025209
100
AcDbArc
 50
22.4584564119
 51
22.7438941904
  0
ARC
  5
2D6
100
AcDbEntity
  8
0
100
AcDbCircle
 62
7
  6
CONTINUOUS
 10
7.8695340469
 20
7.8754976946
 40
5.2707885478
100
AcDbArc
 50
357.7426388847
 51
357.9600452234
  0
ARC
  5
2D7
100
AcDbEntity
  8
0
100
AcDbCircle
 62
7
  6
CONTINUOUS
 10
8.4585114394
 20
8.5754872575
 40
2.5211207332
100
AcDbArc
 50
52.8679980189
 51
53.9751209781
  0
ARC
  5
2D8
100
AcDbEntity
  8
0
100
AcDbCircle
 62
7
  6
CONTINUOUS
 10
3.5583613358
 20
9.5300224046
 40
9.0
100
AcDbArc
 50
339.2941720276
 51
340.9812676768
  0
ARC
  5
2D9
100
AcDbEntity
  8
0
100
AcDbCircle
 62
7
  6
CONTINUOUS
 10
8.6533442972
 20
10.5461015915
 40
0.6622943633
100
AcDbArc
 50
158.2905784385
 51
164.1946661139
  0
ARC
  5
2DA
100
AcDbEntity
  8
0
100
AcDbCircle
 62
7
  6
CONTINUOUS
 10
8.6525005099
 20
10.5462419972
 40
0.6614442418
100
AcDbArc
 50
164.186460835
 51
172.1564204765
  0
ARC
  5
2DB
100
AcDbEntity
  8
0
100
AcDbCircle
 62
7
  6
CONTINUOUS
 10
8.6495130086
 20
10.547565175
 40
0.6581934449
100
AcDbArc
 50
156.9470076215
 51
158.2855802186
  0
ARC
  5
2DC
100
AcDbEntity
  8
0
100
AcDbCircle
 62
7
  6
CONTINUOUS
 10
8.6414076165
 20
10.5475978095
 40
0.6502701259
100
AcDbArc
 50
172.1413791401
 51
179.2840752114
  0
ARC
  5
2DD
100
AcDbEntity
  8
0
100
AcDbCircle
 62
7
  6
CONTINUOUS
 10
8.4990992673
 20
10.5448548541
 40
0.5508866023
100
AcDbArc
 50
120.6890919085
 51
121.5355784035
  0
ARC
  5
2DE
100
AcDbEntity
  8
0
100
AcDbCircle
 62
7
  6
CONTINUOUS
 10
8.49376244
 20
10.5515838775
 40
0.5424470442
100
AcDbArc
 50
110.2782406341
 51
111.1037414848
  0
ARC
  5
2DF
100
AcDbEntity
  8
0
100
AcDbCircle
 62
7
  6
CONTINUOUS
 10
8.4921967029
 20
10.5533661274
 40
0.5402519016
100
AcDbArc
 50
99.7128642515
 51
99.9337095003
  0
ARC
  5
2E0
100
AcDbEntity
  8
0
100
AcDbCircle
 62
7
  6
CONTINUOUS
 10
8.4893557715
 20
10.5616342295
 40
0.5314843422
100
AcDbArc
 50
111.0506584246
 51
120.7090280156
  0
ARC
  5
2E1
100
AcDbEntity
  8
0
100
AcDbCircle
 62
7
  6
CONTINUOUS
 10
8.4885194449
 20
10.5615138124
 40
0.5311544578
100
AcDbArc
 50
121.5027592048
 51
131.1507737014
  0
ARC
  5
2E2
100
AcDbEntity
  8
0
100
AcDbCircle
 62
7
  6
CONTINUOUS
 10
8.4905572835
 20
10.5634579571
 40
0.5300281516
100
AcDbArc
 50
89.8590314298
 51
99.7222343365
  0
ARC
  5
2E3
100
AcDbEntity
  8
0
100
AcDbCircle
 62
7
  6
CONTINUOUS
 10
7.3144633119
 20
10.500394371
 40
0.4
100
AcDbArc
 50
170.0
 51
194.220943109
  0
ARC
  5
2E4
100
AcDbEntity
  8
0
100
AcDbCircle
 62
7
  6
CONTINUOUS
 10
7.4375642811
 20
10.4786883488
 40
0.4
100
AcDbArc
 50
325.779056891
 51
350.0
  0
ARC
  5
2E5
100
AcDbEntity
  8
0
100
AcDbCircle
 62
9
  6
CONTINUOUS
 10
7.8082906278
 20
11.1479015533
 40
0.3401005264
100
AcDbArc
 50
238.9280411367
 51
242.3410908241
  0
ARC
  5
2E6
100
AcDbEntity
  8
0
100
AcDbCircle
 62
7
  6
CONTINUOUS
 10
8.2619840583
 20
10.819059384
 40
0.1881571095
100
AcDbArc
 50
131.2624264209
 51
131.8426675119
  0
ARC
  5
2E7
100
AcDbEntity
  8
0
100
AcDbCircle
 62
7
  6
CONTINUOUS
 10
6.9364146206
 20
10.4045862974
 40
0.01
100
AcDbArc
 50
194.220943109
 51
259.9999951894
  0
ARC
  5
2E8
100
AcDbEntity
  8
0
100
AcDbCircle
 62
7
  6
CONTINUOUS
 10
7.7600455556
 20
10.2593579414
 40
0.01
100
AcDbArc
 50
260.0000048105
 51
325.779056891
  0
ARC
  5
2E9
100
AcDbEntity
  8
0
100
AcDbCircle
 62
7
  6
CONTINUOUS
 10
12.4107151797
 20
8.1496266668
 40
1.3599999999
100
AcDbArc
 50
18.7559867834
 51
22.3561036557
  0
ARC
  5
2EA
100
AcDbEntity
  8
0
100
AcDbCircle
 62
7
  6
CONTINUOUS
 10
13.0629738045
 20
7.7451821374
 40
1.1304036152
100
AcDbArc
 50
87.353314581
 51
87.613327773
  0
ARC
  5
2EB
100
AcDbEntity
  8
0
100
AcDbCircle
 62
7
  6
CONTINUOUS
 10
13.0629867824
 20
7.7452417022
 40
1.1293390391
100
AcDbArc
 50
87.7228061689
 51
88.4653917728
  0
ARC
  5
2EC
100
AcDbEntity
  8
0
100
AcDbCircle
 62
7
  6
CONTINUOUS
 10
13.0630122586
 20
7.7462782209
 40
1.1293068682
100
AcDbArc
 50
87.7245072648
 51
88.4666410508
  0
ARC
  5
2ED
100
AcDbEntity
  8
0
100
AcDbCircle
 62
7
  6
CONTINUOUS
 10
12.4311185115
 20
8.0204189008
 40
0.25
100
AcDbArc
 50
47.6868768536
 51
136.9739483152
  0
ARC
  5
2EE
100
AcDbEntity
  8
0
100
AcDbCircle
 62
7
  6
CONTINUOUS
 10
12.8458466846
 20
7.8429182179
 40
0.1195024636
100
AcDbArc
 50
0.3789495744
 51
1.166711051
  0
ARC
  5
2EF
100
AcDbEntity
  8
0
100
AcDbCircle
 62
7
  6
CONTINUOUS
 10
12.8460343834
 20
7.8429106546
 40
0.1193148193
100
AcDbArc
 50
352.4894550937
 51
0.3831775813
  0
ARC
  5
2F0
100
AcDbEntity
  8
0
100
AcDbCircle
 62
7
  6
CONTINUOUS
 10
12.8923726546
 20
7.8605005314
 40
0.0683485796
100
AcDbArc
 50
41.113189521
 51
43.6063531688
  0
ARC
  5
2F1
100
AcDbEntity
  8
0
100
AcDbCircle
 62
7
  6
CONTINUOUS
 10
12.9135864106
 20
7.877260678
 40
0.047669963
100
AcDbArc
 50
97.1283949923
 51
105.4224887201
  0
ARC
  5
2F2
100
AcDbEntity
  8
0
100
AcDbCircle
 62
7
  6
CONTINUOUS
 10
12.9052403317
 20
7.8799558718
 40
0.0446574285
100
AcDbArc
 50
79.8631558715
 51
86.935612903
  0
ARC
  5
2F3
100
AcDbEntity
  8
0
100
AcDbCircle
 62
7
  6
CONTINUOUS
 10
12.905313262
 20
7.8804378365
 40
0.0441722794
100
AcDbArc
 50
86.9966557289
 51
96.1408588676
  0
ARC
  5
2F4
100
AcDbEntity
  8
0
100
AcDbCircle
 62
7
  6
CONTINUOUS
 10
12.9201912827
 20
7.8702902807
 40
0.037728771
100
AcDbArc
 50
85.8513380839
 51
88.0293429984
  0
ARC
  5
2F5
100
AcDbEntity
  8
0
100
AcDbCircle
 62
7
  6
CONTINUOUS
 10
12.920199719
 20
7.8705257031
 40
0.0374931977
100
AcDbArc
 50
88.0298560899
 51
89.9990113844
  0
ARC
  5
2F6
100
AcDbEntity
  8
0
100
AcDbCircle
 62
7
  6
CONTINUOUS
 10
12.935366939
 20
7.8722850806
 40
0.0358308816
100
AcDbArc
 50
109.2060814262
 51
112.6025466606
  0
ARC
  5
2F7
100
AcDbEntity
  8
0
100
AcDbCircle
 62
7
  6
CONTINUOUS
 10
12.9349209312
 20
7.8736150997
 40
0.0344281715
100
AcDbArc
 50
103.6610244852
 51
109.2332890218
  0
ARC
  5
2F8
100
AcDbEntity
  8
0
100
AcDbCircle
 62
7
  6
CONTINUOUS
 10
12.9324000378
 20
7.8738975976
 40
0.0310213032
100
AcDbArc
 50
90.0038191148
 51
93.8573533649
  0
ARC
  5
2F9
100
AcDbEntity
  8
0
100
AcDbCircle
 62
7
  6
CONTINUOUS
 10
12.932396845
 20
7.8739081242
 40
0.0310107767
100
AcDbArc
 50
85.0353375053
 51
89.9979213765
  0
ARC
  5
2FA
100
AcDbEntity
  8
0
100
AcDbCircle
 62
7
  6
CONTINUOUS
 10
12.9311191584
 20
7.8065835012
 40
0.0287720491
100
AcDbArc
 50
275.6465357548
 51
285.3989601067
  0
ARC
  5
2FB
100
AcDbEntity
  8
0
100
AcDbCircle
 62
7
  6
CONTINUOUS
 10
12.9312357329
 20
7.8056925382
 40
0.0278739538
100
AcDbArc
 50
272.9004417178
 51
275.5882697486
  0
ARC
  5
2FC
100
AcDbEntity
  8
0
100
AcDbCircle
 62
7
  6
CONTINUOUS
 10
12.9312479148
 20
7.8054582785
 40
0.0276393777
100
AcDbArc
 50
270.0020734474
 51
272.8997937874
  0
ARC
  5
2FD
100
AcDbEntity
  8
0
100
AcDbCircle
 62
7
  6
CONTINUOUS
 10
12.2074944704
 20
8.2010251725
 40
0.016
100
AcDbArc
 50
0.0
 51
124.9999999998
  0
ARC
  5
2FE
100
AcDbEntity
  8
0
100
AcDbCircle
 62
7
  6
CONTINUOUS
 10
12.2366609326
 20
8.2019189008
 40
0.016
100
AcDbArc
 50
214.6234510998
 51
316.9739483152
  0
ARC
  5
2FF
100
AcDbEntity
  8
0
100
AcDbCircle
 62
7
  6
CONTINUOUS
 10
12.4126956896
 20
8.6200007163
 40
1.36
100
AcDbArc
 50
337.4255442891
 51
340.9862257999
  0
ARC
  5
300
100
AcDbEntity
  8
0
100
AcDbCircle
 62
7
  6
CONTINUOUS
 10
11.9584944704
 20
8.3819189008
 40
0.275
100
AcDbArc
 50
55.0
 51
305.0
  0
ARC
  5
301
100
AcDbEntity
  8
0
100
AcDbCircle
 62
7
  6
CONTINUOUS
 10
12.4311185115
 20
8.7434189008
 40
0.25
100
AcDbArc
 50
223.0260516848
 51
312.3162584432
  0
ARC
  5
302
100
AcDbEntity
  8
0
100
AcDbCircle
 62
7
  6
CONTINUOUS
 10
12.7534944704
 20
8.8027185538
 40
0.03
100
AcDbArc
 50
104.7630312681
 51
170.0081905723
  0
ARC
  5
303
100
AcDbEntity
  8
0
100
AcDbCircle
 62
7
  6
CONTINUOUS
 10
12.2074944704
 20
8.5628126291
 40
0.016
100
AcDbArc
 50
235.0000000002
 51
360.0
  0
ARC
  5
304
100
AcDbEntity
  8
0
100
AcDbCircle
 62
7
  6
CONTINUOUS
 10
12.2366609326
 20
8.5619189008
 40
0.016
100
AcDbArc
 50
43.0260516848
 51
145.3765489002
  0
ARC
  5
305
100
AcDbEntity
  8
0
100
AcDbCircle
 62
7
  6
CONTINUOUS
 10
13.8712737612
 20
8.1496266668
 40
1.3599999999
100
AcDbArc
 50
157.6438963443
 51
161.2440132166
  0
ARC
  5
306
100
AcDbEntity
  8
0
100
AcDbCircle
 62
7
  6
CONTINUOUS
 10
13.8508704294
 20
8.0204189008
 40
0.25
100
AcDbArc
 50
43.0260516848
 51
132.3040077081
  0
ARC
  5
307
100
AcDbEntity
  8
0
100
AcDbCircle
 62
7
  6
CONTINUOUS
 10
14.0744944704
 20
8.2010251725
 40
0.016
100
AcDbArc
 50
55.0000000002
 51
180.0
  0
ARC
  5
308
100
AcDbEntity
  8
0
100
AcDbCircle
 62
7
  6
CONTINUOUS
 10
14.0453280083
 20
8.2019189008
 40
0.016
100
AcDbArc
 50
223.0260516848
 51
325.3765489002
  0
ARC
  5
309
100
AcDbEntity
  8
0
100
AcDbCircle
 62
7
  6
CONTINUOUS
 10
13.8692964686
 20
8.6200019381
 40
1.3600034399
100
AcDbArc
 50
199.0137787036
 51
202.5744512054
  0
ARC
  5
30A
100
AcDbEntity
  8
0
100
AcDbCircle
 62
7
  6
CONTINUOUS
 10
13.1953170939
 20
8.4495368165
 40
0.4323364878
100
AcDbArc
 50
100.6830401307
 51
101.147377539
  0
CIRCLE
  5
30B
100
AcDbEntity
  8
0
100
AcDbCircle
 62
7
  6
CONTINUOUS
 10
13.1409944704
 20
8.3819189008
 40
0.275
  0
ARC
  5
30C
100
AcDbEntity
  8
0
100
AcDbCircle
 62
7
  6
CONTINUOUS
 10
14.3234944704
 20
8.3819189008
 40
0.275
100
AcDbArc
 50
235.0
 51
125.0
  0
ARC
  5
30D
100
AcDbEntity
  8
0
100
AcDbCircle
 62
7
  6
CONTINUOUS
 10
13.8508704294
 20
8.7434189008
 40
0.25
100
AcDbArc
 50
227.6879139159
 51
316.9739483152
  0
ARC
  5
30E
100
AcDbEntity
  8
0
100
AcDbCircle
 62
7
  6
CONTINUOUS
 10
13.5284944704
 20
8.8027185538
 40
0.03
100
AcDbArc
 50
9.9918094277
 51
75.2369687319
  0
ARC
  5
30F
100
AcDbEntity
  8
0
100
AcDbCircle
 62
7
  6
CONTINUOUS
 10
14.0744944704
 20
8.5628126291
 40
0.016
100
AcDbArc
 50
180.0
 51
304.9999999998
  0
ARC
  5
310
100
AcDbEntity
  8
0
100
AcDbCircle
 62
7
  6
CONTINUOUS
 10
14.0453280083
 20
8.5619189008
 40
0.016
100
AcDbArc
 50
34.6234510998
 51
136.9739483152
  0
ARC
  5
311
100
AcDbEntity
  8
0
100
AcDbCircle
 62
7
  6
CONTINUOUS
 10
9.3978234368
 20
10.2441595022
 40
1.4655280739
100
AcDbArc
 50
156.2391176102
 51
156.5317540321
  0
ARC
  5
312
100
AcDbEntity
  8
0
100
AcDbCircle
 62
7
  6
CONTINUOUS
 10
9.0140264784
 20
10.4133924893
 40
1.0460762616
100
AcDbArc
 50
155.2250400948
 51
156.2527160542
  0
ARC
  5
313
100
AcDbEntity
  8
0
100
AcDbCircle
 62
7
  6
CONTINUOUS
 10
13.1333993121
 20
9.8795277444
 40
1.0
100
AcDbArc
 50
90.0
 51
124.9180935011
  0
ARC
  5
314
100
AcDbEntity
  8
0
100
AcDbCircle
 62
7
  6
CONTINUOUS
 10
13.1485896288
 20
9.8795277444
 40
1.0
100
AcDbArc
 50
55.0819064989
 51
90.0
  0
ARC
  5
315
100
AcDbEntity
  8
0
100
AcDbCircle
 62
7
  6
CONTINUOUS
 10
11.8904185879
 20
9.8336239236
 40
0.938
100
AcDbArc
 50
13.675418161
 51
44.3650233311
  0
ARC
  5
316
100
AcDbEntity
  8
0
100
AcDbCircle
 62
7
  6
CONTINUOUS
 10
14.391570353
 20
9.8336239236
 40
0.938
100
AcDbArc
 50
135.6349766689
 51
166.324581839
  0
ARC
  5
317
100
AcDbEntity
  8
0
100
AcDbCircle
 62
7
  6
CONTINUOUS
 10
13.1445501686
 20
9.4895732581
 40
0.6411975283
100
AcDbArc
 50
267.1626845943
 51
272.6484294476
  0
ARC
  5
318
100
AcDbEntity
  8
0
100
AcDbCircle
 62
7
  6
CONTINUOUS
 10
13.144829311
 20
9.4785020334
 40
0.6291032905
100
AcDbArc
 50
269.8784288859
 51
272.6739246811
  0
ARC
  5
319
100
AcDbEntity
  8
0
100
AcDbCircle
 62
7
  6
CONTINUOUS
 10
13.1441124897
 20
9.4750197636
 40
0.6256185142
100
AcDbArc
 50
267.1321117396
 51
269.7144420703
  0
ARC
  5
31A
100
AcDbEntity
  8
0
100
AcDbCircle
 62
7
  6
CONTINUOUS
 10
13.4344944704
 20
10.0664989008
 40
0.047
100
AcDbArc
 50
270.0
 51
346.324581839
  0
ARC
  5
31B
100
AcDbEntity
  8
0
100
AcDbCircle
 62
7
  6
CONTINUOUS
 10
12.8474944704
 20
10.0664989008
 40
0.047
100
AcDbArc
 50
193.675418161
 51
270.0
  0
ARC
  5
31C
100
AcDbEntity
  8
0
100
AcDbCircle
 62
7
  6
CONTINUOUS
 10
30.2916934607
 20
9.8747190967
 40
16.571
100
AcDbArc
 50
179.9143214822
 51
182.8773794543
  0
ARC
  5
31D
100
AcDbEntity
  8
0
100
AcDbCircle
 62
7
  6
CONTINUOUS
 10
22.7236276051
 20
9.5300224046
 40
9.0
100
AcDbArc
 50
198.3039768112
 51
200.705652902
  0
ARC
  5
31E
100
AcDbEntity
  8
0
100
AcDbCircle
 62
7
  6
CONTINUOUS
 10
22.5964075118
 20
9.4879385852
 40
8.866
100
AcDbArc
 50
187.9118515936
 51
198.3039768112
  0
ARC
  5
31F
100
AcDbEntity
  8
0
100
AcDbCircle
 62
7
  6
CONTINUOUS
 10
22.5964075118
 20
9.4879385852
 40
8.866
100
AcDbArc
 50
182.8773794543
 51
186.3961398674
  0
SPLINE
  5
320
100
AcDbEntity
  8
0
100
AcDbSpline
 62
7
  6
CONTINUOUS
 70
0
 71
3
 72
14
 73
10
 74
0
 42
0.0000001
 43
0.0000001
 44
0.0000000001
 40
0.0
 40
0.0
 40
0.0
 40
0.0
 40
0.1150620559
 40
0.2325311393
 40
0.3527233133
 40
0.4758656381
 40
0.7314216839
 40
0.8641555392
 40
1.0
 40
1.0
 40
1.0
 40
1.0
 10
12.9215958285
 20
7.9053639045
 30
0.0
 10
12.9205395036
 20
7.9049244327
 30
0.0
 10
12.9184453953
 20
7.9039353017
 30
0.0
 10
12.9154171749
 20
7.9021576159
 30
0.0
 10
12.9124870256
 20
7.900079919
 30
0.0
 10
12.9086847305
 20
7.8968872025
 30
0.0
 10
12.9051873653
 20
7.8931645542
 30
0.0
 10
12.9020322252
 20
7.8890135154
 30
0.0
 10
12.9005604864
 20
7.8867820958
 30
0.0
 10
12.8998529502
 20
7.8856314881
 30
0.0
  0
SPLINE
  5
321
100
AcDbEntity
  8
0
100
AcDbSpline
 62
7
  6
CONTINUOUS
 70
0
 71
3
 72
15
 73
11
 74
0
 42
0.0000001
 43
0.0000001
 44
0.0000000001
 40
0.0
 40
0.0
 40
0.0
 40
0.0
 40
0.1200018897
 40
0.2405926098
 40
0.3621842799
 40
0.4852319029
 40
0.6101864598
 40
0.7374350581
 40
0.8672878516
 40
1.0
 40
1.0
 40
1.0
 40
1.0
 10
12.93239797
 20
7.7809189008
 30
0.0
 10
12.9314385122
 20
7.7809189008
 30
0.0
 10
12.929513719
 20
7.7810087224
 30
0.0
 10
12.9266420158
 20
7.7814105378
 30
0.0
 10
12.9237951776
 20
7.7820787174
 30
0.0
 10
12.9209866198
 20
7.7830097945
 30
0.0
 10
12.9182283141
 20
7.7841994814
 30
0.0
 10
12.91553198
 20
7.7856424678
 30
0.0
 10
12.9129091729
 20
7.7873319064
 30
0.0
 10
12.9112360294
 20
7.7886037624
 30
0.0
 10
12.9104153677
 20
7.7892763744
 30
0.0
  0
SPLINE
  5
322
100
AcDbEntity
  8
0
100
AcDbSpline
 62
7
  6
CONTINUOUS
 70
0
 71
3
 72
31
 73
27
 74
0
 42
0.0000001
 43
0.0000001
 44
0.0000000001
 40
0.0
 40
0.0
 40
0.0
 40
0.0
 40
0.0266720632
 40
0.0538780577
 40
0.0816294158
 40
0.1099299021
 40
0.1387774203
 40
0.1681620227
 40
0.2284581612
 40
0.2906497785
 40
0.322384585
 40
0.3544891626
 40
0.3869219506
 40
0.4196377281
 40
0.4857139976
 40
0.5523331913
 40
0.5857232634
 40
0.6190922269
 40
0.6523875728
 40
0.6855574948
 40
0.7513042331
 40
0.7837979342
 40
0.8159722817
 40
0.8477850207
 40
0.8791965855
 40
1.0
 40
1.0
 40
1.0
 40
1.0
 10
12.9104153677
 20
7.7892763744
 30
0.0
 10
12.9096977783
 20
7.7898645085
 30
0.0
 10
12.9082859227
 20
7.7910992922
 30
0.0
 10
12.9062655632
 20
7.7930968741
 30
0.0
 10
12.9043278779
 20
7.7952515785
 30
0.0
 10
12.9024789379
 20
7.7975564038
 30
0.0
 10
12.900724819
 20
7.8000044056
 30
0.0
 10
12.8985004528
 20
7.8034779181
 30
0.0
 10
12.895993958
 20
7.8081388002
 30
0.0
 10
12.8939050636
 20
7.8130886447
 30
0.0
 10
12.8924714155
 20
7.8172329173
 30
0.0
 10
12.8915146032
 20
7.8204433665
 30
0.0
 10
12.890687009
 20
7.8237246743
 30
0.0
 10
12.8897557525
 20
7.8281945859
 30
0.0
 10
12.8889311525
 20
7.8338960033
 30
0.0
 10
12.8885639561
 20
7.8396682613
 30
0.0
 10
12.8885453987
 20
7.84430893
 30
0.0
 10
12.8886696109
 20
7.8477881399
 30
0.0
 10
12.8889319802
 20
7.8512520281
 30
0.0
 10
12.889462651
 20
7.8558213313
 30
0.0
 10
12.8902645775
 20
7.8603279015
 30
0.0
 10
12.8913369528
 20
7.8647370283
 30
0.0
 10
12.8922678559
 20
7.8679625336
 30
0.0
 10
12.8933254974
 20
7.8711095354
 30
0.0
 10
12.8956309378
 20
7.8770807886
 30
0.0
 10
12.8980928542
 20
7.8818207159
 30
0.0
 10
12.9004147229
 20
7.8853232738
 30
0.0
  0
SPLINE
  5
323
100
AcDbEntity
  8
0
100
AcDbSpline
 62
7
  6
CONTINUOUS
 70
0
 71
3
 72
19
 73
15
 74
0
 42
0.0000001
 43
0.0000001
 44
0.0000000001
 40
0.0
 40
0.0
 40
0.0
 40
0.0
 40
0.1389092989
 40
0.2066837574
 40
0.273324054
 40
0.4032093818
 40
0.5288363168
 40
0.6506193245
 40
0.7102768671
 40
0.7692128994
 40
0.8275365411
 40
0.8853653266
 40
0.9428179694
 40
1.0
 40
1.0
 40
1.0
 40
1.0
 10
12.9004147229
 20
7.8853232738
 30
0.0
 10
12.9013611856
 20
7.8867510206
 30
0.0
 10
12.9028635035
 20
7.8888157795
 30
0.0
 10
12.9050372944
 20
7.8913929739
 30
0.0
 10
12.9072586709
 20
7.8937794494
 30
0.0
 10
12.9101825858
 20
7.8964803995
 30
0.0
 10
12.9139291173
 20
7.8992547492
 30
0.0
 10
12.9172211636
 20
7.9011459166
 30
0.0
 10
12.9199185297
 20
7.9023789894
 30
0.0
 10
12.9219573541
 20
7.9031597243
 30
0.0
 10
12.9240206425
 20
7.9038008912
 30
0.0
 10
12.9261039006
 20
7.9043008753
 30
0.0
 10
12.928201959
 20
7.9046581462
 30
0.0
 10
12.9296096054
 20
7.9048012062
 30
0.0
 10
12.9303131518
 20
7.9048486261
 30
0.0
  0
SPLINE
  5
324
100
AcDbEntity
  8
0
100
AcDbSpline
 62
7
  6
CONTINUOUS
 70
0
 71
3
 72
11
 73
7
 74
0
 42
0.0000001
 43
0.0000001
 44
0.0000000001
 40
0.0
 40
0.0
 40
0.0
 40
0.0
 40
0.2530807991
 40
0.503595787
 40
0.7523288401
 40
1.0
 40
1.0
 40
1.0
 40
1.0
 10
12.9429195986
 20
7.7827309453
 30
0.0
 10
12.9420656011
 20
7.782432368
 30
0.0
 10
12.9403414724
 20
7.7819063709
 30
0.0
 10
12.9377098493
 20
7.7813374608
 30
0.0
 10
12.9350587299
 20
7.7809953347
 30
0.0
 10
12.93328332
 20
7.7809189008
 30
0.0
 10
12.93239797
 20
7.7809189008
 30
0.0
  0
SPLINE
  5
325
100
AcDbEntity
  8
0
100
AcDbSpline
 62
7
  6
CONTINUOUS
 70
0
 71
3
 72
12
 73
8
 74
0
 42
0.0000001
 43
0.0000001
 44
0.0000000001
 40
0.0
 40
0.0
 40
0.0
 40
0.0
 40
0.130167075
 40
0.259096654
 40
0.5124645511
 40
0.7594723375
 40
1.0
 40
1.0
 40
1.0
 40
1.0
 10
12.8998529502
 20
7.8856314881
 30
0.0
 10
12.9004713309
 20
7.8867215127
 30
0.0
 10
12.9017522937
 20
7.888863328
 30
0.0
 10
12.9044805489
 20
7.8929758575
 30
0.0
 10
12.9081875741
 20
7.8977816991
 30
0.0
 10
12.9130939361
 20
7.9029753764
 30
0.0
 10
12.9166643038
 20
7.9060390281
 30
0.0
 10
12.9185027881
 20
7.907447084
 30
0.0
  0
LINE
  5
326
100
AcDbEntity
  8
0
100
AcDbLine
 62
7
  6
CONTINUOUS
 10
13.0919905378
 20
8.8732479245
 11
13.0932443522
 21
8.8732634796
  0
LINE
  5
327
100
AcDbEntity
  8
0
100
AcDbLine
 62
7
  6
CONTINUOUS
 10
13.1099944704
 20
8.8733703915
 11
13.1117320429
 21
8.8737164694
  0
SPLINE
  5
328
100
AcDbEntity
  8
0
100
AcDbSpline
 62
7
  6
CONTINUOUS
 70
0
 71
3
 72
25
 73
21
 74
0
 42
0.0000001
 43
0.0000001
 44
0.0000000001
 40
0.0
 40
0.0
 40
0.0
 40
0.0
 40
0.0033107104
 40
0.0054709478
 40
0.00808383
 40
0.0148263052
 40
0.0237278325
 40
0.0348525593
 40
0.0482178949
 40
0.0638082535
 40
0.0815971992
 40
0.1236411284
 40
0.1740130123
 40
0.2322394135
 40
0.2978015792
 40
0.3700715989
 40
0.4483812342
 40
0.6200483176
 40
0.8063191027
 40
1.0
 40
1.0
 40
1.0
 40
1.0
 10
13.0787651152
 20
8.8785991337
 30
0.0
 10
13.0787651152
 20
8.8786325258
 30
0.0
 10
13.0787911
 20
8.8786868324
 30
0.0
 10
13.0788487486
 20
8.8787439968
 30
0.0
 10
13.0789427749
 20
8.8788131722
 30
0.0
 10
13.079108242
 20
8.8788957854
 30
0.0
 10
13.0793613383
 20
8.8789903252
 30
0.0
 10
13.0796845551
 20
8.8790857836
 30
0.0
 10
13.0800772618
 20
8.8791820649
 30
0.0
 10
13.0805387874
 20
8.8792787533
 30
0.0
 10
13.0812871762
 20
8.8794155371
 30
0.0
 10
13.0823865365
 20
8.8795812147
 30
0.0
 10
13.0838944308
 20
8.8797685552
 30
0.0
 10
13.0856415629
 20
8.8799515647
 30
0.0
 10
13.0876111888
 20
8.8801281047
 30
0.0
 10
13.0897847492
 20
8.8802964998
 30
0.0
 10
13.0930276969
 20
8.8805143591
 30
0.0
 10
13.0974216217
 20
8.8807501294
 30
0.0
 10
13.1029810984
 20
8.8809699686
 30
0.0
 10
13.1068120531
 20
8.8810733716
 30
0.0
 10
13.1087651152
 20
8.8811140116
 30
0.0
  0
SPLINE
  5
329
100
AcDbEntity
  8
0
100
AcDbSpline
 62
7
  6
CONTINUOUS
 70
0
 71
3
 72
27
 73
23
 74
0
 42
0.0000001
 43
0.0000001
 44
0.0000000001
 40
0.0
 40
0.0
 40
0.0
 40
0.0
 40
0.0084815386
 40
0.0175446074
 40
0.027652487
 40
0.0391371608
 40
0.052220176
 40
0.0670376961
 40
0.083670289
 40
0.1021647249
 40
0.1225447202
 40
0.1448081026
 40
0.1948979857
 40
0.2522064644
 40
0.3163412189
 40
0.3868224178
 40
0.4630630682
 40
0.5444126838
 40
0.6301206667
 40
0.7193921178
 40
0.8114037011
 40
1.0
 40
1.0
 40
1.0
 40
1.0
 10
13.0559944704
 20
8.8560606345
 30
0.0
 10
13.0559944704
 20
8.8558115573
 30
0.0
 10
13.0560672655
 20
8.8552940803
 30
0.0
 10
13.056384223
 20
8.8545387772
 30
0.0
 10
13.0569009944
 20
8.8537952379
 30
0.0
 10
13.057613028
 20
8.8530624756
 30
0.0
 10
13.0585187987
 20
8.8523394527
 30
0.0
 10
13.0596166714
 20
8.8516258866
 30
0.0
 10
13.0609049837
 20
8.8509224332
 30
0.0
 10
13.06238177
 20
8.8502303718
 30
0.0
 10
13.064044509
 20
8.849551285
 30
0.0
 10
13.0666074004
 20
8.8486285571
 30
0.0
 10
13.0702579037
 20
8.8475358225
 30
0.0
 10
13.0751544277
 20
8.8463460731
 30
0.0
 10
13.0806831851
 20
8.8452435545
 30
0.0
 10
13.0867946795
 20
8.8442408197
 30
0.0
 10
13.0934334943
 20
8.843347968
 30
0.0
 10
13.1005372464
 20
8.8425756289
 30
0.0
 10
13.1080378271
 20
8.8419315129
 30
0.0
 10
13.1158626426
 20
8.8414235649
 30
0.0
 10
13.126714178
 20
8.8409312628
 30
0.0
 10
13.1349559677
 20
8.8407881989
 30
0.0
 10
13.1404944704
 20
8.8407900623
 30
0.0
  0
LINE
  5
32A
100
AcDbEntity
  8
0
100
AcDbLine
 62
7
  6
CONTINUOUS
 10
13.1087195717
 20
8.8825829874
 11
13.1090523155
 21
8.8825898787
  0
SPLINE
  5
32B
100
AcDbEntity
  8
0
100
AcDbSpline
 62
7
  6
CONTINUOUS
 70
0
 71
3
 72
27
 73
23
 74
0
 42
0.0000001
 43
0.0000001
 44
0.0000000001
 40
0.0
 40
0.0
 40
0.0
 40
0.0
 40
0.1888540561
 40
0.2809263224
 40
0.3702198663
 40
0.4559190644
 40
0.5372376291
 40
0.6134306382
 40
0.6838545482
 40
0.7479279157
 40
0.8051775923
 40
0.8552160895
 40
0.8774579327
 40
0.8978201966
 40
0.9163006519
 40
0.9329232953
 40
0.9477354978
 40
0.9608183442
 40
0.9723079868
 40
0.9824256892
 40
0.9915026118
 40
1.0
 40
1.0
 40
1.0
 40
1.0
 10
13.1409944704
 20
8.8407902803
 30
0.0
 10
13.1465095944
 20
8.8407980465
 30
0.0
 10
13.154714437
 20
8.8409543331
 30
0.0
 10
13.16551455
 20
8.8414619168
 30
0.0
 10
13.173297045
 20
8.8419796323
 30
0.0
 10
13.1807542286
 20
8.8426320244
 30
0.0
 10
13.1878145713
 20
8.8434110633
 30
0.0
 10
13.1944109682
 20
8.844309069
 30
0.0
 10
13.2004819261
 20
8.8453154134
 30
0.0
 10
13.205972887
 20
8.8464201047
 30
0.0
 10
13.2108351283
 20
8.8476106368
 30
0.0
 10
13.2144595536
 20
8.8487029428
 30
0.0
 10
13.2170038429
 20
8.8496246472
 30
0.0
 10
13.2186544917
 20
8.8503027142
 30
0.0
 10
13.2201204834
 20
8.8509934956
 30
0.0
 10
13.2213993233
 20
8.8516954228
 30
0.0
 10
13.2224890868
 20
8.8524072285
 30
0.0
 10
13.223388159
 20
8.8531282476
 30
0.0
 10
13.2240949022
 20
8.8538587899
 30
0.0
 10
13.2246077667
 20
8.8545998931
 30
0.0
 10
13.2249222565
 20
8.8553524901
 30
0.0
 10
13.2249944704
 20
8.8558679362
 30
0.0
 10
13.2249944704
 20
8.8561160865
 30
0.0
  0
SPLINE
  5
32C
100
AcDbEntity
  8
0
100
AcDbSpline
 62
7
  6
CONTINUOUS
 70
0
 71
3
 72
16
 73
12
 74
0
 42
0.0000001
 43
0.0000001
 44
0.0000000001
 40
0.0
 40
0.0
 40
0.0
 40
0.0
 40
0.328265153
 40
0.4818084375
 40
0.6230456555
 40
0.7483608842
 40
0.8545984722
 40
0.899734314
 40
0.9391665209
 40
0.9726564135
 40
1.0
 40
1.0
 40
1.0
 40
1.0
 10
13.1782238257
 20
8.881001753
 30
0.0
 10
13.1813817674
 20
8.8809258126
 30
0.0
 10
13.1860159735
 20
8.8807696727
 30
0.0
 10
13.1920039789
 20
8.880468219
 30
0.0
 10
13.1960386552
 20
8.8802140547
 30
0.0
 10
13.1996151302
 20
8.8799336579
 30
0.0
 10
13.2022652265
 20
8.8796732379
 30
0.0
 10
13.2040879541
 20
8.8794514124
 30
0.0
 10
13.2052129451
 20
8.8792924746
 30
0.0
 10
13.2061646414
 20
8.8791331621
 30
0.0
 10
13.2067384639
 20
8.8790160169
 30
0.0
 10
13.2069944704
 20
8.8789552317
 30
0.0
  0
SPLINE
  5
32D
100
AcDbEntity
  8
0
100
AcDbSpline
 62
7
  6
CONTINUOUS
 70
0
 71
3
 72
19
 73
15
 74
0
 42
0.0000001
 43
0.0000001
 44
0.0000000001
 40
0.0
 40
0.0
 40
0.0
 40
0.0
 40
0.1891633374
 40
0.3713662174
 40
0.5391628108
 40
0.6866736755
 40
0.7512426216
 40
0.8089216807
 40
0.8592874061
 40
0.9020746166
 40
0.9371212274
 40
0.9517707363
 40
0.9645773312
 40
1.0
 40
1.0
 40
1.0
 40
1.0
 10
13.2009944704
 20
8.8636366122
 30
0.0
 10
13.2013873407
 20
8.8636212194
 30
0.0
 10
13.2021582081
 20
8.8635790318
 30
0.0
 10
13.2032748901
 20
8.8634825274
 30
0.0
 10
13.2043015168
 20
8.8633568649
 30
0.0
 10
13.205080812
 20
8.8632275464
 30
0.0
 10
13.2056293069
 20
8.8631108219
 30
0.0
 10
13.2059773876
 20
8.8630234409
 30
0.0
 10
13.20627775
 20
8.8629332503
 30
0.0
 10
13.2065280678
 20
8.8628409943
 30
0.0
 10
13.2067022689
 20
8.8627595387
 30
0.0
 10
13.2068138601
 20
8.8626914773
 30
0.0
 10
13.206917372
 20
8.8626157107
 30
0.0
 10
13.2069944704
 20
8.8625254341
 30
0.0
 10
13.2069944704
 20
8.8624518089
 30
0.0
  0
SPLINE
  5
32E
100
AcDbEntity
  8
0
100
AcDbSpline
 62
7
  6
CONTINUOUS
 70
0
 71
3
 72
19
 73
15
 74
0
 42
0.0000001
 43
0.0000001
 44
0.0000000001
 40
0.0
 40
0.0
 40
0.0
 40
0.0
 40
0.0353609378
 40
0.0481527169
 40
0.0627826797
 40
0.0977761577
 40
0.1405692719
 40
0.1909678617
 40
0.2486160465
 40
0.3131062042
 40
0.4606097554
 40
0.6285312273
 40
0.8109977994
 40
1.0
 40
1.0
 40
1.0
 40
1.0
 10
13.0799944704
 20
8.8626592837
 30
0.0
 10
13.0799944704
 20
8.862732738
 30
0.0
 10
13.0800717439
 20
8.8628226728
 30
0.0
 10
13.080175176
 20
8.8628980519
 30
0.0
 10
13.0802866769
 20
8.8629657722
 30
0.0
 10
13.0804607625
 20
8.8630468834
 30
0.0
 10
13.0807111986
 20
8.8631383158
 30
0.0
 10
13.0810116926
 20
8.8632274753
 30
0.0
 10
13.0813596717
 20
8.8633137442
 30
0.0
 10
13.0819079535
 20
8.8634287402
 30
0.0
 10
13.082687321
 20
8.8635553072
 30
0.0
 10
13.0837145178
 20
8.8636778517
 30
0.0
 10
13.084831356
 20
8.8637704517
 30
0.0
 10
13.085602114
 20
8.8638102491
 30
0.0
 10
13.0859944704
 20
8.8638243389
 30
0.0
  0
SPLINE
  5
32F
100
AcDbEntity
  8
0
100
AcDbSpline
 62
7
  6
CONTINUOUS
 70
0
 71
3
 72
14
 73
10
 74
0
 42
0.0000001
 43
0.0000001
 44
0.0000000001
 40
0.0
 40
0.0
 40
0.0
 40
0.0
 40
0.0788980209
 40
0.175162935
 40
0.2870376439
 40
0.4124351089
 40
0.5491065757
 40
0.6945234993
 40
1.0
 40
1.0
 40
1.0
 40
1.0
 10
13.2069944704
 20
8.8698188827
 30
0.0
 10
13.2065781321
 20
8.869733058
 30
0.0
 10
13.2056458135
 20
8.8695817737
 30
0.0
 10
13.2041090238
 20
8.8694061265
 30
0.0
 10
13.2023172413
 20
8.8692644487
 30
0.0
 10
13.2003050134
 20
8.8691598634
 30
0.0
 10
13.1981102943
 20
8.8690957491
 30
0.0
 10
13.194944597
 20
8.8690647565
 30
0.0
 10
13.192514957
 20
8.8691047163
 30
0.0
 10
13.1908699549
 20
8.8691580996
 30
0.0
  0
SPLINE
  5
330
100
AcDbEntity
  8
0
100
AcDbSpline
 62
7
  6
CONTINUOUS
 70
0
 71
3
 72
14
 73
10
 74
0
 42
0.0000001
 43
0.0000001
 44
0.0000000001
 40
0.0
 40
0.0
 40
0.0
 40
0.0
 40
0.3054684916
 40
0.4508778016
 40
0.5875388364
 40
0.7129303971
 40
0.8248058235
 40
0.9210798485
 40
1.0
 40
1.0
 40
1.0
 40
1.0
 10
13.0961189859
 20
8.8693122177
 30
0.0
 10
13.0944736374
 20
8.8692641808
 30
0.0
 10
13.0920436326
 20
8.86923207
 30
0.0
 10
13.0888777614
 20
8.8692734491
 30
0.0
 10
13.0866830941
 20
8.8693447636
 30
0.0
 10
13.0846710249
 20
8.8694558658
 30
0.0
 10
13.0828794409
 20
8.8696033134
 30
0.0
 10
13.0813428399
 20
8.869783924
 30
0.0
 10
13.0804107151
 20
8.8699382163
 30
0.0
 10
13.0799944704
 20
8.8700253635
 30
0.0
  0
LINE
  5
331
100
AcDbEntity
  8
0
100
AcDbLine
 62
7
  6
CONTINUOUS
 10
13.2069944704
 20
8.8814814247
 11
13.1782238257
 21
8.8821518573
  0
LINE
  5
332
100
AcDbEntity
  8
0
100
AcDbLine
 62
7
  6
CONTINUOUS
 10
13.1087651152
 20
8.8822638948
 11
13.0799944704
 21
8.8816863592
  0
SPLINE
  5
333
100
AcDbEntity
  8
0
100
AcDbSpline
 62
7
  6
CONTINUOUS
 70
0
 71
3
 72
14
 73
10
 74
0
 42
0.0000001
 43
0.0000001
 44
0.0000000001
 40
0.0
 40
0.0
 40
0.0
 40
0.0
 40
0.3054852497
 40
0.4509061206
 40
0.5875764407
 40
0.7129677836
 40
0.8248357521
 40
0.9210998716
 40
1.0
 40
1.0
 40
1.0
 40
1.0
 10
13.1908699549
 20
8.8681491402
 30
0.0
 10
13.1925150084
 20
8.8680957202
 30
0.0
 10
13.1949447248
 20
8.8680555916
 30
0.0
 10
13.1981104943
 20
8.8680868268
 30
0.0
 10
13.2003051967
 20
8.8681511079
 30
0.0
 10
13.2023173588
 20
8.8682556015
 30
0.0
 10
13.2041090821
 20
8.8683971926
 30
0.0
 10
13.2056458311
 20
8.8685730154
 30
0.0
 10
13.2065781307
 20
8.8687244759
 30
0.0
 10
13.2069944704
 20
8.8688103572
 30
0.0
  0
SPLINE
  5
334
100
AcDbEntity
  8
0
100
AcDbSpline
 62
7
  6
CONTINUOUS
 70
0
 71
3
 72
14
 73
10
 74
0
 42
0.0000001
 43
0.0000001
 44
0.0000000001
 40
0.0
 40
0.0
 40
0.0
 40
0.0
 40
0.0789252394
 40
0.1752062157
 40
0.2870862788
 40
0.4124804736
 40
0.5491427012
 40
0.6945472489
 40
1.0
 40
1.0
 40
1.0
 40
1.0
 10
13.0799944704
 20
8.8690169735
 30
0.0
 10
13.0804107319
 20
8.8689297656
 30
0.0
 10
13.0813429125
 20
8.8687753861
 30
0.0
 10
13.0828795936
 20
8.868594647
 30
0.0
 10
13.0846712487
 20
8.8684470519
 30
0.0
 10
13.0866833655
 20
8.8683358468
 30
0.0
 10
13.0888780364
 20
8.8682645466
 30
0.0
 10
13.0920438144
 20
8.8682232287
 30
0.0
 10
13.0944737176
 20
8.8682552934
 30
0.0
 10
13.0961189859
 20
8.8683033595
 30
0.0
  0
SPLINE
  5
335
100
AcDbEntity
  8
0
100
AcDbSpline
 62
7
  6
CONTINUOUS
 70
0
 71
3
 72
22
 73
18
 74
0
 42
0.0000001
 43
0.0000001
 44
0.0000000001
 40
0.0
 40
0.0
 40
0.0
 40
0.0
 40
0.2003695427
 40
0.3852925485
 40
0.5503444819
 40
0.6243308406
 40
0.692116802
 40
0.7533795673
 40
0.8079041678
 40
0.8555378627
 40
0.8962566344
 40
0.9302370341
 40
0.9579451225
 40
0.9697761255
 40
0.9805183415
 40
0.9904680112
 40
1.0
 40
1.0
 40
1.0
 40
1.0
 10
13.1741781439
 20
8.8490620361
 30
0.0
 10
13.1764942923
 20
8.8491720987
 30
0.0
 10
13.1809453361
 20
8.8494502537
 30
0.0
 10
13.1872854419
 20
8.8500677776
 30
0.0
 10
13.1921469024
 20
8.8507449355
 30
0.0
 10
13.1956406776
 20
8.8513808423
 30
0.0
 10
13.197938231
 20
8.8518749636
 30
0.0
 10
13.1999971322
 20
8.8524008589
 30
0.0
 10
13.2018063717
 20
8.8529545357
 30
0.0
 10
13.2033568272
 20
8.8535323543
 30
0.0
 10
13.2046419763
 20
8.8541313824
 30
0.0
 10
13.2056571269
 20
8.8547479023
 30
0.0
 10
13.2063095484
 20
8.8553049157
 30
0.0
 10
13.2066711343
 20
8.8557631968
 30
0.0
 10
13.2068564512
 20
8.856092918
 30
0.0
 10
13.206969046
 20
8.8564264183
 30
0.0
 10
13.2069944704
 20
8.8566525817
 30
0.0
 10
13.2069944704
 20
8.8567628899
 30
0.0
  0
SPLINE
  5
336
100
AcDbEntity
  8
0
100
AcDbSpline
 62
7
  6
CONTINUOUS
 70
0
 71
3
 72
22
 73
18
 74
0
 42
0.0000001
 43
0.0000001
 44
0.0000000001
 40
0.0
 40
0.0
 40
0.0
 40
0.0
 40
0.0095301345
 40
0.0194841107
 40
0.0302356358
 40
0.0420795429
 40
0.0698194934
 40
0.1038337647
 40
0.1445837623
 40
0.1922430579
 40
0.2467867662
 40
0.3080607828
 40
0.3758498371
 40
0.4498316657
 40
0.6148500153
 40
0.7997094126
 40
1.0
 40
1.0
 40
1.0
 40
1.0
 10
13.0799944704
 20
8.8569711388
 30
0.0
 10
13.0799944704
 20
8.8568607853
 30
0.0
 10
13.0800199303
 20
8.85663446
 30
0.0
 10
13.0801325753
 20
8.8563006165
 30
0.0
 10
13.080317945
 20
8.8559703204
 30
0.0
 10
13.0806796275
 20
8.8555108817
 30
0.0
 10
13.0813321228
 20
8.8549518159
 30
0.0
 10
13.0823474191
 20
8.8543320203
 30
0.0
 10
13.0836327194
 20
8.8537288363
 30
0.0
 10
13.0851832971
 20
8.8531459936
 30
0.0
 10
13.0869926091
 20
8.8525864661
 30
0.0
 10
13.0890515202
 20
8.8520538973
 30
0.0
 10
13.0913490274
 20
8.8515523178
 30
0.0
 10
13.0948424943
 20
8.8509050891
 30
0.0
 10
13.099703517
 20
8.8502120298
 30
0.0
 10
13.1060433805
 20
8.8495736601
 30
0.0
 10
13.1104945344
 20
8.8492808721
 30
0.0
 10
13.112810797
 20
8.849163178
 30
0.0
  0
LINE
  5
337
100
AcDbEntity
  8
0
100
AcDbLine
 62
7
  6
CONTINUOUS
 10
13.110047477
 20
8.8746051771
 11
13.1078507113
 21
8.8746945961
  0
LINE
  5
338
100
AcDbEntity
  8
0
100
AcDbLine
 62
7
  6
CONTINUOUS
 10
13.1109306998
 20
8.8735626007
 11
13.1100043525
 21
8.8736015808
  0
LINE
  5
339
100
AcDbEntity
  8
0
100
AcDbLine
 62
7
  6
CONTINUOUS
 10
13.1100043525
 20
8.8736015808
 11
13.1078600158
 21
8.8736888911
  0
SPLINE
  5
33A
100
AcDbEntity
  8
0
100
AcDbSpline
 62
7
  6
CONTINUOUS
 70
0
 71
3
 72
22
 73
18
 74
0
 42
0.0000001
 43
0.0000001
 44
0.0000000001
 40
0.0
 40
0.0
 40
0.0
 40
0.0
 40
0.2142921357
 40
0.4081569734
 40
0.5778986375
 40
0.6529080118
 40
0.7209649998
 40
0.7818118254
 40
0.8352617295
 40
0.8811570115
 40
0.9193695263
 40
0.9498567777
 40
0.9728021172
 40
0.981619525
 40
0.9888517953
 40
0.9947993445
 40
1.0
 40
1.0
 40
1.0
 40
1.0
 10
13.0932313447
 20
8.875180567
 30
0.0
 10
13.0921786668
 20
8.8752087399
 30
0.0
 10
13.0901739679
 20
8.8752757402
 30
0.0
 10
13.0873374677
 20
8.8754163465
 30
0.0
 10
13.085187055
 20
8.8755664033
 30
0.0
 10
13.0836561767
 20
8.875705969
 30
0.0
 10
13.0826598521
 20
8.8758134892
 30
0.0
 10
13.0817709939
 20
8.8759277876
 30
0.0
 10
13.080992932
 20
8.8760482234
 30
0.0
 10
13.0803286694
 20
8.8761741588
 30
0.0
 10
13.0797804451
 20
8.8763046821
 30
0.0
 10
13.0793505122
 20
8.8764394335
 30
0.0
 10
13.0790686075
 20
8.8765623128
 30
0.0
 10
13.0789080595
 20
8.8766679234
 30
0.0
 10
13.0788280264
 20
8.8767415666
 30
0.0
 10
13.0787773718
 20
8.8768179105
 30
0.0
 10
13.0787651152
 20
8.8768730736
 30
0.0
 10
13.0787651152
 20
8.8768986302
 30
0.0
  0
LINE
  5
33B
100
AcDbEntity
  8
0
100
AcDbLine
 62
7
  6
CONTINUOUS
 10
13.0799944704
 20
8.8806855587
 11
13.1087651152
 21
8.8812634676
  0
SPLINE
  5
33C
100
AcDbEntity
  8
0
100
AcDbSpline
 62
7
  6
CONTINUOUS
 70
0
 71
3
 72
13
 73
9
 74
0
 42
0.0000001
 43
0.0000001
 44
0.0000000001
 40
0.0
 40
0.0
 40
0.0
 40
0.0
 40
0.0640714582
 40
0.1375176128
 40
0.2270428201
 40
0.3363642584
 40
0.621220396
 40
1.0
 40
1.0
 40
1.0
 40
1.0
 10
13.0787651152
 20
8.8758947671
 30
0.0
 10
13.0787651152
 20
8.875868912
 30
0.0
 10
13.0787776755
 20
8.8758130344
 30
0.0
 10
13.0788294589
 20
8.8757358509
 30
0.0
 10
13.0789111991
 20
8.8756614218
 30
0.0
 10
13.0790752442
 20
8.8755546325
 30
0.0
 10
13.0793631668
 20
8.8754304836
 30
0.0
 10
13.0796190633
 20
8.8753511537
 30
0.0
 10
13.0797663883
 20
8.8753104262
 30
0.0
  0
SPLINE
  5
33D
100
AcDbEntity
  8
0
100
AcDbSpline
 62
7
  6
CONTINUOUS
 70
0
 71
3
 72
14
 73
10
 74
0
 42
0.0000001
 43
0.0000001
 44
0.0000000001
 40
0.0
 40
0.0
 40
0.0
 40
0.0
 40
0.0658551442
 40
0.1502484681
 40
0.2526275165
 40
0.3722286788
 40
0.5080490708
 40
0.6590114955
 40
1.0
 40
1.0
 40
1.0
 40
1.0
 10
13.0797663883
 20
8.8753104262
 30
0.0
 10
13.0800526946
 20
8.8752312778
 30
0.0
 10
13.0807159972
 20
8.8750880355
 30
0.0
 10
13.0818415201
 20
8.8749090096
 30
0.0
 10
13.0832137468
 20
8.8747431418
 30
0.0
 10
13.0848206859
 20
8.8745922837
 30
0.0
 10
13.0866489026
 20
8.8744580429
 30
0.0
 10
13.0894760207
 20
8.8742970356
 30
0.0
 10
13.0916938395
 20
8.8742167744
 30
0.0
 10
13.0932313447
 20
8.8741755847
 30
0.0
  0
LINE
  5
33E
100
AcDbEntity
  8
0
100
AcDbLine
 62
7
  6
CONTINUOUS
 10
13.1782238257
 20
8.8811513679
 11
13.2038863431
 21
8.880548436
  0
LINE
  5
33F
100
AcDbEntity
  8
0
100
AcDbLine
 62
7
  6
CONTINUOUS
 10
13.2038863431
 20
8.880548436
 11
13.2069944704
 21
8.8804805021
  0
SPLINE
  5
340
100
AcDbEntity
  8
0
100
AcDbSpline
 62
7
  6
CONTINUOUS
 70
0
 71
3
 72
22
 73
18
 74
0
 42
0.0000001
 43
0.0000001
 44
0.0000000001
 40
0.0
 40
0.0
 40
0.0
 40
0.0
 40
0.009526371
 40
0.0194707958
 40
0.0302083791
 40
0.0420354595
 40
0.0697378103
 40
0.1037151366
 40
0.1444327016
 40
0.1920663489
 40
0.2465924852
 40
0.3078575484
 40
0.3756466051
 40
0.4496372196
 40
0.6146973116
 40
0.7996242361
 40
1.0
 40
1.0
 40
1.0
 40
1.0
 10
13.2069944704
 20
8.85777938
 30
0.0
 10
13.2069944704
 20
8.8576691434
 30
0.0
 10
13.2069690427
 20
8.8574431188
 30
0.0
 10
13.2068564374
 20
8.857109832
 30
0.0
 10
13.2066711089
 20
8.8567803259
 30
0.0
 10
13.2063094903
 20
8.8563223259
 30
0.0
 10
13.2056570293
 20
8.855765668
 30
0.0
 10
13.204641849
 20
8.8551495622
 30
0.0
 10
13.2033566654
 20
8.8545509321
 30
0.0
 10
13.2018061723
 20
8.8539734917
 30
0.0
 10
13.1999968907
 20
8.8534201917
 30
0.0
 10
13.1979379482
 20
8.8528946502
 30
0.0
 10
13.1956403511
 20
8.8524008705
 30
0.0
 10
13.1921465263
 20
8.851765422
 30
0.0
 10
13.1872851122
 20
8.851088713
 30
0.0
 10
13.1809451373
 20
8.8504715912
 30
0.0
 10
13.1764942294
 20
8.8501936687
 30
0.0
 10
13.1741781439
 20
8.8500836835
 30
0.0
  0
LINE
  5
341
100
AcDbEntity
  8
0
100
AcDbLine
 62
7
  6
CONTINUOUS
 10
13.1434944704
 20
8.849400159
 11
13.1409944662
 21
8.8494090194
  0
SPLINE
  5
342
100
AcDbEntity
  8
0
100
AcDbSpline
 62
7
  6
CONTINUOUS
 70
0
 71
3
 72
22
 73
18
 74
0
 42
0.0000001
 43
0.0000001
 44
0.0000000001
 40
0.0
 40
0.0
 40
0.0
 40
0.0
 40
0.200303582
 40
0.3851762317
 40
0.5502010418
 40
0.6241847372
 40
0.6919754821
 40
0.7532501868
 40
0.8077932837
 40
0.8554512036
 40
0.8961981044
 40
0.9302075298
 40
0.9579407136
 40
0.969780301
 40
0.9805269164
 40
0.9904755082
 40
1.0
 40
1.0
 40
1.0
 40
1.0
 10
13.112810797
 20
8.8501847572
 30
0.0
 10
13.1104945196
 20
8.8503023723
 30
0.0
 10
13.1060433205
 20
8.8505949921
 30
0.0
 10
13.0997034188
 20
8.85123291
 30
0.0
 10
13.0948423765
 20
8.8519254941
 30
0.0
 10
13.0913489329
 20
8.8525723082
 30
0.0
 10
13.089051448
 20
8.8530735527
 30
0.0
 10
13.0869925557
 20
8.8536057616
 30
0.0
 10
13.0851832652
 20
8.8541649185
 30
0.0
 10
13.0836327078
 20
8.8547473597
 30
0.0
 10
13.0823474285
 20
8.85535013
 30
0.0
 10
13.0813321572
 20
8.8559694944
 30
0.0
 10
13.0806796446
 20
8.8565281739
 30
0.0
 10
13.0803179477
 20
8.8569873209
 30
0.0
 10
13.0801325775
 20
8.8573173972
 30
0.0
 10
13.080019931
 20
8.8576510243
 30
0.0
 10
13.0799944704
 20
8.8578772086
 30
0.0
 10
13.0799944704
 20
8.8579874902
 30
0.0
  0
SPLINE
  5
343
100
AcDbEntity
  8
0
100
AcDbSpline
 62
7
  6
CONTINUOUS
 70
0
 71
3
 72
46
 73
42
 74
0
 42
0.0000001
 43
0.0000001
 44
0.0000000001
 40
0.0
 40
0.0
 40
0.0
 40
0.0
 40
0.0000217261
 40
0.0000868703
 40
0.0001953691
 40
0.000347159
 40
0.0005421765
 40
0.0007803579
 40
0.0013859586
 40
0.0021634532
 40
0.0031123337
 40
0.0042320923
 40
0.0055222215
 40
0.0086115619
 40
0.0123762971
 40
0.016812039
 40
0.0219104263
 40
0.0276604929
 40
0.0340512443
 40
0.0410717054
 40
0.0487109225
 40
0.0658017345
 40
0.0852267488
 40
0.1068749985
 40
0.1306351468
 40
0.1563970475
 40
0.1840546766
 40
0.2135056689
 40
0.244649464
 40
0.3116326668
 40
0.3843005301
 40
0.4620112382
 40
0.5441921205
 40
0.6302611894
 40
0.6745610672
 40
0.7196033609
 40
0.7652966941
 40
0.8115474841
 40
0.8582676638
 40
0.9053492668
 40
1.0
 40
1.0
 40
1.0
 40
1.0
 10
12.5834944755
 20
8.1769189008
 30
0.0
 10
12.5834933877
 20
8.1769177649
 30
0.0
 10
12.5835011944
 20
8.1769292334
 30
0.0
 10
12.5835039606
 20
8.1769355514
 30
0.0
 10
12.5835184937
 20
8.1769591565
 30
0.0
 10
12.5835341604
 20
8.1769860507
 30
0.0
 10
12.5835561487
 20
8.1770230719
 30
0.0
 10
12.5835942031
 20
8.1770875396
 30
0.0
 10
12.5836540089
 20
8.1771887825
 30
0.0
 10
12.5837397013
 20
8.1773341183
 30
0.0
 10
12.5838442856
 20
8.1775116764
 30
0.0
 10
12.5839675623
 20
8.1777212392
 30
0.0
 10
12.5841692296
 20
8.1780644801
 30
0.0
 10
12.584467452
 20
8.1785730572
 30
0.0
 10
12.5848800913
 20
8.1792785231
 30
0.0
 10
12.5853652861
 20
8.180110037
 30
0.0
 10
12.585921504
 20
8.1810665062
 30
0.0
 10
12.5865467934
 20
8.1821465218
 30
0.0
 10
12.587239151
 20
8.1833484826
 30
0.0
 10
12.5879965582
 20
8.1846707922
 30
0.0
 10
12.5891337242
 20
8.1866682294
 30
0.0
 10
12.5907033762
 20
8.1894527411
 30
0.0
 10
12.5927478793
 20
8.1931336558
 30
0.0
 10
12.5949956696
 20
8.1972538007
 30
0.0
 10
12.5974246134
 20
8.2017974833
 30
0.0
 10
12.6000127332
 20
8.2067491096
 30
0.0
 10
12.6027364635
 20
8.2120943687
 30
0.0
 10
12.6055714272
 20
8.2178197936
 30
0.0
 10
12.6095657947
 20
8.2261470636
 30
0.0
 10
12.6146809861
 20
8.2374054646
 30
0.0
 10
12.6207305735
 20
8.2519343932
 30
0.0
 10
12.6266294058
 20
8.2677070625
 30
0.0
 10
12.6321633645
 20
8.2846365749
 30
0.0
 10
12.636251996
 20
8.2994774581
 30
0.0
 10
12.6391440102
 20
8.3118433331
 30
0.0
 10
12.6411046036
 20
8.3214214579
 30
0.0
 10
12.6428137861
 20
8.3311910794
 30
0.0
 10
12.6442497122
 20
8.3411274237
 30
0.0
 10
12.6453888054
 20
8.3512036552
 30
0.0
 10
12.6464892205
 20
8.3648029691
 30
0.0
 10
12.646828506
 20
8.3750670265
 30
0.0
 10
12.646828506
 20
8.3819189008
 30
0.0
  0
SPLINE
  5
344
100
AcDbEntity
  8
0
100
AcDbSpline
 62
7
  6
CONTINUOUS
 70
0
 71
3
 72
25
 73
21
 74
0
 42
0.0000001
 43
0.0000001
 44
0.0000000001
 40
0.0
 40
0.0
 40
0.0
 40
0.0
 40
0.0472979023
 40
0.0945229921
 40
0.1415286803
 40
0.1881737572
 40
0.2799771804
 40
0.3249582419
 40
0.369203572
 40
0.4551770264
 40
0.5372698779
 40
0.6149188523
 40
0.687545342
 40
0.8151058133
 40
0.8685710112
 40
0.9140615673
 40
0.9506945059
 40
0.9776572796
 40
0.9942425662
 40
1.0
 40
1.0
 40
1.0
 40
1.0
 10
12.646828506
 20
8.3819189008
 30
0.0
 10
12.646828506
 20
8.3853427994
 30
0.0
 10
12.6467156054
 20
8.3921858419
 30
0.0
 10
12.6462160884
 20
8.4024205569
 30
0.0
 10
12.645394687
 20
8.4125873038
 30
0.0
 10
12.6438867339
 20
8.4259291342
 30
0.0
 10
12.641790697
 20
8.4390506185
 30
0.0
 10
12.6391649533
 20
8.4518909484
 30
0.0
 10
12.6362805261
 20
8.4642427868
 30
0.0
 10
12.6322044014
 20
8.4790689322
 30
0.0
 10
12.6266815994
 20
8.4959831549
 30
0.0
 10
12.6207924079
 20
8.5117444983
 30
0.0
 10
12.6130670789
 20
8.5303178033
 30
0.0
 10
12.6052450901
 20
8.5469424742
 30
0.0
 10
12.5977299089
 20
8.5615171667
 30
0.0
 10
12.5930679648
 20
8.5701552581
 30
0.0
 10
12.5892147967
 20
8.5770483798
 30
0.0
 10
12.5863267255
 20
8.5820832708
 30
0.0
 10
12.5845271604
 20
8.5851656449
 30
0.0
 10
12.5837074585
 20
8.5865599418
 30
0.0
 10
12.5834947818
 20
8.5869183759
 30
0.0
  0
SPLINE
  5
345
100
AcDbEntity
  8
0
100
AcDbSpline
 62
7
  6
CONTINUOUS
 70
0
 71
3
 72
53
 73
49
 74
0
 42
0.0000001
 43
0.0000001
 44
0.0000000001
 40
0.0
 40
0.0
 40
0.0
 40
0.0
 40
0.0000054324
 40
0.0000217231
 40
0.0000488645
 40
0.0000868486
 40
0.0001356678
 40
0.0001953143
 40
0.000347058
 40
0.0005420178
 40
0.0007801315
 40
0.001061337
 40
0.0013855723
 40
0.002162884
 40
0.0031115702
 40
0.0042311346
 40
0.005521081
 40
0.0069809136
 40
0.0086101364
 40
0.0123747699
 40
0.0168105771
 40
0.0219089413
 40
0.0276589152
 40
0.0340495445
 40
0.0410698943
 40
0.0487090511
 40
0.0569561235
 40
0.0657999991
 40
0.085224864
 40
0.1068726905
 40
0.1306323585
 40
0.1563939592
 40
0.1840516078
 40
0.2135027836
 40
0.2446467515
 40
0.2773863429
 40
0.3116321014
 40
0.3843003071
 40
0.4620113676
 40
0.544192904
 40
0.630262758
 40
0.6745629039
 40
0.7196053997
 40
0.7652988681
 40
0.8115495004
 40
0.8582690483
 40
0.9053499735
 40
1.0
 40
1.0
 40
1.0
 40
1.0
 10
13.6984944813
 20
8.5869189008
 30
0.0
 10
13.6984940881
 20
8.5869189008
 30
0.0
 10
13.6984937555
 20
8.5869167244
 30
0.0
 10
13.6984914998
 20
8.5869144762
 30
0.0
 10
13.6984887551
 20
8.5869089514
 30
0.0
 10
13.6984844393
 20
8.5869020535
 30
0.0
 10
13.6984790843
 20
8.5868928521
 30
0.0
 10
13.6984694722
 20
8.5868766767
 30
0.0
 10
13.6984545135
 20
8.5868513318
 30
0.0
 10
13.6984329683
 20
8.5868148955
 30
0.0
 10
13.6984066744
 20
8.5867703699
 30
0.0
 10
13.6983756316
 20
8.5867177838
 30
0.0
 10
13.6983247698
 20
8.586631569
 30
0.0
 10
13.6982494066
 20
8.5865037077
 30
0.0
 10
13.6981448983
 20
8.5863261929
 30
0.0
 10
13.6980216691
 20
8.5861166359
 30
0.0
 10
13.6978798065
 20
8.5858751101
 30
0.0
 10
13.6977193982
 20
8.585601689
 30
0.0
 10
13.6974685587
 20
8.5851736218
 30
0.0
 10
13.6971093031
 20
8.5845593873
 30
0.0
 10
13.6966240809
 20
8.5837278923
 30
0.0
 10
13.6960678262
 20
8.5827714468
 30
0.0
 10
13.695442492
 20
8.5816914749
 30
0.0
 10
13.6947500833
 20
8.5804895683
 30
0.0
 10
13.6939926215
 20
8.5791673118
 30
0.0
 10
13.6931721226
 20
8.5777262933
 30
0.0
 10
13.6922906247
 20
8.5761681081
 30
0.0
 10
13.6909956643
 20
8.5738635927
 30
0.0
 10
13.6892411124
 20
8.5707045861
 30
0.0
 10
13.6869934135
 20
8.5665844712
 30
0.0
 10
13.6845645856
 20
8.5620408161
 30
0.0
 10
13.6819764858
 20
8.5570892327
 30
0.0
 10
13.6792527697
 20
8.551743961
 30
0.0
 10
13.6764177859
 20
8.5460185163
 30
0.0
 10
13.6734955256
 20
8.5399263252
 30
0.0
 10
13.6705099693
 20
8.5334801904
 30
0.0
 10
13.6663970865
 20
8.5242445859
 30
0.0
 10
13.661258472
 20
8.5119036541
 30
0.0
 10
13.6553597723
 20
8.4961308829
 30
0.0
 10
13.6498259549
 20
8.479201135
 30
0.0
 10
13.6457374412
 20
8.4643600753
 30
0.0
 10
13.6428453625
 20
8.4519941025
 30
0.0
 10
13.6408846452
 20
8.4424159437
 30
0.0
 10
13.6391753249
 20
8.4326463176
 30
0.0
 10
13.6377392587
 20
8.4227100261
 30
0.0
 10
13.63660002
 20
8.4126339015
 30
0.0
 10
13.6354996133
 20
8.3990347099
 30
0.0
 10
13.6351604345
 20
8.3887707345
 30
0.0
 10
13.6351604345
 20
8.3819189008
 30
0.0
  0
SPLINE
  5
346
100
AcDbEntity
  8
0
100
AcDbSpline
 62
7
  6
CONTINUOUS
 70
0
 71
3
 72
25
 73
21
 74
0
 42
0.0000001
 43
0.0000001
 44
0.0000000001
 40
0.0
 40
0.0
 40
0.0
 40
0.0
 40
0.0472941182
 40
0.0945081855
 40
0.1414947248
 40
0.1881212626
 40
0.2798972385
 40
0.3690939062
 40
0.4550399729
 40
0.5371177779
 40
0.6147586714
 40
0.6873765425
 40
0.754341893
 40
0.8149504929
 40
0.8684234363
 40
0.9139211168
 40
0.950579506
 40
0.9775699384
 40
0.9941988605
 40
1.0
 40
1.0
 40
1.0
 40
1.0
 10
13.6351604345
 20
8.3819189008
 30
0.0
 10
13.6351604345
 20
8.3784952679
 30
0.0
 10
13.6352726088
 20
8.3716532853
 30
0.0
 10
13.6357704455
 20
8.3614209045
 30
0.0
 10
13.6365923258
 20
8.3512577115
 30
0.0
 10
13.6381020244
 20
8.337920675
 30
0.0
 10
13.640702662
 20
8.3216404769
 30
0.0
 10
13.6448378431
 20
8.3027562041
 30
0.0
 10
13.6497732656
 20
8.2847936803
 30
0.0
 10
13.6553008619
 20
8.2678846281
 30
0.0
 10
13.6611854716
 20
8.252124289
 30
0.0
 10
13.6672220888
 20
8.2376008778
 30
0.0
 10
13.6732113443
 20
8.2244021483
 30
0.0
 10
13.67895065
 20
8.212618084
 30
0.0
 10
13.6842451887
 20
8.2023499325
 30
0.0
 10
13.6889060091
 20
8.1937079822
 30
0.0
 10
13.6927613809
 20
8.1868110517
 30
0.0
 10
13.6956527708
 20
8.1817699728
 30
0.0
 10
13.6974576542
 20
8.1786810536
 30
0.0
 10
13.6982800411
 20
8.1772809989
 30
0.0
 10
13.6984940252
 20
8.1769196605
 30
0.0
  0
SPLINE
  5
347
100
AcDbEntity
  8
0
100
AcDbSpline
 62
7
  6
CONTINUOUS
 70
0
 71
3
 72
9
 73
5
 74
0
 42
0.0000001
 43
0.0000001
 44
0.0000000001
 40
0.0
 40
0.0
 40
0.0
 40
0.0
 40
0.4958957163
 40
1.0
 40
1.0
 40
1.0
 40
1.0
 10
12.9202403572
 20
7.9079192595
 30
0.0
 10
12.9182122534
 20
7.9077715948
 30
0.0
 10
12.9141401565
 20
7.9071429577
 30
0.0
 10
12.9102190542
 20
7.905882362
 30
0.0
 10
12.9083034359
 20
7.905105546
 30
0.0
  0
SPLINE
  5
348
100
AcDbEntity
  8
0
100
AcDbSpline
 62
7
  6
CONTINUOUS
 70
0
 71
3
 72
14
 73
10
 74
0
 42
0.0000001
 43
0.0000001
 44
0.0000000001
 40
0.0
 40
0.0
 40
0.0
 40
0.0
 40
0.1142828432
 40
0.23125087
 40
0.3512589034
 40
0.4745147849
 40
0.730864684
 40
0.8640471808
 40
1.0
 40
1.0
 40
1.0
 40
1.0
 10
12.9083034359
 20
7.905105546
 30
0.0
 10
12.9068241129
 20
7.9045056553
 30
0.0
 10
12.9038977577
 20
7.9031194251
 30
0.0
 10
12.8997104735
 20
7.9005456978
 30
0.0
 10
12.8957091449
 20
7.8974802436
 30
0.0
 10
12.8906004939
 20
7.8927131695
 30
0.0
 10
12.8860647432
 20
7.8871134195
 30
0.0
 10
12.8821679209
 20
7.8808879082
 30
0.0
 10
12.8804221222
 20
7.8775532294
 30
0.0
 10
12.8796035727
 20
7.8758396796
 30
0.0
  0
SPLINE
  5
349
100
AcDbEntity
  8
0
100
AcDbSpline
 62
7
  6
CONTINUOUS
 70
0
 71
3
 72
14
 73
10
 74
0
 42
0.0000001
 43
0.0000001
 44
0.0000000001
 40
0.0
 40
0.0
 40
0.0
 40
0.0
 40
0.117883894
 40
0.2369048328
 40
0.3575532062
 40
0.480337932
 40
0.6057102326
 40
0.7340295489
 40
1.0
 40
1.0
 40
1.0
 40
1.0
 10
12.9229207538
 20
7.907920191
 30
0.0
 10
12.9243107337
 20
7.9078193976
 30
0.0
 10
12.9270951926
 20
7.9074620236
 30
0.0
 10
12.93121252
 20
7.9064715991
 30
0.0
 10
12.9352556901
 20
7.9050285344
 30
0.0
 10
12.9391963624
 20
7.9031459966
 30
0.0
 10
12.9430107352
 20
7.9008385097
 30
0.0
 10
12.94794974
 20
7.8971739277
 30
0.0
 10
12.9513066022
 20
7.8938969861
 30
0.0
 10
12.9533772726
 20
7.8915307549
 30
0.0
  0
SPLINE
  5
34A
100
AcDbEntity
  8
0
100
AcDbSpline
 62
7
  6
CONTINUOUS
 70
0
 71
3
 72
23
 73
19
 74
0
 42
0.0000001
 43
0.0000001
 44
0.0000000001
 40
0.0
 40
0.0
 40
0.0
 40
0.0
 40
0.0674720782
 40
0.1367471566
 40
0.2071479128
 40
0.2781057195
 40
0.4190417658
 40
0.4879407555
 40
0.5549960737
 40
0.6197510023
 40
0.6511628223
 40
0.6818825924
 40
0.7411366518
 40
0.7975005024
 40
0.8511112427
 40
0.9023410111
 40
0.951763146
 40
1.0
 40
1.0
 40
1.0
 40
1.0
 10
12.8796035727
 20
7.8758396796
 30
0.0
 10
12.8783222896
 20
7.873295209
 30
0.0
 10
12.8760278128
 20
7.8679813839
 30
0.0
 10
12.8734263231
 20
7.8596159224
 30
0.0
 10
12.8716500082
 20
7.8508855888
 30
0.0
 10
12.8704111166
 20
7.8390176342
 30
0.0
 10
12.8708584705
 20
7.8270835122
 30
0.0
 10
12.8729848153
 20
7.8155725539
 30
0.0
 10
12.8753503244
 20
7.80741927
 30
0.0
 10
12.8779568231
 20
7.8010235853
 30
0.0
 10
12.8803955684
 20
7.7962502185
 30
0.0
 10
12.8829901503
 20
7.7918275028
 30
0.0
 10
12.8865943207
 20
7.7867869589
 30
0.0
 10
12.8914975577
 20
7.7815584657
 30
0.0
 10
12.8968435105
 20
7.7773034348
 30
0.0
 10
12.9025447689
 20
7.7740909323
 30
0.0
 10
12.9085014353
 20
7.7719849869
 30
0.0
 10
12.9125998253
 20
7.771327819
 30
0.0
 10
12.9146321353
 20
7.7711942164
 30
0.0
  0
SPLINE
  5
34B
100
AcDbEntity
  8
0
100
AcDbSpline
 62
7
  6
CONTINUOUS
 70
0
 71
3
 72
11
 73
7
 74
0
 42
0.0000001
 43
0.0000001
 44
0.0000000001
 40
0.0
 40
0.0
 40
0.0
 40
0.0
 40
0.2454373762
 40
0.4926682214
 40
0.7435478911
 40
1.0
 40
1.0
 40
1.0
 40
1.0
 10
12.9146321353
 20
7.7711942164
 30
0.0
 10
12.9161371516
 20
7.7710952777
 30
0.0
 10
12.9191761743
 20
7.7711089057
 30
0.0
 10
12.9237127768
 20
7.7717581281
 30
0.0
 10
12.9281861107
 20
7.773028165
 30
0.0
 10
12.931059105
 20
7.7742633003
 30
0.0
 10
12.9324670177
 20
7.7749714025
 30
0.0
  0
SPLINE
  5
34C
100
AcDbEntity
  8
0
100
AcDbSpline
 62
7
  6
CONTINUOUS
 70
0
 71
3
 72
13
 73
9
 74
0
 42
0.0000001
 43
0.0000001
 44
0.0000000001
 40
0.0
 40
0.0
 40
0.0
 40
0.0
 40
0.1081353125
 40
0.2208100878
 40
0.33848668
 40
0.461356508
 40
0.7219161854
 40
1.0
 40
1.0
 40
1.0
 40
1.0
 10
12.9324670177
 20
7.7749714025
 30
0.0
 10
12.9342453767
 20
7.7758658187
 30
0.0
 10
12.9377420706
 20
7.7779710872
 30
0.0
 10
12.9426000213
 20
7.7818999557
 30
0.0
 10
12.9471154328
 20
7.7866012632
 30
0.0
 10
12.952705952
 20
7.7939605218
 30
0.0
 10
12.9584685363
 20
7.8047836719
 30
0.0
 10
12.9614993861
 20
7.8142803469
 30
0.0
 10
12.9626673964
 20
7.8192644327
 30
0.0
  0
SPLINE
  5
34D
100
AcDbEntity
  8
0
100
AcDbSpline
 62
7
  6
CONTINUOUS
 70
0
 71
3
 72
11
 73
7
 74
0
 42
0.0000001
 43
0.0000001
 44
0.0000000001
 40
0.0
 40
0.0
 40
0.0
 40
0.0
 40
0.2459724535
 40
0.4337919853
 40
0.6229925982
 40
1.0
 40
1.0
 40
1.0
 40
1.0
 10
12.9626673964
 20
7.8192644327
 30
0.0
 10
12.9635593272
 20
7.8230704435
 30
0.0
 10
12.9647274639
 20
7.8298842616
 30
0.0
 10
12.9654279586
 20
7.8397712117
 30
0.0
 10
12.9652782959
 20
7.8517630972
 30
0.0
 10
12.9640520242
 20
7.8607332614
 30
0.0
 10
12.9627380367
 20
7.8665790062
 30
0.0
  0
SPLINE
  5
34E
100
AcDbEntity
  8
0
100
AcDbSpline
 62
7
  6
CONTINUOUS
 70
0
 71
3
 72
9
 73
5
 74
0
 42
0.0000001
 43
0.0000001
 44
0.0000000001
 40
0.0
 40
0.0
 40
0.0
 40
0.0
 40
0.5085415611
 40
1.0
 40
1.0
 40
1.0
 40
1.0
 10
12.9627380367
 20
7.8665790062
 30
0.0
 10
12.9617436562
 20
7.8710028646
 30
0.0
 10
12.959224434
 20
7.879586373
 30
0.0
 10
12.9555447185
 20
7.8877465116
 30
0.0
 10
12.953444557
 20
7.8915923619
 30
0.0
  0
SPLINE
  5
34F
100
AcDbEntity
  8
0
100
AcDbSpline
 62
7
  6
CONTINUOUS
 70
0
 71
3
 72
9
 73
5
 74
0
 42
0.0000001
 43
0.0000001
 44
0.0000000001
 40
0.0
 40
0.0
 40
0.0
 40
0.0
 40
0.2566978895
 40
1.0
 40
1.0
 40
1.0
 40
1.0
 10
12.953444557
 20
7.8915923619
 30
0.0
 10
12.9527532218
 20
7.8928583464
 30
0.0
 10
12.9499359491
 20
7.8977206132
 30
0.0
 10
12.9466139562
 20
7.9022963813
 30
0.0
 10
12.9438672976
 20
7.905443051
 30
0.0
  0
SPLINE
  5
350
100
AcDbEntity
  8
0
100
AcDbSpline
 62
7
  6
CONTINUOUS
 70
0
 71
3
 72
11
 73
7
 74
0
 42
0.0000001
 43
0.0000001
 44
0.0000000001
 40
0.0
 40
0.0
 40
0.0
 40
0.0
 40
0.2643826638
 40
0.5179029726
 40
0.7622696402
 40
1.0
 40
1.0
 40
1.0
 40
1.0
 10
12.9418635459
 20
7.9076405357
 30
0.0
 10
12.9398222757
 20
7.9097827339
 30
0.0
 10
12.9355388024
 20
7.9137212598
 30
0.0
 10
12.9284508123
 20
7.9185280768
 30
0.0
 10
12.9209572389
 20
7.9220247709
 30
0.0
 10
12.9157192801
 20
7.9234482685
 30
0.0
 10
12.9131000291
 20
7.9239162071
 30
0.0
  0
SPLINE
  5
351
100
AcDbEntity
  8
0
100
AcDbSpline
 62
7
  6
CONTINUOUS
 70
0
 71
3
 72
15
 73
11
 74
0
 42
0.0000001
 43
0.0000001
 44
0.0000000001
 40
0.0
 40
0.0
 40
0.0
 40
0.0
 40
0.1271966508
 40
0.2550688957
 40
0.3829362622
 40
0.5101405492
 40
0.6360693852
 40
0.7601016404
 40
0.8816109197
 40
1.0
 40
1.0
 40
1.0
 40
1.0
 10
12.8750260665
 20
7.865068699
 30
0.0
 10
12.8743661562
 20
7.8623461767
 30
0.0
 10
12.8732459277
 20
7.8568353077
 30
0.0
 10
12.8721686763
 20
7.8484636774
 30
0.0
 10
12.8716995251
 20
7.8400351507
 30
0.0
 10
12.8718566883
 20
7.83163776
 30
0.0
 10
12.8726277184
 20
7.8233594261
 30
0.0
 10
12.8739880089
 20
7.8152842647
 30
0.0
 10
12.8759157949
 20
7.8074966832
 30
0.0
 10
12.8775895732
 20
7.8024778995
 30
0.0
 10
12.8785200172
 20
7.800042183
 30
0.0
  0
SPLINE
  5
352
100
AcDbEntity
  8
0
100
AcDbSpline
 62
7
  6
CONTINUOUS
 70
0
 71
3
 72
21
 73
17
 74
0
 42
0.0000001
 43
0.0000001
 44
0.0000000001
 40
0.0
 40
0.0
 40
0.0
 40
0.0
 40
0.0527581358
 40
0.1065608557
 40
0.1616467816
 40
0.21822902
 40
0.2764572023
 40
0.3363638748
 40
0.39790763
 40
0.4609963903
 40
0.591196214
 40
0.6580882023
 40
0.7258562646
 40
0.7942312191
 40
0.8629236915
 40
1.0
 40
1.0
 40
1.0
 40
1.0
 10
12.9009093225
 20
7.923214098
 30
0.0
 10
12.899029454
 20
7.9226974556
 30
0.0
 10
12.8952912453
 20
7.9214269139
 30
0.0
 10
12.8898802218
 20
7.918869209
 30
0.0
 10
12.8846608253
 20
7.9156606942
 30
0.0
 10
12.8796824757
 20
7.9118171198
 30
0.0
 10
12.8749865947
 20
7.9073716255
 30
0.0
 10
12.8706001242
 20
7.9023757593
 30
0.0
 10
12.8665537586
 20
7.8968764045
 30
0.0
 10
12.8616029608
 20
7.8888567145
 30
0.0
 10
12.8575295325
 20
7.8800991386
 30
0.0
 10
12.8543920458
 20
7.8708222854
 30
0.0
 10
12.8524842454
 20
7.8635597885
 30
0.0
 10
12.8510526558
 20
7.8561211601
 30
0.0
 10
12.8497901755
 20
7.8460651164
 30
0.0
 10
12.8495769101
 20
7.8384351761
 30
0.0
 10
12.8497778031
 20
7.8333737831
 30
0.0
  0
SPLINE
  5
353
100
AcDbEntity
  8
0
100
AcDbSpline
 62
7
  6
CONTINUOUS
 70
0
 71
3
 72
20
 73
16
 74
0
 42
0.0000001
 43
0.0000001
 44
0.0000000001
 40
0.0
 40
0.0
 40
0.0
 40
0.0
 40
0.0504812566
 40
0.1025585298
 40
0.156527358
 40
0.2125338209
 40
0.2705861785
 40
0.3305973154
 40
0.3924169551
 40
0.4558620524
 40
0.5867619704
 40
0.6539334659
 40
0.7219909178
 40
0.8600772716
 40
1.0
 40
1.0
 40
1.0
 40
1.0
 10
12.8981032911
 20
7.7478189008
 30
0.0
 10
12.899981461
 20
7.7478189008
 30
0.0
 10
12.9038022607
 20
7.7481093477
 30
0.0
 10
12.9095056094
 20
7.7493676727
 30
0.0
 10
12.9151900858
 20
7.7514239494
 30
0.0
 10
12.9207884297
 20
7.7542354461
 30
0.0
 10
12.9262404908
 20
7.7577518528
 30
0.0
 10
12.9314909008
 20
7.7619176645
 30
0.0
 10
12.9364906513
 20
7.7666761089
 30
0.0
 10
12.9428276925
 20
7.773806258
 30
0.0
 10
12.9484108958
 20
7.7818279513
 30
0.0
 10
12.9531756318
 20
7.7905139562
 30
0.0
 10
12.9574371609
 20
7.7997551684
 30
0.0
 10
12.9616169285
 20
7.8119759523
 30
0.0
 10
12.9636449385
 20
7.8221539955
 30
0.0
 10
12.9643255797
 20
7.8273151746
 30
0.0
  0
SPLINE
  5
354
100
AcDbEntity
  8
0
100
AcDbSpline
 62
7
  6
CONTINUOUS
 70
0
 71
3
 72
11
 73
7
 74
0
 42
0.0000001
 43
0.0000001
 44
0.0000000001
 40
0.0
 40
0.0
 40
0.0
 40
0.0
 40
0.255832461
 40
0.5093607577
 40
0.7583170199
 40
1.0
 40
1.0
 40
1.0
 40
1.0
 10
12.9653243733
 20
7.8453514723
 30
0.0
 10
12.965205447
 20
7.8511912142
 30
0.0
 10
12.9641143309
 20
7.8628187544
 30
0.0
 10
12.9599710565
 20
7.8796920591
 30
0.0
 10
12.9534931371
 20
7.8954653641
 30
0.0
 10
12.9476614455
 20
7.9050969454
 30
0.0
 10
12.9444114207
 20
7.9095561604
 30
0.0
  0
SPLINE
  5
355
100
AcDbEntity
  8
0
100
AcDbSpline
 62
7
  6
CONTINUOUS
 70
0
 71
3
 72
15
 73
11
 74
0
 42
0.0000001
 43
0.0000001
 44
0.0000000001
 40
0.0
 40
0.0
 40
0.0
 40
0.0
 40
0.1398074105
 40
0.2760596705
 40
0.4082599425
 40
0.5359679261
 40
0.658879161
 40
0.7769261726
 40
0.8903933123
 40
1.0
 40
1.0
 40
1.0
 40
1.0
 10
12.9444114207
 20
7.9095561604
 30
0.0
 10
12.9428659234
 20
7.9116766688
 30
0.0
 10
12.9396413527
 20
7.9157414701
 30
0.0
 10
12.934365655
 20
7.9213121943
 30
0.0
 10
12.9287589229
 20
7.9262139255
 30
0.0
 10
12.9228819451
 20
7.9303712588
 30
0.0
 10
12.9168032033
 20
7.9337105885
 30
0.0
 10
12.9105984467
 20
7.9361630434
 30
0.0
 10
12.9043536653
 20
7.9376695102
 30
0.0
 10
12.9001604249
 20
7.9380189008
 30
0.0
 10
12.8981032911
 20
7.9380189008
 30
0.0
  0
SPLINE
  5
356
100
AcDbEntity
  8
0
100
AcDbSpline
 62
7
  6
CONTINUOUS
 70
0
 71
3
 72
9
 73
5
 74
0
 42
0.0000001
 43
0.0000001
 44
0.0000000001
 40
0.0
 40
0.0
 40
0.0
 40
0.0
 40
0.5029760965
 40
1.0
 40
1.0
 40
1.0
 40
1.0
 10
12.9078688077
 20
7.9059737256
 30
0.0
 10
12.9098616555
 20
7.9066444793
 30
0.0
 10
12.9139348882
 20
7.9076713595
 30
0.0
 10
12.9181225479
 20
7.9080189008
 30
0.0
 10
12.920200366
 20
7.9080189008
 30
0.0
  0
SPLINE
  5
357
100
AcDbEntity
  8
0
100
AcDbSpline
 62
7
  6
CONTINUOUS
 70
0
 71
3
 72
14
 73
10
 74
0
 42
0.0000001
 43
0.0000001
 44
0.0000000001
 40
0.0
 40
0.0
 40
0.0
 40
0.0
 40
0.1114220669
 40
0.2261601835
 40
0.344637088
 40
0.4672225172
 40
0.7251539358
 40
0.8607032474
 40
1.0
 40
1.0
 40
1.0
 40
1.0
 10
12.9078688077
 20
7.9059737256
 30
0.0
 10
12.9063860993
 20
7.9054353503
 30
0.0
 10
12.9034466809
 20
7.9041398261
 30
0.0
 10
12.8992513738
 20
7.9016270025
 30
0.0
 10
12.8952553793
 20
7.8985415549
 30
0.0
 10
12.8901613946
 20
7.8936308686
 30
0.0
 10
12.8857182192
 20
7.8877632909
 30
0.0
 10
12.8819921631
 20
7.8811993847
 30
0.0
 10
12.8803586662
 20
7.8776614451
 30
0.0
 10
12.8796035727
 20
7.8758396796
 30
0.0
  0
SPLINE
  5
358
100
AcDbEntity
  8
0
100
AcDbSpline
 62
7
  6
CONTINUOUS
 70
0
 71
3
 72
19
 73
15
 74
0
 42
0.0000001
 43
0.0000001
 44
0.0000000001
 40
0.0
 40
0.0
 40
0.0
 40
0.0
 40
0.0555734012
 40
0.1116840262
 40
0.1685253107
 40
0.2263227363
 40
0.2852547674
 40
0.3454226906
 40
0.4068551388
 40
0.4695328944
 40
0.598213198
 40
0.7305110153
 40
0.8650218248
 40
1.0
 40
1.0
 40
1.0
 40
1.0
 10
12.9078688077
 20
7.9059737256
 30
0.0
 10
12.9060207782
 20
7.9058124224
 30
0.0
 10
12.902323495
 20
7.9052544748
 30
0.0
 10
12.8968902265
 20
7.9037491845
 30
0.0
 10
12.8916002804
 20
7.9015939635
 30
0.0
 10
12.8864982413
 20
7.8988252907
 30
0.0
 10
12.8816203931
 20
7.8954797576
 30
0.0
 10
12.8769993408
 20
7.8915979175
 30
0.0
 10
12.8726656428
 20
7.887220755
 30
0.0
 10
12.8672609648
 20
7.8807293533
 30
0.0
 10
12.8613782765
 20
7.8716129704
 30
0.0
 10
12.8558570487
 20
7.8595776899
 30
0.0
 10
12.8518964605
 20
7.8467278045
 30
0.0
 10
12.8503092184
 20
7.8378479443
 30
0.0
 10
12.8497778032
 20
7.8333737835
 30
0.0
  0
SPLINE
  5
359
100
AcDbEntity
  8
0
100
AcDbSpline
 62
7
  6
CONTINUOUS
 70
0
 71
3
 72
21
 73
17
 74
0
 42
0.0000001
 43
0.0000001
 44
0.0000000001
 40
0.0
 40
0.0
 40
0.0
 40
0.0
 40
0.0707786136
 40
0.141718591
 40
0.2822841544
 40
0.3513587218
 40
0.4192207145
 40
0.5501566819
 40
0.6129437344
 40
0.6737372092
 40
0.7324979144
 40
0.7892504196
 40
0.8441257174
 40
0.897359183
 40
0.9492336106
 40
1.0
 40
1.0
 40
1.0
 40
1.0
 10
12.8497778032
 20
7.8333737835
 30
0.0
 10
12.8495567704
 20
7.8360408991
 30
0.0
 10
12.849302061
 20
7.8413989584
 30
0.0
 10
12.8495302238
 20
7.852075838
 30
0.0
 10
12.8508595287
 20
7.862643996
 30
0.0
 10
12.8532878611
 20
7.8728603381
 30
0.0
 10
12.8563556393
 20
7.8825202091
 30
0.0
 10
12.8604244199
 20
7.8915927295
 30
0.0
 10
12.8654717111
 20
7.8997990686
 30
0.0
 10
12.8696120562
 20
7.9053253484
 30
0.0
 10
12.8741156514
 20
7.9102556535
 30
0.0
 10
12.8789420951
 20
7.9145423584
 30
0.0
 10
12.8840479164
 20
7.9181428713
 30
0.0
 10
12.8893893114
 20
7.921016224
 30
0.0
 10
12.8949080195
 20
7.9231294863
 30
0.0
 10
12.8986952753
 20
7.9240368741
 30
0.0
 10
12.9005880151
 20
7.9243566514
 30
0.0
  0
SPLINE
  5
35A
100
AcDbEntity
  8
0
100
AcDbSpline
 62
7
  6
CONTINUOUS
 70
0
 71
3
 72
31
 73
27
 74
0
 42
0.0000001
 43
0.0000001
 44
0.0000000001
 40
0.0
 40
0.0
 40
0.0
 40
0.0
 40
0.0234237424
 40
0.0470969186
 40
0.071203718
 40
0.0959188468
 40
0.1214004574
 40
0.1477766625
 40
0.1751360655
 40
0.2035234463
 40
0.2633729212
 40
0.3271893979
 40
0.3944067118
 40
0.4290556726
 40
0.464225566
 40
0.5355753508
 40
0.6074189194
 40
0.6432081771
 40
0.6787260561
 40
0.7484421923
 40
0.815793627
 40
0.8802281944
 40
0.9112963926
 40
0.9415867241
 40
0.9711319262
 40
1.0
 40
1.0
 40
1.0
 40
1.0
 10
12.931248915
 20
7.7778189008
 30
0.0
 10
12.9300143177
 20
7.7778189008
 30
0.0
 10
12.9275289135
 20
7.7779866313
 30
0.0
 10
12.9238405095
 20
7.7787324359
 30
0.0
 10
12.9202136641
 20
7.7799676269
 30
0.0
 10
12.9166830314
 20
7.7816841268
 30
0.0
 10
12.9132760877
 20
7.7838638516
 30
0.0
 10
12.9100208697
 20
7.7864910492
 30
0.0
 10
12.9069432961
 20
7.7895449419
 30
0.0
 10
12.9030403568
 20
7.794233535
 30
0.0
 10
12.8987719297
 20
7.8010659136
 30
0.0
 10
12.8948157791
 20
7.8103532141
 30
0.0
 10
12.8925403087
 20
7.8188140582
 30
0.0
 10
12.8913471899
 20
7.8259415759
 30
0.0
 10
12.8905849364
 20
7.833347525
 30
0.0
 10
12.8905023706
 20
7.8427734064
 30
0.0
 10
12.8915704234
 20
7.8521718083
 30
0.0
 10
12.8931185037
 20
7.8595609299
 30
0.0
 10
12.8950998436
 20
7.8667291346
 30
0.0
 10
12.8983700319
 20
7.8752491787
 30
0.0
 10
12.9035243723
 20
7.8845749194
 30
0.0
 10
12.9087891036
 20
7.891406513
 30
0.0
 10
12.9134812866
 20
7.8961012017
 30
0.0
 10
12.9171614362
 20
7.8991801365
 30
0.0
 10
12.9210198963
 20
7.9018325597
 30
0.0
 10
12.9237233655
 20
7.9033189009
 30
0.0
 10
12.925093265
 20
7.9039810917
 30
0.0
  0
SPLINE
  5
35B
100
AcDbEntity
  8
0
100
AcDbSpline
 62
7
  6
CONTINUOUS
 70
0
 71
3
 72
39
 73
35
 74
0
 42
0.0000001
 43
0.0000001
 44
0.0000000001
 40
0.0
 40
0.0
 40
0.0
 40
0.0
 40
0.0259230493
 40
0.05156519
 40
0.0773526245
 40
0.1036831079
 40
0.1308772806
 40
0.1591565152
 40
0.1886452127
 40
0.2193856967
 40
0.2513562903
 40
0.2844869377
 40
0.3186710817
 40
0.3537742335
 40
0.3896395541
 40
0.4260925659
 40
0.4629451723
 40
0.4999999466
 40
0.5370547673
 40
0.5739073465
 40
0.6103603586
 40
0.6462257163
 40
0.6813288186
 40
0.7155130085
 40
0.7486436352
 40
0.7806142293
 40
0.8113547333
 40
0.8408434128
 40
0.8691226789
 40
0.8963168483
 40
0.9226473578
 40
0.948434809
 40
0.9740769551
 40
1.0
 40
1.0
 40
1.0
 40
1.0
 10
12.8981032911
 20
7.9380189008
 30
0.0
 10
12.8960414285
 20
7.9380189008
 30
0.0
 10
12.8919304874
 20
7.9376751397
 30
0.0
 10
12.885953107
 20
7.9360961117
 30
0.0
 10
12.8803057792
 20
7.9335027013
 30
0.0
 10
12.8750523503
 20
7.9299652469
 30
0.0
 10
12.8702290774
 20
7.9255675759
 30
0.0
 10
12.8658532398
 20
7.9203965836
 30
0.0
 10
12.8619289213
 20
7.9145367906
 30
0.0
 10
12.8584525887
 20
7.9080685147
 30
0.0
 10
12.8554165692
 20
7.9010676738
 30
0.0
 10
12.8528112883
 20
7.8936063086
 30
0.0
 10
12.8506267469
 20
7.8857533622
 30
0.0
 10
12.8488534814
 20
7.8775755988
 30
0.0
 10
12.8474832439
 20
7.869138456
 30
0.0
 10
12.8465093852
 20
7.8605067853
 30
0.0
 10
12.8459270442
 20
7.8517453239
 30
0.0
 10
12.8457332663
 20
7.8429189099
 30
0.0
 10
12.8459270439
 20
7.834092498
 30
0.0
 10
12.8465093829
 20
7.8253310349
 30
0.0
 10
12.8474832421
 20
7.8166993635
 30
0.0
 10
12.8488534774
 20
7.8082622214
 30
0.0
 10
12.8506267429
 20
7.8000844552
 30
0.0
 10
12.8528112837
 20
7.7922315107
 30
0.0
 10
12.8554165621
 20
7.7847701424
 30
0.0
 10
12.858452583
 20
7.7777693022
 30
0.0
 10
12.8619289119
 20
7.771301024
 30
0.0
 10
12.8658532327
 20
7.7654412294
 30
0.0
 10
12.8702290684
 20
7.7602702344
 30
0.0
 10
12.875052344
 20
7.7558725598
 30
0.0
 10
12.8803057746
 20
7.7523351025
 30
0.0
 10
12.8859531059
 20
7.7497416902
 30
0.0
 10
12.8919304877
 20
7.7481626618
 30
0.0
 10
12.8960414289
 20
7.7478189008
 30
0.0
 10
12.8981032911
 20
7.7478189008
 30
0.0
  0
SPLINE
  5
35C
100
AcDbEntity
  8
0
100
AcDbSpline
 62
7
  6
CONTINUOUS
 70
0
 71
3
 72
18
 73
14
 74
0
 42
0.0000001
 43
0.0000001
 44
0.0000000001
 40
0.0
 40
0.0
 40
0.0
 40
0.0
 40
0.1249735156
 40
0.2499852439
 40
0.3124925688
 40
0.3749947125
 40
0.4374987882
 40
0.5000080012
 40
0.624997748
 40
0.7499858985
 40
0.8125020655
 40
0.8750283273
 40
1.0
 40
1.0
 40
1.0
 40
1.0
 10
11.9712828251
 20
6.3426870275
 30
0.0
 10
12.0022725307
 20
6.3688554272
 30
0.0
 10
12.062396982
 20
6.4234545244
 30
0.0
 10
12.1322859693
 20
6.4970895286
 30
0.0
 10
12.1846785135
 20
6.5590763214
 30
0.0
 10
12.2221340697
 20
6.6070629043
 30
0.0
 10
12.2576598923
 20
6.6564969749
 30
0.0
 10
12.3023326564
 20
6.724252662
 30
0.0
 10
12.3529403894
 20
6.8122839891
 30
0.0
 10
12.3959727359
 20
6.9042669693
 30
0.0
 10
12.4255501651
 20
6.9798580847
 30
0.0
 10
12.451794529
 20
7.056658243
 30
0.0
 10
12.467663665
 20
7.1155146672
 30
0.0
 10
12.4764527864
 20
7.1551107506
 30
0.0
  0
SPLINE
  5
35D
100
AcDbEntity
  8
0
100
AcDbSpline
 62
7
  6
CONTINUOUS
 70
0
 71
3
 72
18
 73
14
 74
0
 42
0.0000001
 43
0.0000001
 44
0.0000000001
 40
0.0
 40
0.0
 40
0.0
 40
0.0
 40
0.1249735156
 40
0.2499852439
 40
0.3124925688
 40
0.3749947125
 40
0.4374987882
 40
0.5000080012
 40
0.624997748
 40
0.7499858985
 40
0.8125020655
 40
0.8750283273
 40
1.0
 40
1.0
 40
1.0
 40
1.0
 10
14.3107061158
 20
6.3426870275
 30
0.0
 10
14.2797164102
 20
6.3688554272
 30
0.0
 10
14.2195919589
 20
6.4234545244
 30
0.0
 10
14.1497029716
 20
6.4970895286
 30
0.0
 10
14.0973104274
 20
6.5590763214
 30
0.0
 10
14.0598548712
 20
6.6070629043
 30
0.0
 10
14.0243290486
 20
6.6564969749
 30
0.0
 10
13.9796562845
 20
6.724252662
 30
0.0
 10
13.9290485515
 20
6.8122839891
 30
0.0
 10
13.886016205
 20
6.9042669693
 30
0.0
 10
13.8564387758
 20
6.9798580847
 30
0.0
 10
13.8301944119
 20
7.056658243
 30
0.0
 10
13.8143252759
 20
7.1155146672
 30
0.0
 10
13.8055361545
 20
7.1551107506
 30
0.0
  0
SPLINE
  5
35E
100
AcDbEntity
  8
0
100
AcDbSpline
 62
7
  6
CONTINUOUS
 70
0
 71
3
 72
15
 73
11
 74
0
 42
0.0000001
 43
0.0000001
 44
0.0000000001
 40
0.0
 40
0.0
 40
0.0
 40
0.0
 40
0.1090050956
 40
0.2230761147
 40
0.3420591737
 40
0.4657768348
 40
0.5939125563
 40
0.7260392038
 40
0.8616433798
 40
1.0
 40
1.0
 40
1.0
 40
1.0
 10
12.5561386478
 20
6.3426870275
 30
0.0
 10
12.5720018345
 20
6.3694774861
 30
0.0
 10
12.6026762233
 20
6.4253797405
 30
0.0
 10
12.6444728565
 20
6.5137466959
 30
0.0
 10
12.6827570478
 20
6.60824246
 30
0.0
 10
12.7171757692
 20
6.7084668387
 30
0.0
 10
12.7473966584
 20
6.8139447073
 30
0.0
 10
12.7730835578
 20
6.9241054115
 30
0.0
 10
12.7939374838
 20
7.0382471214
 30
0.0
 10
12.8043644702
 20
7.1158336524
 30
0.0
 10
12.8087236284
 20
7.1551107506
 30
0.0
  0
SPLINE
  5
35F
100
AcDbEntity
  8
0
100
AcDbSpline
 62
7
  6
CONTINUOUS
 70
0
 71
3
 72
16
 73
12
 74
0
 42
0.0000001
 43
0.0000001
 44
0.0000000001
 40
0.0
 40
0.0
 40
0.0
 40
0.0
 40
0.1090046113
 40
0.2230746909
 40
0.3420556818
 40
0.465771347
 40
0.5939060533
 40
0.7260324501
 40
0.7934401366
 40
0.8616450827
 40
1.0
 40
1.0
 40
1.0
 40
1.0
 10
13.7258502931
 20
6.3426870275
 30
0.0
 10
13.7099870212
 20
6.3694776299
 30
0.0
 10
13.6793115716
 20
6.4253795238
 30
0.0
 10
13.6375143521
 20
6.5137462367
 30
0.0
 10
13.5992325808
 20
6.608242504
 30
0.0
 10
13.5648162753
 20
6.7084674429
 30
0.0
 10
13.5345948702
 20
6.8139444545
 30
0.0
 10
13.5133289623
 20
6.9051297184
 30
0.0
 10
13.4986543841
 20
6.9801890906
 30
0.0
 10
13.4854854437
 20
7.0573316577
 30
0.0
 10
13.4776244598
 20
7.1158337506
 30
0.0
 10
13.4732653124
 20
7.1551107506
 30
0.0
  0
SPLINE
  5
360
100
AcDbEntity
  8
0
100
AcDbSpline
 62
7
  6
CONTINUOUS
 70
0
 71
3
 72
11
 73
7
 74
0
 42
0.0000001
 43
0.0000001
 44
0.0000000001
 40
0.0
 40
0.0
 40
0.0
 40
0.0
 40
0.2503078269
 40
0.5002995399
 40
0.7501631976
 40
1.0
 40
1.0
 40
1.0
 40
1.0
 10
6.8214740451
 20
10.761975404
 30
0.0
 10
6.8233813938
 20
10.7928811153
 30
0.0
 10
6.8296706183
 20
10.8545276377
 30
0.0
 10
6.8462986084
 20
10.9459157428
 30
0.0
 10
6.86985933
 20
11.0357034729
 30
0.0
 10
6.8900278854
 20
11.0942083169
 30
0.0
 10
6.9011800161
 20
11.1230323666
 30
0.0
  0
SPLINE
  5
361
100
AcDbEntity
  8
0
100
AcDbSpline
 62
7
  6
CONTINUOUS
 70
0
 71
3
 72
21
 73
17
 74
0
 42
0.0000001
 43
0.0000001
 44
0.0000000001
 40
0.0
 40
0.0
 40
0.0
 40
0.0
 40
0.0634374399
 40
0.1284784542
 40
0.1947441889
 40
0.261865885
 40
0.329484616
 40
0.3972329776
 40
0.4647354515
 40
0.5316144408
 40
0.5974987885
 40
0.6620319631
 40
0.7248465652
 40
0.7855615071
 40
0.8991810536
 40
1.0
 40
1.0
 40
1.0
 40
1.0
 10
7.4514309108
 20
11.6681874769
 30
0.0
 10
7.4716467522
 20
11.6813908702
 30
0.0
 10
7.5130833108
 20
11.7073830115
 30
0.0
 10
7.5772593268
 20
11.7445045032
 30
0.0
 10
7.6439783437
 20
11.7799350194
 30
0.0
 10
7.7128562729
 20
11.8132821732
 30
0.0
 10
7.7834971825
 20
11.8441499302
 30
0.0
 10
7.8553866464
 20
11.8723818475
 30
0.0
 10
7.9280126145
 20
11.8978212341
 30
0.0
 10
8.0008635917
 20
11.9203125024
 30
0.0
 10
8.0734317471
 20
11.9396986738
 30
0.0
 10
8.1451485535
 20
11.9560785478
 30
0.0
 10
8.2154634283
 20
11.969558627
 30
0.0
 10
8.3046594954
 20
11.9835021426
 30
0.0
 10
8.4088880484
 20
11.9944837785
 30
0.0
 10
8.4904703359
 20
11.998213572
 30
0.0
 10
8.5288385793
 20
11.9988647072
 30
0.0
  0
SPLINE
  5
362
100
AcDbEntity
  8
0
100
AcDbSpline
 62
7
  6
CONTINUOUS
 70
0
 71
3
 72
15
 73
11
 74
0
 42
0.0000001
 43
0.0000001
 44
0.0000000001
 40
0.0
 40
0.0
 40
0.0
 40
0.0
 40
0.1282657957
 40
0.2549917541
 40
0.3804722382
 40
0.5050104428
 40
0.6289164802
 40
0.7525052213
 40
0.8760939625
 40
1.0
 40
1.0
 40
1.0
 40
1.0
 10
6.9011800161
 20
11.1230323666
 30
0.0
 10
6.9198849752
 20
11.1506250462
 30
0.0
 10
6.9583419961
 20
11.2046306546
 30
0.0
 10
7.0194960189
 20
11.2823799457
 30
0.0
 10
7.0837332985
 20
11.3563277173
 30
0.0
 10
7.1510519875
 20
11.4264699584
 30
0.0
 10
7.2214516103
 20
11.4928054323
 30
0.0
 10
7.2949317243
 20
11.5553328753
 30
0.0
 10
7.3714883482
 20
11.614049244
 30
0.0
 10
7.4244698001
 20
11.6505786057
 30
0.0
 10
7.4514309092
 20
11.6681874759
 30
0.0
  0
SPLINE
  5
363
100
AcDbEntity
  8
0
100
AcDbSpline
 62
7
  6
CONTINUOUS
 70
0
 71
3
 72
22
 73
18
 74
0
 42
0.0000001
 43
0.0000001
 44
0.0000000001
 40
0.0
 40
0.0
 40
0.0
 40
0.0
 40
0.0619190514
 40
0.1264535594
 40
0.193043473
 40
0.2611491333
 40
0.3302491126
 40
0.3998022234
 40
0.4692536423
 40
0.5380476616
 40
0.6056416792
 40
0.6715158626
 40
0.7351311102
 40
0.7959256112
 40
0.9068320024
 40
0.9559113347
 40
1.0
 40
1.0
 40
1.0
 40
1.0
 10
9.9412745356
 20
10.6144731211
 30
0.0
 10
9.9154722084
 20
10.6332345626
 30
0.0
 10
9.8620101305
 20
10.6705050561
 30
0.0
 10
9.778264551
 20
10.7242067894
 30
0.0
 10
9.6897108948
 20
10.7761745653
 30
0.0
 10
9.5970051755
 20
10.8255463578
 30
0.0
 10
9.5008377863
 20
10.8714492092
 30
0.0
 10
9.4021799154
 20
10.913515325
 30
0.0
 10
9.3020003759
 20
10.9513727323
 30
0.0
 10
9.2012685032
 20
10.9846523522
 30
0.0
 10
9.1009488373
 20
11.0129804405
 30
0.0
 10
9.0021530606
 20
11.0365510889
 30
0.0
 10
8.9059522678
 20
11.055576942
 30
0.0
 10
8.7861891637
 20
11.0745950987
 30
0.0
 10
8.6729299232
 20
11.0862867438
 30
0.0
 10
8.567929676
 20
11.0919690273
 30
0.0
 10
8.5199349362
 20
11.0931889372
 30
0.0
 10
8.4972208592
 20
11.0934491548
 30
0.0
  0
SPLINE
  5
364
100
AcDbEntity
  8
0
100
AcDbSpline
 62
7
  6
CONTINUOUS
 70
0
 71
3
 72
23
 73
19
 74
0
 42
0.0000001
 43
0.0000001
 44
0.0000000001
 40
0.0
 40
0.0
 40
0.0
 40
0.0
 40
0.0638248666
 40
0.1258697466
 40
0.1864830284
 40
0.2460067185
 40
0.3047778105
 40
0.3631394184
 40
0.4214377931
 40
0.4800189754
 40
0.5392261311
 40
0.5993984931
 40
0.6608802828
 40
0.7240213717
 40
0.7891692315
 40
0.8566534294
 40
0.926812483
 40
1.0
 40
1.0
 40
1.0
 40
1.0
 10
9.969326726
 20
11.6989105277
 30
0.0
 10
9.9406045701
 20
11.7119947749
 30
0.0
 10
9.8836024354
 20
11.7370197428
 30
0.0
 10
9.7981450835
 20
11.7717074771
 30
0.0
 10
9.7137511112
 20
11.8032676437
 30
0.0
 10
9.6300721799
 20
11.8320224409
 30
0.0
 10
9.5467493723
 20
11.8582987843
 30
0.0
 10
9.4633501442
 20
11.8822210775
 30
0.0
 10
9.3794403827
 20
11.9039136649
 30
0.0
 10
9.2945859988
 20
11.9235022038
 30
0.0
 10
9.2083526034
 20
11.941111934
 30
0.0
 10
9.1202658404
 20
11.9566614135
 30
0.0
 10
9.0298597818
 20
11.9700681534
 30
0.0
 10
8.9366730282
 20
11.9812502992
 30
0.0
 10
8.8402557119
 20
11.9901229821
 30
0.0
 10
8.7401506775
 20
11.9963413401
 30
0.0
 10
8.6359260384
 20
11.9995604946
 30
0.0
 10
8.5650252926
 20
11.9994788202
 30
0.0
 10
8.5288385855
 20
11.9988647073
 30
0.0
  0
SPLINE
  5
365
100
AcDbEntity
  8
0
100
AcDbSpline
 62
7
  6
CONTINUOUS
 70
0
 71
3
 72
15
 73
11
 74
0
 42
0.0000001
 43
0.0000001
 44
0.0000000001
 40
0.0
 40
0.0
 40
0.0
 40
0.0
 40
0.1215430783
 40
0.2436940379
 40
0.3666406444
 40
0.4905791866
 40
0.6157052238
 40
0.7421924095
 40
0.8702237419
 40
1.0
 40
1.0
 40
1.0
 40
1.0
 10
11.3377494535
 20
9.1312493545
 30
0.0
 10
11.2934201323
 20
9.1990238774
 30
0.0
 10
11.2017074658
 20
9.3330838592
 30
0.0
 10
11.0554055444
 20
9.5288096792
 30
0.0
 10
10.8999566577
 20
9.7194243852
 30
0.0
 10
10.7352412738
 20
9.9047513283
 30
0.0
 10
10.5611534436
 20
10.0846043738
 30
0.0
 10
10.3774697055
 20
10.2586419504
 30
0.0
 10
10.183995575
 20
10.4264902091
 30
0.0
 10
10.0493296737
 20
10.5332410604
 30
0.0
 10
9.9803944815
 20
10.585442918
 30
0.0
  0
LINE
  5
366
100
AcDbEntity
  8
0
100
AcDbLine
 62
7
  6
CONTINUOUS
 10
11.2587634011
 20
10.9097898808
 11
11.2459347801
 21
10.9199635819
  0
SPLINE
  5
367
100
AcDbEntity
  8
0
100
AcDbSpline
 62
7
  6
CONTINUOUS
 70
0
 71
3
 72
17
 73
13
 74
0
 42
0.0000001
 43
0.0000001
 44
0.0000000001
 40
0.0
 40
0.0
 40
0.0
 40
0.0
 40
0.1175429409
 40
0.2406087199
 40
0.3039286869
 40
0.3681063487
 40
0.4977540211
 40
0.6277260896
 40
0.6922878425
 40
0.756129706
 40
0.8806259629
 40
1.0
 40
1.0
 40
1.0
 40
1.0
 10
12.5612769527
 20
9.8994989008
 30
0.0
 10
12.5474649682
 20
9.8922050584
 30
0.0
 10
12.5179138359
 20
9.8795874563
 30
0.0
 10
12.4784727435
 20
9.8699805952
 30
0.0
 10
12.4453265262
 20
9.8664279239
 30
0.0
 10
12.4111274358
 20
9.8657577047
 30
0.0
 10
12.3681172565
 20
9.870572367
 30
0.0
 10
12.3266774416
 20
9.8832346723
 30
0.0
 10
12.2954072317
 20
9.8974982971
 30
0.0
 10
12.2661372077
 20
9.9140946335
 30
0.0
 10
12.2334022909
 20
9.9389535917
 30
0.0
 10
12.2110869965
 20
9.9626815166
 30
0.0
 10
12.2012242252
 20
9.9751055744
 30
0.0
  0
SPLINE
  5
368
100
AcDbEntity
  8
0
100
AcDbSpline
 62
7
  6
CONTINUOUS
 70
0
 71
3
 72
10
 73
6
 74
0
 42
0.0000001
 43
0.0000001
 44
0.0000000001
 40
0.0
 40
0.0
 40
0.0
 40
0.0
 40
0.2298643294
 40
0.4759493129
 40
1.0
 40
1.0
 40
1.0
 40
1.0
 10
12.0670701146
 20
6.5971270014
 30
0.0
 10
12.0734638071
 20
6.6156759252
 30
0.0
 10
12.0855286457
 20
6.6545009739
 30
0.0
 10
12.1057899835
 20
6.7374507904
 30
0.0
 10
12.1150424214
 20
6.8027972075
 30
0.0
 10
12.1183378616
 20
6.8474056888
 30
0.0
  0
LINE
  5
369
100
AcDbEntity
  8
0
100
AcDbLine
 62
7
  6
CONTINUOUS
 10
11.2459198842
 20
10.9199753625
 11
11.2408376655
 21
10.9239903113
  0
LINE
  5
36A
100
AcDbEntity
  8
0
100
AcDbLine
 62
7
  6
CONTINUOUS
 10
11.2408376655
 20
10.9239903113
 11
11.2294720285
 21
10.9329375263
  0
SPLINE
  5
36B
100
AcDbEntity
  8
0
100
AcDbSpline
 62
7
  6
CONTINUOUS
 70
0
 71
3
 72
9
 73
5
 74
0
 42
0.0000001
 43
0.0000001
 44
0.0000000001
 40
0.0
 40
0.0
 40
0.0
 40
0.0
 40
0.2503401857
 40
1.0
 40
1.0
 40
1.0
 40
1.0
 10
8.0642303376
 20
10.8517563061
 30
0.0
 10
8.065199236
 20
10.8538498185
 30
0.0
 10
8.0691047741
 20
10.8621960306
 30
0.0
 10
8.0731704997
 20
10.870468216
 30
0.0
 10
8.0763401397
 20
10.8766061316
 30
0.0
  0
SPLINE
  5
36C
100
AcDbEntity
  8
0
100
AcDbSpline
 62
7
  6
CONTINUOUS
 70
0
 71
3
 72
9
 73
5
 74
0
 42
0.0000001
 43
0.0000001
 44
0.0000000001
 40
0.0
 40
0.0
 40
0.0
 40
0.0
 40
0.2514286928
 40
1.0
 40
1.0
 40
1.0
 40
1.0
 10
8.0763401397
 20
10.8766061316
 30
0.0
 10
8.0777028087
 20
10.8792449005
 30
0.0
 10
8.0832120449
 20
10.8896929448
 30
0.0
 10
8.0891233905
 20
10.8999335498
 30
0.0
 10
8.0938405016
 20
10.9074122069
 30
0.0
  0
SPLINE
  5
36D
100
AcDbEntity
  8
0
100
AcDbSpline
 62
7
  6
CONTINUOUS
 70
0
 71
3
 72
9
 73
5
 74
0
 42
0.0000001
 43
0.0000001
 44
0.0000000001
 40
0.0
 40
0.0
 40
0.0
 40
0.0
 40
0.2512691242
 40
1.0
 40
1.0
 40
1.0
 40
1.0
 10
8.0938405016
 20
10.9074122069
 30
0.0
 10
8.0949168986
 20
10.9091187608
 30
0.0
 10
8.0992615004
 20
10.9158717795
 30
0.0
 10
8.1038641468
 20
10.9224604105
 30
0.0
 10
8.1074731788
 20
10.9272689112
 30
0.0
  0
SPLINE
  5
36E
100
AcDbEntity
  8
0
100
AcDbSpline
 62
7
  6
CONTINUOUS
 70
0
 71
3
 72
9
 73
5
 74
0
 42
0.0000001
 43
0.0000001
 44
0.0000000001
 40
0.0
 40
0.0
 40
0.0
 40
0.0
 40
0.5017454929
 40
1.0
 40
1.0
 40
1.0
 40
1.0
 10
8.1074731788
 20
10.9272689112
 30
0.0
 10
8.1118109809
 20
10.9330483901
 30
0.0
 10
8.1209338286
 20
10.9442196738
 30
0.0
 10
8.1311208087
 20
10.9544455993
 30
0.0
 10
8.1364668151
 20
10.9592325609
 30
0.0
  0
LINE
  5
36F
100
AcDbEntity
  8
0
100
AcDbLine
 62
7
  6
CONTINUOUS
 10
8.1389970934
 20
10.9614627889
 11
8.1378927727
 21
10.9604965075
  0
LINE
  5
370
100
AcDbEntity
  8
0
100
AcDbLine
 62
7
  6
CONTINUOUS
 10
11.6278680524
 20
8.6276173994
 11
11.6272808946
 21
8.6287852092
  0
SPLINE
  5
371
100
AcDbEntity
  8
0
100
AcDbSpline
 62
9
  6
CONTINUOUS
 70
0
 71
3
 72
11
 73
7
 74
0
 42
0.0000001
 43
0.0000001
 44
0.0000000001
 40
0.0
 40
0.0
 40
0.0
 40
0.0
 40
0.2491769317
 40
0.4988637094
 40
0.749134567
 40
1.0
 40
1.0
 40
1.0
 40
1.0
 10
7.9544106907
 20
10.5622077609
 30
0.0
 10
7.9552108757
 20
10.5826510485
 30
0.0
 10
7.9588885842
 20
10.6235263459
 30
0.0
 10
7.9704366929
 20
10.6840371926
 30
0.0
 10
7.9878422993
 20
10.7432730388
 30
0.0
 10
8.0032251792
 20
10.7815171362
 30
0.0
 10
8.0118263603
 20
10.8002329025
 30
0.0
  0
SPLINE
  5
372
100
AcDbEntity
  8
0
100
AcDbSpline
 62
7
  6
CONTINUOUS
 70
0
 71
3
 72
22
 73
18
 74
0
 42
0.0000001
 43
0.0000001
 44
0.0000000001
 40
0.0
 40
0.0
 40
0.0
 40
0.0
 40
0.1256143701
 40
0.1861518191
 40
0.2456185221
 40
0.3043506167
 40
0.3627002023
 40
0.4210277952
 40
0.4796983471
 40
0.5390660285
 40
0.5994351187
 40
0.6611088115
 40
0.7244035989
 40
0.7896357627
 40
0.8570944011
 40
0.9270961303
 40
1.0
 40
1.0
 40
1.0
 40
1.0
 10
9.9684237621
 20
11.6734895036
 30
0.0
 10
9.9112946484
 20
11.6981364037
 30
0.0
 10
9.8259680804
 20
11.7331579206
 30
0.0
 10
9.712078557
 20
11.7759550372
 30
0.0
 10
9.6285929185
 20
11.8054342247
 30
0.0
 10
9.5455629892
 20
11.8328964374
 30
0.0
 10
9.4624951573
 20
11.8583859352
 30
0.0
 10
9.3788910199
 20
11.8819477781
 30
0.0
 10
9.2942580097
 20
11.9036266938
 30
0.0
 10
9.2081345581
 20
11.9234610435
 30
0.0
 10
9.1200455261
 20
11.9412524156
 30
0.0
 10
9.0295551275
 20
11.9567916388
 30
0.0
 10
8.9362421681
 20
11.9698685567
 30
0.0
 10
8.8397069292
 20
11.9802676651
 30
0.0
 10
8.739532587
 20
11.9873335431
 30
0.0
 10
8.6353511104
 20
11.9904076968
 30
0.0
 10
8.5645462208
 20
11.9893786567
 30
0.0
 10
8.5284605231
 20
11.9880385904
 30
0.0
  0
SPLINE
  5
373
100
AcDbEntity
  8
0
100
AcDbSpline
 62
9
  6
CONTINUOUS
 70
0
 71
3
 72
28
 73
24
 74
0
 42
0.0000001
 43
0.0000001
 44
0.0000000001
 40
0.0
 40
0.0
 40
0.0
 40
0.0
 40
0.0002567187
 40
0.0010259745
 40
0.0023065642
 40
0.0040972852
 40
0.0063969357
 40
0.0092043143
 40
0.0163374535
 40
0.0254871057
 40
0.0366436838
 40
0.0497976114
 40
0.0649393225
 40
0.1011478772
 40
0.1451930429
 40
0.1969986848
 40
0.2564888478
 40
0.3235877601
 40
0.3982198367
 40
0.4803096832
 40
0.5697820991
 40
0.7705746219
 40
1.0
 40
1.0
 40
1.0
 40
1.0
 10
9.969326726
 20
11.6989105277
 30
0.0
 10
9.9693288207
 20
11.6989099354
 30
0.0
 10
9.9693228447
 20
11.6988974076
 30
0.0
 10
9.9693268536
 20
11.6988815989
 30
0.0
 10
9.9693218427
 20
11.6988469829
 30
0.0
 10
9.9693203487
 20
11.6988024594
 30
0.0
 10
9.9693162657
 20
11.6987437185
 30
0.0
 10
9.9693102309
 20
11.6986402899
 30
0.0
 10
9.9693004461
 20
11.6984785892
 30
0.0
 10
9.9692869726
 20
11.6982463607
 30
0.0
 10
9.9692707979
 20
11.697963078
 30
0.0
 10
9.9692521975
 20
11.6976290673
 30
0.0
 10
9.9692224838
 20
11.6970829096
 30
0.0
 10
9.9691802294
 20
11.6962751102
 30
0.0
 10
9.9691246862
 20
11.6951566908
 30
0.0
 10
9.9690628794
 20
11.6938409285
 30
0.0
 10
9.9689959961
 20
11.6923297101
 30
0.0
 10
9.9689252274
 20
11.6906249239
 30
0.0
 10
9.9688517636
 20
11.6887284579
 30
0.0
 10
9.9687767939
 20
11.6866421998
 30
0.0
 10
9.9686723345
 20
11.6834865467
 30
0.0
 10
9.9685460957
 20
11.679081622
 30
0.0
 10
9.9684627647
 20
11.6754345222
 30
0.0
 10
9.9684237621
 20
11.6734895036
 30
0.0
  0
SPLINE
  5
374
100
AcDbEntity
  8
0
100
AcDbSpline
 62
7
  6
CONTINUOUS
 70
0
 71
3
 72
18
 73
14
 74
0
 42
0.0000001
 43
0.0000001
 44
0.0000000001
 40
0.0
 40
0.0
 40
0.0
 40
0.0
 40
0.1250635906
 40
0.2490272338
 40
0.3724595471
 40
0.4958645033
 40
0.6197980148
 40
0.6821198179
 40
0.7447788183
 40
0.8078634303
 40
0.8713943829
 40
0.9354107304
 40
1.0
 40
1.0
 40
1.0
 40
1.0
 10
9.9551920713
 20
11.1874822386
 30
0.0
 10
9.8996217988
 20
11.2174525079
 30
0.0
 10
9.7879301986
 20
11.2752357313
 30
0.0
 10
9.6174781198
 20
11.3547556894
 30
0.0
 10
9.4442353661
 20
11.4258913174
 30
0.0
 10
9.2672648853
 20
11.4871895744
 30
0.0
 10
9.1163941921
 20
11.5287008413
 30
0.0
 10
8.9934555054
 20
11.5548706041
 30
0.0
 10
8.8998069701
 20
11.5706816954
 30
0.0
 10
8.8049253941
 20
11.5822871528
 30
0.0
 10
8.7088913203
 20
11.5892006563
 30
0.0
 10
8.6118603931
 20
11.5909176669
 30
0.0
 10
8.5469419737
 20
11.5882725948
 30
0.0
 10
8.5144187292
 20
11.5859347823
 30
0.0
  0
SPLINE
  5
375
100
AcDbEntity
  8
0
100
AcDbSpline
 62
9
  6
CONTINUOUS
 70
0
 71
3
 72
10
 73
6
 74
0
 42
0.0000001
 43
0.0000001
 44
0.0000000001
 40
0.0
 40
0.0
 40
0.0
 40
0.0
 40
0.2372529273
 40
0.4834972404
 40
1.0
 40
1.0
 40
1.0
 40
1.0
 10
9.9684237621
 20
11.6734895036
 30
0.0
 10
9.9671217064
 20
11.6350616547
 30
0.0
 10
9.9647044816
 20
11.5567415898
 30
0.0
 10
9.9603205278
 20
11.394737828
 30
0.0
 10
9.9573296334
 20
11.2711608849
 30
0.0
 10
9.9551920713
 20
11.1874822386
 30
0.0
  0
LINE
  5
376
100
AcDbEntity
  8
0
100
AcDbLine
 62
9
  6
CONTINUOUS
 10
10.0176397361
 20
11.651954074
 11
10.0005560481
 21
11.1627450541
  0
SPLINE
  5
377
100
AcDbEntity
  8
0
100
AcDbSpline
 62
9
  6
CONTINUOUS
 70
0
 71
3
 72
9
 73
5
 74
0
 42
0.0000001
 43
0.0000001
 44
0.0000000001
 40
0.0
 40
0.0
 40
0.0
 40
0.0
 40
0.4960024727
 40
1.0
 40
1.0
 40
1.0
 40
1.0
 10
7.7411894316
 20
10.59980442
 30
0.0
 10
7.7453348402
 20
10.634256687
 30
0.0
 10
7.7599179417
 20
10.7030825069
 30
0.0
 10
7.7857167604
 20
10.7684826238
 30
0.0
 10
7.8012130521
 20
10.80015501
 30
0.0
  0
SPLINE
  5
378
100
AcDbEntity
  8
0
100
AcDbSpline
 62
9
  6
CONTINUOUS
 70
0
 71
3
 72
11
 73
7
 74
0
 42
0.0000001
 43
0.0000001
 44
0.0000000001
 40
0.0
 40
0.0
 40
0.0
 40
0.0
 40
0.2829357396
 40
0.5450246445
 40
0.7847117165
 40
1.0
 40
1.0
 40
1.0
 40
1.0
 10
7.8012130525
 20
10.8001550116
 30
0.0
 10
7.8151624458
 20
10.7980405541
 30
0.0
 10
7.8421590323
 20
10.794755552
 30
0.0
 10
7.8812128743
 20
10.7920932575
 30
0.0
 10
7.916969011
 20
10.7912439609
 30
0.0
 10
7.9396585317
 20
10.7914826103
 30
0.0
 10
7.9503914029
 20
10.7917184891
 30
0.0
  0
SPLINE
  5
379
100
AcDbEntity
  8
0
100
AcDbSpline
 62
7
  6
CONTINUOUS
 70
0
 71
3
 72
15
 73
11
 74
0
 42
0.0000001
 43
0.0000001
 44
0.0000000001
 40
0.0
 40
0.0
 40
0.0
 40
0.0
 40
0.1275536616
 40
0.2550715704
 40
0.3821697181
 40
0.5085026229
 40
0.6337666282
 40
0.7576538461
 40
0.879840215
 40
1.0
 40
1.0
 40
1.0
 40
1.0
 10
12.1145675434
 20
10.0498389629
 30
0.0
 10
12.0413591792
 20
10.1361017059
 30
0.0
 10
11.8906168429
 20
10.3049704201
 30
0.0
 10
11.6521447018
 20
10.5460940973
 30
0.0
 10
11.402048523
 20
10.7735617074
 30
0.0
 10
11.1413075122
 20
10.9856171861
 30
0.0
 10
10.8709598305
 20
11.1804604618
 30
0.0
 10
10.5928707303
 20
11.357319926
 30
0.0
 10
10.3088965557
 20
11.5154379406
 30
0.0
 10
10.1150612093
 20
11.6087276711
 30
0.0
 10
10.0176385661
 20
11.651954195
 30
0.0
  0
SPLINE
  5
37A
100
AcDbEntity
  8
0
100
AcDbSpline
 62
7
  6
CONTINUOUS
 70
0
 71
3
 72
15
 73
11
 74
0
 42
0.0000001
 43
0.0000001
 44
0.0000000001
 40
0.0
 40
0.0
 40
0.0
 40
0.0
 40
0.126705958
 40
0.2526203919
 40
0.3778788405
 40
0.5026348695
 40
0.6270566133
 40
0.7513105682
 40
0.8755664019
 40
1.0
 40
1.0
 40
1.0
 40
1.0
 10
11.7799410475
 20
9.654142188
 30
0.0
 10
11.7177472665
 20
9.7313600876
 30
0.0
 10
11.5903174046
 20
9.8825893308
 30
0.0
 10
11.3895633067
 20
10.0998324717
 30
0.0
 10
11.1798923248
 20
10.3063296384
 30
0.0
 10
10.9613630183
 20
10.5016865916
 30
0.0
 10
10.7340465806
 20
10.6855030233
 30
0.0
 10
10.49815242
 20
10.8575159732
 30
0.0
 10
10.2539048353
 20
11.0174520897
 30
0.0
 10
10.0858304821
 20
11.1157381682
 30
0.0
 10
10.0005565236
 20
11.1627442894
 30
0.0
  0
SPLINE
  5
37B
100
AcDbEntity
  8
0
100
AcDbSpline
 62
7
  6
CONTINUOUS
 70
0
 71
3
 72
15
 73
11
 74
0
 42
0.0000001
 43
0.0000001
 44
0.0000000001
 40
0.0
 40
0.0
 40
0.0
 40
0.0
 40
0.1210110908
 40
0.2429270979
 40
0.3658533415
 40
0.4899240566
 40
0.6152848823
 40
0.7420284088
 40
0.8702367126
 40
1.0
 40
1.0
 40
1.0
 40
1.0
 10
11.3603424213
 20
9.1579662805
 30
0.0
 10
11.3178589328
 20
9.2276895423
 30
0.0
 10
11.229115667
 20
9.365584707
 30
0.0
 10
11.0852308692
 20
9.5662795738
 30
0.0
 10
10.9299499291
 20
9.7609554078
 30
0.0
 10
10.7631399862
 20
9.9489732457
 30
0.0
 10
10.5847211168
 20
10.1296543737
 30
0.0
 10
10.3948997354
 20
10.3024922164
 30
0.0
 10
10.1939165658
 20
10.4669347191
 30
0.0
 10
10.0535117914
 20
10.5699615666
 30
0.0
 10
9.9815969107
 20
10.619897238
 30
0.0
  0
SPLINE
  5
37C
100
AcDbEntity
  8
0
100
AcDbSpline
 62
9
  6
CONTINUOUS
 70
0
 71
3
 72
9
 73
5
 74
0
 42
0.0000001
 43
0.0000001
 44
0.0000000001
 40
0.0
 40
0.0
 40
0.0
 40
0.0
 40
0.5634128109
 40
1.0
 40
1.0
 40
1.0
 40
1.0
 10
7.9503913999
 20
10.7917184767
 30
0.0
 10
7.9619445453
 20
10.7932067454
 30
0.0
 10
7.9824393559
 20
10.7959328746
 30
0.0
 10
8.0029059527
 20
10.7988670227
 30
0.0
 10
8.0118286391
 20
10.8002319365
 30
0.0
  0
SPLINE
  5
37D
100
AcDbEntity
  8
0
100
AcDbSpline
 62
9
  6
CONTINUOUS
 70
0
 71
3
 72
11
 73
7
 74
0
 42
0.0000001
 43
0.0000001
 44
0.0000000001
 40
0.0
 40
0.0
 40
0.0
 40
0.0
 40
0.245751486
 40
0.4942049578
 40
0.7456163569
 40
1.0
 40
1.0
 40
1.0
 40
1.0
 10
7.2340310073
 20
10.6892300329
 30
0.0
 10
7.2387478495
 20
10.7239455093
 30
0.0
 10
7.2527691992
 20
10.7932147327
 30
0.0
 10
7.2865144298
 20
10.8942675408
 30
0.0
 10
7.3323895332
 20
10.9917733052
 30
0.0
 10
7.3704218572
 20
11.0532473355
 30
0.0
 10
7.3911966022
 20
11.0829721464
 30
0.0
  0
SPLINE
  5
37E
100
AcDbEntity
  8
0
100
AcDbSpline
 62
9
  6
CONTINUOUS
 70
0
 71
3
 72
9
 73
5
 74
0
 42
0.0000001
 43
0.0000001
 44
0.0000000001
 40
0.0
 40
0.0
 40
0.0
 40
0.0
 40
0.2529133881
 40
1.0
 40
1.0
 40
1.0
 40
1.0
 10
7.5848139698
 20
10.8919427079
 30
0.0
 10
7.5885482303
 20
10.8885787235
 30
0.0
 10
7.6036630237
 20
10.8756687765
 30
0.0
 10
7.6200436537
 20
10.8642613259
 30
0.0
 10
7.6327592966
 20
10.8565976375
 30
0.0
  0
SPLINE
  5
37F
100
AcDbEntity
  8
0
100
AcDbSpline
 62
9
  6
CONTINUOUS
 70
0
 71
3
 72
15
 73
11
 74
0
 42
0.0000001
 43
0.0000001
 44
0.0000000001
 40
0.0
 40
0.0
 40
0.0
 40
0.0
 40
0.1263341337
 40
0.2523217596
 40
0.3779360722
 40
0.5032123832
 40
0.6281123386
 40
0.752544778
 40
0.8765035104
 40
1.0
 40
1.0
 40
1.0
 40
1.0
 10
7.6504136667
 20
10.8466655408
 30
0.0
 10
7.6519699915
 20
10.8460980445
 30
0.0
 10
7.6550641676
 20
10.8449251285
 30
0.0
 10
7.6596457474
 20
10.8430338212
 30
0.0
 10
7.6641434462
 20
10.8409837046
 30
0.0
 10
7.6685638469
 20
10.838805643
 30
0.0
 10
7.6729510249
 20
10.8365963526
 30
0.0
 10
7.677350671
 20
10.834450691
 30
0.0
 10
7.6817578324
 20
10.8323634582
 30
0.0
 10
7.6846953919
 20
10.8309853273
 30
0.0
 10
7.6861605754
 20
10.8302957307
 30
0.0
  0
SPLINE
  5
380
100
AcDbEntity
  8
0
100
AcDbSpline
 62
9
  6
CONTINUOUS
 70
0
 71
3
 72
10
 73
6
 74
0
 42
0.0000001
 43
0.0000001
 44
0.0000000001
 40
0.0
 40
0.0
 40
0.0
 40
0.0
 40
0.2444116771
 40
0.491414509
 40
1.0
 40
1.0
 40
1.0
 40
1.0
 10
7.6861615131
 20
10.8302982113
 30
0.0
 10
7.6951770857
 20
10.8266969983
 30
0.0
 10
7.7135567457
 20
10.8200730517
 30
0.0
 10
7.7517231865
 20
10.8090019577
 30
0.0
 10
7.7812413932
 20
10.8031895115
 30
0.0
 10
7.8012145786
 20
10.8001617016
 30
0.0
  0
SPLINE
  5
381
100
AcDbEntity
  8
0
100
AcDbSpline
 62
9
  6
CONTINUOUS
 70
0
 71
3
 72
11
 73
7
 74
0
 42
0.0000001
 43
0.0000001
 44
0.0000000001
 40
0.0
 40
0.0
 40
0.0
 40
0.0
 40
0.2497498637
 40
0.499533684
 40
0.7495855694
 40
1.0
 40
1.0
 40
1.0
 40
1.0
 10
6.8463460135
 20
10.7575894581
 30
0.0
 10
6.8490284435
 20
10.7940087651
 30
0.0
 10
6.8579569107
 20
10.8666363358
 30
0.0
 10
6.8816016517
 20
10.9738152749
 30
0.0
 10
6.9150532016
 20
11.0784457939
 30
0.0
 10
6.9435949076
 20
11.145953354
 30
0.0
 10
6.9593453589
 20
11.1790077199
 30
0.0
  0
LINE
  5
382
100
AcDbEntity
  8
0
100
AcDbLine
 62
7
  6
CONTINUOUS
 10
6.9593453589
 20
11.1790077199
 11
7.0537250118
 21
11.2691737791
  0
SPLINE
  5
383
100
AcDbEntity
  8
0
100
AcDbSpline
 62
9
  6
CONTINUOUS
 70
0
 71
3
 72
11
 73
7
 74
0
 42
0.0000001
 43
0.0000001
 44
0.0000000001
 40
0.0
 40
0.0
 40
0.0
 40
0.0
 40
0.2541076168
 40
0.5041751586
 40
0.7521427916
 40
1.0
 40
1.0
 40
1.0
 40
1.0
 10
6.9593453589
 20
11.1790077199
 30
0.0
 10
6.9939947658
 20
11.2268340339
 30
0.0
 10
7.066714821
 20
11.3189308817
 30
0.0
 10
7.1867320961
 20
11.4463349788
 30
0.0
 10
7.3165557753
 20
11.5615602087
 30
0.0
 10
7.409430587
 20
11.6300888592
 30
0.0
 10
7.4572625503
 20
11.6621912318
 30
0.0
  0
SPLINE
  5
384
100
AcDbEntity
  8
0
100
AcDbSpline
 62
7
  6
CONTINUOUS
 70
0
 71
3
 72
14
 73
10
 74
0
 42
0.0000001
 43
0.0000001
 44
0.0000000001
 40
0.0
 40
0.0
 40
0.0
 40
0.0
 40
0.2500002389
 40
0.3750001712
 40
0.4999999627
 40
0.6250000105
 40
0.7500006853
 40
0.8750010365
 40
1.0
 40
1.0
 40
1.0
 40
1.0
 10
7.7818046331
 20
11.3278135782
 30
0.0
 10
7.7567814198
 20
11.3108292397
 30
0.0
 10
7.7192434522
 20
11.2853574102
 30
0.0
 10
7.6691966009
 20
11.2513894697
 30
0.0
 10
7.6316643148
 20
11.225909356
 30
0.0
 10
7.5941326886
 20
11.2004281087
 30
0.0
 10
7.5565916572
 20
11.1749606013
 30
0.0
 10
7.5190742103
 20
11.149458566
 30
0.0
 10
7.4941237739
 20
11.1323674363
 30
0.0
 10
7.4816741024
 20
11.1237849721
 30
0.0
  0
SPLINE
  5
385
100
AcDbEntity
  8
0
100
AcDbSpline
 62
7
  6
CONTINUOUS
 70
0
 71
3
 72
11
 73
7
 74
0
 42
0.0000001
 43
0.0000001
 44
0.0000000001
 40
0.0
 40
0.0
 40
0.0
 40
0.0
 40
0.2506075824
 40
0.5009608386
 40
0.7508978167
 40
1.0
 40
1.0
 40
1.0
 40
1.0
 10
7.4816741024
 20
11.1237849721
 30
0.0
 10
7.4745374729
 20
11.1195236242
 30
0.0
 10
7.4600953649
 20
11.1112912192
 30
0.0
 10
7.437758227
 20
11.1002387747
 30
0.0
 10
7.4147983274
 20
11.0906731221
 30
0.0
 10
7.3991095945
 20
11.0853486056
 30
0.0
 10
7.3911966022
 20
11.0829721464
 30
0.0
  0
SPLINE
  5
386
100
AcDbEntity
  8
0
100
AcDbSpline
 62
7
  6
CONTINUOUS
 70
0
 71
3
 72
23
 73
19
 74
0
 42
0.0000001
 43
0.0000001
 44
0.0000000001
 40
0.0
 40
0.0
 40
0.0
 40
0.0
 40
0.0752381471
 40
0.149665714
 40
0.2229098005
 40
0.2945636442
 40
0.3642427828
 40
0.4316456807
 40
0.496618298
 40
0.5591603332
 40
0.6194012547
 40
0.6775706826
 40
0.7339644598
 40
0.7889004107
 40
0.8426778347
 40
0.8955918945
 40
0.9479504676
 40
1.0
 40
1.0
 40
1.0
 40
1.0
 10
7.3911966022
 20
11.0829721464
 30
0.0
 10
7.3805678542
 20
11.0797800813
 30
0.0
 10
7.3591136577
 20
11.0744124498
 30
0.0
 10
7.3265409271
 20
11.0695667953
 30
0.0
 10
7.2941681843
 20
11.0680495122
 30
0.0
 10
7.2625106687
 20
11.0698775443
 30
0.0
 10
7.2320846226
 20
11.074987629
 30
0.0
 10
7.2033730912
 20
11.0832191828
 30
0.0
 10
7.1767662132
 20
11.0942787896
 30
0.0
 10
7.1525346522
 20
11.1078186941
 30
0.0
 10
7.1308979807
 20
11.1235573206
 30
0.0
 10
7.1119809198
 20
11.1411696758
 30
0.0
 10
7.0958143298
 20
11.1603167818
 30
0.0
 10
7.0823213889
 20
11.1806530198
 30
0.0
 10
7.071401281
 20
11.2018983778
 30
0.0
 10
7.0629737557
 20
11.2238412979
 30
0.0
 10
7.0569921597
 20
11.2463044859
 30
0.0
 10
7.0545649528
 20
11.2615424882
 30
0.0
 10
7.0537250118
 20
11.2691737791
 30
0.0
  0
SPLINE
  5
387
100
AcDbEntity
  8
0
100
AcDbSpline
 62
7
  6
CONTINUOUS
 70
0
 71
3
 72
11
 73
7
 74
0
 42
0.0000001
 43
0.0000001
 44
0.0000000001
 40
0.0
 40
0.0
 40
0.0
 40
0.0
 40
0.2525920898
 40
0.5026072369
 40
0.7513137598
 40
1.0
 40
1.0
 40
1.0
 40
1.0
 10
7.0537250118
 20
11.2691737791
 30
0.0
 10
7.0839835428
 20
11.3059204123
 30
0.0
 10
7.146718727
 20
11.3770034369
 30
0.0
 10
7.2477632374
 20
11.4763498336
 30
0.0
 10
7.355121667
 20
11.5677073262
 30
0.0
 10
7.4307860866
 20
11.6231960619
 30
0.0
 10
7.46954747
 20
11.6495383348
 30
0.0
  0
SPLINE
  5
388
100
AcDbEntity
  8
0
100
AcDbSpline
 62
7
  6
CONTINUOUS
 70
0
 71
3
 72
21
 73
17
 74
0
 42
0.0000001
 43
0.0000001
 44
0.0000000001
 40
0.0
 40
0.0
 40
0.0
 40
0.0
 40
0.0633792192
 40
0.1283465106
 40
0.1945154363
 40
0.2615135109
 40
0.3289842989
 40
0.3965731728
 40
0.4639187337
 40
0.5306566807
 40
0.5964293323
 40
0.6608951772
 40
0.7236988377
 40
0.7844674104
 40
0.8984255067
 40
1.0
 40
1.0
 40
1.0
 40
1.0
 10
7.46954747
 20
11.6495383348
 30
0.0
 10
7.4892903698
 20
11.6628254991
 30
0.0
 10
7.5297547545
 20
11.6890211419
 30
0.0
 10
7.5924468833
 20
11.7265213454
 30
0.0
 10
7.6576555419
 20
11.7623697675
 30
0.0
 10
7.7250211718
 20
11.7961377525
 30
0.0
 10
7.7941747402
 20
11.8273935435
 30
0.0
 10
7.8646110942
 20
11.8559849286
 30
0.0
 10
7.9358324436
 20
11.8817621355
 30
0.0
 10
8.0073425892
 20
11.9045768999
 30
0.0
 10
8.0786498201
 20
11.9242795087
 30
0.0
 10
8.1491936418
 20
11.9410027621
 30
0.0
 10
8.218433915
 20
11.9548881642
 30
0.0
 10
8.3064318643
 20
11.9694974947
 30
0.0
 10
8.4095371386
 20
11.9816022652
 30
0.0
 10
8.4903474535
 20
11.9866232359
 30
0.0
 10
8.5284604969
 20
11.9880385895
 30
0.0
  0
SPLINE
  5
389
100
AcDbEntity
  8
0
100
AcDbSpline
 62
7
  6
CONTINUOUS
 70
0
 71
3
 72
14
 73
10
 74
0
 42
0.0000001
 43
0.0000001
 44
0.0000000001
 40
0.0
 40
0.0
 40
0.0
 40
0.0
 40
0.1213775379
 40
0.2447710638
 40
0.4953704835
 40
0.6218949847
 40
0.748577933
 40
0.8748288399
 40
1.0
 40
1.0
 40
1.0
 40
1.0
 10
8.5144187353
 20
11.585934715
 30
0.0
 10
8.4826967926
 20
11.5836545007
 30
0.0
 10
8.4188466406
 20
11.577062375
 30
0.0
 10
8.2907748063
 20
11.5556302233
 30
0.0
 10
8.1636848149
 20
11.521266302
 30
0.0
 10
8.0406673207
 20
11.4731299597
 30
0.0
 10
7.9507254626
 20
11.430559583
 30
0.0
 10
7.8641302552
 20
11.3822915854
 30
0.0
 10
7.8087474017
 20
11.3465149163
 30
0.0
 10
7.7817944419
 20
11.3278271079
 30
0.0
  0
SPLINE
  5
38A
100
AcDbEntity
  8
0
100
AcDbSpline
 62
7
  6
CONTINUOUS
 70
0
 71
3
 72
13
 73
9
 74
0
 42
0.0000001
 43
0.0000001
 44
0.0000000001
 40
0.0
 40
0.0
 40
0.0
 40
0.0
 40
0.2617845255
 40
0.3904188936
 40
0.5171315212
 40
0.7637261278
 40
0.8832833291
 40
1.0
 40
1.0
 40
1.0
 40
1.0
 10
12.1183378616
 20
6.8474056888
 30
0.0
 10
12.1213596001
 20
6.8227620308
 30
0.0
 10
12.1268236834
 20
6.7861108566
 30
0.0
 10
12.136427896
 20
6.7380048205
 30
0.0
 10
12.147439834
 20
6.691684881
 30
0.0
 10
12.1610241101
 20
6.6468709923
 30
0.0
 10
12.1777640952
 20
6.6042224821
 30
0.0
 10
12.1871960713
 20
6.5838746081
 30
0.0
 10
12.1921957448
 20
6.5739983326
 30
0.0
  0
SPLINE
  5
38B
100
AcDbEntity
  8
0
100
AcDbSpline
 62
7
  6
CONTINUOUS
 70
0
 71
3
 72
29
 73
25
 74
0
 42
0.0000001
 43
0.0000001
 44
0.0000000001
 40
0.0
 40
0.0
 40
0.0
 40
0.0
 40
0.000272728
 40
0.0010927393
 40
0.002458938
 40
0.0043702282
 40
0.0068255141
 40
0.0098236997
 40
0.0174443872
 40
0.0272235261
 40
0.0391523527
 40
0.053222105
 40
0.0694229896
 40
0.0877326841
 40
0.1081205244
 40
0.1550073933
 40
0.2098371614
 40
0.2723619097
 40
0.3422480357
 40
0.4190349001
 40
0.5022516344
 40
0.5914290399
 40
0.7860517395
 40
1.0
 40
1.0
 40
1.0
 40
1.0
 10
6.9011800161
 20
11.1230323666
 30
0.0
 10
6.9011770079
 20
11.1230256728
 30
0.0
 10
6.9012183912
 20
11.1230748257
 30
0.0
 10
6.9012463937
 20
11.1230930368
 30
0.0
 10
6.9013368261
 20
11.1231854995
 30
0.0
 10
6.9014428269
 20
11.1232857012
 30
0.0
 10
6.9015872643
 20
11.1234260943
 30
0.0
 10
6.901839428
 20
11.1236691831
 30
0.0
 10
6.9022349838
 20
11.124051169
 30
0.0
 10
6.9028028425
 20
11.1245985737
 30
0.0
 10
6.9034962726
 20
11.1252666206
 30
0.0
 10
6.9043143718
 20
11.1260540126
 30
0.0
 10
6.9052566642
 20
11.1269600708
 30
0.0
 10
6.9063216811
 20
11.1279837457
 30
0.0
 10
6.9079817801
 20
11.1295798576
 30
0.0
 10
6.9103489253
 20
11.1318584415
 30
0.0
 10
6.9135289408
 20
11.1349275005
 30
0.0
 10
6.9171478447
 20
11.1384329686
 30
0.0
 10
6.921185668
 20
11.1423551344
 30
0.0
 10
6.9256237434
 20
11.1466643535
 30
0.0
 10
6.9304394262
 20
11.1513298407
 30
0.0
 10
6.9375466506
 20
11.1581868779
 30
0.0
 10
6.9472168108
 20
11.1674538317
 30
0.0
 10
6.9551747982
 20
11.175039182
 30
0.0
 10
6.9593453589
 20
11.1790077199
 30
0.0
  0
SPLINE
  5
38C
100
AcDbEntity
  8
0
100
AcDbSpline
 62
9
  6
CONTINUOUS
 70
0
 71
3
 72
9
 73
5
 74
0
 42
0.0000001
 43
0.0000001
 44
0.0000000001
 40
0.0
 40
0.0
 40
0.0
 40
0.0
 40
0.4999786979
 40
1.0
 40
1.0
 40
1.0
 40
1.0
 10
12.9350818803
 20
9.0428774715
 30
0.0
 10
12.8985673467
 20
9.1842451367
 30
0.0
 10
12.8181719819
 20
9.465193186
 30
0.0
 10
12.7177207122
 20
9.7397740581
 30
0.0
 10
12.66193914
 20
9.8747191485
 30
0.0
  0
SPLINE
  5
38D
100
AcDbEntity
  8
0
100
AcDbSpline
 62
9
  6
CONTINUOUS
 70
0
 71
3
 72
15
 73
11
 74
0
 42
0.0000001
 43
0.0000001
 44
0.0000000001
 40
0.0
 40
0.0
 40
0.0
 40
0.0
 40
0.1151410284
 40
0.2386811813
 40
0.3682845667
 40
0.5009504828
 40
0.6335095148
 40
0.7627777569
 40
0.8857313173
 40
1.0
 40
1.0
 40
1.0
 40
1.0
 10
12.9350818804
 20
9.042877471
 30
0.0
 10
12.9273930182
 20
9.0399680998
 30
0.0
 10
12.9113576842
 20
9.0341908034
 30
0.0
 10
12.8863793368
 20
9.0259648759
 30
0.0
 10
12.8599909315
 20
9.0180516216
 30
0.0
 10
12.8327892565
 20
9.0106404507
 30
0.0
 10
12.8054279531
 20
9.003942071
 30
0.0
 10
12.7785814639
 20
8.99809416
 30
0.0
 10
12.7528680975
 20
8.9932266132
 30
0.0
 10
12.7361400292
 20
8.9905529461
 30
0.0
 10
12.7280632739
 20
8.9894001736
 30
0.0
  0
SPLINE
  5
38E
100
AcDbEntity
  8
0
100
AcDbSpline
 62
9
  6
CONTINUOUS
 70
0
 71
3
 72
12
 73
8
 74
0
 42
0.0000001
 43
0.0000001
 44
0.0000000001
 40
0.0
 40
0.0
 40
0.0
 40
0.0
 40
0.2500974451
 40
0.5002185923
 40
0.6252499049
 40
0.7502386618
 40
1.0
 40
1.0
 40
1.0
 40
1.0
 10
12.7280632739
 20
8.9894001736
 30
0.0
 10
12.7092718637
 20
9.0639206372
 30
0.0
 10
12.6691484446
 20
9.2123474425
 30
0.0
 10
12.6113615621
 20
9.3956562862
 30
0.0
 10
12.5600937529
 20
9.5405578152
 30
0.0
 10
12.5053915056
 20
9.6840765048
 30
0.0
 10
12.4603845855
 20
9.7901419983
 30
0.0
 10
12.4286919669
 20
9.8600428558
 30
0.0
  0
LINE
  5
38F
100
AcDbEntity
  8
0
100
AcDbLine
 62
9
  6
CONTINUOUS
 10
12.9380627697
 20
7.6677032617
 11
12.9358067853
 21
7.6876309117
  0
LINE
  5
390
100
AcDbEntity
  8
0
100
AcDbLine
 62
7
  6
CONTINUOUS
 10
12.9260156214
 20
7.6686341673
 11
12.9177285199
 21
7.6889654101
  0
SPLINE
  5
391
100
AcDbEntity
  8
0
100
AcDbSpline
 62
7
  6
CONTINUOUS
 70
0
 71
3
 72
10
 73
6
 74
0
 42
0.0000001
 43
0.0000001
 44
0.0000000001
 40
0.0
 40
0.0
 40
0.0
 40
0.0
 40
0.2518561041
 40
0.5027041575
 40
1.0
 40
1.0
 40
1.0
 40
1.0
 10
12.5295818666
 20
8.5150409759
 30
0.0
 10
12.4753553043
 20
8.6160182556
 30
0.0
 10
12.3628626214
 20
8.8153323852
 30
0.0
 10
12.1219557146
 20
9.2015181707
 30
0.0
 10
11.9219006246
 20
9.4778895145
 30
0.0
 10
11.7799410464
 20
9.6541421923
 30
0.0
  0
SPLINE
  5
392
100
AcDbEntity
  8
0
100
AcDbSpline
 62
7
  6
CONTINUOUS
 70
0
 71
3
 72
16
 73
12
 74
0
 42
0.0000001
 43
0.0000001
 44
0.0000000001
 40
0.0
 40
0.0
 40
0.0
 40
0.0
 40
0.1306271092
 40
0.196012299
 40
0.2611935952
 40
0.3904911669
 40
0.5178571899
 40
0.642713773
 40
0.7647758524
 40
0.8839007543
 40
1.0
 40
1.0
 40
1.0
 40
1.0
 10
12.1886214677
 20
9.9610678772
 30
0.0
 10
12.1960878367
 20
9.9519636534
 30
0.0
 10
12.2082056892
 20
9.9390167248
 30
0.0
 10
12.225888496
 20
9.9234555377
 30
0.0
 10
12.2444564501
 20
9.9091525355
 30
0.0
 10
12.2690927337
 20
9.893676171
 30
0.0
 10
12.300340594
 20
9.8791171798
 30
0.0
 10
12.332477143
 20
9.8685975141
 30
0.0
 10
12.3648746744
 20
9.8619896066
 30
0.0
 10
12.397005378
 20
9.8590584006
 30
0.0
 10
12.4182494995
 20
9.8593600311
 30
0.0
 10
12.4286919817
 20
9.8600428693
 30
0.0
  0
LINE
  5
393
100
AcDbEntity
  8
0
100
AcDbLine
 62
9
  6
CONTINUOUS
 10
12.498100473
 20
7.2521414053
 11
12.4154760291
 21
7.2236797129
  0
LINE
  5
394
100
AcDbEntity
  8
0
100
AcDbLine
 62
7
  6
CONTINUOUS
 10
13.1409917401
 20
8.8822605572
 11
13.1409944705
 21
9.0428774541
  0
SPLINE
  5
395
100
AcDbEntity
  8
0
100
AcDbSpline
 62
9
  6
CONTINUOUS
 70
0
 71
3
 72
13
 73
9
 74
0
 42
0.0000001
 43
0.0000001
 44
0.0000000001
 40
0.0
 40
0.0
 40
0.0
 40
0.0
 40
0.2495298416
 40
0.3744289075
 40
0.4994071904
 40
0.6244604467
 40
0.7495845317
 40
1.0
 40
1.0
 40
1.0
 40
1.0
 10
12.1014806278
 20
7.1212131538
 30
0.0
 10
12.1276598052
 20
7.1295443234
 30
0.0
 10
12.1669141712
 20
7.1421349924
 30
0.0
 10
12.2192468869
 20
7.1590027906
 30
0.0
 10
12.2585224806
 20
7.1717074597
 30
0.0
 10
12.2977927948
 20
7.1845087519
 30
0.0
 10
12.3501343765
 20
7.2017708072
 30
0.0
 10
12.3893429451
 20
7.2148941415
 30
0.0
 10
12.4154760363
 20
7.2236797154
 30
0.0
  0
LINE
  5
396
100
AcDbEntity
  8
0
100
AcDbLine
 62
7
  6
CONTINUOUS
 10
13.1409945032
 20
9.0428774541
 11
13.140991709
 21
9.874042605
  0
LINE
  5
397
100
AcDbEntity
  8
0
100
AcDbLine
 62
7
  6
CONTINUOUS
 10
13.140991709
 20
9.874042605
 11
13.1410009659
 21
9.8994989008
  0
SPLINE
  5
398
100
AcDbEntity
  8
0
100
AcDbSpline
 62
9
  6
CONTINUOUS
 70
0
 71
3
 72
15
 73
11
 74
0
 42
0.0000001
 43
0.0000001
 44
0.0000000001
 40
0.0
 40
0.0
 40
0.0
 40
0.0
 40
0.1248400837
 40
0.2516634715
 40
0.3791550735
 40
0.5061507496
 40
0.6317818806
 40
0.7556453613
 40
0.8780040337
 40
1.0
 40
1.0
 40
1.0
 40
1.0
 10
8.0118281234
 20
10.8002318707
 30
0.0
 10
8.0156524853
 20
10.808033599
 30
0.0
 10
8.0232307221
 20
10.8238248596
 30
0.0
 10
8.0347121542
 20
10.8475850488
 30
0.0
 10
8.0467590845
 20
10.8712359999
 30
0.0
 10
8.0596968777
 20
10.8943242965
 30
0.0
 10
8.073856853
 20
10.9163967611
 30
0.0
 10
8.0895831958
 20
10.9369990874
 30
0.0
 10
8.1072255488
 20
10.9556617852
 30
0.0
 10
8.1204638091
 20
10.9664449708
 30
0.0
 10
8.127430727
 20
10.9712982359
 30
0.0
  0
SPLINE
  5
399
100
AcDbEntity
  8
0
100
AcDbSpline
 62
7
  6
CONTINUOUS
 70
0
 71
3
 72
9
 73
5
 74
0
 42
0.0000001
 43
0.0000001
 44
0.0000000001
 40
0.0
 40
0.0
 40
0.0
 40
0.0
 40
0.5035733002
 40
1.0
 40
1.0
 40
1.0
 40
1.0
 10
14.1460160749
 20
6.7034972243
 30
0.0
 10
14.1379066817
 20
6.6812470314
 30
0.0
 10
14.120647058
 20
6.6374720764
 30
0.0
 10
14.1006441764
 20
6.5948600957
 30
0.0
 10
14.0899106336
 20
6.5741280212
 30
0.0
  0
SPLINE
  5
39A
100
AcDbEntity
  8
0
100
AcDbSpline
 62
7
  6
CONTINUOUS
 70
0
 71
3
 72
14
 73
10
 74
0
 42
0.0000001
 43
0.0000001
 44
0.0000000001
 40
0.0
 40
0.0
 40
0.0
 40
0.0
 40
0.1296598711
 40
0.2594192526
 40
0.3884076532
 40
0.5159304884
 40
0.6414601335
 40
0.7644228167
 40
1.0
 40
1.0
 40
1.0
 40
1.0
 10
12.5612769527
 20
9.8994989008
 30
0.0
 10
12.5560546818
 20
9.8964836979
 30
0.0
 10
12.5454100511
 20
9.8907842461
 30
0.0
 10
12.5289810569
 20
9.8832487211
 30
0.0
 10
12.512213851
 20
9.8767679166
 30
0.0
 10
12.4952750511
 20
9.8713702523
 30
0.0
 10
12.4783248213
 20
9.8670265768
 30
0.0
 10
12.4562267242
 20
9.8626807036
 30
0.0
 10
12.4396248479
 20
9.8607578126
 30
0.0
 10
12.4286919744
 20
9.8600429073
 30
0.0
  0
SPLINE
  5
39B
100
AcDbEntity
  8
0
100
AcDbSpline
 62
9
  6
CONTINUOUS
 70
0
 71
3
 72
11
 73
7
 74
0
 42
0.0000001
 43
0.0000001
 44
0.0000000001
 40
0.0
 40
0.0
 40
0.0
 40
0.0
 40
0.2506671137
 40
0.5036508231
 40
0.755005198
 40
1.0
 40
1.0
 40
1.0
 40
1.0
 10
8.0289100774
 20
10.9241789284
 30
0.0
 10
8.0211678665
 20
10.913889382
 30
0.0
 10
8.0066403697
 20
10.8924369301
 30
0.0
 10
7.9869878283
 20
10.8589868443
 30
0.0
 10
7.9686026293
 20
10.8251652421
 30
0.0
 10
7.956514137
 20
10.8027143589
 30
0.0
 10
7.9503914032
 20
10.7917184891
 30
0.0
  0
SPLINE
  5
39C
100
AcDbEntity
  8
0
100
AcDbSpline
 62
7
  6
CONTINUOUS
 70
0
 71
3
 72
11
 73
7
 74
0
 42
0.0000001
 43
0.0000001
 44
0.0000000001
 40
0.0
 40
0.0
 40
0.0
 40
0.0
 40
0.2480112306
 40
0.4958827186
 40
0.7461850876
 40
1.0
 40
1.0
 40
1.0
 40
1.0
 10
8.1055584728
 20
10.9938578679
 30
0.0
 10
8.097976617
 20
10.9897437954
 30
0.0
 10
8.083387945
 20
10.9804251
 30
0.0
 10
8.0634278437
 20
10.9637495889
 30
0.0
 10
8.0452460812
 20
10.9448902489
 30
0.0
 10
8.0342178563
 20
10.931233068
 30
0.0
 10
8.0289100774
 20
10.9241789284
 30
0.0
  0
SPLINE
  5
39D
100
AcDbEntity
  8
0
100
AcDbSpline
 62
7
  6
CONTINUOUS
 70
0
 71
3
 72
11
 73
7
 74
0
 42
0.0000001
 43
0.0000001
 44
0.0000000001
 40
0.0
 40
0.0
 40
0.0
 40
0.0
 40
0.2606918715
 40
0.5164325857
 40
0.7639317942
 40
1.0
 40
1.0
 40
1.0
 40
1.0
 10
7.7818052595
 20
11.3278126637
 30
0.0
 10
7.7966071684
 20
11.3125451603
 30
0.0
 10
7.8257255197
 20
11.282102376
 30
0.0
 10
7.8685994863
 20
11.2368816646
 30
0.0
 10
7.910368514
 20
11.1933821686
 30
0.0
 10
7.9382389975
 20
11.1654599207
 30
0.0
 10
7.9520947151
 20
11.1520874582
 30
0.0
  0
SPLINE
  5
39E
100
AcDbEntity
  8
0
100
AcDbSpline
 62
9
  6
CONTINUOUS
 70
0
 71
3
 72
14
 73
10
 74
0
 42
0.0000001
 43
0.0000001
 44
0.0000000001
 40
0.0
 40
0.0
 40
0.0
 40
0.0
 40
0.1242373797
 40
0.2488628353
 40
0.3741376434
 40
0.4999840613
 40
0.7518461538
 40
0.8767246983
 40
1.0
 40
1.0
 40
1.0
 40
1.0
 10
8.0435994033
 20
11.0577458743
 30
0.0
 10
8.0314126461
 20
11.0495134286
 30
0.0
 10
8.0077595447
 20
11.0318786203
 30
0.0
 10
7.9744210761
 20
11.0026704153
 30
0.0
 10
7.9428934693
 20
10.9712598866
 30
0.0
 10
7.9028480675
 20
10.92717179
 30
0.0
 10
7.8652747163
 20
10.8810070139
 30
0.0
 10
7.8286242387
 20
10.8345337387
 30
0.0
 10
7.8103720638
 20
10.8115151725
 30
0.0
 10
7.8012122083
 20
10.800155138
 30
0.0
  0
SPLINE
  5
39F
100
AcDbEntity
  8
0
100
AcDbSpline
 62
7
  6
CONTINUOUS
 70
0
 71
3
 72
22
 73
18
 74
0
 42
0.0000001
 43
0.0000001
 44
0.0000000001
 40
0.0
 40
0.0
 40
0.0
 40
0.0
 40
0.1237807706
 40
0.1860963105
 40
0.2486130911
 40
0.3112850732
 40
0.3740145949
 40
0.4367167713
 40
0.4993410753
 40
0.5619631444
 40
0.6246638246
 40
0.6874329522
 40
0.7188202833
 40
0.7501901762
 40
0.8128431405
 40
0.8753571337
 40
1.0
 40
1.0
 40
1.0
 40
1.0
 10
7.5848118717
 20
10.8919402764
 30
0.0
 10
7.5769798162
 20
10.8992694236
 30
0.0
 10
7.5656517348
 20
10.9107885581
 30
0.0
 10
7.5517158981
 20
10.9272283048
 30
0.0
 10
7.5418888233
 20
10.9401796274
 30
0.0
 10
7.5328043308
 20
10.95370573
 30
0.0
 10
7.5245234292
 20
10.9677572444
 30
0.0
 10
7.5171101417
 20
10.9822820183
 30
0.0
 10
7.5106515964
 20
10.997245672
 30
0.0
 10
7.5050864291
 20
11.0125604946
 30
0.0
 10
7.5002483048
 20
11.0281303064
 30
0.0
 10
7.4966978546
 20
11.041253672
 30
0.0
 10
7.494068745
 20
11.0518090918
 30
0.0
 10
7.4915539942
 20
11.0623819112
 30
0.0
 10
7.488647563
 20
11.0756342087
 30
0.0
 10
7.4846507309
 20
11.0969108433
 30
0.0
 10
7.4825382244
 20
11.1130184012
 30
0.0
 10
7.4816741024
 20
11.1237849721
 30
0.0
  0
SPLINE
  5
3A0
100
AcDbEntity
  8
0
100
AcDbSpline
 62
7
  6
CONTINUOUS
 70
0
 71
3
 72
10
 73
6
 74
0
 42
0.0000001
 43
0.0000001
 44
0.0000000001
 40
0.0
 40
0.0
 40
0.0
 40
0.0
 40
0.4995986752
 40
0.7496038375
 40
1.0
 40
1.0
 40
1.0
 40
1.0
 10
12.0173323471
 20
7.5300431389
 30
0.0
 10
11.992913471
 20
7.6324753661
 30
0.0
 10
11.9525535721
 20
7.7853204937
 30
0.0
 10
11.8909723584
 20
7.9869142787
 30
0.0
 10
11.8575282198
 20
8.0869600121
 30
0.0
 10
11.840119425
 20
8.1367832691
 30
0.0
  0
SPLINE
  5
3A1
100
AcDbEntity
  8
0
100
AcDbSpline
 62
7
  6
CONTINUOUS
 70
0
 71
3
 72
11
 73
7
 74
0
 42
0.0000001
 43
0.0000001
 44
0.0000000001
 40
0.0
 40
0.0
 40
0.0
 40
0.0
 40
0.2474414282
 40
0.4963534991
 40
0.7470805659
 40
1.0
 40
1.0
 40
1.0
 40
1.0
 10
11.7074331979
 20
8.4804744375
 30
0.0
 10
11.6828785981
 20
8.5383171253
 30
0.0
 10
11.6316167208
 20
8.6535067658
 30
0.0
 10
11.5483490738
 20
8.8240261356
 30
0.0
 10
11.4582480591
 20
8.9926168824
 30
0.0
 10
11.3937633697
 20
9.1031163222
 30
0.0
 10
11.3603424206
 20
9.1579662809
 30
0.0
  0
SPLINE
  5
3A2
100
AcDbEntity
  8
0
100
AcDbSpline
 62
7
  6
CONTINUOUS
 70
0
 71
3
 72
15
 73
11
 74
0
 42
0.0000001
 43
0.0000001
 44
0.0000000001
 40
0.0
 40
0.0
 40
0.0
 40
0.0
 40
0.1481173949
 40
0.2840796253
 40
0.4106482012
 40
0.5306319355
 40
0.6468148805
 40
0.7619572888
 40
0.8787901551
 40
1.0
 40
1.0
 40
1.0
 40
1.0
 10
8.4982440975
 20
11.1227406253
 30
0.0
 10
8.4779178665
 20
11.1199547966
 30
0.0
 10
8.4390610956
 20
11.1136104675
 30
0.0
 10
8.3834586265
 20
11.1015201929
 30
0.0
 10
8.3322469003
 20
11.0878591227
 30
0.0
 10
8.2843360869
 20
11.0726724257
 30
0.0
 10
8.2386066122
 20
11.0559946779
 30
0.0
 10
8.1940410401
 20
11.0375319619
 30
0.0
 10
8.1496275093
 20
11.0169897665
 30
0.0
 10
8.1203151744
 20
11.001865161
 30
0.0
 10
8.1055584728
 20
10.9938578679
 30
0.0
  0
SPLINE
  5
3A3
100
AcDbEntity
  8
0
100
AcDbSpline
 62
7
  6
CONTINUOUS
 70
0
 71
3
 72
22
 73
18
 74
0
 42
0.0000001
 43
0.0000001
 44
0.0000000001
 40
0.0
 40
0.0
 40
0.0
 40
0.0
 40
0.1261744127
 40
0.1923401433
 40
0.2599162965
 40
0.3284317798
 40
0.3973654142
 40
0.4662057854
 40
0.5344780166
 40
0.6017258875
 40
0.6674143662
 40
0.7309930543
 40
0.7919344409
 40
0.8497626762
 40
0.9040490879
 40
0.9543097102
 40
1.0
 40
1.0
 40
1.0
 40
1.0
 10
9.9411070465
 20
10.6477185261
 30
0.0
 10
9.8871048794
 20
10.6844286629
 30
0.0
 10
9.8036314742
 20
10.73873489
 30
0.0
 10
9.688246628
 20
10.8078974248
 30
0.0
 10
9.5969716608
 20
10.8591688041
 30
0.0
 10
9.5028421918
 20
10.9081805881
 30
0.0
 10
9.4064604464
 20
10.9541523536
 30
0.0
 10
9.3084674503
 20
10.9962780962
 30
0.0
 10
9.2095219231
 20
11.0337441508
 30
0.0
 10
9.110371483
 20
11.0657092246
 30
0.0
 10
9.0120540812
 20
11.0919086287
 30
0.0
 10
8.9156482942
 20
11.1120578435
 30
0.0
 10
8.8222311277
 20
11.1258791186
 30
0.0
 10
8.732893724
 20
11.1330623798
 30
0.0
 10
8.6488189147
 20
11.1344911428
 30
0.0
 10
8.5710976223
 20
11.1310903709
 30
0.0
 10
8.5216709199
 20
11.1259514072
 30
0.0
 10
8.4982440975
 20
11.1227406253
 30
0.0
  0
ELLIPSE
  5
3A4
100
AcDbEntity
  8
0
100
AcDbEllipse
 62
7
  6
CONTINUOUS
 10
13.1409944704
 20
7.3304176712
 30
0.0
 11
-1.1492470711
 21
1.1162095399
 31
0.0
 40
0.2678505055
 41
-3.9342811082
 42
-2.887083557
  0
ELLIPSE
  5
3A5
100
AcDbEntity
  8
0
100
AcDbEllipse
 62
7
  6
CONTINUOUS
 10
13.1409944704
 20
7.3304176712
 30
0.0
 11
1.1492470711
 21
1.1162095399
 31
0.0
 40
0.2678505055
 41
-3.3961017501
 42
-2.3489041989
  0
ELLIPSE
  5
3A6
100
AcDbEntity
  8
0
100
AcDbEllipse
 62
7
  6
CONTINUOUS
 10
13.1409944704
 20
7.3304176712
 30
0.0
 11
1.1875
 21
-0.0
 31
0.0
 40
0.9750549296
 41
-2.0943951024
 42
-1.0471975512
  0
ENDSEC
  0
SECTION
  2
OBJECTS
  0
DICTIONARY
  5
C
100
AcDbDictionary
280
0
281
1
  3
ACAD_GROUP
350
D
  3
ACAD_MLINESTYLE
350
17
  3
ACAD_LAYOUT
350
1A
  3
ACAD_PLOTSETTINGS
350
19
  3
ACAD_PLOTSTYLENAME
350
E
  0
DICTIONARY
  5
D
102
{ACAD_REACTORS
330
C
102
}
100
AcDbDictionary
280
0
281
1
  0
ACDBDICTIONARYWDFLT
  5
E
102
{ACAD_REACTORS
330
C
102
}
100
AcDbDictionary
281
1
  3
Normal
350
F
100
AcDbDictionaryWithDefault
340
F
  0
DICTIONARY
  5
17
102
{ACAD_REACTORS
330
C
102
}
100
AcDbDictionary
280
0
281
1
  3
Standard
350
18
  0
DICTIONARY
  5
19
102
{ACAD_REACTORS
330
C
102
}
100
AcDbDictionary
281
1
  0
DICTIONARY
  5
1A
102
{ACAD_REACTORS
330
C
102
}
100
AcDbDictionary
281
1
  3
Model
350
3A7
  3
Layout1
350
3A8
  0
ACDBPLACEHOLDER
  5
F
102
{ACAD_REACTORS
330
E
102
}
  0
MLINESTYLE
  5
18
102
{ACAD_REACTORS
330
17
102
}
100
AcDbMlineStyle
  2
STANDARD
 70
0
  3

 62
256
 51
90.0
 52
90.0
 71
2
 49
0.5
 62
256
  6
BYLAYER
 49
-0.5
 62
256
  6
BYLAYER
  0
LAYOUT
  5
3A7
102
{ACAD_REACTORS
330
1A
102
}
100
AcDbPlotSettings
  1

  2
none_device
  4
ANSI_C_(22.00_x_17.00_Inches)
  6

 40
0.0
 41
0.0
 42
0.0
 43
0.0
 44
558.8
 45
431.8
 46
0.0
 47
0.0
 48
0.0
 49
0.0
140
0.0
141
0.0
142
1.0
143
1.0
 70
1024
 72
0
 73
0
 74
0
  7

 75
0
147
1.0
148
0.0
149
0.0
100
AcDbLayout
  1
Model
 70
0
 71
0
 10
0.0
 20
0.0
 11
22.0
 21
17.0
 12
0.0
 22
0.0
 32
0.0
 14
0.0
 24
0.0
 34
0.0
 15
0.0
 25
0.0
 35
0.0
146
0.0
 13
0.0
 23
0.0
 33
0.0
 16
1.0
 26
0.0
 36
0.0
 17
0.0
 27
1.0
 37
0.0
 76
0
330
202
345
0
346
0
  0
LAYOUT
  5
3A8
102
{ACAD_REACTORS
330
1A
102
}
100
AcDbPlotSettings
  1

  2
none_device
  4
ANSI_C_(22.00_x_17.00_Inches)
  6

 40
0.0
 41
0.0
 42
0.0
 43
0.0
 44
558.8
 45
431.8
 46
0.0
 47
0.0
 48
0.0
 49
0.0
140
0.0
141
0.0
142
1.0
143
1.0
 70
0
 72
0
 73
0
 74
0
  7

 75
0
147
1.0
148
0.0
149
0.0
100
AcDbLayout
  1
Layout1
 70
0
 71
1
 10
0.0
 20
0.0
 11
22.0
 21
17.0
 12
0.0
 22
0.0
 32
0.0
 14
0.0
 24
0.0
 34
0.0
 15
0.0
 25
0.0
 35
0.0
146
0.0
 13
0.0
 23
0.0
 33
0.0
 16
1.0
 26
0.0
 36
0.0
 17
0.0
 27
1.0
 37
0.0
 76
0
330
203
345
0
346
0
  0
ENDSEC
  0
EOF
