999
DXF file: E:\BRASSTECH\RAY\EN-4300m\Webdata\1220\CAD\1200_TOP.dxf
999
Pro/ENGINEER 2018400 by Parametric Technology Corporation
  0
SECTION
  2
HEADER
  9
$ACADVER
  1
AC1018
  9
$DWGCODEPAGE
  3
ANSI_1252
  9
$EXTMAX
 10
22.0
 20
17.0
 30
0.0
  9
$EXTMIN
 10
0.0
 20
0.0
 30
0.0
  9
$LIMMIN
 10
0.0
 20
0.0
  9
$LIMMAX
 10
22.0
 20
17.0
  9
$VIEWCTR
 10
11.0
 20
8.5
  9
$VIEWSIZE
 40
17.0
  9
$CLAYER
  8
0
  9
$LTSCALE
 40
1.21
  9
$CELTYPE
  6
BYLAYER
  9
$DIMSCALE
 40
1.0
  9
$DIMASZ
 40
0.1
  9
$DIMEXO
 40
0.0625
  9
$DIMDLI
 40
0.836
  9
$DIMEXE
 40
0.125
  9
$DIMCEN
 40
0.198
  9
$DIMLFAC
 40
1.0
  9
$DIMBLK
  1
_FILLED
  9
$DIMALT
 70
1
  9
$DIMALTD
 70
2
  9
$DIMALTTD
 70
2
  9
$DIMALTF
 40
25.4
  9
$DIMTXT
 40
0.08
  9
$DIMTOL
 70
1
  9
$DIMLIM
 70
0
  9
$DIMTFAC
 40
1.0
  9
$DIMTP
 40
0.001
  9
$DIMTM
 40
0.001
  9
$DIMGAP
 40
0.09
  9
$DIMDSEP
 70
46
  9
$AUNITS
 70
0
  9
$PDMODE
 70
3
  9
$PDSIZE
 40
0.06
  9
$HANDSEED
  5
43B
  9
$TILEMODE
 70
1
  9
$MEASUREMENT
 70
0
  9
$INSUNITS
 70
1
  0
ENDSEC
  0
SECTION
  2
CLASSES
  0
CLASS
  1
ACDBDICTIONARYWDFLT
  2
AcDbDictionaryWithDefault
  3
AutoCAD 2000
 90
0
 91
1
280
0
281
0
  0
CLASS
  1
ACDBPLACEHOLDER
  2
AcDbPlaceHolder
  3
AutoCAD 2000
 90
0
 91
1
280
0
281
0
  0
CLASS
  1
LAYOUT
  2
AcDbLayout
  3
AutoCAD 2000
 90
0
 91
0
280
0
281
0
  0
ENDSEC
  0
SECTION
  2
TABLES
  0
TABLE
  2
VPORT
  5
8
100
AcDbSymbolTable
 70
2
  0
VPORT
  5
1F4
100
AcDbSymbolTableRecord
100
AcDbViewportTableRecord
  2
*ACTIVE
 70
0
 10
0.0
 20
0.0
 11
1.0
 21
1.0
 12
11.0
 22
8.5
 13
0.0
 23
0.0
 14
1.0
 24
1.0
 15
0.0
 25
0.0
 16
0.0
 26
0.0
 36
1.0
 17
0.0
 27
0.0
 37
0.0
 40
17.0
 41
1.2941176471
 42
50.0
 43
0.0
 44
0.0
 50
0.0
 51
0.0
 71
0
 72
100
 73
1
 74
1
 75
0
 76
0
 77
0
 78
0
  0
ENDTAB
  0
TABLE
  2
LTYPE
  5
5
100
AcDbSymbolTable
 70
6
  0
LTYPE
  5
14
100
AcDbSymbolTableRecord
100
AcDbLinetypeTableRecord
  2
BYBLOCK
 70
0
  3

 72
65
 73
0
 40
0.0
  0
LTYPE
  5
15
100
AcDbSymbolTableRecord
100
AcDbLinetypeTableRecord
  2
BYLAYER
 70
0
  3

 72
65
 73
0
 40
0.0
  0
LTYPE
  5
16
100
AcDbSymbolTableRecord
100
AcDbLinetypeTableRecord
  2
CONTINUOUS
 70
64
  3
Solid line
 72
65
 73
0
 40
0.0
  0
LTYPE
  5
1F5
100
AcDbSymbolTableRecord
100
AcDbLinetypeTableRecord
  2
CENTER
 70
64
  3
____ _ ____ _ ____ _ ____ _ ____ _ ____ _ ____
 72
65
 73
4
 40
0.6
 49
0.375
 74
0
 49
-0.075
 74
0
 49
0.075
 74
0
 49
-0.075
 74
0
  0
LTYPE
  5
1F6
100
AcDbSymbolTableRecord
100
AcDbLinetypeTableRecord
  2
HIDDEN
 70
64
  3
- - - - - - - - - - - - - - - - - - - -
 72
65
 73
2
 40
0.2
 49
0.1
 74
0
 49
-0.1
 74
0
  0
LTYPE
  5
1F7
100
AcDbSymbolTableRecord
100
AcDbLinetypeTableRecord
  2
PHANTOM
 70
64
  3
_____ _ _ _____ _ _ _____ _ _ _____
 72
65
 73
6
 40
0.8
 49
0.45
 74
0
 49
-0.05
 74
0
 49
0.1
 74
0
 49
-0.05
 74
0
 49
0.1
 74
0
 49
-0.05
 74
0
  0
LTYPE
  5
1F8
100
AcDbSymbolTableRecord
100
AcDbLinetypeTableRecord
  2
DOT
 70
64
  3
. . . . . . . . . . . . . . . . . . . .
 72
65
 73
2
 40
0.2
 49
0.1
 74
0
 49
-0.1
 74
0
  0
LTYPE
  5
1F9
100
AcDbSymbolTableRecord
100
AcDbLinetypeTableRecord
  2
DASHED
 70
64
  3
- - - - - - - - - - - - - - - - - - - -
 72
65
 73
2
 40
0.2
 49
0.1
 74
0
 49
-0.1
 74
0
  0
ENDTAB
  0
TABLE
  2
LAYER
  5
2
100
AcDbSymbolTable
 70
36
  0
LAYER
  5
10
100
AcDbSymbolTableRecord
100
AcDbLayerTableRecord
  2
0
 70
0
 62
7
  6
CONTINUOUS
370
-3
390
F
  0
LAYER
  5
1FA
100
AcDbSymbolTableRecord
100
AcDbLayerTableRecord
  2
DEFAULT_1
 70
0
 62
7
  6
CENTER
370
-3
390
F
  0
LAYER
  5
1FB
100
AcDbSymbolTableRecord
100
AcDbLayerTableRecord
  2
DEFAULT_2
 70
0
 62
8
  6
HIDDEN
370
-3
390
F
  0
LAYER
  5
1FC
100
AcDbSymbolTableRecord
100
AcDbLayerTableRecord
  2
DEFAULT_3
 70
0
 62
7
  6
PHANTOM
370
-3
390
F
  0
LAYER
  5
1FD
100
AcDbSymbolTableRecord
100
AcDbLayerTableRecord
  2
ALL_FEATURES
 70
0
 62
7
  6
CONTINUOUS
370
-3
390
F
  0
LAYER
  5
1FE
100
AcDbSymbolTableRecord
100
AcDbLayerTableRecord
  2
AXES_FEATURES
 70
0
 62
7
  6
CONTINUOUS
370
-3
390
F
  0
LAYER
  5
1FF
100
AcDbSymbolTableRecord
100
AcDbLayerTableRecord
  2
DIMENSIONS
 70
0
 62
7
  6
CONTINUOUS
370
-3
390
F
  0
ENDTAB
  0
TABLE
  2
STYLE
  5
3
100
AcDbSymbolTable
 70
1
  0
STYLE
  5
11
100
AcDbSymbolTableRecord
100
AcDbTextStyleTableRecord
  2
STANDARD
 70
0
 40
0.0
 41
0.8
 50
0.0
 71
0
 42
0.2
  3
txt
  4

  0
STYLE
  5
200
100
AcDbSymbolTableRecord
100
AcDbTextStyleTableRecord
  2
TEXTSTYLE_1
 70
0
 40
0.0
 41
0.8
 50
0.0
 71
0
 42
0.2
  3
gdt
  4

  0
ENDTAB
  0
TABLE
  2
VIEW
  5
6
100
AcDbSymbolTable
 70
0
  0
ENDTAB
  0
TABLE
  2
UCS
  5
7
100
AcDbSymbolTable
 70
0
  0
ENDTAB
  0
TABLE
  2
APPID
  5
9
100
AcDbSymbolTable
 70
1
  0
APPID
  5
201
100
AcDbSymbolTableRecord
100
AcDbRegAppTableRecord
  2
ACAD
 70
0
  0
ENDTAB
  0
TABLE
  2
BLOCK_RECORD
  5
1
100
AcDbSymbolTable
 70
0
  0
BLOCK_RECORD
  5
202
100
AcDbSymbolTableRecord
100
AcDbBlockTableRecord
  2
*Model_Space
  0
BLOCK_RECORD
  5
203
100
AcDbSymbolTableRecord
100
AcDbBlockTableRecord
  2
*Paper_Space
  0
BLOCK_RECORD
  5
204
100
AcDbSymbolTableRecord
100
AcDbBlockTableRecord
  2
_FILLED
  0
ENDTAB
  0
TABLE
  2
DIMSTYLE
  5
A
100
AcDbSymbolTable
 70
1
100
AcDbDimStyleTable
 71
0
  0
DIMSTYLE
105
205
100
AcDbSymbolTableRecord
100
AcDbDimStyleTableRecord
  2
STANDARD
 70
0
  3

  4

 40
1.0
 41
0.1
 42
0.0625
 43
0.38
 44
0.125
 45
0.0
 46
0.0
 47
0.001
 48
0.001
140
0.08
141
0.09
142
0.0
143
25.4
144
1.0
145
0.0
146
1.0
147
0.09
 71
1.0
 72
0.0
 73
1
 74
1
 75
0
 76
0
 77
0
 78
4
 79
1
170
1
171
2
172
0
173
0
174
0
175
0
176
0
177
0
178
0
270
2
179
3
271
3
272
3
273
2
274
2
275
0
280
0
281
0
282
0
283
1
284
4
285
0
286
0
287
3
288
0
340
11
278
46
341
204
342
204
343
204
344
204
  0
ENDTAB
  0
ENDSEC
  0
SECTION
  2
BLOCKS
  0
BLOCK
  5
20
100
AcDbEntity
  8
0
100
AcDbBlockBegin
  2
*Model_Space
 70
0
 10
0.0
 20
0.0
 30
0.0
  3
*Model_Space
  1

  0
ENDBLK
  5
21
100
AcDbEntity
  8
0
100
AcDbBlockEnd
  0
BLOCK
  5
1C
100
AcDbEntity
  8
0
100
AcDbBlockBegin
  2
*Paper_Space
 70
0
 10
0.0
 20
0.0
 30
0.0
  3
*Paper_Space
  1

  0
ENDBLK
  5
1D
100
AcDbEntity
  8
0
100
AcDbBlockEnd
  0
BLOCK
  5
206
100
AcDbEntity
  8
0
100
AcDbBlockBegin
  2
_FILLED
 70
64
 10
0.0
 20
0.0
  3
_FILLED
  1

  0
SOLID
  5
207
100
AcDbEntity
  8
0
  6
BYBLOCK
 62
0
100
AcDbTrace
 10
0.0
 20
0.0
 11
-1.0
 21
0.2
 12
-1.0
 22
-0.2
 13
-1.0
 23
-0.2
  0
ENDBLK
  5
208
100
AcDbEntity
  8
0
  6
BYBLOCK
 62
0
100
AcDbBlockEnd
  0
ENDSEC
  0
SECTION
  2
ENTITIES
  0
LINE
  5
209
100
AcDbEntity
  8
0
100
AcDbLine
 62
9
  6
CONTINUOUS
 10
6.0225518583
 20
10.0241999547
 11
6.0225518583
 21
9.5736663303
  0
LINE
  5
20A
100
AcDbEntity
  8
0
100
AcDbLine
 62
9
  6
CONTINUOUS
 10
6.0343183383
 20
9.2140773198
 11
6.0343183383
 21
9.5819053083
  0
LINE
  5
20B
100
AcDbEntity
  8
0
100
AcDbLine
 62
9
  6
CONTINUOUS
 10
6.0343183383
 20
10.0159609767
 11
6.0343183383
 21
10.3837889652
  0
LINE
  5
20C
100
AcDbEntity
  8
0
100
AcDbLine
 62
9
  6
CONTINUOUS
 10
6.1046411153
 20
9.6311458469
 11
6.1046411153
 21
9.9667204381
  0
LINE
  5
20D
100
AcDbEntity
  8
0
100
AcDbLine
 62
7
  6
CONTINUOUS
 10
6.1298183383
 20
9.9880240322
 11
6.1298183383
 21
9.6098422528
  0
LINE
  5
20E
100
AcDbEntity
  8
0
100
AcDbLine
 62
9
  6
CONTINUOUS
 10
6.1546814969
 20
9.9898504357
 11
6.1546814969
 21
9.6080158493
  0
LINE
  5
20F
100
AcDbEntity
  8
0
100
AcDbLine
 62
7
  6
CONTINUOUS
 10
7.2151056339
 20
10.7416103655
 11
7.2725851505
 21
10.8236996225
  0
LINE
  5
210
100
AcDbEntity
  8
0
100
AcDbLine
 62
9
  6
CONTINUOUS
 10
6.0343183383
 20
10.3837889652
 11
6.8155007314
 21
10.8348048301
  0
LINE
  5
211
100
AcDbEntity
  8
0
100
AcDbLine
 62
9
  6
CONTINUOUS
 10
6.4718083581
 20
10.1312039845
 11
6.4718083581
 21
9.9505306371
  0
LINE
  5
212
100
AcDbEntity
  8
0
100
AcDbLine
 62
9
  6
CONTINUOUS
 10
6.4718083581
 20
9.6473356479
 11
6.4718083581
 21
9.4666623005
  0
LINE
  5
213
100
AcDbEntity
  8
0
100
AcDbLine
 62
9
  6
CONTINUOUS
 10
6.5161523227
 20
9.6122552125
 11
6.5161523227
 21
9.6325217444
  0
LINE
  5
214
100
AcDbEntity
  8
0
100
AcDbLine
 62
9
  6
CONTINUOUS
 10
6.5161523227
 20
9.9652109611
 11
6.5161523227
 21
9.9856110725
  0
LINE
  5
215
100
AcDbEntity
  8
0
100
AcDbLine
 62
7
  6
CONTINUOUS
 10
6.5473183383
 20
9.5102580079
 11
6.5473183383
 21
9.5550603911
  0
LINE
  5
216
100
AcDbEntity
  8
0
100
AcDbLine
 62
7
  6
CONTINUOUS
 10
6.5473183383
 20
10.0427201218
 11
6.5473183383
 21
10.0876082771
  0
LINE
  5
217
100
AcDbEntity
  8
0
100
AcDbLine
 62
7
  6
CONTINUOUS
 10
7.1463183383
 20
9.8829331425
 11
7.1373183383
 21
9.8614184239
  0
LINE
  5
218
100
AcDbEntity
  8
0
100
AcDbLine
 62
7
  6
CONTINUOUS
 10
6.1046411153
 20
9.6311458469
 11
6.0225518583
 21
9.5736663303
  0
LINE
  5
219
100
AcDbEntity
  8
0
100
AcDbLine
 62
9
  6
CONTINUOUS
 10
6.8971497013
 20
10.3767749235
 11
6.4718083581
 21
10.1312039845
  0
LINE
  5
21A
100
AcDbEntity
  8
0
100
AcDbLine
 62
7
  6
CONTINUOUS
 10
6.5473183383
 20
10.0876082771
 11
6.58596155
 21
10.1099189458
  0
LINE
  5
21B
100
AcDbEntity
  8
0
100
AcDbLine
 62
7
  6
CONTINUOUS
 10
6.7823183383
 20
9.8829331425
 11
6.7823183383
 21
9.8649331425
  0
LINE
  5
21C
100
AcDbEntity
  8
0
100
AcDbLine
 62
7
  6
CONTINUOUS
 10
6.7823183383
 20
9.7379331425
 11
6.7823183383
 21
9.7139331425
  0
LINE
  5
21D
100
AcDbEntity
  8
0
100
AcDbLine
 62
7
  6
CONTINUOUS
 10
6.7988183383
 20
9.8421351163
 11
6.7988183383
 21
9.7607311687
  0
LINE
  5
21E
100
AcDbEntity
  8
0
100
AcDbLine
 62
7
  6
CONTINUOUS
 10
6.8388183383
 20
9.7607311687
 11
6.8388183383
 21
9.7889331425
  0
LINE
  5
21F
100
AcDbEntity
  8
0
100
AcDbLine
 62
7
  6
CONTINUOUS
 10
6.8398183383
 20
9.8184887668
 11
6.8398183383
 21
9.8424887668
  0
LINE
  5
220
100
AcDbEntity
  8
0
100
AcDbLine
 62
7
  6
CONTINUOUS
 10
6.8553183383
 20
9.7139331425
 11
6.8553183383
 21
9.7379331425
  0
LINE
  5
221
100
AcDbEntity
  8
0
100
AcDbLine
 62
7
  6
CONTINUOUS
 10
6.8553183383
 20
9.8649331425
 11
6.8553183383
 21
9.8829331425
  0
LINE
  5
222
100
AcDbEntity
  8
0
100
AcDbLine
 62
7
  6
CONTINUOUS
 10
6.8723183383
 20
9.8829331425
 11
6.8723183383
 21
9.8649331425
  0
LINE
  5
223
100
AcDbEntity
  8
0
100
AcDbLine
 62
7
  6
CONTINUOUS
 10
6.8723183383
 20
9.7379331425
 11
6.8723183383
 21
9.7139331425
  0
LINE
  5
224
100
AcDbEntity
  8
0
100
AcDbLine
 62
7
  6
CONTINUOUS
 10
6.8878183383
 20
9.8424887668
 11
6.8878183383
 21
9.8184887668
  0
LINE
  5
225
100
AcDbEntity
  8
0
100
AcDbLine
 62
7
  6
CONTINUOUS
 10
6.8888183383
 20
9.7889331425
 11
6.8888183383
 21
9.7607311687
  0
LINE
  5
226
100
AcDbEntity
  8
0
100
AcDbLine
 62
7
  6
CONTINUOUS
 10
6.9288183383
 20
9.7607311687
 11
6.9288183383
 21
9.8421351163
  0
LINE
  5
227
100
AcDbEntity
  8
0
100
AcDbLine
 62
7
  6
CONTINUOUS
 10
6.9453183383
 20
9.7139331425
 11
6.9453183383
 21
9.7379331425
  0
LINE
  5
228
100
AcDbEntity
  8
0
100
AcDbLine
 62
7
  6
CONTINUOUS
 10
6.9453183383
 20
9.8649331425
 11
6.9453183383
 21
9.8829331425
  0
LINE
  5
229
100
AcDbEntity
  8
0
100
AcDbLine
 62
7
  6
CONTINUOUS
 10
6.8795310427
 20
8.8562559195
 11
6.8220515261
 21
8.7741666625
  0
LINE
  5
22A
100
AcDbEntity
  8
0
100
AcDbLine
 62
7
  6
CONTINUOUS
 10
7.2978330569
 20
9.8529331425
 11
7.3063183383
 21
9.8614184239
  0
LINE
  5
22B
100
AcDbEntity
  8
0
100
AcDbLine
 62
7
  6
CONTINUOUS
 10
8.0757235053
 20
10.3926831425
 11
8.0603183383
 21
10.3837889652
  0
LINE
  5
22C
100
AcDbEntity
  8
0
100
AcDbLine
 62
7
  6
CONTINUOUS
 10
7.6228283185
 20
10.1312039845
 11
7.5473183383
 21
10.0876082771
  0
LINE
  5
22D
100
AcDbEntity
  8
0
100
AcDbLine
 62
7
  6
CONTINUOUS
 10
6.0189131713
 20
9.2051831425
 11
6.0343183383
 21
9.2140773198
  0
LINE
  5
22E
100
AcDbEntity
  8
0
100
AcDbLine
 62
7
  6
CONTINUOUS
 10
6.4718083581
 20
9.4666623005
 11
6.5473183383
 21
9.5102580079
  0
LINE
  5
22F
100
AcDbEntity
  8
0
100
AcDbLine
 62
7
  6
CONTINUOUS
 10
7.1853183383
 20
9.7379331425
 11
7.1853183383
 21
9.7139331425
  0
LINE
  5
230
100
AcDbEntity
  8
0
100
AcDbLine
 62
7
  6
CONTINUOUS
 10
7.2038183383
 20
9.8620331425
 11
7.2038183383
 21
9.7693934349
  0
LINE
  5
231
100
AcDbEntity
  8
0
100
AcDbLine
 62
7
  6
CONTINUOUS
 10
7.2398183383
 20
9.7693934349
 11
7.2398183383
 21
9.8620331425
  0
LINE
  5
232
100
AcDbEntity
  8
0
100
AcDbLine
 62
7
  6
CONTINUOUS
 10
7.2583183383
 20
9.7139331425
 11
7.2583183383
 21
9.7379331425
  0
LINE
  5
233
100
AcDbEntity
  8
0
100
AcDbLine
 62
7
  6
CONTINUOUS
 10
7.5473183383
 20
9.5102580079
 11
7.5473183383
 21
9.5550603911
  0
LINE
  5
234
100
AcDbEntity
  8
0
100
AcDbLine
 62
7
  6
CONTINUOUS
 10
7.5473183383
 20
10.0427200827
 11
7.5473183383
 21
10.0876082771
  0
LINE
  5
235
100
AcDbEntity
  8
0
100
AcDbLine
 62
7
  6
CONTINUOUS
 10
7.9899955613
 20
9.9667204381
 11
8.0720848183
 21
10.0241999547
  0
LINE
  5
236
100
AcDbEntity
  8
0
100
AcDbLine
 62
7
  6
CONTINUOUS
 10
7.5473183383
 20
9.5102580079
 11
7.5086291035
 21
9.4879207678
  0
LINE
  5
237
100
AcDbEntity
  8
0
100
AcDbLine
 62
9
  6
CONTINUOUS
 10
7.5784843539
 20
9.9856110725
 11
7.5784843539
 21
9.9653445063
  0
LINE
  5
238
100
AcDbEntity
  8
0
100
AcDbLine
 62
9
  6
CONTINUOUS
 10
7.5784843539
 20
9.6326553713
 11
7.5784843539
 21
9.6122552125
  0
LINE
  5
239
100
AcDbEntity
  8
0
100
AcDbLine
 62
9
  6
CONTINUOUS
 10
7.6228283185
 20
9.4666623005
 11
7.6228283185
 21
9.6473356479
  0
LINE
  5
23A
100
AcDbEntity
  8
0
100
AcDbLine
 62
9
  6
CONTINUOUS
 10
7.6228283185
 20
9.9505306371
 11
7.6228283185
 21
10.1312039845
  0
LINE
  5
23B
100
AcDbEntity
  8
0
100
AcDbLine
 62
9
  6
CONTINUOUS
 10
7.9399551797
 20
9.6080158493
 11
7.9399551797
 21
9.9898504357
  0
LINE
  5
23C
100
AcDbEntity
  8
0
100
AcDbLine
 62
7
  6
CONTINUOUS
 10
7.9648183383
 20
9.6098422528
 11
7.9648183383
 21
9.9880240322
  0
LINE
  5
23D
100
AcDbEntity
  8
0
100
AcDbLine
 62
9
  6
CONTINUOUS
 10
7.9899955613
 20
9.9667204381
 11
7.9899955613
 21
9.6311458469
  0
LINE
  5
23E
100
AcDbEntity
  8
0
100
AcDbLine
 62
9
  6
CONTINUOUS
 10
7.1974869752
 20
9.2210913615
 11
7.6228283185
 21
9.4666623005
  0
LINE
  5
23F
100
AcDbEntity
  8
0
100
AcDbLine
 62
9
  6
CONTINUOUS
 10
8.0603183383
 20
10.3837889652
 11
8.0603183383
 21
10.0159609767
  0
LINE
  5
240
100
AcDbEntity
  8
0
100
AcDbLine
 62
9
  6
CONTINUOUS
 10
8.0603183383
 20
9.5819053083
 11
8.0603183383
 21
9.2140773198
  0
LINE
  5
241
100
AcDbEntity
  8
0
100
AcDbLine
 62
9
  6
CONTINUOUS
 10
8.0720848183
 20
9.5736663303
 11
8.0720848183
 21
10.0241999547
  0
LINE
  5
242
100
AcDbEntity
  8
0
100
AcDbLine
 62
9
  6
CONTINUOUS
 10
8.0603183383
 20
9.2140773198
 11
7.2791359452
 21
8.7630614549
  0
LINE
  5
243
100
AcDbEntity
  8
0
100
AcDbLine
 62
7
  6
CONTINUOUS
 10
7.2151056339
 20
8.8562559195
 11
7.2725851505
 21
8.7741666625
  0
LINE
  5
244
100
AcDbEntity
  8
0
100
AcDbLine
 62
7
  6
CONTINUOUS
 10
7.3063183383
 20
9.8614184239
 11
7.2973183383
 21
9.8829331425
  0
LINE
  5
245
100
AcDbEntity
  8
0
100
AcDbLine
 62
7
  6
CONTINUOUS
 10
10.4064011242
 20
9.8138321259
 11
10.4895480799
 21
9.9578468782
  0
LINE
  5
246
100
AcDbEntity
  8
0
100
AcDbLine
 62
7
  6
CONTINUOUS
 10
10.6308088524
 20
10.2025177142
 11
10.7139568348
 21
10.3465342449
  0
LINE
  5
247
100
AcDbEntity
  8
0
100
AcDbLine
 62
7
  6
CONTINUOUS
 10
6.8795310427
 20
10.7416103655
 11
6.8220515261
 21
10.8236996225
  0
LINE
  5
248
100
AcDbEntity
  8
0
100
AcDbLine
 62
9
  6
CONTINUOUS
 10
14.0343183383
 20
10.3837889652
 11
14.8155007314
 21
10.8348048301
  0
LINE
  5
249
100
AcDbEntity
  8
0
100
AcDbLine
 62
7
  6
CONTINUOUS
 10
14.849009512
 20
9.8219331425
 11
14.8663183383
 21
9.8268732368
  0
LINE
  5
24A
100
AcDbEntity
  8
0
100
AcDbLine
 62
9
  6
CONTINUOUS
 10
6.8155007314
 20
8.7630614549
 11
6.0343183383
 21
9.2140773198
  0
LINE
  5
24B
100
AcDbEntity
  8
0
100
AcDbLine
 62
7
  6
CONTINUOUS
 10
7.1373183383
 20
9.8614184239
 11
7.1458036197
 21
9.8529331425
  0
LINE
  5
24C
100
AcDbEntity
  8
0
100
AcDbLine
 62
7
  6
CONTINUOUS
 10
10.3932453397
 20
8.8495005909
 11
10.4176780106
 21
8.460715543
  0
LWPOLYLINE
  5
24D
100
AcDbEntity
  8
0
100
AcDbPolyline
 62
7
  6
CONTINUOUS
 90
3
 70
0
 10
10.4176797713
 20
8.460625603
 10
10.454259604
 20
7.4361965363
 10
10.4779381305
 20
6.3969203103
  0
LINE
  5
24E
100
AcDbEntity
  8
0
100
AcDbLine
 62
7
  6
CONTINUOUS
 10
10.4176780121
 20
8.4607160184
 11
10.4176797719
 21
8.4606257694
  0
LINE
  5
24F
100
AcDbEntity
  8
0
100
AcDbLine
 62
7
  6
CONTINUOUS
 10
10.4779381305
 20
6.3969203103
 11
10.4881053335
 21
5.3677874481
  0
LINE
  5
250
100
AcDbEntity
  8
0
100
AcDbLine
 62
7
  6
CONTINUOUS
 10
10.4668199708
 20
4.2710755842
 11
10.4668183383
 21
4.2691327146
  0
LWPOLYLINE
  5
251
100
AcDbEntity
  8
0
100
AcDbPolyline
 62
7
  6
CONTINUOUS
 90
11
 70
0
 10
10.488105345
 20
5.3677970006
 10
10.4876368166
 20
5.2110858985
 10
10.4863623471
 20
5.0503680098
 10
10.4839586509
 20
4.8985110216
 10
10.4808924176
 20
4.7566492195
 10
10.4774202427
 20
4.6264096439
 10
10.4737913338
 20
4.5140653174
 10
10.4705722075
 20
4.4243393803
 10
10.4682975752
 20
4.3542962157
 10
10.4671070813
 20
4.3011740206
 10
10.4668217447
 20
4.2710736172
  0
LINE
  5
252
100
AcDbEntity
  8
0
100
AcDbLine
 62
7
  6
CONTINUOUS
 10
11.6882355405
 20
9.7840341518
 11
11.6050886218
 21
9.6400195075
  0
LINE
  5
253
100
AcDbEntity
  8
0
100
AcDbLine
 62
7
  6
CONTINUOUS
 10
11.463827652
 20
9.3953484045
 11
11.4052871641
 21
9.2939533358
  0
LINE
  5
254
100
AcDbEntity
  8
0
100
AcDbLine
 62
9
  6
CONTINUOUS
 10
14.8971497013
 20
10.3767749235
 11
14.4718083581
 21
10.1312039845
  0
LINE
  5
255
100
AcDbEntity
  8
0
100
AcDbLine
 62
7
  6
CONTINUOUS
 10
14.5473183383
 20
10.0876082771
 11
14.58596155
 21
10.1099189458
  0
LINE
  5
256
100
AcDbEntity
  8
0
100
AcDbLine
 62
9
  6
CONTINUOUS
 10
6.4718083581
 20
9.4666623005
 11
6.8971497013
 21
9.2210913615
  0
LINE
  5
257
100
AcDbEntity
  8
0
100
AcDbLine
 62
7
  6
CONTINUOUS
 10
6.5860075731
 20
9.4879207678
 11
6.5473183383
 21
9.5102580079
  0
LINE
  5
258
100
AcDbEntity
  8
0
100
AcDbLine
 62
7
  6
CONTINUOUS
 10
6.1046411153
 20
9.9667204381
 11
6.0225518583
 21
10.0241999547
  0
LINE
  5
259
100
AcDbEntity
  8
0
100
AcDbLine
 62
9
  6
CONTINUOUS
 10
11.3704360158
 20
9.2371086955
 11
11.3701211829
 21
9.2359450692
  0
LINE
  5
25A
100
AcDbEntity
  8
0
100
AcDbLine
 62
9
  6
CONTINUOUS
 10
11.3887795274
 20
9.2457969698
 11
11.3891740433
 21
9.2469960864
  0
LINE
  5
25B
100
AcDbEntity
  8
0
100
AcDbLine
 62
7
  6
CONTINUOUS
 10
11.9142383441
 20
9.6201310894
 11
11.9153791198
 21
9.6228208947
  0
LINE
  5
25C
100
AcDbEntity
  8
0
100
AcDbLine
 62
7
  6
CONTINUOUS
 10
11.9153791198
 20
9.6228208947
 11
11.9271088156
 21
9.6501163202
  0
LINE
  5
25D
100
AcDbEntity
  8
0
100
AcDbLine
 62
9
  6
CONTINUOUS
 10
11.927108768
 20
9.650116208
 11
11.9290807732
 21
9.6546420644
  0
LINE
  5
25E
100
AcDbEntity
  8
0
100
AcDbLine
 62
7
  6
CONTINUOUS
 10
14.1046411153
 20
9.6311458469
 11
14.0225518583
 21
9.5736663303
  0
LINE
  5
25F
100
AcDbEntity
  8
0
100
AcDbLine
 62
7
  6
CONTINUOUS
 10
16.0757235053
 20
10.3926831425
 11
16.0603183383
 21
10.3837889652
  0
LINE
  5
260
100
AcDbEntity
  8
0
100
AcDbLine
 62
7
  6
CONTINUOUS
 10
15.6228283185
 20
10.1312039845
 11
15.5473183383
 21
10.0876082771
  0
LINE
  5
261
100
AcDbEntity
  8
0
100
AcDbLine
 62
7
  6
CONTINUOUS
 10
14.0189131713
 20
9.2051831425
 11
14.0343183383
 21
9.2140773198
  0
LINE
  5
262
100
AcDbEntity
  8
0
100
AcDbLine
 62
7
  6
CONTINUOUS
 10
14.4718083581
 20
9.4666623005
 11
14.5473183383
 21
9.5102580079
  0
LINE
  5
263
100
AcDbEntity
  8
0
100
AcDbLine
 62
7
  6
CONTINUOUS
 10
8.0757235053
 20
9.2051831425
 11
8.0603183383
 21
9.2140773198
  0
LINE
  5
264
100
AcDbEntity
  8
0
100
AcDbLine
 62
7
  6
CONTINUOUS
 10
7.6228283185
 20
9.4666623005
 11
7.5473183383
 21
9.5102580079
  0
LINE
  5
265
100
AcDbEntity
  8
0
100
AcDbLine
 62
7
  6
CONTINUOUS
 10
6.0189131713
 20
10.3926831425
 11
6.0343183383
 21
10.3837889652
  0
LINE
  5
266
100
AcDbEntity
  8
0
100
AcDbLine
 62
7
  6
CONTINUOUS
 10
6.4718083581
 20
10.1312039845
 11
6.5473183383
 21
10.0876082771
  0
LINE
  5
267
100
AcDbEntity
  8
0
100
AcDbLine
 62
7
  6
CONTINUOUS
 10
7.9899955613
 20
9.6311458469
 11
8.0720848183
 21
9.5736663303
  0
LINE
  5
268
100
AcDbEntity
  8
0
100
AcDbLine
 62
7
  6
CONTINUOUS
 10
10.1675254457
 20
9.6501218749
 11
10.1792404654
 21
9.6228610166
  0
LINE
  5
269
100
AcDbEntity
  8
0
100
AcDbLine
 62
7
  6
CONTINUOUS
 10
10.1792404654
 20
9.6228610166
 11
10.180429427
 21
9.6200577183
  0
LINE
  5
26A
100
AcDbEntity
  8
0
100
AcDbLine
 62
7
  6
CONTINUOUS
 10
10.179283366
 20
9.6227602071
 11
10.3106650916
 21
9.2506089822
  0
LINE
  5
26B
100
AcDbEntity
  8
0
100
AcDbLine
 62
7
  6
CONTINUOUS
 10
10.3106650916
 20
9.2506089822
 11
10.3932453397
 21
8.8495005909
  0
LINE
  5
26C
100
AcDbEntity
  8
0
100
AcDbLine
 62
7
  6
CONTINUOUS
 10
11.7014817288
 20
8.8501893115
 11
11.784061937
 21
9.2509294255
  0
LINE
  5
26D
100
AcDbEntity
  8
0
100
AcDbLine
 62
7
  6
CONTINUOUS
 10
11.784061937
 20
9.2509294255
 11
11.9153500002
 21
9.6227524094
  0
LINE
  5
26E
100
AcDbEntity
  8
0
100
AcDbLine
 62
7
  6
CONTINUOUS
 10
15.5473183383
 20
9.5102580079
 11
15.5086291035
 21
9.4879207678
  0
LINE
  5
26F
100
AcDbEntity
  8
0
100
AcDbLine
 62
9
  6
CONTINUOUS
 10
10.1655534874
 20
9.6546475993
 11
10.1675254886
 21
9.6501217739
  0
LINE
  5
270
100
AcDbEntity
  8
0
100
AcDbLine
 62
9
  6
CONTINUOUS
 10
10.7054624149
 20
9.2469964161
 11
10.7058571441
 21
9.2457970437
  0
LINE
  5
271
100
AcDbEntity
  8
0
100
AcDbLine
 62
9
  6
CONTINUOUS
 10
10.7245155258
 20
9.2359451023
 11
10.7242007055
 21
9.2371086843
  0
LWPOLYLINE
  5
272
100
AcDbEntity
  8
0
100
AcDbPolyline
 62
7
  6
CONTINUOUS
 90
10
 70
0
 10
11.627747113
 20
4.3009470994
 10
11.6272007259
 20
4.3535425157
 10
11.625601935
 20
4.4222481536
 10
11.6223299275
 20
4.5089847638
 10
11.6181135277
 20
4.6181215535
 10
11.6141702504
 20
4.7471001788
 10
11.6109935396
 20
4.8901857724
 10
11.6086118641
 20
5.0443108725
 10
11.6071448977
 20
5.207890201
 10
11.6065312463
 20
5.36776997
  0
LINE
  5
273
100
AcDbEntity
  8
0
100
AcDbLine
 62
7
  6
CONTINUOUS
 10
11.6278183383
 20
4.2691331425
 11
11.627747113
 21
4.3009470994
  0
LINE
  5
274
100
AcDbEntity
  8
0
100
AcDbLine
 62
7
  6
CONTINUOUS
 10
11.6065312416
 20
5.3677582886
 11
11.6065312481
 21
5.3677700612
  0
LWPOLYLINE
  5
275
100
AcDbEntity
  8
0
100
AcDbPolyline
 62
7
  6
CONTINUOUS
 90
4
 70
0
 10
11.6065312416
 20
5.3677582886
 10
11.6166813134
 20
6.3958619024
 10
11.6403459299
 20
7.4351327597
 10
11.6769569056
 20
8.460625609
  0
LINE
  5
276
100
AcDbEntity
  8
0
100
AcDbLine
 62
7
  6
CONTINUOUS
 10
11.6769586605
 20
8.4607154398
 11
11.6769569037
 21
8.4606255637
  0
LINE
  5
277
100
AcDbEntity
  8
0
100
AcDbLine
 62
7
  6
CONTINUOUS
 10
11.6769586661
 20
8.4607155727
 11
11.7014817288
 21
8.8501893115
  0
LINE
  5
278
100
AcDbEntity
  8
0
100
AcDbLine
 62
7
  6
CONTINUOUS
 10
15.9899955613
 20
9.9667204381
 11
16.0720848183
 21
10.0241999547
  0
LINE
  5
279
100
AcDbEntity
  8
0
100
AcDbLine
 62
9
  6
CONTINUOUS
 10
15.1974869752
 20
9.2210913615
 11
15.6228283185
 21
9.4666623005
  0
LINE
  5
27A
100
AcDbEntity
  8
0
100
AcDbLine
 62
7
  6
CONTINUOUS
 10
7.5086750872
 20
10.1099189685
 11
7.5473183383
 21
10.0876082771
  0
LINE
  5
27B
100
AcDbEntity
  8
0
100
AcDbLine
 62
9
  6
CONTINUOUS
 10
7.6228283185
 20
10.1312039845
 11
7.1974869752
 21
10.3767749235
  0
LINE
  5
27C
100
AcDbEntity
  8
0
100
AcDbLine
 62
7
  6
CONTINUOUS
 10
10.6893495057
 20
9.293953348
 11
10.6308112313
 21
9.3953445801
  0
LINE
  5
27D
100
AcDbEntity
  8
0
100
AcDbLine
 62
7
  6
CONTINUOUS
 10
10.4895486839
 20
9.6400184091
 11
10.406401124
 21
9.7840341599
  0
LINE
  5
27E
100
AcDbEntity
  8
0
100
AcDbLine
 62
9
  6
CONTINUOUS
 10
16.0603183383
 20
9.2140773198
 11
15.2791359452
 21
8.7630614549
  0
LINE
  5
27F
100
AcDbEntity
  8
0
100
AcDbLine
 62
9
  6
CONTINUOUS
 10
6.8220515261
 20
8.7741666625
 11
7.2725851505
 21
8.7741666625
  0
LINE
  5
280
100
AcDbEntity
  8
0
100
AcDbLine
 62
9
  6
CONTINUOUS
 10
14.8220515261
 20
8.7741666625
 11
15.2725851505
 21
8.7741666625
  0
LINE
  5
281
100
AcDbEntity
  8
0
100
AcDbLine
 62
9
  6
CONTINUOUS
 10
15.2151056339
 20
8.8562559195
 11
14.8795310427
 21
8.8562559195
  0
LINE
  5
282
100
AcDbEntity
  8
0
100
AcDbLine
 62
9
  6
CONTINUOUS
 10
7.2151056339
 20
8.8562559195
 11
6.8795310427
 21
8.8562559195
  0
LINE
  5
283
100
AcDbEntity
  8
0
100
AcDbLine
 62
9
  6
CONTINUOUS
 10
7.2791359452
 20
10.8348048301
 11
8.0603183383
 21
10.3837889652
  0
LINE
  5
284
100
AcDbEntity
  8
0
100
AcDbLine
 62
7
  6
CONTINUOUS
 10
15.2151056339
 20
10.7416103655
 11
15.2725851505
 21
10.8236996225
  0
LINE
  5
285
100
AcDbEntity
  8
0
100
AcDbLine
 62
7
  6
CONTINUOUS
 10
6.8582304872
 20
8.8814331425
 11
7.2364061893
 21
8.8814331425
  0
LINE
  5
286
100
AcDbEntity
  8
0
100
AcDbLine
 62
7
  6
CONTINUOUS
 10
14.8582304872
 20
8.8814331425
 11
15.2364061893
 21
8.8814331425
  0
LINE
  5
287
100
AcDbEntity
  8
0
100
AcDbLine
 62
9
  6
CONTINUOUS
 10
6.856401045
 20
8.9062963011
 11
7.2382356315
 21
8.9062963011
  0
LINE
  5
288
100
AcDbEntity
  8
0
100
AcDbLine
 62
9
  6
CONTINUOUS
 10
14.856401045
 20
8.9062963011
 11
15.2382356315
 21
8.9062963011
  0
LINE
  5
289
100
AcDbEntity
  8
0
100
AcDbLine
 62
9
  6
CONTINUOUS
 10
15.2339962683
 20
9.2677671269
 11
15.2150195869
 21
9.2677671269
  0
LINE
  5
28A
100
AcDbEntity
  8
0
100
AcDbLine
 62
9
  6
CONTINUOUS
 10
14.8808831862
 20
9.2677671269
 11
14.8606404083
 21
9.2677671269
  0
LINE
  5
28B
100
AcDbEntity
  8
0
100
AcDbLine
 62
9
  6
CONTINUOUS
 10
7.2339962683
 20
9.2677671269
 11
7.2150195869
 21
9.2677671269
  0
LINE
  5
28C
100
AcDbEntity
  8
0
100
AcDbLine
 62
9
  6
CONTINUOUS
 10
6.8808831862
 20
9.2677671269
 11
6.8606404083
 21
9.2677671269
  0
LINE
  5
28D
100
AcDbEntity
  8
0
100
AcDbLine
 62
7
  6
CONTINUOUS
 10
11.3806798437
 20
10.3465342226
 11
11.4638255918
 21
10.2025215633
  0
LINE
  5
28E
100
AcDbEntity
  8
0
100
AcDbLine
 62
7
  6
CONTINUOUS
 10
11.6050879781
 20
9.9578479346
 11
11.6882355407
 21
9.8138321324
  0
LINE
  5
28F
100
AcDbEntity
  8
0
100
AcDbLine
 62
7
  6
CONTINUOUS
 10
6.7823183383
 20
9.7139331425
 11
6.8553183383
 21
9.7139331425
  0
LINE
  5
290
100
AcDbEntity
  8
0
100
AcDbLine
 62
7
  6
CONTINUOUS
 10
6.8723183383
 20
9.7139331425
 11
6.9453183383
 21
9.7139331425
  0
LINE
  5
291
100
AcDbEntity
  8
0
100
AcDbLine
 62
7
  6
CONTINUOUS
 10
7.1853183383
 20
9.7139331425
 11
7.2583183383
 21
9.7139331425
  0
LINE
  5
292
100
AcDbEntity
  8
0
100
AcDbLine
 62
7
  6
CONTINUOUS
 10
15.0573183383
 20
9.7139331425
 11
15.2067966813
 21
9.7139331425
  0
LINE
  5
293
100
AcDbEntity
  8
0
100
AcDbLine
 62
7
  6
CONTINUOUS
 10
15.2373183383
 20
9.7139331425
 11
15.3218183383
 21
9.7139331425
  0
LINE
  5
294
100
AcDbEntity
  8
0
100
AcDbLine
 62
7
  6
CONTINUOUS
 10
15.1688183383
 20
9.7367037873
 11
15.1448183383
 21
9.7367037873
  0
LINE
  5
295
100
AcDbEntity
  8
0
100
AcDbLine
 62
7
  6
CONTINUOUS
 10
15.3174631264
 20
9.7379331425
 11
15.2896002186
 21
9.7379331425
  0
LINE
  5
296
100
AcDbEntity
  8
0
100
AcDbLine
 62
7
  6
CONTINUOUS
 10
15.207763275
 20
9.773111066
 11
15.1944835282
 21
9.7511700168
  0
LINE
  5
297
100
AcDbEntity
  8
0
100
AcDbLine
 62
7
  6
CONTINUOUS
 10
14.8795310427
 20
8.8562559195
 11
14.8220515261
 21
8.7741666625
  0
LINE
  5
298
100
AcDbEntity
  8
0
100
AcDbLine
 62
9
  6
CONTINUOUS
 10
11.9893585908
 20
9.7850353695
 11
12.2872511716
 21
9.7860269856
  0
LINE
  5
299
100
AcDbEntity
  8
0
100
AcDbLine
 62
9
  6
CONTINUOUS
 10
11.6882354763
 20
9.7840341889
 11
11.9746563875
 21
9.7849864502
  0
LINE
  5
29A
100
AcDbEntity
  8
0
100
AcDbLine
 62
9
  6
CONTINUOUS
 10
10.4064011942
 20
9.8138320855
 11
10.163129432
 21
9.8130198656
  0
LINE
  5
29B
100
AcDbEntity
  8
0
100
AcDbLine
 62
7
  6
CONTINUOUS
 10
6.8448183383
 20
9.7949331425
 11
6.8828183383
 21
9.7949331425
  0
LINE
  5
29C
100
AcDbEntity
  8
0
100
AcDbLine
 62
7
  6
CONTINUOUS
 10
6.8818183383
 20
9.8124887668
 11
6.8458183383
 21
9.8124887668
  0
LINE
  5
29D
100
AcDbEntity
  8
0
100
AcDbLine
 62
7
  6
CONTINUOUS
 10
15.2896002186
 20
9.8649331425
 11
15.3174631264
 21
9.8649331425
  0
LINE
  5
29E
100
AcDbEntity
  8
0
100
AcDbLine
 62
7
  6
CONTINUOUS
 10
7.1750156038
 20
9.8650331425
 11
7.2008183383
 21
9.8650331425
  0
LINE
  5
29F
100
AcDbEntity
  8
0
100
AcDbLine
 62
7
  6
CONTINUOUS
 10
7.2428183383
 20
9.8650331425
 11
7.2686210728
 21
9.8650331425
  0
LINE
  5
2A0
100
AcDbEntity
  8
0
100
AcDbLine
 62
7
  6
CONTINUOUS
 10
15.3218183383
 20
9.8829331425
 11
15.2373183383
 21
9.8829331425
  0
LINE
  5
2A1
100
AcDbEntity
  8
0
100
AcDbLine
 62
7
  6
CONTINUOUS
 10
15.1363183383
 20
9.8829331425
 11
15.0573183383
 21
9.8829331425
  0
LINE
  5
2A2
100
AcDbEntity
  8
0
100
AcDbLine
 62
7
  6
CONTINUOUS
 10
14.8503183383
 20
9.8829331425
 11
14.8323183383
 21
9.8829331425
  0
LINE
  5
2A3
100
AcDbEntity
  8
0
100
AcDbLine
 62
7
  6
CONTINUOUS
 10
7.2973183383
 20
9.8829331425
 11
7.1463183383
 21
9.8829331425
  0
LINE
  5
2A4
100
AcDbEntity
  8
0
100
AcDbLine
 62
7
  6
CONTINUOUS
 10
6.9453183383
 20
9.8829331425
 11
6.8723183383
 21
9.8829331425
  0
LINE
  5
2A5
100
AcDbEntity
  8
0
100
AcDbLine
 62
7
  6
CONTINUOUS
 10
6.8553183383
 20
9.8829331425
 11
6.7823183383
 21
9.8829331425
  0
LINE
  5
2A6
100
AcDbEntity
  8
0
100
AcDbLine
 62
9
  6
CONTINUOUS
 10
14.0225518583
 20
10.0241999547
 11
14.0225518583
 21
9.5736663303
  0
LINE
  5
2A7
100
AcDbEntity
  8
0
100
AcDbLine
 62
9
  6
CONTINUOUS
 10
14.0343183383
 20
9.2140773198
 11
14.0343183383
 21
9.5819053083
  0
LINE
  5
2A8
100
AcDbEntity
  8
0
100
AcDbLine
 62
9
  6
CONTINUOUS
 10
14.0343183383
 20
10.0159609767
 11
14.0343183383
 21
10.3837889652
  0
LINE
  5
2A9
100
AcDbEntity
  8
0
100
AcDbLine
 62
9
  6
CONTINUOUS
 10
14.1046411153
 20
9.6311458469
 11
14.1046411153
 21
9.9667204381
  0
LINE
  5
2AA
100
AcDbEntity
  8
0
100
AcDbLine
 62
7
  6
CONTINUOUS
 10
14.1298183383
 20
9.9880240322
 11
14.1298183383
 21
9.6098422528
  0
LINE
  5
2AB
100
AcDbEntity
  8
0
100
AcDbLine
 62
9
  6
CONTINUOUS
 10
14.1546814969
 20
9.9898504357
 11
14.1546814969
 21
9.6080158493
  0
LINE
  5
2AC
100
AcDbEntity
  8
0
100
AcDbLine
 62
9
  6
CONTINUOUS
 10
6.8606404083
 20
10.3300991581
 11
6.8796171053
 21
10.3300991581
  0
LINE
  5
2AD
100
AcDbEntity
  8
0
100
AcDbLine
 62
9
  6
CONTINUOUS
 10
7.213753518
 20
10.3300991581
 11
7.2339962683
 21
10.3300991581
  0
LINE
  5
2AE
100
AcDbEntity
  8
0
100
AcDbLine
 62
9
  6
CONTINUOUS
 10
14.8606404083
 20
10.3300991581
 11
14.8796171053
 21
10.3300991581
  0
LINE
  5
2AF
100
AcDbEntity
  8
0
100
AcDbLine
 62
9
  6
CONTINUOUS
 10
15.213753518
 20
10.3300991581
 11
15.2339962683
 21
10.3300991581
  0
LINE
  5
2B0
100
AcDbEntity
  8
0
100
AcDbLine
 62
7
  6
CONTINUOUS
 10
11.3548740314
 20
10.3614332152
 11
11.1885766843
 21
10.3614332177
  0
LINE
  5
2B1
100
AcDbEntity
  8
0
100
AcDbLine
 62
7
  6
CONTINUOUS
 10
10.9060543319
 20
10.3614332221
 11
10.7397626249
 21
10.3614332246
  0
LINE
  5
2B2
100
AcDbEntity
  8
0
100
AcDbLine
 62
9
  6
CONTINUOUS
 10
14.8155007314
 20
8.7630614549
 11
14.0343183383
 21
9.2140773198
  0
LINE
  5
2B3
100
AcDbEntity
  8
0
100
AcDbLine
 62
9
  6
CONTINUOUS
 10
14.4718083581
 20
10.1312039845
 11
14.4718083581
 21
9.9505306371
  0
LINE
  5
2B4
100
AcDbEntity
  8
0
100
AcDbLine
 62
9
  6
CONTINUOUS
 10
14.4718083581
 20
9.6473356479
 11
14.4718083581
 21
9.4666623005
  0
LINE
  5
2B5
100
AcDbEntity
  8
0
100
AcDbLine
 62
9
  6
CONTINUOUS
 10
14.5161523227
 20
9.6122552125
 11
14.5161523227
 21
9.6325217444
  0
LINE
  5
2B6
100
AcDbEntity
  8
0
100
AcDbLine
 62
9
  6
CONTINUOUS
 10
14.5161523227
 20
9.9652109611
 11
14.5161523227
 21
9.9856110725
  0
LINE
  5
2B7
100
AcDbEntity
  8
0
100
AcDbLine
 62
7
  6
CONTINUOUS
 10
14.5473183383
 20
9.5102580079
 11
14.5473183383
 21
9.5550603911
  0
LINE
  5
2B8
100
AcDbEntity
  8
0
100
AcDbLine
 62
7
  6
CONTINUOUS
 10
14.5473183383
 20
10.0427201218
 11
14.5473183383
 21
10.0876082771
  0
LINE
  5
2B9
100
AcDbEntity
  8
0
100
AcDbLine
 62
9
  6
CONTINUOUS
 10
6.856401045
 20
10.6915699839
 11
7.2382356315
 21
10.6915699839
  0
LINE
  5
2BA
100
AcDbEntity
  8
0
100
AcDbLine
 62
9
  6
CONTINUOUS
 10
14.856401045
 20
10.6915699839
 11
15.2382356315
 21
10.6915699839
  0
LINE
  5
2BB
100
AcDbEntity
  8
0
100
AcDbLine
 62
7
  6
CONTINUOUS
 10
15.2364061893
 20
10.7164331425
 11
14.8582304872
 21
10.7164331425
  0
LINE
  5
2BC
100
AcDbEntity
  8
0
100
AcDbLine
 62
7
  6
CONTINUOUS
 10
7.2364061893
 20
10.7164331425
 11
6.8582304872
 21
10.7164331425
  0
LINE
  5
2BD
100
AcDbEntity
  8
0
100
AcDbLine
 62
9
  6
CONTINUOUS
 10
6.8795310427
 20
10.7416103655
 11
7.2151056339
 21
10.7416103655
  0
LINE
  5
2BE
100
AcDbEntity
  8
0
100
AcDbLine
 62
9
  6
CONTINUOUS
 10
14.8795310427
 20
10.7416103655
 11
15.2151056339
 21
10.7416103655
  0
LINE
  5
2BF
100
AcDbEntity
  8
0
100
AcDbLine
 62
9
  6
CONTINUOUS
 10
15.2725851505
 20
10.8236996225
 11
14.8220515261
 21
10.8236996225
  0
LINE
  5
2C0
100
AcDbEntity
  8
0
100
AcDbLine
 62
9
  6
CONTINUOUS
 10
7.2725851505
 20
10.8236996225
 11
6.8220515261
 21
10.8236996225
  0
LINE
  5
2C1
100
AcDbEntity
  8
0
100
AcDbLine
 62
9
  6
CONTINUOUS
 10
14.4718083581
 20
9.4666623005
 11
14.8971497013
 21
9.2210913615
  0
LINE
  5
2C2
100
AcDbEntity
  8
0
100
AcDbLine
 62
7
  6
CONTINUOUS
 10
14.5860075731
 20
9.4879207678
 11
14.5473183383
 21
9.5102580079
  0
LINE
  5
2C3
100
AcDbEntity
  8
0
100
AcDbLine
 62
7
  6
CONTINUOUS
 10
15.0573183383
 20
9.8829331425
 11
15.0573183383
 21
9.8649331425
  0
LINE
  5
2C4
100
AcDbEntity
  8
0
100
AcDbLine
 62
7
  6
CONTINUOUS
 10
15.0573183383
 20
9.7379331425
 11
15.0573183383
 21
9.7139331425
  0
LINE
  5
2C5
100
AcDbEntity
  8
0
100
AcDbLine
 62
7
  6
CONTINUOUS
 10
15.0788183383
 20
9.8361624977
 11
15.0788183383
 21
9.7667037873
  0
LINE
  5
2C6
100
AcDbEntity
  8
0
100
AcDbLine
 62
7
  6
CONTINUOUS
 10
15.2067966813
 20
9.7139331425
 11
15.2163183383
 21
9.7679331425
  0
LINE
  5
2C7
100
AcDbEntity
  8
0
100
AcDbLine
 62
7
  6
CONTINUOUS
 10
14.8663183383
 20
9.7678554447
 11
14.8497682267
 21
9.7749331425
  0
LINE
  5
2C8
100
AcDbEntity
  8
0
100
AcDbLine
 62
7
  6
CONTINUOUS
 10
16.0757235053
 20
9.2051831425
 11
16.0603183383
 21
9.2140773198
  0
LINE
  5
2C9
100
AcDbEntity
  8
0
100
AcDbLine
 62
7
  6
CONTINUOUS
 10
15.6228283185
 20
9.4666623005
 11
15.5473183383
 21
9.5102580079
  0
LINE
  5
2CA
100
AcDbEntity
  8
0
100
AcDbLine
 62
7
  6
CONTINUOUS
 10
14.0189131713
 20
10.3926831425
 11
14.0343183383
 21
10.3837889652
  0
LINE
  5
2CB
100
AcDbEntity
  8
0
100
AcDbLine
 62
7
  6
CONTINUOUS
 10
14.4718083581
 20
10.1312039845
 11
14.5473183383
 21
10.0876082771
  0
LINE
  5
2CC
100
AcDbEntity
  8
0
100
AcDbLine
 62
7
  6
CONTINUOUS
 10
14.1046411153
 20
9.9667204381
 11
14.0225518583
 21
10.0241999547
  0
LINE
  5
2CD
100
AcDbEntity
  8
0
100
AcDbLine
 62
7
  6
CONTINUOUS
 10
15.4063183383
 20
9.7984331425
 11
15.406316859
 21
9.7989331425
  0
LINE
  5
2CE
100
AcDbEntity
  8
0
100
AcDbLine
 62
7
  6
CONTINUOUS
 10
15.1148183383
 20
9.7667037873
 11
15.1148183383
 21
9.8361624977
  0
LINE
  5
2CF
100
AcDbEntity
  8
0
100
AcDbLine
 62
7
  6
CONTINUOUS
 10
15.1363183383
 20
9.8649331425
 11
15.1363183383
 21
9.8829331425
  0
LINE
  5
2D0
100
AcDbEntity
  8
0
100
AcDbLine
 62
7
  6
CONTINUOUS
 10
15.2373183383
 20
9.8829331425
 11
15.2373183383
 21
9.8649331425
  0
LINE
  5
2D1
100
AcDbEntity
  8
0
100
AcDbLine
 62
7
  6
CONTINUOUS
 10
15.2373183383
 20
9.7379331425
 11
15.2373183383
 21
9.7139331425
  0
LINE
  5
2D2
100
AcDbEntity
  8
0
100
AcDbLine
 62
7
  6
CONTINUOUS
 10
15.2473183383
 20
9.848808627
 11
15.2473183383
 21
9.754057658
  0
LINE
  5
2D3
100
AcDbEntity
  8
0
100
AcDbLine
 62
7
  6
CONTINUOUS
 10
15.2836002186
 20
9.8589331425
 11
15.2836002186
 21
9.7439331425
  0
LINE
  5
2D4
100
AcDbEntity
  8
0
100
AcDbLine
 62
7
  6
CONTINUOUS
 10
15.2163183383
 20
9.7679331425
 11
15.207763275
 21
9.773111066
  0
LINE
  5
2D5
100
AcDbEntity
  8
0
100
AcDbLine
 62
7
  6
CONTINUOUS
 10
15.2151056339
 20
8.8562559195
 11
15.2725851505
 21
8.7741666625
  0
LINE
  5
2D6
100
AcDbEntity
  8
0
100
AcDbLine
 62
7
  6
CONTINUOUS
 10
14.8663183383
 20
9.8268732368
 11
14.8503183383
 21
9.8829331425
  0
LINE
  5
2D7
100
AcDbEntity
  8
0
100
AcDbLine
 62
7
  6
CONTINUOUS
 10
15.5473183383
 20
9.5102580079
 11
15.5473183383
 21
9.5550603911
  0
LINE
  5
2D8
100
AcDbEntity
  8
0
100
AcDbLine
 62
7
  6
CONTINUOUS
 10
15.5473183383
 20
10.0427200827
 11
15.5473183383
 21
10.0876082771
  0
LINE
  5
2D9
100
AcDbEntity
  8
0
100
AcDbLine
 62
9
  6
CONTINUOUS
 10
15.5784843539
 20
9.9856110725
 11
15.5784843539
 21
9.9653445063
  0
LINE
  5
2DA
100
AcDbEntity
  8
0
100
AcDbLine
 62
9
  6
CONTINUOUS
 10
15.5784843539
 20
9.6326553713
 11
15.5784843539
 21
9.6122552125
  0
LINE
  5
2DB
100
AcDbEntity
  8
0
100
AcDbLine
 62
9
  6
CONTINUOUS
 10
15.6228283185
 20
9.4666623005
 11
15.6228283185
 21
9.6473356479
  0
LINE
  5
2DC
100
AcDbEntity
  8
0
100
AcDbLine
 62
9
  6
CONTINUOUS
 10
15.6228283185
 20
9.9505306371
 11
15.6228283185
 21
10.1312039845
  0
LINE
  5
2DD
100
AcDbEntity
  8
0
100
AcDbLine
 62
9
  6
CONTINUOUS
 10
15.9399551797
 20
9.6080158493
 11
15.9399551797
 21
9.9898504357
  0
LINE
  5
2DE
100
AcDbEntity
  8
0
100
AcDbLine
 62
7
  6
CONTINUOUS
 10
15.9648183383
 20
9.6098422528
 11
15.9648183383
 21
9.9880240322
  0
LINE
  5
2DF
100
AcDbEntity
  8
0
100
AcDbLine
 62
7
  6
CONTINUOUS
 10
15.5086750872
 20
10.1099189685
 11
15.5473183383
 21
10.0876082771
  0
LINE
  5
2E0
100
AcDbEntity
  8
0
100
AcDbLine
 62
9
  6
CONTINUOUS
 10
15.6228283185
 20
10.1312039845
 11
15.1974869752
 21
10.3767749235
  0
LINE
  5
2E1
100
AcDbEntity
  8
0
100
AcDbLine
 62
7
  6
CONTINUOUS
 10
15.9899955613
 20
9.6311458469
 11
16.0720848183
 21
9.5736663303
  0
LINE
  5
2E2
100
AcDbEntity
  8
0
100
AcDbLine
 62
9
  6
CONTINUOUS
 10
15.9899955613
 20
9.9667204381
 11
15.9899955613
 21
9.6311458469
  0
LINE
  5
2E3
100
AcDbEntity
  8
0
100
AcDbLine
 62
9
  6
CONTINUOUS
 10
16.0603183383
 20
10.3837889652
 11
16.0603183383
 21
10.0159609767
  0
LINE
  5
2E4
100
AcDbEntity
  8
0
100
AcDbLine
 62
9
  6
CONTINUOUS
 10
16.0603183383
 20
9.5819053083
 11
16.0603183383
 21
9.2140773198
  0
LINE
  5
2E5
100
AcDbEntity
  8
0
100
AcDbLine
 62
9
  6
CONTINUOUS
 10
16.0720848183
 20
9.5736663303
 11
16.0720848183
 21
10.0241999547
  0
LINE
  5
2E6
100
AcDbEntity
  8
0
100
AcDbLine
 62
9
  6
CONTINUOUS
 10
15.2791359452
 20
10.8348048301
 11
16.0603183383
 21
10.3837889652
  0
LINE
  5
2E7
100
AcDbEntity
  8
0
100
AcDbLine
 62
7
  6
CONTINUOUS
 10
14.8795310427
 20
10.7416103655
 11
14.8220515261
 21
10.8236996225
  0
ARC
  5
2E8
100
AcDbEntity
  8
0
100
AcDbCircle
 62
7
  6
CONTINUOUS
 10
-19.6076293942
 20
-2.8398888307
 40
32.2838271774
100
AcDbArc
 50
22.7569485866
 51
23.020498076
  0
ARC
  5
2E9
100
AcDbEntity
  8
0
100
AcDbCircle
 62
7
  6
CONTINUOUS
 10
-18.9378963409
 20
-2.5589049308
 40
31.5575389494
100
AcDbArc
 50
22.5148946164
 51
22.6974717622
  0
ARC
  5
2EA
100
AcDbEntity
  8
0
100
AcDbCircle
 62
7
  6
CONTINUOUS
 10
-18.5155700282
 20
-2.3837122839
 40
31.100316943
100
AcDbArc
 50
22.3328674948
 51
22.5146721447
  0
ARC
  5
2EB
100
AcDbEntity
  8
0
100
AcDbCircle
 62
9
  6
CONTINUOUS
 10
-498.4800366691
 20
4.6346217758
 40
509.1658978726
100
AcDbArc
 50
0.0941604015
 51
0.4451973013
  0
ARC
  5
2EC
100
AcDbEntity
  8
0
100
AcDbCircle
 62
9
  6
CONTINUOUS
 10
-405.0300780879
 20
4.8617120954
 40
415.7338229978
100
AcDbArc
 50
0.0844032038
 51
0.5142763256
  0
ARC
  5
2ED
100
AcDbEntity
  8
0
100
AcDbCircle
 62
9
  6
CONTINUOUS
 10
-70.2256770183
 20
5.0695357551
 40
80.7152084297
100
AcDbArc
 50
0.2130146313
 51
2.4078923557
  0
ARC
  5
2EE
100
AcDbEntity
  8
0
100
AcDbCircle
 62
9
  6
CONTINUOUS
 10
-58.6673692568
 20
5.6478673927
 40
69.1569001082
100
AcDbArc
 50
359.5994351762
 51
359.766550039
  0
ARC
  5
2EF
100
AcDbEntity
  8
0
100
AcDbCircle
 62
9
  6
CONTINUOUS
 10
-10.2594020422
 20
5.3192271807
 40
20.747820036
100
AcDbArc
 50
359.0527250755
 51
359.567456375
  0
ARC
  5
2F0
100
AcDbEntity
  8
0
100
AcDbCircle
 62
9
  6
CONTINUOUS
 10
-1.6903687502
 20
5.0312857808
 40
13.0736716723
100
AcDbArc
 50
356.9356598502
 51
357.0894268944
  0
ARC
  5
2F1
100
AcDbEntity
  8
0
100
AcDbCircle
 62
9
  6
CONTINUOUS
 10
6.6655483205
 20
4.2726861171
 40
4.9622674894
100
AcDbArc
 50
0.2101742916
 51
0.4075433968
  0
ARC
  5
2F2
100
AcDbEntity
  8
0
100
AcDbCircle
 62
9
  6
CONTINUOUS
 10
7.5665156014
 20
5.5593603834
 40
4.856231512
100
AcDbArc
 50
57.2454529084
 51
57.5466491914
  0
ARC
  5
2F3
100
AcDbEntity
  8
0
100
AcDbCircle
 62
9
  6
CONTINUOUS
 10
6.7943396106
 20
4.273680267
 40
4.8334723
100
AcDbArc
 50
0.5147648896
 51
0.6282854115
  0
ARC
  5
2F4
100
AcDbEntity
  8
0
100
AcDbCircle
 62
9
  6
CONTINUOUS
 10
6.8476526601
 20
4.2742723241
 40
4.7801559636
100
AcDbArc
 50
0.6281964611
 51
1.0682642865
  0
ARC
  5
2F5
100
AcDbEntity
  8
0
100
AcDbCircle
 62
9
  6
CONTINUOUS
 10
7.1687003668
 20
4.2804900554
 40
4.4590481424
100
AcDbArc
 50
1.0652941656
 51
1.5590052527
  0
ARC
  5
2F6
100
AcDbEntity
  8
0
100
AcDbCircle
 62
9
  6
CONTINUOUS
 10
6.8156651492
 20
8.1872344365
 40
3.6572552883
100
AcDbArc
 50
25.9824180369
 51
26.1912500858
  0
ARC
  5
2F7
100
AcDbEntity
  8
0
100
AcDbCircle
 62
9
  6
CONTINUOUS
 10
6.8979905684
 20
8.2269863645
 40
3.5658356513
100
AcDbArc
 50
23.6014406343
 51
25.9877617479
  0
ARC
  5
2F8
100
AcDbEntity
  8
0
100
AcDbCircle
 62
9
  6
CONTINUOUS
 10
7.023685409
 20
8.2697155186
 40
3.4381275882
100
AcDbArc
 50
23.8490231591
 51
26.4247404024
  0
ARC
  5
2F9
100
AcDbEntity
  8
0
100
AcDbCircle
 62
7
  6
CONTINUOUS
 10
7.2515570496
 20
8.3752622565
 40
3.1824219982
100
AcDbArc
 50
16.6804893257
 51
23.0262157853
  0
ARC
  5
2FA
100
AcDbEntity
  8
0
100
AcDbCircle
 62
9
  6
CONTINUOUS
 10
7.4310340405
 20
8.4434568522
 40
2.9953074414
100
AcDbArc
 50
23.2251726322
 51
23.792394198
  0
ARC
  5
2FB
100
AcDbEntity
  8
0
100
AcDbCircle
 62
7
  6
CONTINUOUS
 10
7.4600130943
 20
8.4414831851
 40
2.963732229
100
AcDbArc
 50
15.568392351
 51
16.610886663
  0
ARC
  5
2FC
100
AcDbEntity
  8
0
100
AcDbCircle
 62
7
  6
CONTINUOUS
 10
7.6346986847
 20
8.4873297855
 40
2.7831523487
100
AcDbArc
 50
7.7085638194
 51
15.6243688938
  0
ARC
  5
2FD
100
AcDbEntity
  8
0
100
AcDbCircle
 62
7
  6
CONTINUOUS
 10
7.6574103471
 20
8.491174611
 40
2.7601303105
100
AcDbArc
 50
6.943974143
 51
7.6927113366
  0
ARC
  5
2FE
100
AcDbEntity
  8
0
100
AcDbCircle
 62
7
  6
CONTINUOUS
 10
7.0473183383
 20
8.6164331425
 40
0.275
100
AcDbArc
 50
145.0
 51
35.0
  0
ARC
  5
2FF
100
AcDbEntity
  8
0
100
AcDbCircle
 62
7
  6
CONTINUOUS
 10
6.6858183383
 20
9.0890571835
 40
0.25
100
AcDbArc
 50
313.0260516848
 51
45.6300695472
  0
ARC
  5
300
100
AcDbEntity
  8
0
100
AcDbCircle
 62
7
  6
CONTINUOUS
 10
7.4088183383
 20
9.0890571835
 40
0.25
100
AcDbArc
 50
134.3699304528
 51
226.9739483152
  0
ARC
  5
301
100
AcDbEntity
  8
0
100
AcDbCircle
 62
7
  6
CONTINUOUS
 10
6.8823183383
 20
9.2899271664
 40
0.031
100
AcDbArc
 50
205.2040808207
 51
225.6300714454
  0
ARC
  5
302
100
AcDbEntity
  8
0
100
AcDbCircle
 62
7
  6
CONTINUOUS
 10
7.2123183383
 20
9.2899271664
 40
0.031
100
AcDbArc
 50
314.3699285546
 51
336.2832692003
  0
ARC
  5
303
100
AcDbEntity
  8
0
100
AcDbCircle
 62
7
  6
CONTINUOUS
 10
6.86642461
 20
8.8654331425
 40
0.016
100
AcDbArc
 50
325.0000000002
 51
90.0
  0
ARC
  5
304
100
AcDbEntity
  8
0
100
AcDbCircle
 62
7
  6
CONTINUOUS
 10
7.2282120666
 20
8.8654331425
 40
0.016
100
AcDbArc
 50
90.0
 51
214.9999999998
  0
ARC
  5
305
100
AcDbEntity
  8
0
100
AcDbCircle
 62
7
  6
CONTINUOUS
 10
7.2273183383
 20
8.8945996046
 40
0.016
100
AcDbArc
 50
304.6234510999
 51
46.9739483152
  0
ARC
  5
306
100
AcDbEntity
  8
0
100
AcDbCircle
 62
7
  6
CONTINUOUS
 10
6.8673183383
 20
8.8945996046
 40
0.016
100
AcDbArc
 50
133.0260516848
 51
235.3765489001
  0
ARC
  5
307
100
AcDbEntity
  8
0
100
AcDbCircle
 62
7
  6
CONTINUOUS
 10
5.8648183383
 20
9.7989331425
 40
0.275
100
AcDbArc
 50
55.0
 51
305.0
  0
ARC
  5
308
100
AcDbEntity
  8
0
100
AcDbCircle
 62
7
  6
CONTINUOUS
 10
6.3374423793
 20
9.4374331425
 40
0.25
100
AcDbArc
 50
44.3699304528
 51
136.9739483152
  0
ARC
  5
309
100
AcDbEntity
  8
0
100
AcDbCircle
 62
7
  6
CONTINUOUS
 10
6.3374423793
 20
10.1604331425
 40
0.25
100
AcDbArc
 50
223.0260516848
 51
315.6300695472
  0
ARC
  5
30A
100
AcDbEntity
  8
0
100
AcDbCircle
 62
7
  6
CONTINUOUS
 10
6.5383123621
 20
9.9639331425
 40
0.031
100
AcDbArc
 50
114.366699974
 51
135.630086753
  0
ARC
  5
30B
100
AcDbEntity
  8
0
100
AcDbCircle
 62
7
  6
CONTINUOUS
 10
6.5383123621
 20
9.6339331425
 40
0.031
100
AcDbArc
 50
224.369913247
 51
245.2869442006
  0
ARC
  5
30C
100
AcDbEntity
  8
0
100
AcDbCircle
 62
7
  6
CONTINUOUS
 10
6.1138183383
 20
9.6180394142
 40
0.016
100
AcDbArc
 50
0.0
 51
124.9999999998
  0
ARC
  5
30D
100
AcDbEntity
  8
0
100
AcDbCircle
 62
7
  6
CONTINUOUS
 10
6.1138183383
 20
9.9798268708
 40
0.016
100
AcDbArc
 50
235.0000000002
 51
360.0
  0
ARC
  5
30E
100
AcDbEntity
  8
0
100
AcDbCircle
 62
7
  6
CONTINUOUS
 10
6.1429848004
 20
9.9789331425
 40
0.016
100
AcDbArc
 50
43.0260516848
 51
145.3765489002
  0
ARC
  5
30F
100
AcDbEntity
  8
0
100
AcDbCircle
 62
7
  6
CONTINUOUS
 10
6.1429848004
 20
9.6189331425
 40
0.016
100
AcDbArc
 50
214.6234510998
 51
316.9739483152
  0
ARC
  5
310
100
AcDbEntity
  8
0
100
AcDbCircle
 62
7
  6
CONTINUOUS
 10
6.6858183383
 20
10.5088091015
 40
0.25
100
AcDbArc
 50
314.3699304528
 51
46.9739483152
  0
ARC
  5
311
100
AcDbEntity
  8
0
100
AcDbCircle
 62
7
  6
CONTINUOUS
 10
6.7748183383
 20
9.7607311687
 40
0.024
100
AcDbArc
 50
288.2099568643
 51
360.0
  0
ARC
  5
312
100
AcDbEntity
  8
0
100
AcDbCircle
 62
7
  6
CONTINUOUS
 10
6.8628183383
 20
9.7607311687
 40
0.024
100
AcDbArc
 50
180.0
 51
251.7900431357
  0
ARC
  5
313
100
AcDbEntity
  8
0
100
AcDbCircle
 62
7
  6
CONTINUOUS
 10
6.8648183383
 20
9.7607311687
 40
0.024
100
AcDbArc
 50
288.2099568643
 51
360.0
  0
ARC
  5
314
100
AcDbEntity
  8
0
100
AcDbCircle
 62
7
  6
CONTINUOUS
 10
6.9528183383
 20
9.7607311687
 40
0.024
100
AcDbArc
 50
180.0
 51
251.7900431357
  0
ARC
  5
315
100
AcDbEntity
  8
0
100
AcDbCircle
 62
7
  6
CONTINUOUS
 10
6.8448183383
 20
9.7889331425
 40
0.006
100
AcDbArc
 50
90.0
 51
180.0
  0
ARC
  5
316
100
AcDbEntity
  8
0
100
AcDbCircle
 62
7
  6
CONTINUOUS
 10
6.8828183383
 20
9.7889331425
 40
0.006
100
AcDbArc
 50
0.0
 51
90.0
  0
ARC
  5
317
100
AcDbEntity
  8
0
100
AcDbCircle
 62
7
  6
CONTINUOUS
 10
7.0473183383
 20
9.7989331425
 40
1.1875
100
AcDbArc
 50
103.3001879604
 51
166.6945369013
  0
ARC
  5
318
100
AcDbEntity
  8
0
100
AcDbCircle
 62
7
  6
CONTINUOUS
 10
7.0473183383
 20
9.7989331425
 40
1.1875
100
AcDbArc
 50
193.3149491337
 51
256.6949758149
  0
ARC
  5
319
100
AcDbEntity
  8
0
100
AcDbCircle
 62
7
  6
CONTINUOUS
 10
7.0473183383
 20
9.7989331425
 40
1.1875
100
AcDbArc
 50
13.3149491337
 51
76.6949758149
  0
ARC
  5
31A
100
AcDbEntity
  8
0
100
AcDbCircle
 62
7
  6
CONTINUOUS
 10
7.0473183383
 20
9.7989331425
 40
1.1875
100
AcDbArc
 50
283.3001879604
 51
346.6945369013
  0
CIRCLE
  5
31B
100
AcDbEntity
  8
0
100
AcDbCircle
 62
7
  6
CONTINUOUS
 10
7.0473183383
 20
9.7989331425
 40
0.5575
  0
CIRCLE
  5
31C
100
AcDbEntity
  8
0
100
AcDbCircle
 62
7
  6
CONTINUOUS
 10
7.0473183383
 20
9.7989331425
 40
0.5275
  0
CIRCLE
  5
31D
100
AcDbEntity
  8
0
100
AcDbCircle
 62
7
  6
CONTINUOUS
 10
7.0473183383
 20
9.7989331425
 40
0.5132341523
  0
CIRCLE
  5
31E
100
AcDbEntity
  8
0
100
AcDbCircle
 62
7
  6
CONTINUOUS
 10
7.0473183383
 20
9.7989331425
 40
0.4545099561
  0
CIRCLE
  5
31F
100
AcDbEntity
  8
0
100
AcDbCircle
 62
7
  6
CONTINUOUS
 10
7.0473183383
 20
9.7989331425
 40
0.4275
  0
CIRCLE
  5
320
100
AcDbEntity
  8
0
100
AcDbCircle
 62
7
  6
CONTINUOUS
 10
7.0473183383
 20
9.7989331425
 40
0.4175
  0
CIRCLE
  5
321
100
AcDbEntity
  8
0
100
AcDbCircle
 62
9
  6
CONTINUOUS
 10
7.0473183383
 20
9.7989331425
 40
0.3951446396
  0
ARC
  5
322
100
AcDbEntity
  8
0
100
AcDbCircle
 62
7
  6
CONTINUOUS
 10
6.7748183383
 20
9.8421351163
 40
0.024
100
AcDbArc
 50
0.0
 51
71.7900431357
  0
ARC
  5
323
100
AcDbEntity
  8
0
100
AcDbCircle
 62
7
  6
CONTINUOUS
 10
6.9528183383
 20
9.8421351163
 40
0.024
100
AcDbArc
 50
108.2099568643
 51
180.0
  0
ARC
  5
324
100
AcDbEntity
  8
0
100
AcDbCircle
 62
7
  6
CONTINUOUS
 10
6.8638183383
 20
9.8424887668
 40
0.024
100
AcDbArc
 50
0.0
 51
69.2576200455
  0
ARC
  5
325
100
AcDbEntity
  8
0
100
AcDbCircle
 62
7
  6
CONTINUOUS
 10
6.8638183383
 20
9.8424887668
 40
0.024
100
AcDbArc
 50
110.7423799545
 51
180.0
  0
ARC
  5
326
100
AcDbEntity
  8
0
100
AcDbCircle
 62
7
  6
CONTINUOUS
 10
6.8818183383
 20
9.8184887668
 40
0.006
100
AcDbArc
 50
270.0
 51
360.0
  0
ARC
  5
327
100
AcDbEntity
  8
0
100
AcDbCircle
 62
7
  6
CONTINUOUS
 10
6.8458183383
 20
9.8184887668
 40
0.006
100
AcDbArc
 50
180.0
 51
270.0
  0
ARC
  5
328
100
AcDbEntity
  8
0
100
AcDbCircle
 62
7
  6
CONTINUOUS
 10
7.1678183383
 20
9.7693934349
 40
0.036
100
AcDbArc
 50
299.0852950607
 51
360.0
  0
ARC
  5
329
100
AcDbEntity
  8
0
100
AcDbCircle
 62
7
  6
CONTINUOUS
 10
7.2758183383
 20
9.7693934349
 40
0.036
100
AcDbArc
 50
180.0
 51
240.9147049393
  0
ARC
  5
32A
100
AcDbEntity
  8
0
100
AcDbCircle
 62
7
  6
CONTINUOUS
 10
7.5563243144
 20
9.6339331425
 40
0.031
100
AcDbArc
 50
294.3667093254
 51
315.630086753
  0
ARC
  5
32B
100
AcDbEntity
  8
0
100
AcDbCircle
 62
7
  6
CONTINUOUS
 10
7.2686210728
 20
9.8237211584
 40
0.0413119841
100
AcDbArc
 50
44.9999999999
 51
90.0
  0
ARC
  5
32C
100
AcDbEntity
  8
0
100
AcDbCircle
 62
7
  6
CONTINUOUS
 10
7.1750156038
 20
9.8237211584
 40
0.0413119841
100
AcDbArc
 50
90.0
 51
135.0
  0
ARC
  5
32D
100
AcDbEntity
  8
0
100
AcDbCircle
 62
7
  6
CONTINUOUS
 10
7.5563243144
 20
9.9639331425
 40
0.031
100
AcDbArc
 50
44.369913247
 51
65.2869309671
  0
ARC
  5
32E
100
AcDbEntity
  8
0
100
AcDbCircle
 62
7
  6
CONTINUOUS
 10
7.2428183383
 20
9.8620331425
 40
0.003
100
AcDbArc
 50
90.0
 51
179.9999999999
  0
ARC
  5
32F
100
AcDbEntity
  8
0
100
AcDbCircle
 62
7
  6
CONTINUOUS
 10
7.2008183383
 20
9.8620331425
 40
0.003
100
AcDbArc
 50
0.0000000001
 51
90.0
  0
ARC
  5
330
100
AcDbEntity
  8
0
100
AcDbCircle
 62
7
  6
CONTINUOUS
 10
7.0473183383
 20
10.9814331425
 40
0.275
100
AcDbArc
 50
325.0
 51
215.0
  0
ARC
  5
331
100
AcDbEntity
  8
0
100
AcDbCircle
 62
7
  6
CONTINUOUS
 10
7.4088183383
 20
10.5088091015
 40
0.25
100
AcDbArc
 50
133.0260516848
 51
225.6300695472
  0
ARC
  5
332
100
AcDbEntity
  8
0
100
AcDbCircle
 62
7
  6
CONTINUOUS
 10
6.8823183383
 20
10.3079391186
 40
0.031
100
AcDbArc
 50
134.3699285546
 51
156.2832683609
  0
ARC
  5
333
100
AcDbEntity
  8
0
100
AcDbCircle
 62
7
  6
CONTINUOUS
 10
7.2123183383
 20
10.3079391186
 40
0.031
100
AcDbArc
 50
25.2040621123
 51
45.6300714454
  0
ARC
  5
334
100
AcDbEntity
  8
0
100
AcDbCircle
 62
7
  6
CONTINUOUS
 10
6.86642461
 20
10.7324331425
 40
0.016
100
AcDbArc
 50
270.0
 51
34.9999999998
  0
ARC
  5
335
100
AcDbEntity
  8
0
100
AcDbCircle
 62
7
  6
CONTINUOUS
 10
7.2282120666
 20
10.7324331425
 40
0.016
100
AcDbArc
 50
145.0000000002
 51
270.0
  0
ARC
  5
336
100
AcDbEntity
  8
0
100
AcDbCircle
 62
7
  6
CONTINUOUS
 10
7.2273183383
 20
10.7032666804
 40
0.016
100
AcDbArc
 50
313.0260516848
 51
55.3765489001
  0
ARC
  5
337
100
AcDbEntity
  8
0
100
AcDbCircle
 62
7
  6
CONTINUOUS
 10
6.8673183383
 20
10.7032666804
 40
0.016
100
AcDbArc
 50
124.6234510999
 51
226.9739483152
  0
ARC
  5
338
100
AcDbEntity
  8
0
100
AcDbCircle
 62
9
  6
CONTINUOUS
 10
8.7144603155
 20
8.5913953219
 40
2.0961625833
100
AcDbArc
 50
18.2258695251
 51
19.3601503561
  0
ARC
  5
339
100
AcDbEntity
  8
0
100
AcDbCircle
 62
9
  6
CONTINUOUS
 10
9.1717706649
 20
7.9986854407
 40
1.992305048
100
AcDbArc
 50
40.261462956
 51
41.2390278642
  0
ARC
  5
33A
100
AcDbEntity
  8
0
100
AcDbCircle
 62
9
  6
CONTINUOUS
 10
9.3128303177
 20
7.8399825336
 40
1.9791003451
100
AcDbArc
 50
45.2617780399
 51
46.0767840081
  0
ARC
  5
33B
100
AcDbEntity
  8
0
100
AcDbCircle
 62
9
  6
CONTINUOUS
 10
9.4316300491
 20
8.8656501219
 40
1.316281339
100
AcDbArc
 50
17.6829190211
 51
19.8227515111
  0
ARC
  5
33C
100
AcDbEntity
  8
0
100
AcDbCircle
 62
9
  6
CONTINUOUS
 10
9.4660205357
 20
8.8408971231
 40
1.3044973273
100
AcDbArc
 50
19.9583992493
 51
20.3273890818
  0
ARC
  5
33D
100
AcDbEntity
  8
0
100
AcDbCircle
 62
7
  6
CONTINUOUS
 10
8.2298183383
 20
9.7989331425
 40
0.275
100
AcDbArc
 50
235.0
 51
125.0
  0
ARC
  5
33E
100
AcDbEntity
  8
0
100
AcDbCircle
 62
7
  6
CONTINUOUS
 10
7.7571942973
 20
10.1604331425
 40
0.25
100
AcDbArc
 50
224.3699304528
 51
316.9739483152
  0
ARC
  5
33F
100
AcDbEntity
  8
0
100
AcDbCircle
 62
7
  6
CONTINUOUS
 10
7.7571942973
 20
9.4374331425
 40
0.25
100
AcDbArc
 50
43.0260516848
 51
135.6300695472
  0
ARC
  5
340
100
AcDbEntity
  8
0
100
AcDbCircle
 62
7
  6
CONTINUOUS
 10
7.9808183383
 20
9.9798268708
 40
0.016
100
AcDbArc
 50
180.0
 51
304.9999999998
  0
ARC
  5
341
100
AcDbEntity
  8
0
100
AcDbCircle
 62
7
  6
CONTINUOUS
 10
7.9808183383
 20
9.6180394142
 40
0.016
100
AcDbArc
 50
55.0000000002
 51
180.0
  0
ARC
  5
342
100
AcDbEntity
  8
0
100
AcDbCircle
 62
7
  6
CONTINUOUS
 10
7.9516518762
 20
9.6189331425
 40
0.016
100
AcDbArc
 50
223.0260516848
 51
325.3765489002
  0
ARC
  5
343
100
AcDbEntity
  8
0
100
AcDbCircle
 62
7
  6
CONTINUOUS
 10
7.9516518762
 20
9.9789331425
 40
0.016
100
AcDbArc
 50
34.6234510998
 51
136.9739483152
  0
ARC
  5
344
100
AcDbEntity
  8
0
100
AcDbCircle
 62
7
  6
CONTINUOUS
 10
41.6003727359
 20
-2.7968710258
 40
32.1732255576
100
AcDbArc
 50
156.9790489553
 51
157.2435152111
  0
ARC
  5
345
100
AcDbEntity
  8
0
100
AcDbCircle
 62
7
  6
CONTINUOUS
 10
40.9618661832
 20
-2.5294799907
 40
31.4809908362
100
AcDbArc
 50
157.3021616114
 51
157.4855241787
  0
ARC
  5
346
100
AcDbEntity
  8
0
100
AcDbCircle
 62
7
  6
CONTINUOUS
 10
40.5598087955
 20
-2.3629220563
 40
31.0457992921
100
AcDbArc
 50
157.4853558926
 51
157.6525407368
  0
ARC
  5
347
100
AcDbEntity
  8
0
100
AcDbCircle
 62
9
  6
CONTINUOUS
 10
92.3144862717
 20
5.0696745707
 40
80.7093808925
100
AcDbArc
 50
177.5926928698
 51
179.7870678613
  0
ARC
  5
348
100
AcDbEntity
  8
0
100
AcDbCircle
 62
9
  6
CONTINUOUS
 10
27.5124690805
 20
5.2096003569
 40
16.8058888835
100
AcDbArc
 50
182.8747269577
 51
183.0407934126
  0
ARC
  5
349
100
AcDbEntity
  8
0
100
AcDbCircle
 62
9
  6
CONTINUOUS
 10
14.5281160612
 20
5.5593402342
 40
4.8562424808
100
AcDbArc
 50
122.4532323027
 51
122.7548066134
  0
ARC
  5
34A
100
AcDbEntity
  8
0
100
AcDbCircle
 62
7
  6
CONTINUOUS
 10
12.6231421191
 20
4.2648616028
 40
2.1563293446
100
AcDbArc
 50
179.3957817895
 51
179.8350507312
  0
ARC
  5
34B
100
AcDbEntity
  8
0
100
AcDbCircle
 62
7
  6
CONTINUOUS
 10
11.0267933767
 20
7.3030022357
 40
1.3362578958
100
AcDbArc
 50
105.4640909989
 51
106.2140965855
  0
ARC
  5
34C
100
AcDbEntity
  8
0
100
AcDbCircle
 62
7
  6
CONTINUOUS
 10
11.0721375936
 20
7.3181263466
 40
1.320537988
100
AcDbArc
 50
73.7816060909
 51
74.5405375759
  0
ARC
  5
34D
100
AcDbEntity
  8
0
100
AcDbCircle
 62
7
  6
CONTINUOUS
 10
11.1130106488
 20
7.4572026924
 40
1.1755800539
100
AcDbArc
 50
71.4735486898
 51
73.8012058116
  0
ARC
  5
34E
100
AcDbEntity
  8
0
100
AcDbCircle
 62
7
  6
CONTINUOUS
 10
10.9690577212
 20
7.4973951826
 40
1.1334734822
100
AcDbArc
 50
106.155512754
 51
108.5673247623
  0
ARC
  5
34F
100
AcDbEntity
  8
0
100
AcDbCircle
 62
9
  6
CONTINUOUS
 10
12.9326981718
 20
7.9901965346
 40
2.0052930944
100
AcDbArc
 50
138.7638901483
 51
139.7350508039
  0
ARC
  5
350
100
AcDbEntity
  8
0
100
AcDbCircle
 62
9
  6
CONTINUOUS
 10
12.7818018485
 20
7.8399689849
 40
1.9791067455
100
AcDbArc
 50
133.9228616977
 51
134.7378560223
  0
ARC
  5
351
100
AcDbEntity
  8
0
100
AcDbCircle
 62
9
  6
CONTINUOUS
 10
12.6630163277
 20
8.8656473837
 40
1.3162913929
100
AcDbArc
 50
160.1772874755
 51
162.3171151204
  0
ARC
  5
352
100
AcDbEntity
  8
0
100
AcDbCircle
 62
9
  6
CONTINUOUS
 10
12.6083089071
 20
8.8483429995
 40
1.2828683606
100
AcDbArc
 50
159.6694156377
 51
160.0449069004
  0
ARC
  5
353
100
AcDbEntity
  8
0
100
AcDbCircle
 62
9
  6
CONTINUOUS
 10
11.7745280332
 20
9.1280489411
 40
0.418550686
100
AcDbArc
 50
159.3614321089
 51
164.8964208531
  0
ARC
  5
354
100
AcDbEntity
  8
0
100
AcDbCircle
 62
9
  6
CONTINUOUS
 10
10.3224226615
 20
9.1288073328
 40
0.4161169371
100
AcDbArc
 50
15.0859111252
 51
20.6624997197
  0
ARC
  5
355
100
AcDbEntity
  8
0
100
AcDbCircle
 62
7
  6
CONTINUOUS
 10
11.0448339394
 20
10.6769484869
 40
1.4407706604
100
AcDbArc
 50
278.0763796442
 51
283.5823550598
  0
ARC
  5
356
100
AcDbEntity
  8
0
100
AcDbCircle
 62
7
  6
CONTINUOUS
 10
11.0494143635
 20
10.6749182189
 40
1.4387059691
100
AcDbArc
 50
256.4136912357
 51
261.9275597502
  0
ARC
  5
357
100
AcDbEntity
  8
0
100
AcDbCircle
 62
7
  6
CONTINUOUS
 10
11.0473183383
 20
9.7989331425
 40
1.24
100
AcDbArc
 50
301.2470791648
 51
238.7242589608
  0
CIRCLE
  5
358
100
AcDbEntity
  8
0
100
AcDbCircle
 62
7
  6
CONTINUOUS
 10
11.0473183383
 20
9.7989331425
 40
0.58
  0
ARC
  5
359
100
AcDbEntity
  8
0
100
AcDbCircle
 62
9
  6
CONTINUOUS
 10
11.6681356082
 20
9.7723184907
 40
0.2816841504
100
AcDbArc
 50
336.129859199
 51
336.4654093752
  0
ARC
  5
35A
100
AcDbEntity
  8
0
100
AcDbCircle
 62
7
  6
CONTINUOUS
 10
11.3548867986
 20
10.3316573431
 40
0.0297754487
100
AcDbArc
 50
29.9754333855
 51
90.0245671186
  0
ARC
  5
35B
100
AcDbEntity
  8
0
100
AcDbCircle
 62
7
  6
CONTINUOUS
 10
11.6624552907
 20
9.7989331422
 40
0.029775423
100
AcDbArc
 50
329.9754096259
 51
30.0245898772
  0
ARC
  5
35C
100
AcDbEntity
  8
0
100
AcDbCircle
 62
7
  6
CONTINUOUS
 10
10.4321812618
 20
9.7989331331
 40
0.0297753182
100
AcDbArc
 50
149.9752976516
 51
210.0246695185
  0
ARC
  5
35D
100
AcDbEntity
  8
0
100
AcDbCircle
 62
7
  6
CONTINUOUS
 10
10.7397497782
 20
10.3316575159
 40
0.0297752848
100
AcDbArc
 50
89.9752797832
 51
150.0247197046
  0
ARC
  5
35E
100
AcDbEntity
  8
0
100
AcDbCircle
 62
9
  6
CONTINUOUS
 10
15.2789777663
 20
8.1872303127
 40
3.6572627088
100
AcDbArc
 50
153.808733192
 51
154.0175597804
  0
ARC
  5
35F
100
AcDbEntity
  8
0
100
AcDbCircle
 62
9
  6
CONTINUOUS
 10
15.1669674537
 20
8.240696574
 40
3.5331504172
100
AcDbArc
 50
154.001193601
 51
156.4096988827
  0
ARC
  5
360
100
AcDbEntity
  8
0
100
AcDbCircle
 62
9
  6
CONTINUOUS
 10
15.0497446555
 20
8.2796664955
 40
3.4147082903
100
AcDbArc
 50
153.5664319184
 51
156.1599183815
  0
ARC
  5
361
100
AcDbEntity
  8
0
100
AcDbCircle
 62
7
  6
CONTINUOUS
 10
14.8311519838
 20
8.3798043481
 40
3.1696681635
100
AcDbArc
 50
156.9637491376
 51
163.7212410618
  0
ARC
  5
362
100
AcDbEntity
  8
0
100
AcDbCircle
 62
9
  6
CONTINUOUS
 10
14.7626636113
 20
8.4032128124
 40
3.1021825604
100
AcDbArc
 50
156.26510883
 51
156.8137596389
  0
ARC
  5
363
100
AcDbEntity
  8
0
100
AcDbCircle
 62
7
  6
CONTINUOUS
 10
14.6103671025
 20
8.4483973423
 40
2.9385100074
100
AcDbArc
 50
163.7983498181
 51
164.6723504053
  0
ARC
  5
364
100
AcDbEntity
  8
0
100
AcDbCircle
 62
9
  6
CONTINUOUS
 10
13.5139790487
 20
8.546064097
 40
2.2374320023
100
AcDbArc
 50
160.6810518268
 51
161.7432786024
  0
ARC
  5
365
100
AcDbEntity
  8
0
100
AcDbCircle
 62
7
  6
CONTINUOUS
 10
15.0473183383
 20
8.6164331425
 40
0.275
100
AcDbArc
 50
145.0
 51
35.0
  0
ARC
  5
366
100
AcDbEntity
  8
0
100
AcDbCircle
 62
7
  6
CONTINUOUS
 10
14.6858183383
 20
9.0890571835
 40
0.25
100
AcDbArc
 50
313.0260516848
 51
45.6300695472
  0
ARC
  5
367
100
AcDbEntity
  8
0
100
AcDbCircle
 62
7
  6
CONTINUOUS
 10
15.4088183383
 20
9.0890571835
 40
0.25
100
AcDbArc
 50
134.3699304528
 51
226.9739483152
  0
ARC
  5
368
100
AcDbEntity
  8
0
100
AcDbCircle
 62
7
  6
CONTINUOUS
 10
14.8823183383
 20
9.2899271664
 40
0.031
100
AcDbArc
 50
205.2040808207
 51
225.6300714454
  0
ARC
  5
369
100
AcDbEntity
  8
0
100
AcDbCircle
 62
7
  6
CONTINUOUS
 10
15.2123183383
 20
9.2899271664
 40
0.031
100
AcDbArc
 50
314.3699285546
 51
336.2832692003
  0
ARC
  5
36A
100
AcDbEntity
  8
0
100
AcDbCircle
 62
7
  6
CONTINUOUS
 10
14.86642461
 20
8.8654331425
 40
0.016
100
AcDbArc
 50
325.0000000002
 51
90.0
  0
ARC
  5
36B
100
AcDbEntity
  8
0
100
AcDbCircle
 62
7
  6
CONTINUOUS
 10
15.2282120666
 20
8.8654331425
 40
0.016
100
AcDbArc
 50
90.0
 51
214.9999999998
  0
ARC
  5
36C
100
AcDbEntity
  8
0
100
AcDbCircle
 62
7
  6
CONTINUOUS
 10
15.2273183383
 20
8.8945996046
 40
0.016
100
AcDbArc
 50
304.6234510999
 51
46.9739483151
  0
ARC
  5
36D
100
AcDbEntity
  8
0
100
AcDbCircle
 62
7
  6
CONTINUOUS
 10
14.8673183383
 20
8.8945996046
 40
0.016
100
AcDbArc
 50
133.0260516849
 51
235.3765489001
  0
ARC
  5
36E
100
AcDbEntity
  8
0
100
AcDbCircle
 62
7
  6
CONTINUOUS
 10
13.8648183383
 20
9.7989331425
 40
0.275
100
AcDbArc
 50
55.0
 51
305.0
  0
ARC
  5
36F
100
AcDbEntity
  8
0
100
AcDbCircle
 62
7
  6
CONTINUOUS
 10
14.3374423793
 20
9.4374331425
 40
0.25
100
AcDbArc
 50
44.3699304528
 51
136.9739483152
  0
ARC
  5
370
100
AcDbEntity
  8
0
100
AcDbCircle
 62
7
  6
CONTINUOUS
 10
14.3374423793
 20
10.1604331425
 40
0.25
100
AcDbArc
 50
223.0260516848
 51
315.6300695472
  0
ARC
  5
371
100
AcDbEntity
  8
0
100
AcDbCircle
 62
7
  6
CONTINUOUS
 10
14.7877437352
 20
9.7619331425
 40
0.121
100
AcDbArc
 50
72.3178031512
 51
100.863388708
  0
ARC
  5
372
100
AcDbEntity
  8
0
100
AcDbCircle
 62
7
  6
CONTINUOUS
 10
14.7846121097
 20
9.8027973237
 40
0.0888641812
100
AcDbArc
 50
224.2338173193
 51
336.8459014309
  0
ARC
  5
373
100
AcDbEntity
  8
0
100
AcDbCircle
 62
7
  6
CONTINUOUS
 10
14.8243183383
 20
9.7995537716
 40
0.085
100
AcDbArc
 50
158.3999655658
 51
201.6000344342
  0
ARC
  5
374
100
AcDbEntity
  8
0
100
AcDbCircle
 62
7
  6
CONTINUOUS
 10
14.7806431746
 20
9.7989331425
 40
0.0833248363
100
AcDbArc
 50
100.863388708
 51
224.2338173193
  0
ARC
  5
375
100
AcDbEntity
  8
0
100
AcDbCircle
 62
7
  6
CONTINUOUS
 10
14.7819624998
 20
9.8027973237
 40
0.0697243244
100
AcDbArc
 50
15.9292215989
 51
31.2636680057
  0
ARC
  5
376
100
AcDbEntity
  8
0
100
AcDbCircle
 62
7
  6
CONTINUOUS
 10
14.7931230581
 20
9.7991575947
 40
0.061607623
100
AcDbArc
 50
256.3709027892
 51
336.8459014309
  0
ARC
  5
377
100
AcDbEntity
  8
0
100
AcDbCircle
 62
7
  6
CONTINUOUS
 10
14.7954474406
 20
9.8109845887
 40
0.0539485538
100
AcDbArc
 50
31.2636680057
 51
158.3999655658
  0
ARC
  5
378
100
AcDbEntity
  8
0
100
AcDbCircle
 62
7
  6
CONTINUOUS
 10
14.7899166165
 20
9.7859331425
 40
0.048
100
AcDbArc
 50
201.6000344342
 51
256.3709027892
  0
ARC
  5
379
100
AcDbEntity
  8
0
100
AcDbCircle
 62
7
  6
CONTINUOUS
 10
14.5383123621
 20
9.9639331425
 40
0.031
100
AcDbArc
 50
114.366699974
 51
135.630086753
  0
ARC
  5
37A
100
AcDbEntity
  8
0
100
AcDbCircle
 62
7
  6
CONTINUOUS
 10
14.5383123621
 20
9.6339331425
 40
0.031
100
AcDbArc
 50
224.369913247
 51
245.2869442006
  0
ARC
  5
37B
100
AcDbEntity
  8
0
100
AcDbCircle
 62
7
  6
CONTINUOUS
 10
14.1138183383
 20
9.6180394142
 40
0.016
100
AcDbArc
 50
0.0
 51
124.9999999998
  0
ARC
  5
37C
100
AcDbEntity
  8
0
100
AcDbCircle
 62
7
  6
CONTINUOUS
 10
14.1138183383
 20
9.9798268708
 40
0.016
100
AcDbArc
 50
235.0000000002
 51
360.0
  0
ARC
  5
37D
100
AcDbEntity
  8
0
100
AcDbCircle
 62
7
  6
CONTINUOUS
 10
14.1429848004
 20
9.9789331425
 40
0.016
100
AcDbArc
 50
43.0260516848
 51
145.3765489002
  0
ARC
  5
37E
100
AcDbEntity
  8
0
100
AcDbCircle
 62
7
  6
CONTINUOUS
 10
14.1429848004
 20
9.6189331425
 40
0.016
100
AcDbArc
 50
214.6234510998
 51
316.9739483152
  0
ARC
  5
37F
100
AcDbEntity
  8
0
100
AcDbCircle
 62
7
  6
CONTINUOUS
 10
14.8263183383
 20
9.8829331425
 40
0.006
100
AcDbArc
 50
252.3178031508
 51
360.0
  0
ARC
  5
380
100
AcDbEntity
  8
0
100
AcDbCircle
 62
7
  6
CONTINUOUS
 10
14.6858183383
 20
10.5088091015
 40
0.25
100
AcDbArc
 50
314.3699304528
 51
46.9739483152
  0
ARC
  5
381
100
AcDbEntity
  8
0
100
AcDbCircle
 62
7
  6
CONTINUOUS
 10
14.8823183383
 20
10.3079391186
 40
0.031
100
AcDbArc
 50
134.3699285546
 51
156.2832683609
  0
ARC
  5
382
100
AcDbEntity
  8
0
100
AcDbCircle
 62
7
  6
CONTINUOUS
 10
14.86642461
 20
10.7324331425
 40
0.016
100
AcDbArc
 50
270.0
 51
34.9999999998
  0
ARC
  5
383
100
AcDbEntity
  8
0
100
AcDbCircle
 62
7
  6
CONTINUOUS
 10
14.8673183383
 20
10.7032666804
 40
0.016
100
AcDbArc
 50
124.6234510999
 51
226.9739483152
  0
ARC
  5
384
100
AcDbEntity
  8
0
100
AcDbCircle
 62
7
  6
CONTINUOUS
 10
15.3218183383
 20
9.7984331425
 40
0.0845
100
AcDbArc
 50
270.0
 51
360.0
  0
ARC
  5
385
100
AcDbEntity
  8
0
100
AcDbCircle
 62
7
  6
CONTINUOUS
 10
15.3218183383
 20
9.7984331425
 40
0.0845
100
AcDbArc
 50
0.3390302596
 51
90.0
  0
ARC
  5
386
100
AcDbEntity
  8
0
100
AcDbCircle
 62
7
  6
CONTINUOUS
 10
15.3174631264
 20
9.7859331425
 40
0.048
100
AcDbArc
 50
270.0
 51
341.5590861804
  0
ARC
  5
387
100
AcDbEntity
  8
0
100
AcDbCircle
 62
7
  6
CONTINUOUS
 10
15.5563243144
 20
9.6339331425
 40
0.031
100
AcDbArc
 50
294.3667093254
 51
315.630086753
  0
ARC
  5
388
100
AcDbEntity
  8
0
100
AcDbCircle
 62
7
  6
CONTINUOUS
 10
15.0488183383
 20
9.7667037873
 40
0.03
100
AcDbArc
 50
286.4592496283
 51
360.0
  0
ARC
  5
389
100
AcDbEntity
  8
0
100
AcDbCircle
 62
7
  6
CONTINUOUS
 10
15.1688183383
 20
9.7667037873
 40
0.03
100
AcDbArc
 50
270.0
 51
328.815717175
  0
ARC
  5
38A
100
AcDbEntity
  8
0
100
AcDbCircle
 62
7
  6
CONTINUOUS
 10
15.1448183383
 20
9.7667037873
 40
0.03
100
AcDbArc
 50
180.0
 51
270.0
  0
ARC
  5
38B
100
AcDbEntity
  8
0
100
AcDbCircle
 62
7
  6
CONTINUOUS
 10
15.2293183383
 20
9.754057658
 40
0.018
100
AcDbArc
 50
296.3877999613
 51
360.0
  0
ARC
  5
38C
100
AcDbEntity
  8
0
100
AcDbCircle
 62
7
  6
CONTINUOUS
 10
15.2896002186
 20
9.7439331425
 40
0.006
100
AcDbArc
 50
180.0
 51
270.0
  0
ARC
  5
38D
100
AcDbEntity
  8
0
100
AcDbCircle
 62
7
  6
CONTINUOUS
 10
15.0473183383
 20
9.7989331425
 40
1.1875
100
AcDbArc
 50
103.3001879604
 51
166.6945369013
  0
ARC
  5
38E
100
AcDbEntity
  8
0
100
AcDbCircle
 62
7
  6
CONTINUOUS
 10
15.0473183383
 20
9.7989331425
 40
1.1875
100
AcDbArc
 50
193.3149491337
 51
256.6949758149
  0
ARC
  5
38F
100
AcDbEntity
  8
0
100
AcDbCircle
 62
7
  6
CONTINUOUS
 10
15.0473183383
 20
9.7989331425
 40
1.1875
100
AcDbArc
 50
13.3149491337
 51
76.6949758149
  0
ARC
  5
390
100
AcDbEntity
  8
0
100
AcDbCircle
 62
7
  6
CONTINUOUS
 10
15.0473183383
 20
9.7989331425
 40
1.1875
100
AcDbArc
 50
283.3001879604
 51
346.6945369013
  0
CIRCLE
  5
391
100
AcDbEntity
  8
0
100
AcDbCircle
 62
7
  6
CONTINUOUS
 10
15.0473183383
 20
9.7989331425
 40
0.5575
  0
CIRCLE
  5
392
100
AcDbEntity
  8
0
100
AcDbCircle
 62
7
  6
CONTINUOUS
 10
15.0473183383
 20
9.7989331425
 40
0.5275
  0
CIRCLE
  5
393
100
AcDbEntity
  8
0
100
AcDbCircle
 62
7
  6
CONTINUOUS
 10
15.0473183383
 20
9.7989331425
 40
0.5132341523
  0
CIRCLE
  5
394
100
AcDbEntity
  8
0
100
AcDbCircle
 62
7
  6
CONTINUOUS
 10
15.0473183383
 20
9.7989331425
 40
0.4545099561
  0
CIRCLE
  5
395
100
AcDbEntity
  8
0
100
AcDbCircle
 62
7
  6
CONTINUOUS
 10
15.0473183383
 20
9.7989331425
 40
0.4275
  0
CIRCLE
  5
396
100
AcDbEntity
  8
0
100
AcDbCircle
 62
7
  6
CONTINUOUS
 10
15.0473183383
 20
9.7989331425
 40
0.4175
  0
CIRCLE
  5
397
100
AcDbEntity
  8
0
100
AcDbCircle
 62
9
  6
CONTINUOUS
 10
15.0473183383
 20
9.7989331425
 40
0.3951446566
  0
ARC
  5
398
100
AcDbEntity
  8
0
100
AcDbCircle
 62
7
  6
CONTINUOUS
 10
15.2709792583
 20
9.8014331425
 40
0.097
100
AcDbArc
 50
341.5590861804
 51
18.4409138196
  0
ARC
  5
399
100
AcDbEntity
  8
0
100
AcDbCircle
 62
7
  6
CONTINUOUS
 10
15.3174631264
 20
9.8169331425
 40
0.048
100
AcDbArc
 50
18.4409138196
 51
90.0
  0
ARC
  5
39A
100
AcDbEntity
  8
0
100
AcDbCircle
 62
7
  6
CONTINUOUS
 10
15.5563243144
 20
9.9639331425
 40
0.031
100
AcDbArc
 50
44.369913247
 51
65.2869309671
  0
ARC
  5
39B
100
AcDbEntity
  8
0
100
AcDbCircle
 62
7
  6
CONTINUOUS
 10
15.1448183383
 20
9.8361624977
 40
0.03
100
AcDbArc
 50
106.4592496283
 51
180.0
  0
ARC
  5
39C
100
AcDbEntity
  8
0
100
AcDbCircle
 62
7
  6
CONTINUOUS
 10
15.0488183383
 20
9.8361624977
 40
0.03
100
AcDbArc
 50
0.0
 51
73.5407503717
  0
ARC
  5
39D
100
AcDbEntity
  8
0
100
AcDbCircle
 62
7
  6
CONTINUOUS
 10
15.2293183383
 20
9.848808627
 40
0.018
100
AcDbArc
 50
0.0
 51
63.6122000388
  0
ARC
  5
39E
100
AcDbEntity
  8
0
100
AcDbCircle
 62
7
  6
CONTINUOUS
 10
15.2896002186
 20
9.8589331425
 40
0.006
100
AcDbArc
 50
90.0
 51
180.0
  0
ARC
  5
39F
100
AcDbEntity
  8
0
100
AcDbCircle
 62
7
  6
CONTINUOUS
 10
15.7571942973
 20
9.4374331425
 40
0.25
100
AcDbArc
 50
43.0260516848
 51
135.6300695472
  0
ARC
  5
3A0
100
AcDbEntity
  8
0
100
AcDbCircle
 62
7
  6
CONTINUOUS
 10
15.9808183383
 20
9.6180394142
 40
0.016
100
AcDbArc
 50
55.0000000002
 51
180.0
  0
ARC
  5
3A1
100
AcDbEntity
  8
0
100
AcDbCircle
 62
7
  6
CONTINUOUS
 10
15.9516518762
 20
9.6189331425
 40
0.016
100
AcDbArc
 50
223.0260516848
 51
325.3765489002
  0
ARC
  5
3A2
100
AcDbEntity
  8
0
100
AcDbCircle
 62
7
  6
CONTINUOUS
 10
16.2298183383
 20
9.7989331425
 40
0.275
100
AcDbArc
 50
235.0
 51
125.0
  0
ARC
  5
3A3
100
AcDbEntity
  8
0
100
AcDbCircle
 62
7
  6
CONTINUOUS
 10
15.7571942973
 20
10.1604331425
 40
0.25
100
AcDbArc
 50
224.3699304528
 51
316.9739483152
  0
ARC
  5
3A4
100
AcDbEntity
  8
0
100
AcDbCircle
 62
7
  6
CONTINUOUS
 10
15.9808183383
 20
9.9798268708
 40
0.016
100
AcDbArc
 50
180.0
 51
304.9999999998
  0
ARC
  5
3A5
100
AcDbEntity
  8
0
100
AcDbCircle
 62
7
  6
CONTINUOUS
 10
15.9516518762
 20
9.9789331425
 40
0.016
100
AcDbArc
 50
34.6234510998
 51
136.9739483152
  0
ARC
  5
3A6
100
AcDbEntity
  8
0
100
AcDbCircle
 62
7
  6
CONTINUOUS
 10
15.0473183383
 20
10.9814331425
 40
0.275
100
AcDbArc
 50
325.0
 51
215.0
  0
ARC
  5
3A7
100
AcDbEntity
  8
0
100
AcDbCircle
 62
7
  6
CONTINUOUS
 10
15.4088183383
 20
10.5088091015
 40
0.25
100
AcDbArc
 50
133.0260516848
 51
225.6300695472
  0
ARC
  5
3A8
100
AcDbEntity
  8
0
100
AcDbCircle
 62
7
  6
CONTINUOUS
 10
15.2123183383
 20
10.3079391186
 40
0.031
100
AcDbArc
 50
25.2040621123
 51
45.6300714454
  0
ARC
  5
3A9
100
AcDbEntity
  8
0
100
AcDbCircle
 62
7
  6
CONTINUOUS
 10
15.2282120666
 20
10.7324331425
 40
0.016
100
AcDbArc
 50
145.0000000002
 51
270.0
  0
ARC
  5
3AA
100
AcDbEntity
  8
0
100
AcDbCircle
 62
7
  6
CONTINUOUS
 10
15.2273183383
 20
10.7032666804
 40
0.016
100
AcDbArc
 50
313.0260516848
 51
55.3765489001
  0
ARC
  5
3AB
100
AcDbEntity
  8
0
100
AcDbCircle
 62
9
  6
CONTINUOUS
 10
517.5522491702
 20
4.64884919
 40
506.1434544664
100
AcDbArc
 50
179.55375454
 51
179.9068878078
  0
ARC
  5
3AC
100
AcDbEntity
  8
0
100
AcDbCircle
 62
9
  6
CONTINUOUS
 10
426.5823580124
 20
4.8641899564
 40
415.191461047
100
AcDbArc
 50
179.4853938664
 51
179.9158284836
  0
SPLINE
  5
3AD
100
AcDbEntity
  8
0
100
AcDbSpline
 62
7
  6
CONTINUOUS
 70
0
 71
3
 72
11
 73
7
 74
0
 42
0.0000001
 43
0.0000001
 44
0.0000000001
 40
0.0
 40
0.0
 40
0.0
 40
0.0
 40
0.2895273334
 40
0.4992134133
 40
0.7088994931
 40
1.0
 40
1.0
 40
1.0
 40
1.0
 10
14.9236183383
 20
9.7989331425
 30
0.0
 10
14.9236183383
 20
9.8156569051
 30
0.0
 10
14.9262328306
 20
9.8444926163
 30
0.0
 10
14.9656925168
 20
9.8657193012
 30
0.0
 10
15.0047370977
 20
9.844394709
 30
0.0
 10
15.0086183383
 20
9.8156449757
 30
0.0
 10
15.0086183383
 20
9.7989331425
 30
0.0
  0
SPLINE
  5
3AE
100
AcDbEntity
  8
0
100
AcDbSpline
 62
7
  6
CONTINUOUS
 70
0
 71
3
 72
11
 73
7
 74
0
 42
0.0000001
 43
0.0000001
 44
0.0000000001
 40
0.0
 40
0.0
 40
0.0
 40
0.0
 40
0.2730403189
 40
0.4997214642
 40
0.7263919651
 40
1.0
 40
1.0
 40
1.0
 40
1.0
 10
14.8873183383
 20
9.7989333652
 30
0.0
 10
14.887319031
 20
9.775142543
 30
0.0
 10
14.9004148548
 20
9.7316002466
 30
0.0
 10
14.9656513808
 20
9.7066382482
 30
0.0
 10
15.0307208336
 20
9.7316539003
 30
0.0
 10
15.0443190958
 20
9.7751463416
 30
0.0
 10
15.0443183383
 20
9.7989329281
 30
0.0
  0
SPLINE
  5
3AF
100
AcDbEntity
  8
0
100
AcDbSpline
 62
7
  6
CONTINUOUS
 70
0
 71
3
 72
11
 73
7
 74
0
 42
0.0000001
 43
0.0000001
 44
0.0000000001
 40
0.0
 40
0.0
 40
0.0
 40
0.0
 40
0.2911005069
 40
0.5007865867
 40
0.7104726666
 40
1.0
 40
1.0
 40
1.0
 40
1.0
 10
15.0086183383
 20
9.7989331425
 30
0.0
 10
15.0086183383
 20
9.7822213093
 30
0.0
 10
15.0047370977
 20
9.753471576
 30
0.0
 10
14.9656925168
 20
9.7321469838
 30
0.0
 10
14.9262328306
 20
9.7533736687
 30
0.0
 10
14.9236183383
 20
9.7822093799
 30
0.0
 10
14.9236183383
 20
9.7989331425
 30
0.0
  0
SPLINE
  5
3B0
100
AcDbEntity
  8
0
100
AcDbSpline
 62
7
  6
CONTINUOUS
 70
0
 71
3
 72
11
 73
7
 74
0
 42
0.0000001
 43
0.0000001
 44
0.0000000001
 40
0.0
 40
0.0
 40
0.0
 40
0.0
 40
0.2736100635
 40
0.5003111614
 40
0.7269609786
 40
1.0
 40
1.0
 40
1.0
 40
1.0
 10
15.0443183383
 20
9.7989321762
 30
0.0
 10
15.0443177376
 20
9.8227191562
 30
0.0
 10
15.0307158129
 20
9.8662152547
 30
0.0
 10
14.965661812
 20
9.8912279691
 30
0.0
 10
14.9004097535
 20
9.8662634059
 30
0.0
 10
14.8873174936
 20
9.8227235336
 30
0.0
 10
14.8873183383
 20
9.7989326072
 30
0.0
  0
SPLINE
  5
3B1
100
AcDbEntity
  8
0
100
AcDbSpline
 62
7
  6
CONTINUOUS
 70
0
 71
3
 72
11
 73
7
 74
0
 42
0.0000001
 43
0.0000001
 44
0.0000000001
 40
0.0
 40
0.0
 40
0.0
 40
0.0
 40
0.273039475
 40
0.4997206271
 40
0.7263911349
 40
1.0
 40
1.0
 40
1.0
 40
1.0
 10
6.9673183383
 20
9.7989331425
 30
0.0
 10
6.9673190757
 20
9.7751423946
 30
0.0
 10
6.9804149313
 20
9.7316002173
 30
0.0
 10
7.0456513808
 20
9.7066382482
 30
0.0
 10
7.1107209072
 20
9.7316539286
 30
0.0
 10
7.1243191404
 20
9.7751464846
 30
0.0
 10
7.1243183383
 20
9.7989331425
 30
0.0
  0
SPLINE
  5
3B2
100
AcDbEntity
  8
0
100
AcDbSpline
 62
7
  6
CONTINUOUS
 70
0
 71
3
 72
11
 73
7
 74
0
 42
0.0000001
 43
0.0000001
 44
0.0000000001
 40
0.0
 40
0.0
 40
0.0
 40
0.0
 40
0.2911005069
 40
0.5007865867
 40
0.7104726666
 40
1.0
 40
1.0
 40
1.0
 40
1.0
 10
7.0886183383
 20
9.7989331425
 30
0.0
 10
7.0886183383
 20
9.7822213093
 30
0.0
 10
7.0847370977
 20
9.753471576
 30
0.0
 10
7.0456925168
 20
9.7321469838
 30
0.0
 10
7.0062328306
 20
9.7533736687
 30
0.0
 10
7.0036183383
 20
9.7822093799
 30
0.0
 10
7.0036183383
 20
9.7989331425
 30
0.0
  0
SPLINE
  5
3B3
100
AcDbEntity
  8
0
100
AcDbSpline
 62
7
  6
CONTINUOUS
 70
0
 71
3
 72
11
 73
7
 74
0
 42
0.0000001
 43
0.0000001
 44
0.0000000001
 40
0.0
 40
0.0
 40
0.0
 40
0.0
 40
0.2895273334
 40
0.4992134133
 40
0.7088994931
 40
1.0
 40
1.0
 40
1.0
 40
1.0
 10
7.0036183383
 20
9.7989331425
 30
0.0
 10
7.0036183383
 20
9.8156569051
 30
0.0
 10
7.0062328306
 20
9.8444926163
 30
0.0
 10
7.0456925168
 20
9.8657193012
 30
0.0
 10
7.0847370977
 20
9.844394709
 30
0.0
 10
7.0886183383
 20
9.8156449757
 30
0.0
 10
7.0886183383
 20
9.7989331425
 30
0.0
  0
SPLINE
  5
3B4
100
AcDbEntity
  8
0
100
AcDbSpline
 62
7
  6
CONTINUOUS
 70
0
 71
3
 72
11
 73
7
 74
0
 42
0.0000001
 43
0.0000001
 44
0.0000000001
 40
0.0
 40
0.0
 40
0.0
 40
0.0
 40
0.2736079326
 40
0.5003103346
 40
0.7269614556
 40
1.0
 40
1.0
 40
1.0
 40
1.0
 10
7.1243183383
 20
9.7989331425
 30
0.0
 10
7.1243175361
 20
9.8227198004
 30
0.0
 10
7.1107154813
 20
9.8662153822
 30
0.0
 10
7.045661812
 20
9.8912279691
 30
0.0
 10
6.9804099375
 20
9.8662634763
 30
0.0
 10
6.9673176009
 20
9.8227238904
 30
0.0
 10
6.9673183383
 20
9.7989331425
 30
0.0
  0
LINE
  5
3B5
100
AcDbEntity
  8
0
100
AcDbLine
 62
7
  6
CONTINUOUS
 10
8.0603183383
 20
10.3837889652
 11
7.6228283185
 21
10.1312039845
  0
LINE
  5
3B6
100
AcDbEntity
  8
0
100
AcDbLine
 62
7
  6
CONTINUOUS
 10
6.0343183383
 20
10.3837889652
 11
6.4718083581
 21
10.1312039845
  0
LINE
  5
3B7
100
AcDbEntity
  8
0
100
AcDbLine
 62
7
  6
CONTINUOUS
 10
6.0343183383
 20
9.2140773198
 11
6.4718083581
 21
9.4666623005
  0
LINE
  5
3B8
100
AcDbEntity
  8
0
100
AcDbLine
 62
7
  6
CONTINUOUS
 10
8.0603183383
 20
9.2140773198
 11
7.6228283185
 21
9.4666623005
  0
LINE
  5
3B9
100
AcDbEntity
  8
0
100
AcDbLine
 62
7
  6
CONTINUOUS
 10
16.0603183383
 20
10.3837889652
 11
15.6228283185
 21
10.1312039845
  0
LINE
  5
3BA
100
AcDbEntity
  8
0
100
AcDbLine
 62
7
  6
CONTINUOUS
 10
14.0343183383
 20
10.3837889652
 11
14.4718083581
 21
10.1312039845
  0
LINE
  5
3BB
100
AcDbEntity
  8
0
100
AcDbLine
 62
7
  6
CONTINUOUS
 10
14.0343183383
 20
9.2140773198
 11
14.4718083581
 21
9.4666623005
  0
LINE
  5
3BC
100
AcDbEntity
  8
0
100
AcDbLine
 62
7
  6
CONTINUOUS
 10
16.0603183383
 20
9.2140773198
 11
15.6228283185
 21
9.4666623005
  0
SPLINE
  5
3BD
100
AcDbEntity
  8
0
100
AcDbSpline
 62
7
  6
CONTINUOUS
 70
0
 71
3
 72
15
 73
11
 74
0
 42
0.0000001
 43
0.0000001
 44
0.0000000001
 40
0.0
 40
0.0
 40
0.0
 40
0.0
 40
0.1245945846
 40
0.2492727263
 40
0.374047977
 40
0.498945752
 40
0.6239808501
 40
0.7491618017
 40
0.8744984009
 40
1.0
 40
1.0
 40
1.0
 40
1.0
 10
11.676688317
 20
8.4621532243
 30
0.0
 10
11.6765317845
 20
8.4942107239
 30
0.0
 10
11.6772203451
 20
8.5583570232
 30
0.0
 10
11.681370475
 20
8.6545257725
 30
0.0
 10
11.6887512902
 20
8.7505813555
 30
0.0
 10
11.6994847254
 20
8.8464133526
 30
0.0
 10
11.7135783357
 20
8.9419144282
 30
0.0
 10
11.7310196712
 20
9.036976518
 30
0.0
 10
11.7518147727
 20
9.1314832723
 30
0.0
 10
11.7678444751
 20
9.1940159095
 30
0.0
 10
11.7763799923
 20
9.2251586462
 30
0.0
  0
SPLINE
  5
3BE
100
AcDbEntity
  8
0
100
AcDbSpline
 62
7
  6
CONTINUOUS
 70
0
 71
3
 72
22
 73
18
 74
0
 42
0.0000001
 43
0.0000001
 44
0.0000000001
 40
0.0
 40
0.0
 40
0.0
 40
0.0
 40
0.1439395455
 40
0.2906205413
 40
0.3648126291
 40
0.4390408701
 40
0.5127841812
 40
0.5855236568
 40
0.6563047713
 40
0.7236333445
 40
0.7553880279
 40
0.7855430923
 40
0.8408686409
 40
0.8896806417
 40
0.9324605965
 40
0.9694587028
 40
1.0
 40
1.0
 40
1.0
 40
1.0
 10
10.4888256726
 20
5.3660718777
 30
0.0
 10
10.4885723206
 20
5.3143141943
 30
0.0
 10
10.4881577155
 20
5.2098126569
 30
0.0
 10
10.4870355693
 20
5.0786356614
 30
0.0
 10
10.485462902
 20
4.9725334092
 30
0.0
 10
10.4839879102
 20
4.8926604947
 30
0.0
 10
10.4823089059
 20
4.8133141019
 30
0.0
 10
10.4804530747
 20
4.7352115109
 30
0.0
 10
10.4784386771
 20
4.6594202619
 30
0.0
 10
10.4766219314
 20
4.5983667088
 30
0.0
 10
10.4751127861
 20
4.5519192111
 30
0.0
 10
10.4736647667
 20
4.5097881728
 30
0.0
 10
10.4719135934
 20
4.4615304952
 30
0.0
 10
10.4700021439
 20
4.4087359588
 30
0.0
 10
10.4684876689
 20
4.3625216702
 30
0.0
 10
10.4674565542
 20
4.3228656694
 30
0.0
 10
10.4670471041
 20
4.2985825161
 30
0.0
 10
10.4669326757
 20
4.2876009619
 30
0.0
  0
SPLINE
  5
3BF
100
AcDbEntity
  8
0
100
AcDbSpline
 62
7
  6
CONTINUOUS
 70
0
 71
3
 72
19
 73
15
 74
0
 42
0.0000001
 43
0.0000001
 44
0.0000000001
 40
0.0
 40
0.0
 40
0.0
 40
0.0
 40
0.1244859994
 40
0.1869131305
 40
0.2494230134
 40
0.3120034618
 40
0.3746471161
 40
0.5
 40
0.6253528838
 40
0.6879965382
 40
0.7505769866
 40
0.8130868695
 40
0.8755140006
 40
1.0
 40
1.0
 40
1.0
 40
1.0
 10
10.757068338
 20
3.7835352761
 30
0.0
 10
10.7790293449
 20
3.7712881112
 30
0.0
 10
10.8132386673
 20
3.7549981592
 30
0.0
 10
10.8605932945
 20
3.7377338905
 30
0.0
 10
10.8969539667
 20
3.7270269787
 30
0.0
 10
10.9339624175
 20
3.7186394388
 30
0.0
 10
10.9839701905
 20
3.7106367897
 30
0.0
 10
11.0473183381
 20
3.7066402254
 30
0.0
 10
11.1106664858
 20
3.7106367897
 30
0.0
 10
11.1606742588
 20
3.7186394387
 30
0.0
 10
11.1976827096
 20
3.7270269786
 30
0.0
 10
11.2340433818
 20
3.7377338904
 30
0.0
 10
11.281398009
 20
3.7549981591
 30
0.0
 10
11.3156073314
 20
3.7712881111
 30
0.0
 10
11.3375683383
 20
3.783535276
 30
0.0
  0
SPLINE
  5
3C0
100
AcDbEntity
  8
0
100
AcDbSpline
 62
7
  6
CONTINUOUS
 70
0
 71
3
 72
19
 73
15
 74
0
 42
0.0000001
 43
0.0000001
 44
0.0000000001
 40
0.0
 40
0.0
 40
0.0
 40
0.0
 40
0.126691649
 40
0.1898699891
 40
0.2529070632
 40
0.3158026905
 40
0.3785648735
 40
0.4412020345
 40
0.5037154138
 40
0.6282993055
 40
0.6904466898
 40
0.7524955823
 40
0.8763223931
 40
1.0
 40
1.0
 40
1.0
 40
1.0
 10
11.3375683383
 20
3.7835352527
 30
0.0
 10
11.3594452818
 20
3.7957355308
 30
0.0
 10
11.3911085326
 20
3.8161554047
 30
0.0
 10
11.430344213
 20
3.8471917288
 30
0.0
 10
11.4581298009
 20
3.8722540481
 30
0.0
 10
11.4841595412
 20
3.8990182315
 30
0.0
 10
11.5083011655
 20
3.9273943212
 30
0.0
 10
11.530455976
 20
3.9572556693
 30
0.0
 10
11.5571996323
 20
3.9987940124
 30
0.0
 10
11.5797084244
 20
4.0428306728
 30
0.0
 10
11.5975517529
 20
4.08870046
 30
0.0
 10
11.6121889682
 20
4.1355390169
 30
0.0
 10
11.6244994736
 20
4.1956858521
 30
0.0
 10
11.6278183412
 20
4.2446800507
 30
0.0
 10
11.6278183383
 20
4.269133029
 30
0.0
  0
SPLINE
  5
3C1
100
AcDbEntity
  8
0
100
AcDbSpline
 62
7
  6
CONTINUOUS
 70
0
 71
3
 72
19
 73
15
 74
0
 42
0.0000001
 43
0.0000001
 44
0.0000000001
 40
0.0
 40
0.0
 40
0.0
 40
0.0
 40
0.1236776069
 40
0.2475044177
 40
0.3095533102
 40
0.3717006945
 40
0.4962845862
 40
0.5587979655
 40
0.6214351265
 40
0.6841973095
 40
0.7470929368
 40
0.8101300109
 40
0.873308351
 40
1.0
 40
1.0
 40
1.0
 40
1.0
 10
10.4668183383
 20
4.2691330325
 30
0.0
 10
10.4668183352
 20
4.2446800542
 30
0.0
 10
10.4701372026
 20
4.1956858552
 30
0.0
 10
10.4824477077
 20
4.1355390196
 30
0.0
 10
10.4970849228
 20
4.0887004624
 30
0.0
 10
10.5149282512
 20
4.0428306748
 30
0.0
 10
10.5374370433
 20
3.9987940141
 30
0.0
 10
10.5641806996
 20
3.9572556707
 30
0.0
 10
10.5863355101
 20
3.9273943224
 30
0.0
 10
10.6104771345
 20
3.8990182324
 30
0.0
 10
10.6365068749
 20
3.8722540489
 30
0.0
 10
10.6642924628
 20
3.8471917294
 30
0.0
 10
10.7035281434
 20
3.8161554051
 30
0.0
 10
10.7351913944
 20
3.795735531
 30
0.0
 10
10.757068338
 20
3.7835352528
 30
0.0
  0
SPLINE
  5
3C2
100
AcDbEntity
  8
0
100
AcDbSpline
 62
7
  6
CONTINUOUS
 70
0
 71
3
 72
24
 73
20
 74
0
 42
0.0000001
 43
0.0000001
 44
0.0000000001
 40
0.0
 40
0.0
 40
0.0
 40
0.0
 40
0.0260164886
 40
0.0603267171
 40
0.1012558633
 40
0.1483310876
 40
0.1741255882
 40
0.2015846889
 40
0.2618758054
 40
0.3286165249
 40
0.3999007849
 40
0.4738987959
 40
0.549276803
 40
0.6252419841
 40
0.7013008372
 40
0.7770428558
 40
0.8521733462
 40
0.9264277007
 40
1.0
 40
1.0
 40
1.0
 40
1.0
 10
11.6278183228
 20
4.269719496
 30
0.0
 10
11.6278178123
 20
4.279229827
 30
0.0
 10
11.6277780015
 20
4.3012823265
 30
0.0
 10
11.6274642513
 20
4.3382954467
 30
0.0
 10
11.62672128
 20
4.3830020169
 30
0.0
 10
11.6255794296
 20
4.4245866313
 30
0.0
 10
11.6242434086
 20
4.461237626
 30
0.0
 10
11.622589653
 20
4.5027109795
 30
0.0
 10
11.6202478531
 20
4.5591366209
 30
0.0
 10
11.6175485957
 20
4.6315811479
 30
0.0
 10
11.6150849548
 20
4.7090474656
 30
0.0
 10
11.6129894686
 20
4.7896829897
 30
0.0
 10
11.6111898074
 20
4.8720370095
 30
0.0
 10
11.6096682827
 20
4.9551500995
 30
0.0
 10
11.6084269078
 20
5.038400915
 30
0.0
 10
11.6074644592
 20
5.1213502614
 30
0.0
 10
11.606739571
 20
5.2036422917
 30
0.0
 10
11.6061819023
 20
5.2851424727
 30
0.0
 10
11.6059426032
 20
5.3391800204
 30
0.0
 10
11.6058114358
 20
5.366074065
 30
0.0
  0
SPLINE
  5
3C3
100
AcDbEntity
  8
0
100
AcDbSpline
 62
7
  6
CONTINUOUS
 70
0
 71
3
 72
10
 73
6
 74
0
 42
0.0000001
 43
0.0000001
 44
0.0000000001
 40
0.0
 40
0.0
 40
0.0
 40
0.0
 40
0.2503103083
 40
0.5003977326
 40
1.0
 40
1.0
 40
1.0
 40
1.0
 10
10.3972946748
 20
8.8248708829
 30
0.0
 10
10.4009618389
 20
8.7947607426
 30
0.0
 10
10.4072972032
 20
8.734440236
 30
0.0
 10
10.4160070019
 20
8.6135595443
 30
0.0
 10
10.4182444207
 20
8.5226643973
 30
0.0
 10
10.4179482151
 20
8.4621232589
 30
0.0
  0
LINE
  5
3C4
100
AcDbEntity
  8
0
100
AcDbLine
 62
7
  6
CONTINUOUS
 10
10.1630331113
 20
9.6482315726
 11
10.1744975843
 21
9.6208645626
  0
LINE
  5
3C5
100
AcDbEntity
  8
0
100
AcDbLine
 62
7
  6
CONTINUOUS
 10
10.1744975843
 20
9.6208645626
 11
10.1756726992
 21
9.618055375
  0
LINE
  5
3C6
100
AcDbEntity
  8
0
100
AcDbLine
 62
9
  6
CONTINUOUS
 10
10.1675254886
 20
9.6501217739
 11
10.1791260488
 21
9.6227520342
  0
LINE
  5
3C7
100
AcDbEntity
  8
0
100
AcDbLine
 62
9
  6
CONTINUOUS
 10
10.1791260488
 20
9.6227520342
 11
10.1803157607
 21
9.6199434013
  0
LINE
  5
3C8
100
AcDbEntity
  8
0
100
AcDbLine
 62
9
  6
CONTINUOUS
 10
10.1803157607
 20
9.6199434013
 11
10.1838831816
 21
9.6115196523
  0
LINE
  5
3C9
100
AcDbEntity
  8
0
100
AcDbLine
 62
9
  6
CONTINUOUS
 10
10.168245218
 20
9.6598467773
 11
10.1702387171
 21
9.6553249269
  0
SPLINE
  5
3CA
100
AcDbEntity
  8
0
100
AcDbSpline
 62
9
  6
CONTINUOUS
 70
0
 71
3
 72
13
 73
9
 74
0
 42
0.0000001
 43
0.0000001
 44
0.0000000001
 40
0.0
 40
0.0
 40
0.0
 40
0.0
 40
0.3420225303
 40
0.6164866676
 40
0.7301501538
 40
0.8299240264
 40
0.9184928113
 40
1.0
 40
1.0
 40
1.0
 40
1.0
 10
10.1702387171
 20
9.6553249269
 30
0.0
 10
10.1697402703
 20
9.6548336649
 30
0.0
 10
10.1688811652
 20
9.6539068796
 30
0.0
 10
10.1680242732
 20
9.6526704693
 30
0.0
 10
10.1676134616
 20
9.6517573306
 30
0.0
 10
10.1674492223
 20
9.6511582208
 30
0.0
 10
10.1674124578
 20
9.6506027487
 30
0.0
 10
10.1674798186
 20
9.6502559626
 30
0.0
 10
10.1675355014
 20
9.6500987521
 30
0.0
  0
SPLINE
  5
3CB
100
AcDbEntity
  8
0
100
AcDbSpline
 62
7
  6
CONTINUOUS
 70
0
 71
3
 72
26
 73
22
 74
0
 42
0.0000001
 43
0.0000001
 44
0.0000000001
 40
0.0
 40
0.0
 40
0.0
 40
0.0
 40
0.080704111
 40
0.1206071128
 40
0.1602870351
 40
0.2386985744
 40
0.2771586318
 40
0.3149279805
 40
0.3519252877
 40
0.3880814468
 40
0.4233258922
 40
0.4576072312
 40
0.5235062369
 40
0.5864105406
 40
0.6468602099
 40
0.7049033487
 40
0.7604989595
 40
0.8135883452
 40
0.8640924834
 40
0.911943675
 40
1.0
 40
1.0
 40
1.0
 40
1.0
 10
10.5974364172
 20
8.5680749576
 30
0.0
 10
10.5919483429
 20
8.5666303531
 30
0.0
 10
10.5838060642
 20
8.564231918
 30
0.0
 10
10.5731631657
 20
8.560516
 30
0.0
 10
10.5628081899
 20
8.5564841861
 30
0.0
 10
10.5527374424
 20
8.5520260253
 30
0.0
 10
10.5429062826
 20
8.5473792813
 30
0.0
 10
10.5357414557
 20
8.5439063819
 30
0.0
 10
10.5287491048
 20
8.5404499341
 30
0.0
 10
10.5219343859
 20
8.5370350826
 30
0.0
 10
10.5153008484
 20
8.5336850912
 30
0.0
 10
10.5068016427
 20
8.5293898686
 30
0.0
 10
10.4965938539
 20
8.5241628757
 30
0.0
 10
10.4849015808
 20
8.5178013487
 30
0.0
 10
10.473961863
 20
8.5112337163
 30
0.0
 10
10.4637423512
 20
8.5044872732
 30
0.0
 10
10.4542561461
 20
8.4975904001
 30
0.0
 10
10.4455172667
 20
8.4905885149
 30
0.0
 10
10.4375355833
 20
8.4835305305
 30
0.0
 10
10.4281669027
 20
8.4743598706
 30
0.0
 10
10.4218867253
 20
8.4671102165
 30
0.0
 10
10.4182001705
 20
8.4621352387
 30
0.0
  0
SPLINE
  5
3CC
100
AcDbEntity
  8
0
100
AcDbSpline
 62
7
  6
CONTINUOUS
 70
0
 71
3
 72
11
 73
7
 74
0
 42
0.0000001
 43
0.0000001
 44
0.0000000001
 40
0.0
 40
0.0
 40
0.0
 40
0.0
 40
0.2620051195
 40
0.5161201599
 40
0.7621794192
 40
1.0
 40
1.0
 40
1.0
 40
1.0
 10
10.1025912911
 20
9.7997571754
 30
0.0
 10
10.10783834
 20
9.8010896745
 30
0.0
 10
10.1181925987
 20
9.8036439627
 30
0.0
 10
10.1335445218
 20
9.8071586393
 30
0.0
 10
10.1484680759
 20
9.8102940637
 30
0.0
 10
10.1582912054
 20
9.812160837
 30
0.0
 10
10.163129432
 20
9.8130198656
 30
0.0
  0
SPLINE
  5
3CD
100
AcDbEntity
  8
0
100
AcDbSpline
 62
7
  6
CONTINUOUS
 70
0
 71
3
 72
29
 73
25
 74
0
 42
0.0000001
 43
0.0000001
 44
0.0000000001
 40
0.0
 40
0.0
 40
0.0
 40
0.0
 40
0.1085942528
 40
0.2187993277
 40
0.3306097838
 40
0.3871320812
 40
0.4440831527
 40
0.5014943827
 40
0.559426459
 40
0.6180030623
 40
0.6476142119
 40
0.6775173089
 40
0.7078239646
 40
0.7387417521
 40
0.7707061144
 40
0.8048180212
 40
0.823645758
 40
0.8450214972
 40
0.8713822535
 40
0.9022368218
 40
0.9305714212
 40
0.9555549713
 40
0.9784737555
 40
1.0
 40
1.0
 40
1.0
 40
1.0
 10
10.1631472976
 20
9.8130204508
 30
0.0
 10
10.1608841094
 20
9.8126185368
 30
0.0
 10
10.1563330507
 20
9.8117574017
 30
0.0
 10
10.1494921563
 20
9.8102790437
 30
0.0
 10
10.1437714059
 20
9.8088467577
 30
0.0
 10
10.1391844265
 20
9.8075419955
 30
0.0
 10
10.1357310039
 20
9.8064647362
 30
0.0
 10
10.1322834785
 20
9.8052731521
 30
0.0
 10
10.1288513339
 20
9.8039390084
 30
0.0
 10
10.1260254662
 20
9.802676889
 30
0.0
 10
10.1237981527
 20
9.8015411421
 30
0.0
 10
10.1221419341
 20
9.8006060783
 30
0.0
 10
10.120514246
 20
9.7995690407
 30
0.0
 10
10.1189271259
 20
9.7983937836
 30
0.0
 10
10.1174012948
 20
9.7970147956
 30
0.0
 10
10.1162521949
 20
9.7956158327
 30
0.0
 10
10.1154964425
 20
9.7942297589
 30
0.0
 10
10.1150569707
 20
9.7928790719
 30
0.0
 10
10.1149968486
 20
9.7911858934
 30
0.0
 10
10.1155742655
 20
9.7894307086
 30
0.0
 10
10.1165761093
 20
9.7879420173
 30
0.0
 10
10.1176893275
 20
9.7867680971
 30
0.0
 10
10.1188072645
 20
9.7858109232
 30
0.0
 10
10.1195738305
 20
9.7852641238
 30
0.0
 10
10.1199504228
 20
9.7850076308
 30
0.0
  0
SPLINE
  5
3CE
100
AcDbEntity
  8
0
100
AcDbSpline
 62
9
  6
CONTINUOUS
 70
0
 71
3
 72
9
 73
5
 74
0
 42
0.0000001
 43
0.0000001
 44
0.0000000001
 40
0.0
 40
0.0
 40
0.0
 40
0.0
 40
0.4876147378
 40
1.0
 40
1.0
 40
1.0
 40
1.0
 10
10.6857198289
 20
9.2654693154
 30
0.0
 10
10.664538104
 20
9.2858734045
 30
0.0
 10
10.6201915367
 20
9.3267828952
 30
0.0
 10
10.5743396339
 20
9.3659905544
 30
0.0
 10
10.5505217323
 20
9.3856835533
 30
0.0
  0
SPLINE
  5
3CF
100
AcDbEntity
  8
0
100
AcDbSpline
 62
9
  6
CONTINUOUS
 70
0
 71
3
 72
11
 73
7
 74
0
 42
0.0000001
 43
0.0000001
 44
0.0000000001
 40
0.0
 40
0.0
 40
0.0
 40
0.0
 40
0.2336385184
 40
0.4783245607
 40
0.7338562104
 40
1.0
 40
1.0
 40
1.0
 40
1.0
 10
10.5505217323
 20
9.3856835533
 30
0.0
 10
10.5242553669
 20
9.4074009789
 30
0.0
 10
10.4696648635
 20
9.4508829538
 30
0.0
 10
10.3838143497
 20
9.5148585609
 30
0.0
 10
10.2922459455
 20
9.5790141442
 30
0.0
 10
10.2287655766
 20
9.6209994874
 30
0.0
 10
10.1961267078
 20
9.64202247
 30
0.0
  0
LINE
  5
3D0
100
AcDbEntity
  8
0
100
AcDbLine
 62
9
  6
CONTINUOUS
 10
10.1961267078
 20
9.64202247
 11
10.1939370036
 21
9.6434320372
  0
LINE
  5
3D1
100
AcDbEntity
  8
0
100
AcDbLine
 62
9
  6
CONTINUOUS
 10
10.1724313778
 20
9.6571875472
 11
10.1682452181
 21
9.6598467773
  0
SPLINE
  5
3D2
100
AcDbEntity
  8
0
100
AcDbSpline
 62
9
  6
CONTINUOUS
 70
0
 71
3
 72
12
 73
8
 74
0
 42
0.0000001
 43
0.0000001
 44
0.0000000001
 40
0.0
 40
0.0
 40
0.0
 40
0.0
 40
0.234256966
 40
0.4814313252
 40
0.6092142554
 40
0.7389401041
 40
1.0
 40
1.0
 40
1.0
 40
1.0
 10
10.6921003356
 20
9.286274486
 30
0.0
 10
10.6931162741
 20
9.2847867333
 30
0.0
 10
10.6956120646
 20
9.2819954157
 30
0.0
 10
10.6994889181
 20
9.2792895227
 30
0.0
 10
10.7030130512
 20
9.2776454651
 30
0.0
 10
10.706790976
 20
9.2763520431
 30
0.0
 10
10.7097723616
 20
9.2758077874
 30
0.0
 10
10.711772952
 20
9.2756394026
 30
0.0
  0
SPLINE
  5
3D3
100
AcDbEntity
  8
0
100
AcDbSpline
 62
9
  6
CONTINUOUS
 70
0
 71
3
 72
10
 73
6
 74
0
 42
0.0000001
 43
0.0000001
 44
0.0000000001
 40
0.0
 40
0.0
 40
0.0
 40
0.0
 40
0.2629176473
 40
0.5210000549
 40
1.0
 40
1.0
 40
1.0
 40
1.0
 10
10.7241988188
 20
9.2371088786
 30
0.0
 10
10.7223078409
 20
9.2373037464
 30
0.0
 10
10.7185841087
 20
9.2380336514
 30
0.0
 10
10.7118388459
 20
9.2407025517
 30
0.0
 10
10.7075399832
 20
9.2442234935
 30
0.0
 10
10.7054633254
 20
9.2469951835
 30
0.0
  0
SPLINE
  5
3D4
100
AcDbEntity
  8
0
100
AcDbSpline
 62
9
  6
CONTINUOUS
 70
0
 71
3
 72
11
 73
7
 74
0
 42
0.0000001
 43
0.0000001
 44
0.0000000001
 40
0.0
 40
0.0
 40
0.0
 40
0.0
 40
0.2634489646
 40
0.5178954131
 40
0.7631090152
 40
1.0
 40
1.0
 40
1.0
 40
1.0
 10
10.7245155258
 20
9.2359451023
 30
0.0
 10
10.7226245137
 20
9.2361434144
 30
0.0
 10
10.7189332684
 20
9.2368770156
 30
0.0
 10
10.7137980278
 20
9.2389572244
 30
0.0
 10
10.7093300667
 20
9.2419031489
 30
0.0
 10
10.7068845733
 20
9.2444304287
 30
0.0
 10
10.7058571759
 20
9.2457970119
 30
0.0
  0
SPLINE
  5
3D5
100
AcDbEntity
  8
0
100
AcDbSpline
 62
9
  6
CONTINUOUS
 70
0
 71
3
 72
24
 73
20
 74
0
 42
0.0000001
 43
0.0000001
 44
0.0000000001
 40
0.0
 40
0.0
 40
0.0
 40
0.0
 40
0.0390425471
 40
0.0592564824
 40
0.0804687297
 40
0.1031023287
 40
0.1275356916
 40
0.1540503373
 40
0.182554187
 40
0.2128326109
 40
0.2445569252
 40
0.2773735424
 40
0.3109591965
 40
0.3794386588
 40
0.448839803
 40
0.5878874706
 40
0.7263381029
 40
0.8637627147
 40
1.0
 40
1.0
 40
1.0
 40
1.0
 10
11.3701211436
 20
9.2359450644
 30
0.0
 10
11.3679300285
 20
9.2278151344
 30
0.0
 10
11.3648779619
 20
9.2153969163
 30
0.0
 10
11.3615441377
 20
9.1983632015
 30
0.0
 10
11.3593500221
 20
9.1847205204
 30
0.0
 10
11.3575051846
 20
9.1701082566
 30
0.0
 10
11.3560956467
 20
9.15429842
 30
0.0
 10
11.355205499
 20
9.1371831941
 30
0.0
 10
11.3548624543
 20
9.1187878241
 30
0.0
 10
11.3551086233
 20
9.0992677377
 30
0.0
 10
11.3559054439
 20
9.078832213
 30
0.0
 10
11.3572188466
 20
9.0577092243
 30
0.0
 10
11.3595505425
 20
9.0287127102
 30
0.0
 10
11.3632919521
 20
8.991919878
 30
0.0
 10
11.3703794589
 20
8.9326174124
 30
0.0
 10
11.3802002819
 20
8.8584514624
 30
0.0
 10
11.3921487272
 20
8.7697642301
 30
0.0
 10
11.4025675206
 20
8.6815104845
 30
0.0
 10
11.4071197136
 20
8.6225892713
 30
0.0
 10
11.4076298073
 20
8.5932124003
 30
0.0
  0
SPLINE
  5
3D6
100
AcDbEntity
  8
0
100
AcDbSpline
 62
7
  6
CONTINUOUS
 70
0
 71
3
 72
13
 73
9
 74
0
 42
0.0000001
 43
0.0000001
 44
0.0000000001
 40
0.0
 40
0.0
 40
0.0
 40
0.0
 40
0.2490189926
 40
0.3743986793
 40
0.4999999106
 40
0.6256011614
 40
0.7509809112
 40
1.0
 40
1.0
 40
1.0
 40
1.0
 10
11.4076288915
 20
8.593212427
 30
0.0
 10
11.3478593211
 20
8.5960096695
 30
0.0
 10
11.2579349305
 20
8.5989916956
 30
0.0
 10
11.137808
 20
8.6009298163
 30
0.0
 10
11.0473211655
 20
8.601418968
 30
0.0
 10
10.9568343141
 20
8.6009300316
 30
0.0
 10
10.8367073435
 20
8.5989912044
 30
0.0
 10
10.7467829633
 20
8.5960085774
 30
0.0
 10
10.6870133037
 20
8.5932127469
 30
0.0
  0
SPLINE
  5
3D7
100
AcDbEntity
  8
0
100
AcDbSpline
 62
9
  6
CONTINUOUS
 70
0
 71
3
 72
24
 73
20
 74
0
 42
0.0000001
 43
0.0000001
 44
0.0000000001
 40
0.0
 40
0.0
 40
0.0
 40
0.0
 40
0.1362294822
 40
0.273646106
 40
0.4120885738
 40
0.5511277224
 40
0.6205219867
 40
0.6890039808
 40
0.7225976302
 40
0.7554234176
 40
0.7871548635
 40
0.8174397422
 40
0.8459505777
 40
0.8724700893
 40
0.8969040262
 40
0.9195360706
 40
0.9407469897
 40
0.9609598237
 40
1.0
 40
1.0
 40
1.0
 40
1.0
 10
10.6870061767
 20
8.5932125296
 30
0.0
 10
10.6875161893
 20
8.6225877297
 30
0.0
 10
10.6920680255
 20
8.6815055724
 30
0.0
 10
10.7024860554
 20
8.7697542387
 30
0.0
 10
10.7144333547
 20
8.8584362868
 30
0.0
 10
10.7242547805
 20
8.9325970673
 30
0.0
 10
10.7313400076
 20
8.9918970418
 30
0.0
 10
10.7350819761
 20
9.0286905848
 30
0.0
 10
10.737417748
 20
9.0576910348
 30
0.0
 10
10.7387335116
 20
9.0788191533
 30
0.0
 10
10.7395291095
 20
9.0992596692
 30
0.0
 10
10.7397734107
 20
9.1187842072
 30
0.0
 10
10.7394311909
 20
9.1371835216
 30
0.0
 10
10.7385423174
 20
9.1543015212
 30
0.0
 10
10.7371317037
 20
9.1701121365
 30
0.0
 10
10.7352852196
 20
9.1847236875
 30
0.0
 10
10.7330910816
 20
9.1983654831
 30
0.0
 10
10.7297580393
 20
9.2153983067
 30
0.0
 10
10.7267058535
 20
9.2278157377
 30
0.0
 10
10.724514884
 20
9.2359451807
 30
0.0
  0
SPLINE
  5
3D8
100
AcDbEntity
  8
0
100
AcDbSpline
 62
9
  6
CONTINUOUS
 70
0
 71
3
 72
15
 73
11
 74
0
 42
0.0000001
 43
0.0000001
 44
0.0000000001
 40
0.0
 40
0.0
 40
0.0
 40
0.0
 40
0.1256020017
 40
0.2506906998
 40
0.3754331345
 40
0.4999999997
 40
0.6245668649
 40
0.7493092997
 40
0.874397998
 40
1.0
 40
1.0
 40
1.0
 40
1.0
 10
10.7241986809
 20
9.2370993178
 30
0.0
 10
10.7507015822
 20
9.2304230514
 30
0.0
 10
10.8040194043
 20
9.2187050856
 30
0.0
 10
10.8847831505
 20
9.2060902031
 30
0.0
 10
10.9659504069
 20
9.1985014615
 30
0.0
 10
11.0473183612
 20
9.1959639679
 30
0.0
 10
11.1286863154
 20
9.1985014643
 30
0.0
 10
11.2098535715
 20
9.2060902087
 30
0.0
 10
11.2906173175
 20
9.2187050939
 30
0.0
 10
11.3439351392
 20
9.2304230616
 30
0.0
 10
11.3704380404
 20
9.2370993289
 30
0.0
  0
SPLINE
  5
3D9
100
AcDbEntity
  8
0
100
AcDbSpline
 62
9
  6
CONTINUOUS
 70
0
 71
3
 72
11
 73
7
 74
0
 42
0.0000001
 43
0.0000001
 44
0.0000000001
 40
0.0
 40
0.0
 40
0.0
 40
0.0
 40
0.2634790623
 40
0.5179350947
 40
0.7631352414
 40
1.0
 40
1.0
 40
1.0
 40
1.0
 10
11.3704360158
 20
9.2371086955
 30
0.0
 10
11.3723359956
 20
9.2373043798
 30
0.0
 10
11.376045175
 20
9.2380359577
 30
0.0
 10
11.3812049908
 20
9.2401221582
 30
0.0
 10
11.3856923648
 20
9.2430819078
 30
0.0
 10
11.3881458034
 20
9.2456232893
 30
0.0
 10
11.3891752003
 20
9.2469976113
 30
0.0
  0
SPLINE
  5
3DA
100
AcDbEntity
  8
0
100
AcDbSpline
 62
9
  6
CONTINUOUS
 70
0
 71
3
 72
10
 73
6
 74
0
 42
0.0000001
 43
0.0000001
 44
0.0000000001
 40
0.0
 40
0.0
 40
0.0
 40
0.0
 40
0.2618654312
 40
0.5195952594
 40
1.0
 40
1.0
 40
1.0
 40
1.0
 10
11.3701211345
 20
9.2359450305
 30
0.0
 10
11.3719962869
 20
9.2361416779
 30
0.0
 10
11.3756932847
 20
9.236870147
 30
0.0
 10
11.3824100676
 20
9.2395270664
 30
0.0
 10
11.3867009395
 20
9.2430321608
 30
0.0
 10
11.3887794838
 20
9.2457969023
 30
0.0
  0
SPLINE
  5
3DB
100
AcDbEntity
  8
0
100
AcDbSpline
 62
7
  6
CONTINUOUS
 70
0
 71
3
 72
13
 73
9
 74
0
 42
0.0000001
 43
0.0000001
 44
0.0000000001
 40
0.0
 40
0.0
 40
0.0
 40
0.0
 40
0.216943618
 40
0.3355646916
 40
0.4598096904
 40
0.5891244841
 40
0.7228993265
 40
1.0
 40
1.0
 40
1.0
 40
1.0
 10
11.4241356312
 20
8.5908879279
 30
0.0
 10
11.4229646955
 20
8.5911823096
 30
0.0
 10
11.4211453032
 20
8.5916077705
 30
0.0
 10
11.4186288119
 20
8.5920749876
 30
0.0
 10
11.4165803516
 20
8.5923840465
 30
0.0
 10
11.4144413039
 20
8.5926525747
 30
0.0
 10
11.4114522977
 20
8.5929747497
 30
0.0
 10
11.4091706813
 20
8.593149151
 30
0.0
 10
11.4076298076
 20
8.5932123822
 30
0.0
  0
SPLINE
  5
3DC
100
AcDbEntity
  8
0
100
AcDbSpline
 62
9
  6
CONTINUOUS
 70
0
 71
3
 72
33
 73
29
 74
0
 42
0.0000001
 43
0.0000001
 44
0.0000000001
 40
0.0
 40
0.0
 40
0.0
 40
0.0
 40
0.066388906
 40
0.1331420612
 40
0.1666517039
 40
0.2002508885
 40
0.2677206845
 40
0.3355484725
 40
0.4037267529
 40
0.472235634
 40
0.541014354
 40
0.609914838
 40
0.6785961356
 40
0.7126142634
 40
0.7461428699
 40
0.7788515857
 40
0.8103086221
 40
0.8400121272
 40
0.8676270388
 40
0.8930702907
 40
0.9166211636
 40
0.9386999786
 40
0.9493274651
 40
0.9597333387
 40
0.9699500929
 40
0.9800250581
 40
0.9900498125
 40
1.0
 40
1.0
 40
1.0
 40
1.0
 10
11.4241356136
 20
8.5908863286
 30
0.0
 10
11.4242164976
 20
8.6055049422
 30
0.0
 10
11.4232638569
 20
8.6348272635
 30
0.0
 10
11.4206090454
 20
8.6714311708
 30
0.0
 10
11.4178897305
 20
8.7007826522
 30
0.0
 10
11.4148429529
 20
8.7302602649
 30
0.0
 10
11.4105151742
 20
8.7672002415
 30
0.0
 10
11.4047981522
 20
8.8116398743
 30
0.0
 10
11.3987229349
 20
8.8562626539
 30
0.0
 10
11.3924648387
 20
8.9010713105
 30
0.0
 10
11.3862052762
 20
8.9460404542
 30
0.0
 10
11.3801603174
 20
8.9910772982
 30
0.0
 10
11.3755299767
 20
9.0285807792
 30
0.0
 10
11.372347035
 20
9.0584096738
 30
0.0
 10
11.3703489594
 20
9.0803966356
 30
0.0
 10
11.3688971858
 20
9.101862495
 30
0.0
 10
11.36814867
 20
9.1225233211
 30
0.0
 10
11.3682227064
 20
9.142077858
 30
0.0
 10
11.3691954378
 20
9.160285546
 30
0.0
 10
11.3711072604
 20
9.1770567281
 30
0.0
 10
11.3737919645
 20
9.1924832432
 30
0.0
 10
11.3765528815
 20
9.2045644176
 30
0.0
 10
11.3789571424
 20
9.2137486208
 30
0.0
 10
11.3808169574
 20
9.2203741455
 30
0.0
 10
11.3827368882
 20
9.2268555363
 30
0.0
 10
11.3847045123
 20
9.2332347937
 30
0.0
 10
11.3867218961
 20
9.2395368919
 30
0.0
 10
11.3881087805
 20
9.243711091
 30
0.0
 10
11.3887794957
 20
9.2457969384
 30
0.0
  0
SPLINE
  5
3DD
100
AcDbEntity
  8
0
100
AcDbSpline
 62
9
  6
CONTINUOUS
 70
0
 71
3
 72
28
 73
24
 74
0
 42
0.0000001
 43
0.0000001
 44
0.0000000001
 40
0.0
 40
0.0
 40
0.0
 40
0.0
 40
0.0314421111
 40
0.064568477
 40
0.135151024
 40
0.2102741
 40
0.2884278577
 40
0.368080296
 40
0.4476730809
 40
0.5256629629
 40
0.6005945243
 40
0.6709702011
 40
0.7038987956
 40
0.7350179543
 40
0.7914003377
 40
0.8168649946
 40
0.8406850353
 40
0.8630212181
 40
0.8841349344
 40
0.9043082172
 40
0.9238162548
 40
0.9618408417
 40
1.0
 40
1.0
 40
1.0
 40
1.0
 10
11.4409630539
 20
8.5861118207
 30
0.0
 10
11.4406553353
 20
8.5932849857
 30
0.0
 10
11.4398514202
 20
8.6080084387
 30
0.0
 10
11.4376044698
 20
8.6387892936
 30
0.0
 10
11.4337186818
 20
8.6794447408
 30
0.0
 10
11.4278948309
 20
8.7302313505
 30
0.0
 10
11.4212174826
 20
8.7830003471
 30
0.0
 10
11.4140989675
 20
8.8367406831
 30
0.0
 10
11.4069547758
 20
8.8904398154
 30
0.0
 10
11.4001980859
 20
8.943102969
 30
0.0
 10
11.3942290919
 20
8.9937431103
 30
0.0
 10
11.3901502653
 20
9.0342419809
 30
0.0
 10
11.3877324502
 20
9.0648436602
 30
0.0
 10
11.3860640766
 20
9.0922936682
 30
0.0
 10
11.385355266
 20
9.1180942048
 30
0.0
 10
11.3857972824
 20
9.1422227076
 30
0.0
 10
11.386643463
 20
9.1585588646
 30
0.0
 10
11.3880125873
 20
9.1738625092
 30
0.0
 10
11.3898658256
 20
9.1882757273
 30
0.0
 10
11.392162558
 20
9.2019702177
 30
0.0
 10
11.3957288679
 20
9.219355548
 30
0.0
 10
11.4011617488
 20
9.2405340249
 30
0.0
 10
11.4062702232
 20
9.2571668929
 30
0.0
 10
11.408916712
 20
9.2654688661
 30
0.0
  0
SPLINE
  5
3DE
100
AcDbEntity
  8
0
100
AcDbSpline
 62
9
  6
CONTINUOUS
 70
0
 71
3
 72
9
 73
5
 74
0
 42
0.0000001
 43
0.0000001
 44
0.0000000001
 40
0.0
 40
0.0
 40
0.0
 40
0.0
 40
0.4876144654
 40
1.0
 40
1.0
 40
1.0
 40
1.0
 10
11.408916712
 20
9.2654688661
 30
0.0
 10
11.4300983779
 20
9.2858726459
 30
0.0
 10
11.4744448234
 20
9.3267815397
 30
0.0
 10
11.520296558
 20
9.3659886352
 30
0.0
 10
11.5441143754
 20
9.3856813649
 30
0.0
  0
SPLINE
  5
3DF
100
AcDbEntity
  8
0
100
AcDbSpline
 62
9
  6
CONTINUOUS
 70
0
 71
3
 72
11
 73
7
 74
0
 42
0.0000001
 43
0.0000001
 44
0.0000000001
 40
0.0
 40
0.0
 40
0.0
 40
0.0
 40
0.2336360511
 40
0.4783213265
 40
0.7338538291
 40
1.0
 40
1.0
 40
1.0
 40
1.0
 10
11.5441143754
 20
9.3856813649
 30
0.0
 10
11.5703847672
 20
9.4074018995
 30
0.0
 10
11.6249839498
 20
9.4508901205
 30
0.0
 10
11.7108486176
 20
9.5148747799
 30
0.0
 10
11.8024328539
 20
9.5790395233
 30
0.0
 10
11.8659244522
 20
9.6210307849
 30
0.0
 10
11.8985691936
 20
9.6420567443
 30
0.0
  0
LINE
  5
3E0
100
AcDbEntity
  8
0
100
AcDbLine
 62
9
  6
CONTINUOUS
 10
11.8985691936
 20
9.6420567443
 11
11.9006702255
 21
9.6434092117
  0
LINE
  5
3E1
100
AcDbEntity
  8
0
100
AcDbLine
 62
9
  6
CONTINUOUS
 10
11.9222028744
 20
9.6571820437
 11
11.9263890384
 21
9.6598412646
  0
LINE
  5
3E2
100
AcDbEntity
  8
0
100
AcDbLine
 62
9
  6
CONTINUOUS
 10
11.9243955359
 20
9.655319384
 11
11.9257258955
 21
9.6583307525
  0
SPLINE
  5
3E3
100
AcDbEntity
  8
0
100
AcDbSpline
 62
9
  6
CONTINUOUS
 70
0
 71
3
 72
13
 73
9
 74
0
 42
0.0000001
 43
0.0000001
 44
0.0000000001
 40
0.0
 40
0.0
 40
0.0
 40
0.0
 40
0.3415244181
 40
0.6159602564
 40
0.7297503985
 40
0.8297030298
 40
0.9184377945
 40
1.0
 40
1.0
 40
1.0
 40
1.0
 10
11.9263890384
 20
9.6598412646
 30
0.0
 10
11.9268829091
 20
9.6593526122
 30
0.0
 10
11.927734646
 20
9.6584305108
 30
0.0
 10
11.92858487
 20
9.6572013476
 30
0.0
 10
11.9289942822
 20
9.6562934227
 30
0.0
 10
11.9291593665
 20
9.6556973777
 30
0.0
 10
11.929198829
 20
9.6551446414
 30
0.0
 10
11.929134687
 20
9.6547989818
 30
0.0
 10
11.9290807732
 20
9.6546420644
 30
0.0
  0
LINE
  5
3E4
100
AcDbEntity
  8
0
100
AcDbLine
 62
7
  6
CONTINUOUS
 10
11.9913605027
 20
9.7894573146
 11
11.9893585705
 21
9.7850353287
  0
LINE
  5
3E5
100
AcDbEntity
  8
0
100
AcDbLine
 62
9
  6
CONTINUOUS
 10
10.1702387176
 20
9.6553249254
 11
10.1717799741
 21
9.651835268
  0
LINE
  5
3E6
100
AcDbEntity
  8
0
100
AcDbLine
 62
9
  6
CONTINUOUS
 10
10.1836082787
 20
9.62464343
 11
10.1848074834
 21
9.621844999
  0
SPLINE
  5
3E7
100
AcDbEntity
  8
0
100
AcDbSpline
 62
9
  6
CONTINUOUS
 70
0
 71
3
 72
17
 73
13
 74
0
 42
0.0000001
 43
0.0000001
 44
0.0000000001
 40
0.0
 40
0.0
 40
0.0
 40
0.0
 40
0.1250110748
 40
0.1875039964
 40
0.2499692254
 40
0.3748402997
 40
0.4997234147
 40
0.6246584306
 40
0.7496669279
 40
0.812205909
 40
0.8747615969
 40
1.0
 40
1.0
 40
1.0
 40
1.0
 10
10.1848074834
 20
9.621844999
 30
0.0
 10
10.2043424875
 20
9.5761948252
 30
0.0
 10
10.2319514549
 20
9.5069830806
 30
0.0
 10
10.2653987408
 20
9.4134914965
 30
0.0
 10
10.296528435
 20
9.319259405
 30
0.0
 10
10.3309107055
 20
9.2000421102
 30
0.0
 10
10.3642981168
 20
9.0549335107
 30
0.0
 10
10.3897472916
 20
8.9081696546
 30
0.0
 10
10.4042747323
 20
8.7848411716
 30
0.0
 10
10.412069678
 20
8.685797412
 30
0.0
 10
10.417379649
 20
8.5864994373
 30
0.0
 10
10.4185934113
 20
8.5118783321
 30
0.0
 10
10.418200167
 20
8.4621352389
 30
0.0
  0
LINE
  5
3E8
100
AcDbEntity
  8
0
100
AcDbLine
 62
7
  6
CONTINUOUS
 10
10.418200167
 20
8.4621352389
 11
10.4178526951
 21
8.4615404993
  0
LINE
  5
3E9
100
AcDbEntity
  8
0
100
AcDbLine
 62
7
  6
CONTINUOUS
 10
10.4178526951
 20
8.4615404993
 11
10.4176780051
 21
8.4607161795
  0
LINE
  5
3EA
100
AcDbEntity
  8
0
100
AcDbLine
 62
9
  6
CONTINUOUS
 10
10.4182641077
 20
8.4606464148
 11
10.4182014262
 21
8.4621356725
  0
SPLINE
  5
3EB
100
AcDbEntity
  8
0
100
AcDbSpline
 62
7
  6
CONTINUOUS
 70
0
 71
3
 72
14
 73
10
 74
0
 42
0.0000001
 43
0.0000001
 44
0.0000000001
 40
0.0
 40
0.0
 40
0.0
 40
0.0
 40
0.1219366974
 40
0.2422182613
 40
0.363155447
 40
0.4863881173
 40
0.6124161939
 40
0.7414676127
 40
1.0
 40
1.0
 40
1.0
 40
1.0
 10
10.5973818258
 20
8.5680872712
 30
0.0
 10
10.5978178772
 20
8.5682479841
 30
0.0
 10
10.5987049653
 20
8.5685105085
 30
0.0
 10
10.6000552978
 20
8.5688130308
 30
0.0
 10
10.60140767
 20
8.5691324061
 30
0.0
 10
10.6027558052
 20
8.5695520544
 30
0.0
 10
10.6041056281
 20
8.5700623167
 30
0.0
 10
10.6058858847
 20
8.5708755951
 30
0.0
 10
10.6072100903
 20
8.5715415541
 30
0.0
 10
10.6081385071
 20
8.5718715462
 30
0.0
  0
SPLINE
  5
3EC
100
AcDbEntity
  8
0
100
AcDbSpline
 62
7
  6
CONTINUOUS
 70
0
 71
3
 72
11
 73
7
 74
0
 42
0.0000001
 43
0.0000001
 44
0.0000000001
 40
0.0
 40
0.0
 40
0.0
 40
0.0
 40
0.2822903487
 40
0.5479002534
 40
0.7896094776
 40
1.0
 40
1.0
 40
1.0
 40
1.0
 10
10.7032937119
 20
5.4741346626
 30
0.0
 10
10.7015693788
 20
5.474013709
 30
0.0
 10
10.6982209413
 20
5.473801634
 30
0.0
 10
10.6934116626
 20
5.4732711053
 30
0.0
 10
10.6890881506
 20
5.4724548717
 30
0.0
 10
10.6864128144
 20
5.4717373751
 30
0.0
 10
10.6851736345
 20
5.4713850243
 30
0.0
  0
SPLINE
  5
3ED
100
AcDbEntity
  8
0
100
AcDbSpline
 62
7
  6
CONTINUOUS
 70
0
 71
3
 72
13
 73
9
 74
0
 42
0.0000001
 43
0.0000001
 44
0.0000000001
 40
0.0
 40
0.0
 40
0.0
 40
0.0
 40
0.2770954678
 40
0.4108830063
 40
0.5402004155
 40
0.6644413185
 40
0.7830590757
 40
1.0
 40
1.0
 40
1.0
 40
1.0
 10
10.6870133032
 20
8.5932127482
 30
0.0
 10
10.6854717111
 20
8.5931533008
 30
0.0
 10
10.6831891024
 20
8.5929771231
 30
0.0
 10
10.6801992133
 20
8.5926522216
 30
0.0
 10
10.6780592655
 20
8.5923837006
 30
0.0
 10
10.6760099323
 20
8.5920752508
 30
0.0
 10
10.6734924303
 20
8.5916083131
 30
0.0
 10
10.6716724265
 20
8.5911824208
 30
0.0
 10
10.6705010524
 20
8.5908879294
 30
0.0
  0
SPLINE
  5
3EE
100
AcDbEntity
  8
0
100
AcDbSpline
 62
9
  6
CONTINUOUS
 70
0
 71
3
 72
31
 73
27
 74
0
 42
0.0000001
 43
0.0000001
 44
0.0000000001
 40
0.0
 40
0.0
 40
0.0
 40
0.0
 40
0.0402706395
 40
0.0613172871
 40
0.0833985313
 40
0.1069350296
 40
0.1323763935
 40
0.1599863551
 40
0.1896715965
 40
0.2210874874
 40
0.2537858372
 40
0.2873254273
 40
0.321341947
 40
0.3556196522
 40
0.3900253003
 40
0.4589280914
 40
0.527708076
 40
0.5962187419
 40
0.6643989653
 40
0.7322297611
 40
0.799704204
 40
0.8668189867
 40
0.900246493
 40
0.9335920855
 40
0.9668454276
 40
1.0
 40
1.0
 40
1.0
 40
1.0
 10
10.7058571758
 20
9.2457970122
 30
0.0
 10
10.7086348987
 20
9.2373756206
 30
0.0
 10
10.7127428809
 20
9.2245087932
 30
0.0
 10
10.7175822735
 20
9.2067895531
 30
0.0
 10
10.7208496135
 20
9.192472394
 30
0.0
 10
10.7235255615
 20
9.1770472521
 30
0.0
 10
10.7254356478
 20
9.1602808816
 30
0.0
 10
10.7264270828
 20
9.1420793899
 30
0.0
 10
10.7264836915
 20
9.1225384637
 30
0.0
 10
10.7257345283
 20
9.1018932437
 30
0.0
 10
10.7242963146
 20
9.0804352
 30
0.0
 10
10.7223011582
 20
9.0584479081
 30
0.0
 10
10.7199134655
 20
9.0361507623
 30
0.0
 10
10.717259518
 20
9.013692022
 30
0.0
 10
10.7134763863
 20
8.9836322166
 30
0.0
 10
10.7084372372
 20
8.9460740888
 30
0.0
 10
10.7021737128
 20
8.9011040331
 30
0.0
 10
10.6959168573
 20
8.8562936517
 30
0.0
 10
10.6898448781
 20
8.8116686312
 30
0.0
 10
10.6841206977
 20
8.7672271835
 30
0.0
 10
10.6789452763
 20
8.7229541892
 30
0.0
 10
10.6752891828
 20
8.6861341657
 30
0.0
 10
10.6729695146
 20
8.6567422565
 30
0.0
 10
10.6715793701
 20
8.6347589168
 30
0.0
 10
10.6706633377
 20
8.6128100947
 30
0.0
 10
10.6704692221
 20
8.5981852193
 30
0.0
 10
10.6705010714
 20
8.5908845896
 30
0.0
  0
SPLINE
  5
3EF
100
AcDbEntity
  8
0
100
AcDbSpline
 62
9
  6
CONTINUOUS
 70
0
 71
3
 72
28
 73
24
 74
0
 42
0.0000001
 43
0.0000001
 44
0.0000000001
 40
0.0
 40
0.0
 40
0.0
 40
0.0
 40
0.031442
 40
0.0645682684
 40
0.1351506598
 40
0.2102736289
 40
0.288427324
 40
0.368079739
 40
0.447672535
 40
0.5256624555
 40
0.6005940766
 40
0.6709698324
 40
0.703898473
 40
0.735017681
 40
0.7914001545
 40
0.8168648487
 40
0.8406849219
 40
0.8630211318
 40
0.8841348695
 40
0.9043081691
 40
0.9238162196
 40
0.9618408257
 40
1.0
 40
1.0
 40
1.0
 40
1.0
 10
10.6536736116
 20
8.586110495
 30
0.0
 10
10.65398132
 20
8.593283653
 30
0.0
 10
10.654785217
 20
8.6080070964
 30
0.0
 10
10.6570321378
 20
8.6387879477
 30
0.0
 10
10.6609179012
 20
8.6794434177
 30
0.0
 10
10.6667417369
 20
8.7302300834
 30
0.0
 10
10.6734190826
 20
8.7829991704
 30
0.0
 10
10.6805376054
 20
8.8367396253
 30
0.0
 10
10.6876818127
 20
8.8904388985
 30
0.0
 10
10.6944385232
 20
8.9431022089
 30
0.0
 10
10.7004075404
 20
8.993742517
 30
0.0
 10
10.7044863868
 20
9.0342415305
 30
0.0
 10
10.7069042174
 20
9.0648433257
 30
0.0
 10
10.7085726051
 20
9.0922934444
 30
0.0
 10
10.7092814267
 20
9.1180940858
 30
0.0
 10
10.7088394151
 20
9.1422226858
 30
0.0
 10
10.7079932356
 20
9.158558906
 30
0.0
 10
10.7066241093
 20
9.1738626077
 30
0.0
 10
10.7047708661
 20
9.188275877
 30
0.0
 10
10.7024741259
 20
9.2019704132
 30
0.0
 10
10.6989078025
 20
9.2193557975
 30
0.0
 10
10.6934748986
 20
9.2405343366
 30
0.0
 10
10.6883664007
 20
9.2571672515
 30
0.0
 10
10.6857198996
 20
9.2654692475
 30
0.0
  0
LINE
  5
3F0
100
AcDbEntity
  8
0
100
AcDbLine
 62
7
  6
CONTINUOUS
 10
11.4865423163
 20
8.5718610106
 11
11.4978868302
 21
8.5679667286
  0
SPLINE
  5
3F1
100
AcDbEntity
  8
0
100
AcDbSpline
 62
7
  6
CONTINUOUS
 70
0
 71
3
 72
15
 73
11
 74
0
 42
0.0000001
 43
0.0000001
 44
0.0000000001
 40
0.0
 40
0.0
 40
0.0
 40
0.0
 40
0.1631880786
 40
0.3154392284
 40
0.4565922079
 40
0.5865995174
 40
0.7055246235
 40
0.8136413236
 40
0.911512354
 40
1.0
 40
1.0
 40
1.0
 40
1.0
 10
11.4978860978
 20
8.5679386106
 30
0.0
 10
11.5086792307
 20
8.5641630034
 30
0.0
 10
11.5294165813
 20
8.5564965753
 30
0.0
 10
11.5589450854
 20
8.5441563009
 30
0.0
 10
11.5857491297
 20
8.5314076694
 30
0.0
 10
11.6097496001
 20
8.518292946
 30
0.0
 10
11.6308733396
 20
8.5048471866
 30
0.0
 10
11.6490595913
 20
8.491101026
 30
0.0
 10
11.664261791
 20
8.4770973055
 30
0.0
 10
11.6727770862
 20
8.4671367743
 30
0.0
 10
11.676434525
 20
8.4621301411
 30
0.0
  0
LINE
  5
3F2
100
AcDbEntity
  8
0
100
AcDbLine
 62
9
  6
CONTINUOUS
 10
11.6764358655
 20
8.4621632025
 11
11.6763758014
 21
8.4607362023
  0
LINE
  5
3F3
100
AcDbEntity
  8
0
100
AcDbLine
 62
9
  6
CONTINUOUS
 10
11.6763758014
 20
8.4607362023
 11
11.676332907
 21
8.4597167496
  0
LINE
  5
3F4
100
AcDbEntity
  8
0
100
AcDbLine
 62
7
  6
CONTINUOUS
 10
11.6764358708
 20
8.4621633316
 11
11.676777664
 21
8.4615623827
  0
LINE
  5
3F5
100
AcDbEntity
  8
0
100
AcDbLine
 62
7
  6
CONTINUOUS
 10
11.676777664
 20
8.4615623827
 11
11.6769586589
 21
8.4607152008
  0
SPLINE
  5
3F6
100
AcDbEntity
  8
0
100
AcDbSpline
 62
9
  6
CONTINUOUS
 70
0
 71
3
 72
20
 73
16
 74
0
 42
0.0000001
 43
0.0000001
 44
0.0000000001
 40
0.0
 40
0.0
 40
0.0
 40
0.0
 40
0.125234656
 40
0.1878004828
 40
0.2503451327
 40
0.3128652057
 40
0.3753606855
 40
0.4378350044
 40
0.5002930471
 40
0.5627407121
 40
0.6251840971
 40
0.7500623178
 40
0.8749817539
 40
0.9374837503
 40
1.0
 40
1.0
 40
1.0
 40
1.0
 10
11.676436388
 20
8.462162231
 30
0.0
 10
11.6760553264
 20
8.5119084614
 30
0.0
 10
11.6772741638
 20
8.5865385042
 30
0.0
 10
11.6825699479
 20
8.6858505046
 30
0.0
 10
11.6884118121
 20
8.7601635438
 30
0.0
 10
11.6961754275
 20
8.8342720882
 30
0.0
 10
11.7059118655
 20
8.9081197267
 30
0.0
 10
11.7176333061
 20
8.9816535138
 30
0.0
 10
11.7313428258
 20
9.0548234585
 30
0.0
 10
11.7470520775
 20
9.1275783099
 30
0.0
 10
11.7706351099
 20
9.2239626415
 30
0.0
 10
11.8049646433
 20
9.3432160196
 30
0.0
 10
11.8454504819
 20
9.4605378512
 30
0.0
 10
11.881176014
 20
9.5531790336
 30
0.0
 10
11.9001391675
 20
9.5990840533
 30
0.0
 10
11.909895328
 20
9.6219210767
 30
0.0
  0
LINE
  5
3F7
100
AcDbEntity
  8
0
100
AcDbLine
 62
9
  6
CONTINUOUS
 10
11.909895328
 20
9.6219210767
 11
11.9110445899
 21
9.6246077502
  0
LINE
  5
3F8
100
AcDbEntity
  8
0
100
AcDbLine
 62
9
  6
CONTINUOUS
 10
11.9228709386
 20
9.6518577634
 11
11.9243955359
 21
9.6553193828
  0
SPLINE
  5
3F9
100
AcDbEntity
  8
0
100
AcDbSpline
 62
9
  6
CONTINUOUS
 70
0
 71
3
 72
11
 73
7
 74
0
 42
0.0000001
 43
0.0000001
 44
0.0000000001
 40
0.0
 40
0.0
 40
0.0
 40
0.0
 40
0.3468405151
 40
0.4943906914
 40
0.6251790179
 40
1.0
 40
1.0
 40
1.0
 40
1.0
 10
11.9243955359
 20
9.6553193828
 30
0.0
 10
11.9248959062
 20
9.6548262269
 30
0.0
 10
11.9255773997
 20
9.6540903224
 30
0.0
 10
11.9263251942
 20
9.6530599363
 30
0.0
 10
11.9269935657
 20
9.651941217
 30
0.0
 10
11.9273522429
 20
9.6508088841
 30
0.0
 10
11.9270987684
 20
9.6500932225
 30
0.0
  0
LINE
  5
3FA
100
AcDbEntity
  8
0
100
AcDbLine
 62
9
  6
CONTINUOUS
 10
11.9271088156
 20
9.6501163202
 11
11.9154935412
 21
9.6227118395
  0
LINE
  5
3FB
100
AcDbEntity
  8
0
100
AcDbLine
 62
9
  6
CONTINUOUS
 10
11.9154935412
 20
9.6227118395
 11
11.914352002
 21
9.6200169331
  0
LINE
  5
3FC
100
AcDbEntity
  8
0
100
AcDbLine
 62
9
  6
CONTINUOUS
 10
11.914352002
 20
9.6200169331
 11
11.9093056511
 21
9.6081001866
  0
SPLINE
  5
3FD
100
AcDbEntity
  8
0
100
AcDbSpline
 62
9
  6
CONTINUOUS
 70
0
 71
3
 72
11
 73
7
 74
0
 42
0.0000001
 43
0.0000001
 44
0.0000000001
 40
0.0
 40
0.0
 40
0.0
 40
0.0
 40
0.4799107334
 40
0.6081244233
 40
0.7382519354
 40
1.0
 40
1.0
 40
1.0
 40
1.0
 10
11.4025295759
 20
9.2862589842
 30
0.0
 10
11.4004523413
 20
9.2832151008
 30
0.0
 10
11.3967368159
 20
9.2800012196
 30
0.0
 10
11.3916042229
 20
9.277598943
 30
0.0
 10
11.387821875
 20
9.2762943571
 30
0.0
 10
11.384838814
 20
9.275742766
 30
0.0
 10
11.3828364223
 20
9.2755691696
 30
0.0
  0
LINE
  5
3FE
100
AcDbEntity
  8
0
100
AcDbLine
 62
9
  6
CONTINUOUS
 10
11.3828364745
 20
9.2755691735
 11
11.3831876042
 21
9.2764759698
  0
SPLINE
  5
3FF
100
AcDbEntity
  8
0
100
AcDbSpline
 62
7
  6
CONTINUOUS
 70
0
 71
3
 72
11
 73
7
 74
0
 42
0.0000001
 43
0.0000001
 44
0.0000000001
 40
0.0
 40
0.0
 40
0.0
 40
0.0
 40
0.2711466854
 40
0.5281944774
 40
0.7711032302
 40
1.0
 40
1.0
 40
1.0
 40
1.0
 10
11.9746564092
 20
9.7849872996
 30
0.0
 10
11.9203438662
 20
9.7479844529
 30
0.0
 10
11.8162926148
 20
9.6732802042
 30
0.0
 10
11.670694111
 20
9.5559290583
 30
0.0
 10
11.5402019493
 20
9.4366762425
 30
0.0
 10
11.4612886907
 20
9.3537378536
 30
0.0
 10
11.4247201498
 20
9.3120163646
 30
0.0
  0
SPLINE
  5
400
100
AcDbEntity
  8
0
100
AcDbSpline
 62
9
  6
CONTINUOUS
 70
0
 71
3
 72
30
 73
26
 74
0
 42
0.0000001
 43
0.0000001
 44
0.0000000001
 40
0.0
 40
0.0
 40
0.0
 40
0.0
 40
0.0737200253
 40
0.148059006
 40
0.2233291412
 40
0.2994050846
 40
0.3757983089
 40
0.4519480454
 40
0.5272660456
 40
0.60098435
 40
0.6718545899
 40
0.7056449989
 40
0.7380493794
 40
0.7688918708
 40
0.7980847135
 40
0.8255805907
 40
0.8514063634
 40
0.8756202547
 40
0.8983297309
 40
0.9196198566
 40
0.9394389798
 40
0.9576718354
 40
0.9740857979
 40
0.9883686972
 40
1.0
 40
1.0
 40
1.0
 40
1.0
 10
10.6851854188
 20
5.4713933008
 30
0.0
 10
10.6851553211
 20
5.429862749
 30
0.0
 10
10.6850511983
 20
5.3464530141
 30
0.0
 10
10.685278842
 20
5.2206390526
 30
0.0
 10
10.6863972843
 20
5.0935016768
 30
0.0
 10
10.6886601383
 20
4.9652217139
 30
0.0
 10
10.6920937151
 20
4.8364721751
 30
0.0
 10
10.6965992597
 20
4.7081831812
 30
0.0
 10
10.7020708441
 20
4.581440109
 30
0.0
 10
10.708481177
 20
4.4577187241
 30
0.0
 10
10.7147608297
 20
4.3574219029
 30
0.0
 10
10.7202798324
 20
4.2804027524
 30
0.0
 10
10.7244469787
 20
4.2258951925
 30
0.0
 10
10.7285957053
 20
4.1739842457
 30
0.0
 10
10.7326465218
 20
4.1248397022
 30
0.0
 10
10.7365303737
 20
4.0785172953
 30
0.0
 10
10.7401037661
 20
4.034983501
 30
0.0
 10
10.743219676
 20
3.9941183516
 30
0.0
 10
10.7460449208
 20
3.9557939256
 30
0.0
 10
10.7487565377
 20
3.9199437072
 30
0.0
 10
10.751270121
 20
3.8866076304
 30
0.0
 10
10.753483933
 20
3.8560038811
 30
0.0
 10
10.7552544793
 20
3.8284952283
 30
0.0
 10
10.7564134808
 20
3.804676666
 30
0.0
 10
10.7569069877
 20
3.7900854339
 30
0.0
 10
10.7570690059
 20
3.7835348819
 30
0.0
  0
LINE
  5
401
100
AcDbEntity
  8
0
100
AcDbLine
 62
9
  6
CONTINUOUS
 10
10.4668183383
 20
4.2691330357
 11
10.4668193454
 21
4.2705917368
  0
LINE
  5
402
100
AcDbEntity
  8
0
100
AcDbLine
 62
9
  6
CONTINUOUS
 10
10.4668193454
 20
4.2705917368
 11
10.4672106606
 21
4.3059778162
  0
LINE
  5
403
100
AcDbEntity
  8
0
100
AcDbLine
 62
9
  6
CONTINUOUS
 10
10.4672106606
 20
4.3059778162
 11
10.4672680317
 21
4.3090864159
  0
SPLINE
  5
404
100
AcDbEntity
  8
0
100
AcDbSpline
 62
9
  6
CONTINUOUS
 70
0
 71
3
 72
17
 73
13
 74
0
 42
0.0000001
 43
0.0000001
 44
0.0000000001
 40
0.0
 40
0.0
 40
0.0
 40
0.0
 40
0.0746341285
 40
0.1654526991
 40
0.2171000536
 40
0.2731860434
 40
0.3338499322
 40
0.3990185266
 40
0.5399785504
 40
0.6899704078
 40
0.844062674
 40
1.0
 40
1.0
 40
1.0
 40
1.0
 10
10.4672680317
 20
4.3090864159
 30
0.0
 10
10.467578635
 20
4.3254963831
 30
0.0
 10
10.4685146025
 20
4.3618701425
 30
0.0
 10
10.4701426547
 20
4.4095853575
 30
0.0
 10
10.4717280202
 20
4.4532204146
 30
0.0
 10
10.4730845446
 20
4.4902280594
 30
0.0
 10
10.4745029818
 20
4.530208898
 30
0.0
 10
10.4764602103
 20
4.5888470379
 30
0.0
 10
10.4788043578
 20
4.6671272358
 30
0.0
 10
10.4813216935
 20
4.7649654315
 30
0.0
 10
10.4835838566
 20
4.8661043197
 30
0.0
 10
10.484877054
 20
4.9342713383
 30
0.0
 10
10.4854546716
 20
4.9685588914
 30
0.0
  0
LINE
  5
405
100
AcDbEntity
  8
0
100
AcDbLine
 62
9
  6
CONTINUOUS
 10
10.4854546716
 20
4.9685588914
 11
10.4855824301
 21
4.9762177223
  0
LINE
  5
406
100
AcDbEntity
  8
0
100
AcDbLine
 62
9
  6
CONTINUOUS
 10
10.4878267658
 20
5.1625969346
 11
10.4878407837
 21
5.1643833372
  0
LINE
  5
407
100
AcDbEntity
  8
0
100
AcDbLine
 62
9
  6
CONTINUOUS
 10
10.4889568046
 20
5.3660904259
 11
10.4889653785
 21
5.3678017915
  0
LINE
  5
408
100
AcDbEntity
  8
0
100
AcDbLine
 62
9
  6
CONTINUOUS
 10
10.4889653785
 20
5.3678017915
 11
10.4889745313
 21
5.3696197871
  0
SPLINE
  5
409
100
AcDbEntity
  8
0
100
AcDbSpline
 62
7
  6
CONTINUOUS
 70
0
 71
3
 72
15
 73
11
 74
0
 42
0.0000001
 43
0.0000001
 44
0.0000000001
 40
0.0
 40
0.0
 40
0.0
 40
0.0
 40
0.0905056437
 40
0.1903496182
 40
0.3000328293
 40
0.4198280212
 40
0.5498113557
 40
0.6899513954
 40
0.8400965175
 40
1.0
 40
1.0
 40
1.0
 40
1.0
 10
10.4889745313
 20
5.3696197871
 30
0.0
 10
10.4936108133
 20
5.3744959097
 30
0.0
 10
10.5040026685
 20
5.3841498147
 30
0.0
 10
10.5217534435
 20
5.3976986875
 30
0.0
 10
10.5423564785
 20
5.4109656703
 30
0.0
 10
10.5657530237
 20
5.4239119421
 30
0.0
 10
10.591875845
 20
5.4365067866
 30
0.0
 10
10.6206499379
 20
5.4487085273
 30
0.0
 10
10.651987605
 20
5.4604819798
 30
0.0
 10
10.6738511461
 20
5.4677979213
 30
0.0
 10
10.6851823447
 20
5.4713923444
 30
0.0
  0
SPLINE
  5
40A
100
AcDbEntity
  8
0
100
AcDbSpline
 62
9
  6
CONTINUOUS
 70
0
 71
3
 72
25
 73
21
 74
0
 42
0.0000001
 43
0.0000001
 44
0.0000000001
 40
0.0
 40
0.0
 40
0.0
 40
0.0
 40
0.0142003102
 40
0.0301798595
 40
0.0477323263
 40
0.0666927298
 40
0.0869679527
 40
0.1084724918
 40
0.1548693911
 40
0.205333896
 40
0.2594527237
 40
0.3778655665
 40
0.4422903317
 40
0.5104138549
 40
0.5823736916
 40
0.6582678678
 40
0.7381037953
 40
0.8218057361
 40
0.9091896863
 40
1.0
 40
1.0
 40
1.0
 40
1.0
 10
10.7570683331
 20
3.7835352789
 30
0.0
 10
10.7571473828
 20
3.7860679388
 30
0.0
 10
10.7572549358
 20
3.7914524767
 30
0.0
 10
10.7573086583
 20
3.7999697514
 30
0.0
 10
10.7572846183
 20
3.8093365243
 30
0.0
 10
10.7571904508
 20
3.8194693903
 30
0.0
 10
10.7570071292
 20
3.8303063933
 30
0.0
 10
10.7566101347
 20
3.8460357413
 30
0.0
 10
10.7558313351
 20
3.8671431195
 30
0.0
 10
10.7546012591
 20
3.8940559442
 30
0.0
 10
10.7526109826
 20
3.9337974279
 30
0.0
 10
10.7505462205
 20
3.9760294746
 30
0.0
 10
10.7480777359
 20
4.0207429265
 30
0.0
 10
10.7458851026
 20
4.0571693834
 30
0.0
 10
10.7434546818
 20
4.0956315578
 30
0.0
 10
10.7408849212
 20
4.1361790359
 30
0.0
 10
10.7382264419
 20
4.1788203447
 30
0.0
 10
10.7355296341
 20
4.2235134049
 30
0.0
 10
10.7328357296
 20
4.2701683301
 30
0.0
 10
10.7311022377
 20
4.3019179606
 30
0.0
 10
10.7302425604
 20
4.3180992678
 30
0.0
  0
SPLINE
  5
40B
100
AcDbEntity
  8
0
100
AcDbSpline
 62
9
  6
CONTINUOUS
 70
0
 71
3
 72
14
 73
10
 74
0
 42
0.0000001
 43
0.0000001
 44
0.0000000001
 40
0.0
 40
0.0
 40
0.0
 40
0.0
 40
0.1197595769
 40
0.2439855069
 40
0.4981520647
 40
0.6255803321
 40
0.7517959346
 40
0.8764745451
 40
1.0
 40
1.0
 40
1.0
 40
1.0
 10
10.7277291232
 20
4.3667446574
 30
0.0
 10
10.7255105274
 20
4.4109119291
 30
0.0
 10
10.7213444878
 20
4.5009117276
 30
0.0
 10
10.714044415
 20
4.684717322
 30
0.0
 10
10.7084927262
 20
4.871424528
 30
0.0
 10
10.7051526586
 20
5.0589128541
 30
0.0
 10
10.7037493344
 20
5.1986081316
 30
0.0
 10
10.7032307833
 20
5.3368676404
 30
0.0
 10
10.7032506147
 20
5.4285206678
 30
0.0
 10
10.7032746518
 20
5.4741342251
 30
0.0
  0
SPLINE
  5
40C
100
AcDbEntity
  8
0
100
AcDbSpline
 62
9
  6
CONTINUOUS
 70
0
 71
3
 72
11
 73
7
 74
0
 42
0.0000001
 43
0.0000001
 44
0.0000000001
 40
0.0
 40
0.0
 40
0.0
 40
0.0
 40
0.2491256097
 40
0.5000000001
 40
0.7508743904
 40
1.0
 40
1.0
 40
1.0
 40
1.0
 10
10.7032746518
 20
5.4741342251
 30
0.0
 10
10.7603744352
 20
5.476714932
 30
0.0
 10
10.8750385742
 20
5.4805726765
 30
0.0
 10
11.0473183416
 20
5.4824953774
 30
0.0
 10
11.2195981091
 20
5.4805726763
 30
0.0
 10
11.334262248
 20
5.4767149318
 30
0.0
 10
11.3913620314
 20
5.4741342248
 30
0.0
  0
SPLINE
  5
40D
100
AcDbEntity
  8
0
100
AcDbSpline
 62
9
  6
CONTINUOUS
 70
0
 71
3
 72
25
 73
21
 74
0
 42
0.0000001
 43
0.0000001
 44
0.0000000001
 40
0.0
 40
0.0
 40
0.0
 40
0.0
 40
0.0145772671
 40
0.0315168785
 40
0.0709527528
 40
0.1160880698
 40
0.1655025275
 40
0.2182552972
 40
0.2735941431
 40
0.3900560781
 40
0.4516066295
 40
0.5163855046
 40
0.5852131141
 40
0.6587229406
 40
0.6973483719
 40
0.7372411001
 40
0.7783667683
 40
0.8206819978
 40
0.9085344557
 40
1.0
 40
1.0
 40
1.0
 40
1.0
 10
11.3375683621
 20
3.783534356
 30
0.0
 10
11.3375031058
 20
3.7861401662
 30
0.0
 10
11.3374461371
 20
3.7917761272
 30
0.0
 10
11.337526664
 20
3.804463495
 30
0.0
 10
11.3379486741
 20
3.8226112635
 30
0.0
 10
11.3387836257
 20
3.8465554589
 30
0.0
 10
11.3399085556
 20
3.8728715007
 30
0.0
 10
11.3412677214
 20
3.9010031462
 30
0.0
 10
11.3433439084
 20
3.9411028587
 30
0.0
 10
11.3454804898
 20
3.9827749352
 30
0.0
 10
11.3479810603
 20
4.0261176235
 30
0.0
 10
11.350076611
 20
4.0609515442
 30
0.0
 10
11.3522812922
 20
4.097921313
 30
0.0
 10
11.3540648838
 20
4.130231053
 30
0.0
 10
11.355467696
 20
4.157379665
 30
0.0
 10
11.3565287099
 20
4.1787474001
 30
0.0
 10
11.3576142181
 20
4.2007745124
 30
0.0
 10
11.3591506489
 20
4.2313656991
 30
0.0
 10
11.3612282331
 20
4.2709425302
 30
0.0
 10
11.3630133592
 20
4.3029574864
 30
0.0
 10
11.363901395
 20
4.3192887281
 30
0.0
  0
LINE
  5
40E
100
AcDbEntity
  8
0
100
AcDbLine
 62
9
  6
CONTINUOUS
 10
11.363901395
 20
4.3192887281
 11
11.3646093313
 21
4.3324021802
  0
SPLINE
  5
40F
100
AcDbEntity
  8
0
100
AcDbSpline
 62
9
  6
CONTINUOUS
 70
0
 71
3
 72
21
 73
17
 74
0
 42
0.0000001
 43
0.0000001
 44
0.0000000001
 40
0.0
 40
0.0
 40
0.0
 40
0.0
 40
0.0593500426
 40
0.1200018231
 40
0.1816649485
 40
0.2441092248
 40
0.3071366066
 40
0.3705719031
 40
0.4342579723
 40
0.498041497
 40
0.5617664425
 40
0.6253122558
 40
0.7515593706
 40
0.8764296407
 40
0.9383331102
 40
1.0
 40
1.0
 40
1.0
 40
1.0
 10
11.3664379377
 20
4.3674408376
 30
0.0
 10
11.3675501889
 20
4.3893148425
 30
0.0
 10
11.3696842678
 20
4.4335485303
 30
0.0
 10
11.3726147126
 20
4.500525352
 30
0.0
 10
11.3754393437
 20
4.5686495461
 30
0.0
 10
11.3781083353
 20
4.6376574146
 30
0.0
 10
11.3805748981
 20
4.7073272538
 30
0.0
 10
11.3828012349
 20
4.7774637039
 30
0.0
 10
11.3847730693
 20
4.847886923
 30
0.0
 10
11.3864797799
 20
4.9184240104
 30
0.0
 10
11.3878941041
 20
4.9889158173
 30
0.0
 10
11.3893989972
 20
5.0824609704
 30
0.0
 10
11.3906554673
 20
5.1985769141
 30
0.0
 10
11.3912280431
 20
5.314091795
 30
0.0
 10
11.3913609939
 20
5.4057751169
 30
0.0
 10
11.3913602221
 20
5.451376956
 30
0.0
 10
11.3913620311
 20
5.4741342191
 30
0.0
  0
SPLINE
  5
410
100
AcDbEntity
  8
0
100
AcDbSpline
 62
7
  6
CONTINUOUS
 70
0
 71
3
 72
12
 73
8
 74
0
 42
0.0000001
 43
0.0000001
 44
0.0000000001
 40
0.0
 40
0.0
 40
0.0
 40
0.0
 40
0.2822563237
 40
0.5478070095
 40
0.672038609
 40
0.7896128626
 40
1.0
 40
1.0
 40
1.0
 40
1.0
 10
11.3913620311
 20
5.4741342191
 30
0.0
 10
11.3930834618
 20
5.4740159368
 30
0.0
 10
11.3964251134
 20
5.4737953592
 30
0.0
 10
11.4005114865
 20
5.4733439587
 30
0.0
 10
11.4035711233
 20
5.4728304892
 30
0.0
 10
11.4062756957
 20
5.4722543648
 30
0.0
 10
11.4082117171
 20
5.4717300526
 30
0.0
 10
11.4094518941
 20
5.4713892977
 30
0.0
  0
SPLINE
  5
411
100
AcDbEntity
  8
0
100
AcDbSpline
 62
9
  6
CONTINUOUS
 70
0
 71
3
 72
32
 73
28
 74
0
 42
0.0000001
 43
0.0000001
 44
0.0000000001
 40
0.0
 40
0.0
 40
0.0
 40
0.0
 40
0.0056102439
 40
0.0121885446
 40
0.0276230777
 40
0.0451892752
 40
0.0643300932
 40
0.0846590941
 40
0.1059156321
 40
0.1279824087
 40
0.1511891391
 40
0.1759531257
 40
0.2025938789
 40
0.2313355328
 40
0.2621082709
 40
0.2947176904
 40
0.3287759773
 40
0.3638861128
 40
0.3998038583
 40
0.473371944
 40
0.5485247633
 40
0.6245358355
 40
0.7007862153
 40
0.7766875593
 40
0.851916338
 40
0.9263385444
 40
1.0
 40
1.0
 40
1.0
 40
1.0
 10
11.337568385
 20
3.7835352786
 30
0.0
 10
11.3376468988
 20
3.7866948458
 30
0.0
 10
11.3378759608
 20
3.7935576985
 30
0.0
 10
11.3385467515
 20
3.8091048685
 30
0.0
 10
11.3397422365
 20
3.8313702624
 30
0.0
 10
11.3415508801
 20
3.8606887227
 30
0.0
 10
11.3437167321
 20
3.8927471507
 30
0.0
 10
11.3461666132
 20
3.9268697318
 30
0.0
 10
11.3489019098
 20
3.962624072
 30
0.0
 10
11.3519548861
 20
3.9999795449
 30
0.0
 10
11.3554101039
 20
4.0392840709
 30
0.0
 10
11.3593528874
 20
4.0811312233
 30
0.0
 10
11.3633747585
 20
4.1261031424
 30
0.0
 10
11.3670861325
 20
4.1744976212
 30
0.0
 10
11.370794991
 20
4.2262629469
 30
0.0
 10
11.3747447121
 20
4.2810139741
 30
0.0
 10
11.3786867287
 20
4.3382153132
 30
0.0
 10
11.382380435
 20
4.3973008769
 30
0.0
 10
11.3870332916
 20
4.478626594
 30
0.0
 10
11.3922898836
 20
4.5825114032
 30
0.0
 10
11.3977771731
 20
4.7089969082
 30
0.0
 10
11.4022059424
 20
4.8370364304
 30
0.0
 10
11.4054875203
 20
4.9655323136
 30
0.0
 10
11.4076346317
 20
5.0936108535
 30
0.0
 10
11.4089485669
 20
5.2206701427
 30
0.0
 10
11.4095185856
 20
5.3464730668
 30
0.0
 10
11.4094824838
 20
5.4298964485
 30
0.0
 10
11.4094518908
 20
5.4713937723
 30
0.0
  0
SPLINE
  5
412
100
AcDbEntity
  8
0
100
AcDbSpline
 62
7
  6
CONTINUOUS
 70
0
 71
3
 72
15
 73
11
 74
0
 42
0.0000001
 43
0.0000001
 44
0.0000000001
 40
0.0
 40
0.0
 40
0.0
 40
0.0
 40
0.1599034096
 40
0.3100484765
 40
0.4501884807
 40
0.5801718012
 40
0.6999670021
 40
0.8096502458
 40
0.9094942769
 40
1.0
 40
1.0
 40
1.0
 40
1.0
 10
11.4094543236
 20
5.471393
 30
0.0
 10
11.420785521
 20
5.4677985705
 30
0.0
 10
11.4426490599
 20
5.4604826152
 30
0.0
 10
11.4739867234
 20
5.4487091391
 30
0.0
 10
11.5027608142
 20
5.4365073722
 30
0.0
 10
11.528883635
 20
5.4239124994
 30
0.0
 10
11.5522801817
 20
5.4109661974
 30
0.0
 10
11.5728832199
 20
5.397699183
 30
0.0
 10
11.5906340001
 20
5.3841502776
 30
0.0
 10
11.6010258589
 20
5.3744963508
 30
0.0
 10
11.6056621432
 20
5.3696202175
 30
0.0
  0
LINE
  5
413
100
AcDbEntity
  8
0
100
AcDbLine
 62
9
  6
CONTINUOUS
 10
11.6278183383
 20
4.2691331425
 11
11.62781828
 21
4.2702367206
  0
LINE
  5
414
100
AcDbEntity
  8
0
100
AcDbLine
 62
9
  6
CONTINUOUS
 10
11.62781828
 20
4.2702367206
 11
11.6278131194
 21
4.2782591251
  0
LINE
  5
415
100
AcDbEntity
  8
0
100
AcDbLine
 62
9
  6
CONTINUOUS
 10
11.6278131194
 20
4.2782591251
 11
11.6277952647
 21
4.2869699975
  0
LINE
  5
416
100
AcDbEntity
  8
0
100
AcDbLine
 62
9
  6
CONTINUOUS
 10
11.6277952647
 20
4.2869699975
 11
11.627782424
 21
4.2908888316
  0
LINE
  5
417
100
AcDbEntity
  8
0
100
AcDbLine
 62
9
  6
CONTINUOUS
 10
11.627690279
 20
4.3079822997
 11
11.6276358621
 21
4.314933929
  0
LINE
  5
418
100
AcDbEntity
  8
0
100
AcDbLine
 62
9
  6
CONTINUOUS
 10
11.6276358621
 20
4.314933929
 11
11.6276168368
 21
4.3171052519
  0
SPLINE
  5
419
100
AcDbEntity
  8
0
100
AcDbSpline
 62
9
  6
CONTINUOUS
 70
0
 71
3
 72
21
 73
17
 74
0
 42
0.0000001
 43
0.0000001
 44
0.0000000001
 40
0.0
 40
0.0
 40
0.0
 40
0.0
 40
0.0435138582
 40
0.0915923759
 40
0.1447387452
 40
0.2026438723
 40
0.2643538679
 40
0.3287474544
 40
0.4619497586
 40
0.5975575931
 40
0.6655086611
 40
0.7332841669
 40
0.8007345218
 40
0.8677154764
 40
0.9340977639
 40
1.0
 40
1.0
 40
1.0
 40
1.0
 10
11.6260979341
 20
4.4018047798
 30
0.0
 10
11.6257152971
 20
4.4157901676
 30
0.0
 10
11.6247615384
 20
4.4452241021
 30
0.0
 10
11.6228818167
 20
4.4917228206
 30
0.0
 10
11.6207586037
 20
4.5428423588
 30
0.0
 10
11.6185921518
 20
4.5983466767
 30
0.0
 10
11.6165335064
 20
4.6574737242
 30
0.0
 10
11.6140120845
 20
4.7408081714
 30
0.0
 10
11.61146446
 20
4.8479108761
 30
0.0
 10
11.6094918402
 20
4.9561691874
 30
0.0
 10
11.6082558968
 20
5.0434002523
 30
0.0
 10
11.6074927994
 20
5.1087215113
 30
0.0
 10
11.6068645354
 20
5.1737322548
 30
0.0
 10
11.6063513755
 20
5.2382960552
 30
0.0
 10
11.6059769929
 20
5.3023630451
 30
0.0
 10
11.6057861101
 20
5.3448948769
 30
0.0
 10
11.605679955
 20
5.366083567
 30
0.0
  0
LINE
  5
41A
100
AcDbEntity
  8
0
100
AcDbLine
 62
9
  6
CONTINUOUS
 10
11.605679955
 20
5.366083567
 11
11.6056714793
 21
5.3677710056
  0
LINE
  5
41B
100
AcDbEntity
  8
0
100
AcDbLine
 62
9
  6
CONTINUOUS
 10
11.6056714793
 20
5.3677710056
 11
11.6056621633
 21
5.3696154627
  0
LINE
  5
41C
100
AcDbEntity
  8
0
100
AcDbLine
 62
9
  6
CONTINUOUS
 10
11.6882354766
 20
9.8138320955
 11
11.9315079725
 21
9.8130198935
  0
SPLINE
  5
41D
100
AcDbEntity
  8
0
100
AcDbSpline
 62
7
  6
CONTINUOUS
 70
0
 71
3
 72
11
 73
7
 74
0
 42
0.0000001
 43
0.0000001
 44
0.0000000001
 40
0.0
 40
0.0
 40
0.0
 40
0.0
 40
0.2407470197
 40
0.4746013298
 40
0.7201143709
 40
1.0
 40
1.0
 40
1.0
 40
1.0
 10
11.9972212581
 20
9.8014327905
 30
0.0
 10
11.9969315463
 20
9.8010716553
 30
0.0
 10
11.9962802616
 20
9.8004164325
 30
0.0
 10
11.9950466762
 20
9.7997393998
 30
0.0
 10
11.9935831647
 20
9.7994849768
 30
0.0
 10
11.9925670499
 20
9.7996246953
 30
0.0
 10
11.9920453607
 20
9.7997571795
 30
0.0
  0
SPLINE
  5
41E
100
AcDbEntity
  8
0
100
AcDbSpline
 62
7
  6
CONTINUOUS
 70
0
 71
3
 72
11
 73
7
 74
0
 42
0.0000001
 43
0.0000001
 44
0.0000000001
 40
0.0
 40
0.0
 40
0.0
 40
0.0
 40
0.2620254828
 40
0.5160933544
 40
0.7621309596
 40
1.0
 40
1.0
 40
1.0
 40
1.0
 10
11.9920453607
 20
9.7997571795
 30
0.0
 10
11.9867979744
 20
9.8010897657
 30
0.0
 10
11.97644527
 20
9.8036474947
 30
0.0
 10
11.9610930946
 20
9.8071559095
 30
0.0
 10
11.9461694125
 20
9.8102872279
 30
0.0
 10
11.9363471134
 20
9.8121606617
 30
0.0
 10
11.9315079725
 20
9.8130198935
 30
0.0
  0
SPLINE
  5
41F
100
AcDbEntity
  8
0
100
AcDbSpline
 62
9
  6
CONTINUOUS
 70
0
 71
3
 72
23
 73
19
 74
0
 42
0.0000001
 43
0.0000001
 44
0.0000000001
 40
0.0
 40
0.0
 40
0.0
 40
0.0
 40
0.1880231258
 40
0.3599053368
 40
0.51434312
 40
0.6505532786
 40
0.7116028562
 40
0.7678236641
 40
0.8191221812
 40
0.8654532844
 40
0.8867625439
 40
0.9068388966
 40
0.9256860868
 40
0.9433002778
 40
0.9596211498
 40
0.9745640131
 40
0.9880475257
 40
1.0
 40
1.0
 40
1.0
 40
1.0
 10
11.6784619212
 20
10.8662933337
 30
0.0
 10
11.6596246598
 20
10.8338171871
 30
0.0
 10
11.6238421142
 20
10.7714934498
 30
0.0
 10
11.57305552
 20
10.6822269912
 30
0.0
 10
11.5271797486
 20
10.602069827
 30
0.0
 10
11.4922296306
 20
10.5411587378
 30
0.0
 10
11.4670320269
 20
10.4972625091
 30
0.0
 10
11.4502634736
 20
10.468077487
 30
0.0
 10
11.434935631
 20
10.4414542186
 30
0.0
 10
11.4230822009
 20
10.4208744071
 30
0.0
 10
11.4143874451
 20
10.405669889
 30
0.0
 10
11.4084516436
 20
10.3952095881
 30
0.0
 10
11.402924696
 20
10.3853656824
 30
0.0
 10
11.3978307106
 20
10.3761390135
 30
0.0
 10
11.3931292076
 20
10.3675863186
 30
0.0
 10
11.3887704805
 20
10.3597862859
 30
0.0
 10
11.3847113518
 20
10.3528193253
 30
0.0
 10
11.38200913
 20
10.3485163187
 30
0.0
 10
11.380679781
 20
10.3465341864
 30
0.0
  0
LINE
  5
420
100
AcDbEntity
  8
0
100
AcDbLine
 62
9
  6
CONTINUOUS
 10
10.7397604055
 20
10.3614333714
 11
10.4385255291
 21
10.8792044679
  0
LINE
  5
421
100
AcDbEntity
  8
0
100
AcDbLine
 62
9
  6
CONTINUOUS
 10
11.6561110415
 20
10.8792042337
 11
11.3548762836
 21
10.3614333429
  0
SPLINE
  5
422
100
AcDbEntity
  8
0
100
AcDbSpline
 62
9
  6
CONTINUOUS
 70
0
 71
3
 72
23
 73
19
 74
0
 42
0.0000001
 43
0.0000001
 44
0.0000000001
 40
0.0
 40
0.0
 40
0.0
 40
0.0
 40
0.0119542989
 40
0.0254383591
 40
0.040380891
 40
0.0567010738
 40
0.0743147698
 40
0.0931617727
 40
0.1132381355
 40
0.134547589
 40
0.1808795848
 40
0.2321796434
 40
0.2884025656
 40
0.3494543722
 40
0.4856675082
 40
0.6401048447
 40
0.8119829065
 40
1.0
 40
1.0
 40
1.0
 40
1.0
 10
10.7139569057
 20
10.346534204
 30
0.0
 10
10.7126282268
 20
10.3485171894
 30
0.0
 10
10.7099267837
 20
10.3528211387
 30
0.0
 10
10.7058676466
 20
10.3597884478
 30
0.0
 10
10.7015083858
 20
10.367587947
 30
0.0
 10
10.6968061191
 20
10.3761397431
 30
0.0
 10
10.6917116048
 20
10.385365661
 30
0.0
 10
10.6861843206
 20
10.3952090671
 30
0.0
 10
10.6802482303
 20
10.4056690409
 30
0.0
 10
10.6715531885
 20
10.420873404
 30
0.0
 10
10.6596996575
 20
10.4414534319
 30
0.0
 10
10.6443721714
 20
10.4680775263
 30
0.0
 10
10.6276044049
 20
10.4972638874
 30
0.0
 10
10.6024080045
 20
10.5411617882
 30
0.0
 10
10.5674583679
 20
10.6020732725
 30
0.0
 10
10.5215794617
 20
10.6822269813
 30
0.0
 10
10.4707850874
 20
10.7714851456
 30
0.0
 10
10.4349956188
 20
10.8338015685
 30
0.0
 10
10.4161546975
 20
10.8662736759
 30
0.0
  0
SPLINE
  5
423
100
AcDbEntity
  8
0
100
AcDbSpline
 62
7
  6
CONTINUOUS
 70
0
 71
3
 72
11
 73
7
 74
0
 42
0.0000001
 43
0.0000001
 44
0.0000000001
 40
0.0
 40
0.0
 40
0.0
 40
0.0
 40
0.2798837239
 40
0.5253906786
 40
0.7592473311
 40
1.0
 40
1.0
 40
1.0
 40
1.0
 10
10.1025912911
 20
9.7997571754
 30
0.0
 10
10.1020695111
 20
9.7996246683
 30
0.0
 10
10.1010532179
 20
9.7994849308
 30
0.0
 10
10.0995894704
 20
9.7997395735
 30
0.0
 10
10.0983557597
 20
9.8004169031
 30
0.0
 10
10.0977043871
 20
9.8010722814
 30
0.0
 10
10.0974146159
 20
9.8014334901
 30
0.0
  0
LINE
  5
424
100
AcDbEntity
  8
0
100
AcDbLine
 62
9
  6
CONTINUOUS
 10
11.6065208128
 20
5.3677700365
 11
11.6064077382
 21
5.3684436326
  0
LINE
  5
425
100
AcDbEntity
  8
0
100
AcDbLine
 62
9
  6
CONTINUOUS
 10
11.6064077382
 20
5.3684436326
 11
11.6056627389
 21
5.3696148596
  0
SPLINE
  5
426
100
AcDbEntity
  8
0
100
AcDbSpline
 62
7
  6
CONTINUOUS
 70
0
 71
3
 72
12
 73
8
 74
0
 42
0.0000001
 43
0.0000001
 44
0.0000000001
 40
0.0
 40
0.0
 40
0.0
 40
0.0
 40
0.2507473289
 40
0.500509159
 40
0.6253060489
 40
0.7503349669
 40
1.0
 40
1.0
 40
1.0
 40
1.0
 10
10.0974146159
 20
9.8014334901
 30
0.0
 10
10.0967719716
 20
9.8022345551
 30
0.0
 10
10.095473316
 20
9.8038210926
 30
0.0
 10
10.0937863142
 20
9.8057484809
 30
0.0
 10
10.0924164485
 20
9.807268451
 30
0.0
 10
10.0910488686
 20
9.808789728
 30
0.0
 10
10.0900112134
 20
9.8099213738
 30
0.0
 10
10.08929193
 20
9.810648177
 30
0.0
  0
SPLINE
  5
427
100
AcDbEntity
  8
0
100
AcDbSpline
 62
7
  6
CONTINUOUS
 70
0
 71
3
 72
15
 73
11
 74
0
 42
0.0000001
 43
0.0000001
 44
0.0000000001
 40
0.0
 40
0.0
 40
0.0
 40
0.0
 40
0.1098996512
 40
0.2242084498
 40
0.3428196951
 40
0.465684595
 40
0.5928429452
 40
0.7243351425
 40
0.8600977538
 40
1.0
 40
1.0
 40
1.0
 40
1.0
 10
10.08929193
 20
9.810648177
 30
0.0
 10
10.0789655151
 20
9.8108030769
 30
0.0
 10
10.0578979853
 20
9.8110921802
 30
0.0
 10
10.0256845594
 20
9.811477386
 30
0.0
 10
9.9922525322
 20
9.8118500402
 30
0.0
 10
9.9576126185
 20
9.8121953467
 30
0.0
 10
9.9217611237
 20
9.8124225176
 30
0.0
 10
9.8846967983
 20
9.8124429738
 30
0.0
 10
9.8464354515
 20
9.8122470639
 30
0.0
 10
9.8205316038
 20
9.8119938031
 30
0.0
 10
9.8073855062
 20
9.8118394174
 30
0.0
  0
SPLINE
  5
428
100
AcDbEntity
  8
0
100
AcDbSpline
 62
7
  6
CONTINUOUS
 70
0
 71
3
 72
11
 73
7
 74
0
 42
0.0000001
 43
0.0000001
 44
0.0000000001
 40
0.0
 40
0.0
 40
0.0
 40
0.0
 40
0.2499753941
 40
0.5001384402
 40
0.7501496007
 40
1.0
 40
1.0
 40
1.0
 40
1.0
 10
11.4052871641
 20
9.2939533358
 30
0.0
 10
11.4040831522
 20
9.2918679234
 30
0.0
 10
11.4013097345
 20
9.2878935333
 30
0.0
 10
11.3961506537
 20
9.2827740324
 30
0.0
 10
11.3900793121
 20
9.2787670403
 30
0.0
 10
11.3855269307
 20
9.2770411037
 30
0.0
 10
11.383187401
 20
9.2764759552
 30
0.0
  0
LINE
  5
429
100
AcDbEntity
  8
0
100
AcDbLine
 62
9
  6
CONTINUOUS
 10
10.4064011938
 20
9.7840342002
 11
10.1199802826
 21
9.7849864545
  0
LINE
  5
42A
100
AcDbEntity
  8
0
100
AcDbLine
 62
9
  6
CONTINUOUS
 10
10.4881052736
 20
5.3677963094
 11
10.4882194583
 21
5.3684228029
  0
LINE
  5
42B
100
AcDbEntity
  8
0
100
AcDbLine
 62
9
  6
CONTINUOUS
 10
10.4882194583
 20
5.3684228029
 11
10.4889751325
 21
5.3696201648
  0
SPLINE
  5
42C
100
AcDbEntity
  8
0
100
AcDbSpline
 62
7
  6
CONTINUOUS
 70
0
 71
3
 72
11
 73
7
 74
0
 42
0.0000001
 43
0.0000001
 44
0.0000000001
 40
0.0
 40
0.0
 40
0.0
 40
0.0
 40
0.2288967695
 40
0.4718055222
 40
0.7288533143
 40
1.0
 40
1.0
 40
1.0
 40
1.0
 10
10.6699165272
 20
9.3120163637
 30
0.0
 10
10.6333479858
 20
9.3537378531
 30
0.0
 10
10.5544347264
 20
9.4366762427
 30
0.0
 10
10.4239425631
 20
9.5559290593
 30
0.0
 10
10.2783440574
 20
9.6732802062
 30
0.0
 10
10.1742928046
 20
9.7479844555
 30
0.0
 10
10.1199802608
 20
9.7849873025
 30
0.0
  0
LINE
  5
42D
100
AcDbEntity
  8
0
100
AcDbLine
 62
9
  6
CONTINUOUS
 10
10.711449337
 20
9.2764759495
 11
10.7117733569
 21
9.2756393646
  0
SPLINE
  5
42E
100
AcDbEntity
  8
0
100
AcDbSpline
 62
7
  6
CONTINUOUS
 70
0
 71
3
 72
29
 73
25
 74
0
 42
0.0000001
 43
0.0000001
 44
0.0000000001
 40
0.0
 40
0.0
 40
0.0
 40
0.0
 40
0.0215257
 40
0.0444446295
 40
0.0694282748
 40
0.0977630719
 40
0.1286175583
 40
0.1549779878
 40
0.1763536197
 40
0.1951813038
 40
0.2292931869
 40
0.2612575313
 40
0.292175299
 40
0.3224819377
 40
0.3523850189
 40
0.3819961548
 40
0.4405727397
 40
0.4985048119
 40
0.5559160545
 40
0.6128671568
 40
0.6693895044
 40
0.7812001227
 40
0.8914054483
 40
1.0
 40
1.0
 40
1.0
 40
1.0
 10
11.9746864267
 20
9.7850077502
 30
0.0
 10
11.9750630041
 20
9.7852642335
 30
0.0
 10
11.9758295916
 20
9.7858109678
 30
0.0
 10
11.9769474744
 20
9.7867681674
 30
0.0
 10
11.9780606834
 20
9.7879420781
 30
0.0
 10
11.9790624797
 20
9.7894307745
 30
0.0
 10
11.979639913
 20
9.7911859246
 30
0.0
 10
11.9795797364
 20
9.7928790722
 30
0.0
 10
11.9791402477
 20
9.7942297186
 30
0.0
 10
11.9783845139
 20
9.7956157732
 30
0.0
 10
11.9772354325
 20
9.7970147171
 30
0.0
 10
11.97570963
 20
9.7983936926
 30
0.0
 10
11.9741225366
 20
9.7995689388
 30
0.0
 10
11.9724948771
 20
9.8006059702
 30
0.0
 10
11.9708386865
 20
9.801541029
 30
0.0
 10
11.9686114102
 20
9.8026767717
 30
0.0
 10
11.9657855885
 20
9.803938889
 30
0.0
 10
11.9623534984
 20
9.805273034
 30
0.0
 10
11.9589060263
 20
9.8064646228
 30
0.0
 10
11.9554526556
 20
9.8075418896
 30
0.0
 10
11.950865742
 20
9.8088466648
 30
0.0
 10
11.9451450702
 20
9.8102789753
 30
0.0
 10
11.938304263
 20
9.8117573557
 30
0.0
 10
11.9337532657
 20
9.8126185382
 30
0.0
 10
11.9314901055
 20
9.8130204675
 30
0.0
  0
SPLINE
  5
42F
100
AcDbEntity
  8
0
100
AcDbSpline
 62
7
  6
CONTINUOUS
 70
0
 71
3
 72
16
 73
12
 74
0
 42
0.0000001
 43
0.0000001
 44
0.0000000001
 40
0.0
 40
0.0
 40
0.0
 40
0.0
 40
0.1805250521
 40
0.389655037
 40
0.6478002407
 40
0.7246345396
 40
0.8085541764
 40
0.8534653589
 40
0.9010331445
 40
0.9500910917
 40
1.0
 40
1.0
 40
1.0
 40
1.0
 10
12.0075920426
 20
9.8127737049
 30
0.0
 10
12.0063503434
 20
9.811586896
 30
0.0
 10
12.0037918471
 20
9.808895636
 30
0.0
 10
11.9999512402
 20
9.8040659446
 30
0.0
 10
11.9970819348
 20
9.7997484607
 30
0.0
 10
11.9950368161
 20
9.7963273375
 30
0.0
 10
11.9940726362
 20
9.7946242808
 30
0.0
 10
11.9932662051
 20
9.7931522747
 30
0.0
 10
11.9926410658
 20
9.7919593897
 30
0.0
 10
11.9920041316
 20
9.7907192082
 30
0.0
 10
11.9915686698
 20
9.7898841275
 30
0.0
 10
11.9913605027
 20
9.7894573146
 30
0.0
  0
SPLINE
  5
430
100
AcDbEntity
  8
0
100
AcDbSpline
 62
7
  6
CONTINUOUS
 70
0
 71
3
 72
9
 73
5
 74
0
 42
0.0000001
 43
0.0000001
 44
0.0000000001
 40
0.0
 40
0.0
 40
0.0
 40
0.0
 40
0.2512489578
 40
1.0
 40
1.0
 40
1.0
 40
1.0
 10
11.9972212581
 20
9.8014327905
 30
0.0
 10
11.9980265657
 20
9.8024366156
 30
0.0
 10
12.0012934645
 20
9.8063818895
 30
0.0
 10
12.0048132789
 20
9.8101192565
 30
0.0
 10
12.0075857617
 20
9.8127691758
 30
0.0
  0
LINE
  5
431
100
AcDbEntity
  8
0
100
AcDbLine
 62
9
  6
CONTINUOUS
 10
12.0075857617
 20
9.8127691758
 11
12.2872511717
 21
9.8118392906
  0
LINE
  5
432
100
AcDbEntity
  8
0
100
AcDbLine
 62
7
  6
CONTINUOUS
 10
11.9189947267
 20
9.6181288927
 11
11.9201222605
 21
9.6208243304
  0
LINE
  5
433
100
AcDbEntity
  8
0
100
AcDbLine
 62
7
  6
CONTINUOUS
 10
11.9201222605
 20
9.6208243304
 11
11.9316012224
 21
9.648225987
  0
SPLINE
  5
434
100
AcDbEntity
  8
0
100
AcDbSpline
 62
7
  6
CONTINUOUS
 70
0
 71
3
 72
11
 73
7
 74
0
 42
0.0000001
 43
0.0000001
 44
0.0000000001
 40
0.0
 40
0.0
 40
0.0
 40
0.0
 40
0.2498642753
 40
0.4998922911
 40
0.7500341995
 40
1.0
 40
1.0
 40
1.0
 40
1.0
 10
10.7114492791
 20
9.2764759545
 30
0.0
 10
10.7091096185
 20
9.2770411349
 30
0.0
 10
10.704557261
 20
9.2787679218
 30
0.0
 10
10.6984854187
 20
9.2827741739
 30
0.0
 10
10.6933263048
 20
9.287893599
 30
0.0
 10
10.6905534731
 20
9.2918680155
 30
0.0
 10
10.6893495057
 20
9.293953348
 30
0.0
  0
LINE
  5
435
100
AcDbEntity
  8
0
100
AcDbLine
 62
9
  6
CONTINUOUS
 10
10.1052780813
 20
9.7850353817
 11
9.8073855061
 21
9.7860268751
  0
SPLINE
  5
436
100
AcDbEntity
  8
0
100
AcDbSpline
 62
7
  6
CONTINUOUS
 70
0
 71
3
 72
18
 73
14
 74
0
 42
0.0000001
 43
0.0000001
 44
0.0000000001
 40
0.0
 40
0.0
 40
0.0
 40
0.0
 40
0.0473773425
 40
0.0934716092
 40
0.1392121211
 40
0.1829568425
 40
0.2649354175
 40
0.34097358
 40
0.5999920249
 40
0.7104700446
 40
0.8121207455
 40
0.9069951309
 40
1.0
 40
1.0
 40
1.0
 40
1.0
 10
10.103276367
 20
9.789456878
 30
0.0
 10
10.1031002174
 20
9.789818049
 30
0.0
 10
10.102738176
 20
9.7905234552
 30
0.0
 10
10.1021931433
 20
9.7915708379
 30
0.0
 10
10.1016661201
 20
9.7925929275
 30
0.0
 10
10.1009792589
 20
9.7938748474
 30
0.0
 10
10.1001463707
 20
9.7953699122
 30
0.0
 10
10.0983710777
 20
9.7984292344
 30
0.0
 10
10.0963360947
 20
9.8016184451
 30
0.0
 10
10.0940001129
 20
9.8048611313
 30
0.0
 10
10.0924093817
 20
9.8069239383
 30
0.0
 10
10.0908205002
 20
9.8087961531
 30
0.0
 10
10.0897984407
 20
9.8100201647
 30
0.0
 10
10.0892593825
 20
9.8105960762
 30
0.0
  0
SPLINE
  5
437
100
AcDbEntity
  8
0
100
AcDbSpline
 62
9
  6
CONTINUOUS
 70
0
 71
3
 72
11
 73
7
 74
0
 42
0.0000001
 43
0.0000001
 44
0.0000000001
 40
0.0
 40
0.0
 40
0.0
 40
0.0
 40
0.3425886814
 40
0.4896706644
 40
0.6207561781
 40
1.0
 40
1.0
 40
1.0
 40
1.0
 10
10.1682452184
 20
9.6598467778
 30
0.0
 10
10.1677547855
 20
9.6593615251
 30
0.0
 10
10.1670849375
 20
9.6586358923
 30
0.0
 10
10.1663455124
 20
9.6576197359
 30
0.0
 10
10.1656735352
 20
9.6565019471
 30
0.0
 10
10.1653053284
 20
9.6553699006
 30
0.0
 10
10.1655534877
 20
9.6546475999
 30
0.0
  0
LINE
  5
438
100
AcDbEntity
  8
0
100
AcDbLine
 62
7
  6
CONTINUOUS
 10
10.1052781008
 20
9.7850353411
 11
10.103276367
 21
9.789456878
  0
ENDSEC
  0
SECTION
  2
OBJECTS
  0
DICTIONARY
  5
C
100
AcDbDictionary
280
0
281
1
  3
ACAD_GROUP
350
D
  3
ACAD_MLINESTYLE
350
17
  3
ACAD_LAYOUT
350
1A
  3
ACAD_PLOTSETTINGS
350
19
  3
ACAD_PLOTSTYLENAME
350
E
  0
DICTIONARY
  5
D
102
{ACAD_REACTORS
330
C
102
}
100
AcDbDictionary
280
0
281
1
  0
ACDBDICTIONARYWDFLT
  5
E
102
{ACAD_REACTORS
330
C
102
}
100
AcDbDictionary
281
1
  3
Normal
350
F
100
AcDbDictionaryWithDefault
340
F
  0
DICTIONARY
  5
17
102
{ACAD_REACTORS
330
C
102
}
100
AcDbDictionary
280
0
281
1
  3
Standard
350
18
  0
DICTIONARY
  5
19
102
{ACAD_REACTORS
330
C
102
}
100
AcDbDictionary
281
1
  0
DICTIONARY
  5
1A
102
{ACAD_REACTORS
330
C
102
}
100
AcDbDictionary
281
1
  3
Model
350
439
  3
Layout1
350
43A
  0
ACDBPLACEHOLDER
  5
F
102
{ACAD_REACTORS
330
E
102
}
  0
MLINESTYLE
  5
18
102
{ACAD_REACTORS
330
17
102
}
100
AcDbMlineStyle
  2
STANDARD
 70
0
  3

 62
256
 51
90.0
 52
90.0
 71
2
 49
0.5
 62
256
  6
BYLAYER
 49
-0.5
 62
256
  6
BYLAYER
  0
LAYOUT
  5
439
102
{ACAD_REACTORS
330
1A
102
}
100
AcDbPlotSettings
  1

  2
none_device
  4
ANSI_C_(22.00_x_17.00_Inches)
  6

 40
0.0
 41
0.0
 42
0.0
 43
0.0
 44
558.8
 45
431.8
 46
0.0
 47
0.0
 48
0.0
 49
0.0
140
0.0
141
0.0
142
1.0
143
1.0
 70
1024
 72
0
 73
0
 74
0
  7

 75
0
147
1.0
148
0.0
149
0.0
100
AcDbLayout
  1
Model
 70
0
 71
0
 10
0.0
 20
0.0
 11
22.0
 21
17.0
 12
0.0
 22
0.0
 32
0.0
 14
0.0
 24
0.0
 34
0.0
 15
0.0
 25
0.0
 35
0.0
146
0.0
 13
0.0
 23
0.0
 33
0.0
 16
1.0
 26
0.0
 36
0.0
 17
0.0
 27
1.0
 37
0.0
 76
0
330
202
345
0
346
0
  0
LAYOUT
  5
43A
102
{ACAD_REACTORS
330
1A
102
}
100
AcDbPlotSettings
  1

  2
none_device
  4
ANSI_C_(22.00_x_17.00_Inches)
  6

 40
0.0
 41
0.0
 42
0.0
 43
0.0
 44
558.8
 45
431.8
 46
0.0
 47
0.0
 48
0.0
 49
0.0
140
0.0
141
0.0
142
1.0
143
1.0
 70
0
 72
0
 73
0
 74
0
  7

 75
0
147
1.0
148
0.0
149
0.0
100
AcDbLayout
  1
Layout1
 70
0
 71
1
 10
0.0
 20
0.0
 11
22.0
 21
17.0
 12
0.0
 22
0.0
 32
0.0
 14
0.0
 24
0.0
 34
0.0
 15
0.0
 25
0.0
 35
0.0
146
0.0
 13
0.0
 23
0.0
 33
0.0
 16
1.0
 26
0.0
 36
0.0
 17
0.0
 27
1.0
 37
0.0
 76
0
330
203
345
0
346
0
  0
ENDSEC
  0
EOF
