999
DXF file: E:\BRASSTECH\RAY\EN-4300m\Webdata\1230C\CAD\1230C_FRONT.dxf
999
Pro/ENGINEER 2018400 by Parametric Technology Corporation
  0
SECTION
  2
HEADER
  9
$ACADVER
  1
AC1018
  9
$DWGCODEPAGE
  3
ANSI_1252
  9
$EXTMAX
 10
22.0
 20
17.0
 30
0.0
  9
$EXTMIN
 10
0.0
 20
0.0
 30
0.0
  9
$LIMMIN
 10
0.0
 20
0.0
  9
$LIMMAX
 10
22.0
 20
17.0
  9
$VIEWCTR
 10
11.0
 20
8.5
  9
$VIEWSIZE
 40
17.0
  9
$CLAYER
  8
0
  9
$LTSCALE
 40
1.21
  9
$CELTYPE
  6
BYLAYER
  9
$DIMSCALE
 40
1.0
  9
$DIMASZ
 40
0.1
  9
$DIMEXO
 40
0.0625
  9
$DIMDLI
 40
0.836
  9
$DIMEXE
 40
0.125
  9
$DIMCEN
 40
0.198
  9
$DIMLFAC
 40
1.0
  9
$DIMBLK
  1
_FILLED
  9
$DIMALT
 70
1
  9
$DIMALTD
 70
2
  9
$DIMALTTD
 70
2
  9
$DIMALTF
 40
25.4
  9
$DIMTXT
 40
0.08
  9
$DIMTOL
 70
1
  9
$DIMLIM
 70
0
  9
$DIMTFAC
 40
1.0
  9
$DIMTP
 40
0.001
  9
$DIMTM
 40
0.001
  9
$DIMGAP
 40
0.09
  9
$DIMDSEP
 70
46
  9
$AUNITS
 70
0
  9
$PDMODE
 70
3
  9
$PDSIZE
 40
0.06
  9
$HANDSEED
  5
406
  9
$TILEMODE
 70
1
  9
$MEASUREMENT
 70
0
  9
$INSUNITS
 70
1
  0
ENDSEC
  0
SECTION
  2
CLASSES
  0
CLASS
  1
ACDBDICTIONARYWDFLT
  2
AcDbDictionaryWithDefault
  3
AutoCAD 2000
 90
0
 91
1
280
0
281
0
  0
CLASS
  1
ACDBPLACEHOLDER
  2
AcDbPlaceHolder
  3
AutoCAD 2000
 90
0
 91
1
280
0
281
0
  0
CLASS
  1
LAYOUT
  2
AcDbLayout
  3
AutoCAD 2000
 90
0
 91
0
280
0
281
0
  0
ENDSEC
  0
SECTION
  2
TABLES
  0
TABLE
  2
VPORT
  5
8
100
AcDbSymbolTable
 70
2
  0
VPORT
  5
1F4
100
AcDbSymbolTableRecord
100
AcDbViewportTableRecord
  2
*ACTIVE
 70
0
 10
0.0
 20
0.0
 11
1.0
 21
1.0
 12
11.0
 22
8.5
 13
0.0
 23
0.0
 14
1.0
 24
1.0
 15
0.0
 25
0.0
 16
0.0
 26
0.0
 36
1.0
 17
0.0
 27
0.0
 37
0.0
 40
17.0
 41
1.2941176471
 42
50.0
 43
0.0
 44
0.0
 50
0.0
 51
0.0
 71
0
 72
100
 73
1
 74
1
 75
0
 76
0
 77
0
 78
0
  0
ENDTAB
  0
TABLE
  2
LTYPE
  5
5
100
AcDbSymbolTable
 70
6
  0
LTYPE
  5
14
100
AcDbSymbolTableRecord
100
AcDbLinetypeTableRecord
  2
BYBLOCK
 70
0
  3

 72
65
 73
0
 40
0.0
  0
LTYPE
  5
15
100
AcDbSymbolTableRecord
100
AcDbLinetypeTableRecord
  2
BYLAYER
 70
0
  3

 72
65
 73
0
 40
0.0
  0
LTYPE
  5
16
100
AcDbSymbolTableRecord
100
AcDbLinetypeTableRecord
  2
CONTINUOUS
 70
64
  3
Solid line
 72
65
 73
0
 40
0.0
  0
LTYPE
  5
1F5
100
AcDbSymbolTableRecord
100
AcDbLinetypeTableRecord
  2
CENTER
 70
64
  3
____ _ ____ _ ____ _ ____ _ ____ _ ____ _ ____
 72
65
 73
4
 40
0.6
 49
0.375
 74
0
 49
-0.075
 74
0
 49
0.075
 74
0
 49
-0.075
 74
0
  0
LTYPE
  5
1F6
100
AcDbSymbolTableRecord
100
AcDbLinetypeTableRecord
  2
HIDDEN
 70
64
  3
- - - - - - - - - - - - - - - - - - - -
 72
65
 73
2
 40
0.2
 49
0.1
 74
0
 49
-0.1
 74
0
  0
LTYPE
  5
1F7
100
AcDbSymbolTableRecord
100
AcDbLinetypeTableRecord
  2
PHANTOM
 70
64
  3
_____ _ _ _____ _ _ _____ _ _ _____
 72
65
 73
6
 40
0.8
 49
0.45
 74
0
 49
-0.05
 74
0
 49
0.1
 74
0
 49
-0.05
 74
0
 49
0.1
 74
0
 49
-0.05
 74
0
  0
LTYPE
  5
1F8
100
AcDbSymbolTableRecord
100
AcDbLinetypeTableRecord
  2
DOT
 70
64
  3
. . . . . . . . . . . . . . . . . . . .
 72
65
 73
2
 40
0.2
 49
0.1
 74
0
 49
-0.1
 74
0
  0
LTYPE
  5
1F9
100
AcDbSymbolTableRecord
100
AcDbLinetypeTableRecord
  2
DASHED
 70
64
  3
- - - - - - - - - - - - - - - - - - - -
 72
65
 73
2
 40
0.2
 49
0.1
 74
0
 49
-0.1
 74
0
  0
ENDTAB
  0
TABLE
  2
LAYER
  5
2
100
AcDbSymbolTable
 70
36
  0
LAYER
  5
10
100
AcDbSymbolTableRecord
100
AcDbLayerTableRecord
  2
0
 70
0
 62
7
  6
CONTINUOUS
370
-3
390
F
  0
LAYER
  5
1FA
100
AcDbSymbolTableRecord
100
AcDbLayerTableRecord
  2
DEFAULT_1
 70
0
 62
7
  6
CENTER
370
-3
390
F
  0
LAYER
  5
1FB
100
AcDbSymbolTableRecord
100
AcDbLayerTableRecord
  2
DEFAULT_2
 70
0
 62
8
  6
HIDDEN
370
-3
390
F
  0
LAYER
  5
1FC
100
AcDbSymbolTableRecord
100
AcDbLayerTableRecord
  2
DEFAULT_3
 70
0
 62
7
  6
PHANTOM
370
-3
390
F
  0
LAYER
  5
1FD
100
AcDbSymbolTableRecord
100
AcDbLayerTableRecord
  2
ALL_FEATURES
 70
0
 62
7
  6
CONTINUOUS
370
-3
390
F
  0
LAYER
  5
1FE
100
AcDbSymbolTableRecord
100
AcDbLayerTableRecord
  2
AXES_FEATURES
 70
0
 62
7
  6
CONTINUOUS
370
-3
390
F
  0
LAYER
  5
1FF
100
AcDbSymbolTableRecord
100
AcDbLayerTableRecord
  2
DIMENSIONS
 70
0
 62
7
  6
CONTINUOUS
370
-3
390
F
  0
ENDTAB
  0
TABLE
  2
STYLE
  5
3
100
AcDbSymbolTable
 70
1
  0
STYLE
  5
11
100
AcDbSymbolTableRecord
100
AcDbTextStyleTableRecord
  2
STANDARD
 70
0
 40
0.0
 41
0.8
 50
0.0
 71
0
 42
0.2
  3
txt
  4

  0
STYLE
  5
200
100
AcDbSymbolTableRecord
100
AcDbTextStyleTableRecord
  2
TEXTSTYLE_1
 70
0
 40
0.0
 41
0.8
 50
0.0
 71
0
 42
0.2
  3
gdt
  4

  0
ENDTAB
  0
TABLE
  2
VIEW
  5
6
100
AcDbSymbolTable
 70
0
  0
ENDTAB
  0
TABLE
  2
UCS
  5
7
100
AcDbSymbolTable
 70
0
  0
ENDTAB
  0
TABLE
  2
APPID
  5
9
100
AcDbSymbolTable
 70
1
  0
APPID
  5
201
100
AcDbSymbolTableRecord
100
AcDbRegAppTableRecord
  2
ACAD
 70
0
  0
ENDTAB
  0
TABLE
  2
BLOCK_RECORD
  5
1
100
AcDbSymbolTable
 70
0
  0
BLOCK_RECORD
  5
202
100
AcDbSymbolTableRecord
100
AcDbBlockTableRecord
  2
*Model_Space
  0
BLOCK_RECORD
  5
203
100
AcDbSymbolTableRecord
100
AcDbBlockTableRecord
  2
*Paper_Space
  0
BLOCK_RECORD
  5
204
100
AcDbSymbolTableRecord
100
AcDbBlockTableRecord
  2
_FILLED
  0
ENDTAB
  0
TABLE
  2
DIMSTYLE
  5
A
100
AcDbSymbolTable
 70
1
100
AcDbDimStyleTable
 71
0
  0
DIMSTYLE
105
205
100
AcDbSymbolTableRecord
100
AcDbDimStyleTableRecord
  2
STANDARD
 70
0
  3

  4

 40
1.0
 41
0.1
 42
0.0625
 43
0.38
 44
0.125
 45
0.0
 46
0.0
 47
0.001
 48
0.001
140
0.08
141
0.09
142
0.0
143
25.4
144
1.0
145
0.0
146
1.0
147
0.09
 71
1.0
 72
0.0
 73
1
 74
1
 75
0
 76
0
 77
0
 78
4
 79
1
170
1
171
2
172
0
173
0
174
0
175
0
176
0
177
0
178
0
270
2
179
3
271
3
272
3
273
2
274
2
275
0
280
0
281
0
282
0
283
1
284
4
285
0
286
0
287
3
288
0
340
11
278
46
341
204
342
204
343
204
344
204
  0
ENDTAB
  0
ENDSEC
  0
SECTION
  2
BLOCKS
  0
BLOCK
  5
20
100
AcDbEntity
  8
0
100
AcDbBlockBegin
  2
*Model_Space
 70
0
 10
0.0
 20
0.0
 30
0.0
  3
*Model_Space
  1

  0
ENDBLK
  5
21
100
AcDbEntity
  8
0
100
AcDbBlockEnd
  0
BLOCK
  5
1C
100
AcDbEntity
  8
0
100
AcDbBlockBegin
  2
*Paper_Space
 70
0
 10
0.0
 20
0.0
 30
0.0
  3
*Paper_Space
  1

  0
ENDBLK
  5
1D
100
AcDbEntity
  8
0
100
AcDbBlockEnd
  0
BLOCK
  5
206
100
AcDbEntity
  8
0
100
AcDbBlockBegin
  2
_FILLED
 70
64
 10
0.0
 20
0.0
  3
_FILLED
  1

  0
SOLID
  5
207
100
AcDbEntity
  8
0
  6
BYBLOCK
 62
0
100
AcDbTrace
 10
0.0
 20
0.0
 11
-1.0
 21
0.2
 12
-1.0
 22
-0.2
 13
-1.0
 23
-0.2
  0
ENDBLK
  5
208
100
AcDbEntity
  8
0
  6
BYBLOCK
 62
0
100
AcDbBlockEnd
  0
ENDSEC
  0
SECTION
  2
ENTITIES
  0
LINE
  5
209
100
AcDbEntity
  8
0
100
AcDbLine
 62
9
  6
CONTINUOUS
 10
3.7201924815
 20
8.1712481459
 11
3.7201924815
 21
8.3879891278
  0
LINE
  5
20A
100
AcDbEntity
  8
0
100
AcDbLine
 62
9
  6
CONTINUOUS
 10
3.7201924815
 20
8.3954375808
 11
3.7201924815
 21
8.701955617
  0
LINE
  5
20B
100
AcDbEntity
  8
0
100
AcDbLine
 62
9
  6
CONTINUOUS
 10
3.7201924815
 20
8.70940407
 11
3.7201924815
 21
8.9261450519
  0
LINE
  5
20C
100
AcDbEntity
  8
0
100
AcDbLine
 62
9
  6
CONTINUOUS
 10
3.7482823568
 20
8.9486965989
 11
3.7482823568
 21
8.1486965989
  0
LINE
  5
20D
100
AcDbEntity
  8
0
100
AcDbLine
 62
7
  6
CONTINUOUS
 10
3.8074923427
 20
8.088700567
 11
3.8074923427
 21
9.0086926308
  0
LINE
  5
20E
100
AcDbEntity
  8
0
100
AcDbLine
 62
9
  6
CONTINUOUS
 10
3.8374923427
 20
9.0386965989
 11
3.8374923427
 21
8.0586965989
  0
LINE
  5
20F
100
AcDbEntity
  8
0
100
AcDbLine
 62
7
  6
CONTINUOUS
 10
3.9074923427
 20
9.0436965989
 11
3.9074923427
 21
8.0536965989
  0
LINE
  5
210
100
AcDbEntity
  8
0
100
AcDbLine
 62
7
  6
CONTINUOUS
 10
3.9274199734
 20
9.0419604851
 11
3.9274199734
 21
8.7813487272
  0
LINE
  5
211
100
AcDbEntity
  8
0
100
AcDbLine
 62
7
  6
CONTINUOUS
 10
3.9274199734
 20
8.7329769401
 11
3.9274199734
 21
8.3644162576
  0
LINE
  5
212
100
AcDbEntity
  8
0
100
AcDbLine
 62
7
  6
CONTINUOUS
 10
3.9274199734
 20
8.3160444705
 11
3.9274199734
 21
8.0554327126
  0
LINE
  5
213
100
AcDbEntity
  8
0
100
AcDbLine
 62
7
  6
CONTINUOUS
 10
3.5814424815
 20
8.5381628956
 11
3.7201924815
 21
8.1681628956
  0
LINE
  5
214
100
AcDbEntity
  8
0
100
AcDbLine
 62
9
  6
CONTINUOUS
 10
3.7201924815
 20
8.1712481459
 11
3.5814424815
 21
8.5412481459
  0
LINE
  5
215
100
AcDbEntity
  8
0
100
AcDbLine
 62
7
  6
CONTINUOUS
 10
3.7201924815
 20
8.9292303021
 11
3.5814424815
 21
8.5592303021
  0
LINE
  5
216
100
AcDbEntity
  8
0
100
AcDbLine
 62
9
  6
CONTINUOUS
 10
3.5814424815
 20
8.5561450519
 11
3.7201924815
 21
8.9261450519
  0
LINE
  5
217
100
AcDbEntity
  8
0
100
AcDbLine
 62
9
  6
CONTINUOUS
 10
3.5814424815
 20
8.5412481459
 11
3.7201924815
 21
8.3879891278
  0
LINE
  5
218
100
AcDbEntity
  8
0
100
AcDbLine
 62
9
  6
CONTINUOUS
 10
3.7201924815
 20
8.3954375808
 11
3.5814424815
 21
8.5486965989
  0
LINE
  5
219
100
AcDbEntity
  8
0
100
AcDbLine
 62
7
  6
CONTINUOUS
 10
3.9474199734
 20
8.3367873843
 11
3.9274199734
 21
8.3644162576
  0
LINE
  5
21A
100
AcDbEntity
  8
0
100
AcDbLine
 62
7
  6
CONTINUOUS
 10
3.9274199734
 20
8.3160444705
 11
3.9074923427
 21
8.3436608855
  0
LINE
  5
21B
100
AcDbEntity
  8
0
100
AcDbLine
 62
7
  6
CONTINUOUS
 10
3.9274199734
 20
8.7813487272
 11
3.9074923427
 21
8.7537323123
  0
LINE
  5
21C
100
AcDbEntity
  8
0
100
AcDbLine
 62
7
  6
CONTINUOUS
 10
3.9474199734
 20
8.7606058134
 11
3.9274199734
 21
8.7329769401
  0
LINE
  5
21D
100
AcDbEntity
  8
0
100
AcDbLine
 62
7
  6
CONTINUOUS
 10
3.9474199734
 20
8.0371024991
 11
3.9274199734
 21
8.0554327126
  0
LINE
  5
21E
100
AcDbEntity
  8
0
100
AcDbLine
 62
7
  6
CONTINUOUS
 10
3.9274199734
 20
8.0353964624
 11
3.9074923427
 21
8.0536965989
  0
LINE
  5
21F
100
AcDbEntity
  8
0
100
AcDbLine
 62
7
  6
CONTINUOUS
 10
3.9474199734
 20
8.7606058134
 11
3.9274199734
 21
8.7813487272
  0
LINE
  5
220
100
AcDbEntity
  8
0
100
AcDbLine
 62
7
  6
CONTINUOUS
 10
3.9274199734
 20
8.7329769401
 11
3.9074923427
 21
8.7537323123
  0
LINE
  5
221
100
AcDbEntity
  8
0
100
AcDbLine
 62
7
  6
CONTINUOUS
 10
5.7501923427
 20
6.2786965989
 11
5.7501923427
 21
6.4303176404
  0
LINE
  5
222
100
AcDbEntity
  8
0
100
AcDbLine
 62
9
  6
CONTINUOUS
 10
3.7201924815
 20
8.70940407
 11
3.5814424815
 21
8.5561450519
  0
LINE
  5
223
100
AcDbEntity
  8
0
100
AcDbLine
 62
9
  6
CONTINUOUS
 10
3.5814424815
 20
8.5486965989
 11
3.7201924815
 21
8.701955617
  0
LINE
  5
224
100
AcDbEntity
  8
0
100
AcDbLine
 62
7
  6
CONTINUOUS
 10
6.2513922062
 20
8.2336355636
 11
6.2513922062
 21
8.8637576342
  0
LINE
  5
225
100
AcDbEntity
  8
0
100
AcDbLine
 62
7
  6
CONTINUOUS
 10
6.2696923427
 20
8.2535631943
 11
6.2696923427
 21
8.8438300035
  0
LINE
  5
226
100
AcDbEntity
  8
0
100
AcDbLine
 62
7
  6
CONTINUOUS
 10
6.3696923427
 20
8.2686965989
 11
6.3696923427
 21
8.8286965989
  0
LINE
  5
227
100
AcDbEntity
  8
0
100
AcDbLine
 62
9
  6
CONTINUOUS
 10
6.4196923427
 20
8.7311965989
 11
6.4196923427
 21
8.3661965989
  0
LINE
  5
228
100
AcDbEntity
  8
0
100
AcDbLine
 62
7
  6
CONTINUOUS
 10
6.4476923427
 20
8.2356965989
 11
6.4476923427
 21
8.3561965989
  0
LINE
  5
229
100
AcDbEntity
  8
0
100
AcDbLine
 62
7
  6
CONTINUOUS
 10
6.4476923427
 20
8.7411965989
 11
6.4476923427
 21
8.8606965989
  0
LINE
  5
22A
100
AcDbEntity
  8
0
100
AcDbLine
 62
7
  6
CONTINUOUS
 10
6.5076923427
 20
7.9256965989
 11
6.5076923427
 21
7.8056965989
  0
LINE
  5
22B
100
AcDbEntity
  8
0
100
AcDbLine
 62
7
  6
CONTINUOUS
 10
6.6251923427
 20
7.9256965989
 11
6.6251923427
 21
8.2356965989
  0
LINE
  5
22C
100
AcDbEntity
  8
0
100
AcDbLine
 62
7
  6
CONTINUOUS
 10
3.9274199734
 20
8.3644162576
 11
3.9074923427
 21
8.3436608855
  0
LINE
  5
22D
100
AcDbEntity
  8
0
100
AcDbLine
 62
7
  6
CONTINUOUS
 10
3.9474199734
 20
8.3367873843
 11
3.9274199734
 21
8.3160444705
  0
LINE
  5
22E
100
AcDbEntity
  8
0
100
AcDbLine
 62
7
  6
CONTINUOUS
 10
3.9274199734
 20
9.0619967354
 11
3.9074923427
 21
9.0436965989
  0
LINE
  5
22F
100
AcDbEntity
  8
0
100
AcDbLine
 62
7
  6
CONTINUOUS
 10
3.9474199734
 20
9.0602906986
 11
3.9274199734
 21
9.0419604851
  0
LINE
  5
230
100
AcDbEntity
  8
0
100
AcDbLine
 62
7
  6
CONTINUOUS
 10
6.9376923427
 20
6.5854438416
 11
6.9376923427
 21
6.6004647256
  0
LINE
  5
231
100
AcDbEntity
  8
0
100
AcDbLine
 62
7
  6
CONTINUOUS
 10
6.9376923427
 20
7.4128884487
 11
6.9376923427
 21
7.8056965989
  0
LINE
  5
232
100
AcDbEntity
  8
0
100
AcDbLine
 62
7
  6
CONTINUOUS
 10
7.2501923427
 20
7.9256965989
 11
7.2501923427
 21
8.2356965989
  0
LINE
  5
233
100
AcDbEntity
  8
0
100
AcDbLine
 62
7
  6
CONTINUOUS
 10
6.3621823625
 20
7.4128884487
 11
6.4376923427
 21
7.8056965989
  0
LINE
  5
234
100
AcDbEntity
  8
0
100
AcDbLine
 62
7
  6
CONTINUOUS
 10
8.1251891024
 20
6.4303208
 11
7.9506923427
 21
6.6004647256
  0
LINE
  5
235
100
AcDbEntity
  8
0
100
AcDbLine
 62
7
  6
CONTINUOUS
 10
6.2696923427
 20
8.8438300035
 11
6.2513922062
 21
8.8637576342
  0
LINE
  5
236
100
AcDbEntity
  8
0
100
AcDbLine
 62
7
  6
CONTINUOUS
 10
7.2153978222
 20
8.1313193869
 11
7.2109371249
 21
8.1376277655
  0
LINE
  5
237
100
AcDbEntity
  8
0
100
AcDbLine
 62
7
  6
CONTINUOUS
 10
7.1744059531
 20
8.0806965989
 11
7.1859529585
 21
8.0406965989
  0
LINE
  5
238
100
AcDbEntity
  8
0
100
AcDbLine
 62
7
  6
CONTINUOUS
 10
7.2205939746
 20
8.0806965989
 11
7.2090469693
 21
8.1206965989
  0
LINE
  5
239
100
AcDbEntity
  8
0
100
AcDbLine
 62
7
  6
CONTINUOUS
 10
7.513202323
 20
7.4128884487
 11
7.4376923427
 21
7.8056965989
  0
LINE
  5
23A
100
AcDbEntity
  8
0
100
AcDbLine
 62
7
  6
CONTINUOUS
 10
7.3676923427
 20
7.9256965989
 11
7.3676923427
 21
7.8056965989
  0
LINE
  5
23B
100
AcDbEntity
  8
0
100
AcDbLine
 62
7
  6
CONTINUOUS
 10
7.4276923427
 20
8.2356965989
 11
7.4276923427
 21
8.8606965989
  0
LINE
  5
23C
100
AcDbEntity
  8
0
100
AcDbLine
 62
7
  6
CONTINUOUS
 10
7.1859529585
 20
8.1206965989
 11
7.1744059531
 21
8.0806965989
  0
LINE
  5
23D
100
AcDbEntity
  8
0
100
AcDbLine
 62
7
  6
CONTINUOUS
 10
7.2090469693
 20
8.0406965989
 11
7.2205939746
 21
8.0806965989
  0
LINE
  5
23E
100
AcDbEntity
  8
0
100
AcDbLine
 62
7
  6
CONTINUOUS
 10
8.1251923427
 20
6.2786965989
 11
8.1251923427
 21
6.4303176404
  0
LINE
  5
23F
100
AcDbEntity
  8
0
100
AcDbLine
 62
7
  6
CONTINUOUS
 10
6.2696923427
 20
8.2535631943
 11
6.2513922062
 21
8.2336355636
  0
LINE
  5
240
100
AcDbEntity
  8
0
100
AcDbLine
 62
7
  6
CONTINUOUS
 10
10.6639927403
 20
12.2474691296
 11
10.6633173568
 21
12.2469960557
  0
LINE
  5
241
100
AcDbEntity
  8
0
100
AcDbLine
 62
7
  6
CONTINUOUS
 10
5.7502025764
 20
6.2786965989
 11
8.125180886
 21
6.2786965989
  0
LINE
  5
242
100
AcDbEntity
  8
0
100
AcDbLine
 62
7
  6
CONTINUOUS
 10
9.7576939368
 20
6.2786965989
 11
12.1176907487
 21
6.2786965989
  0
LINE
  5
243
100
AcDbEntity
  8
0
100
AcDbLine
 62
7
  6
CONTINUOUS
 10
13.7502025764
 20
6.2786965989
 11
16.125180886
 21
6.2786965989
  0
LINE
  5
244
100
AcDbEntity
  8
0
100
AcDbLine
 62
9
  6
CONTINUOUS
 10
15.9506923427
 20
6.6004647256
 11
13.9246923427
 21
6.6004647256
  0
LINE
  5
245
100
AcDbEntity
  8
0
100
AcDbLine
 62
9
  6
CONTINUOUS
 10
7.9506923427
 20
6.6004647256
 11
5.9246923427
 21
6.6004647256
  0
LINE
  5
246
100
AcDbEntity
  8
0
100
AcDbLine
 62
7
  6
CONTINUOUS
 10
7.2153978222
 20
8.0300738109
 11
7.2074578787
 21
8.0188450351
  0
LINE
  5
247
100
AcDbEntity
  8
0
100
AcDbLine
 62
9
  6
CONTINUOUS
 10
12.1172314161
 20
6.9612749224
 11
11.7886286387
 21
6.9612749224
  0
LINE
  5
248
100
AcDbEntity
  8
0
100
AcDbLine
 62
9
  6
CONTINUOUS
 10
10.069957157
 20
6.9612749224
 11
9.7581532695
 21
6.9612749224
  0
LINE
  5
249
100
AcDbEntity
  8
0
100
AcDbLine
 62
7
  6
CONTINUOUS
 10
6.2696923427
 20
8.6709448578
 11
6.2513922062
 21
8.6791991527
  0
LINE
  5
24A
100
AcDbEntity
  8
0
100
AcDbLine
 62
7
  6
CONTINUOUS
 10
10.6633173568
 20
12.2469960557
 11
10.6626923422
 21
12.2458162876
  0
LWPOLYLINE
  5
24B
100
AcDbEntity
  8
0
100
AcDbPolyline
 62
7
  6
CONTINUOUS
 90
4
 70
0
 10
10.5743152496
 20
12.1200895118
 10
10.5308462746
 20
12.0501184643
 10
10.4690349875
 20
11.9384284382
 10
10.4216342376
 20
11.8396258827
  0
LINE
  5
24C
100
AcDbEntity
  8
0
100
AcDbLine
 62
7
  6
CONTINUOUS
 10
10.5743152496
 20
12.1200895118
 11
10.5743258225
 21
12.1201058134
  0
LINE
  5
24D
100
AcDbEntity
  8
0
100
AcDbLine
 62
9
  6
CONTINUOUS
 10
10.5743258225
 20
12.1201058134
 11
10.6626923422
 21
12.2458162876
  0
LWPOLYLINE
  5
24E
100
AcDbEntity
  8
0
100
AcDbPolyline
 62
7
  6
CONTINUOUS
 90
4
 70
0
 10
10.6633173568
 20
12.2469960557
 10
10.6305430254
 20
12.2025003688
 10
10.5901365765
 20
12.1441259833
 10
10.5743258225
 20
12.1201058134
  0
LINE
  5
24F
100
AcDbEntity
  8
0
100
AcDbLine
 62
7
  6
CONTINUOUS
 10
5.7501955831
 20
6.4303208
 11
5.9246923427
 21
6.6004647256
  0
LINE
  5
250
100
AcDbEntity
  8
0
100
AcDbLine
 62
9
  6
CONTINUOUS
 10
6.3621823625
 20
7.4128884487
 11
7.513202323
 21
7.4128884487
  0
LINE
  5
251
100
AcDbEntity
  8
0
100
AcDbLine
 62
9
  6
CONTINUOUS
 10
14.3621823625
 20
7.4128884487
 11
15.513202323
 21
7.4128884487
  0
LINE
  5
252
100
AcDbEntity
  8
0
100
AcDbLine
 62
7
  6
CONTINUOUS
 10
9.7576923428
 20
6.2786965989
 11
9.7576923428
 21
6.9612749224
  0
LINE
  5
253
100
AcDbEntity
  8
0
100
AcDbLine
 62
7
  6
CONTINUOUS
 10
6.2696923427
 20
8.42644834
 11
6.2513922062
 21
8.4181940451
  0
LINE
  5
254
100
AcDbEntity
  8
0
100
AcDbLine
 62
7
  6
CONTINUOUS
 10
15.4376923427
 20
7.8056965989
 11
14.4376923427
 21
7.8056965989
  0
LINE
  5
255
100
AcDbEntity
  8
0
100
AcDbLine
 62
7
  6
CONTINUOUS
 10
7.4376923427
 20
7.8056965989
 11
6.4376923427
 21
7.8056965989
  0
LINE
  5
256
100
AcDbEntity
  8
0
100
AcDbLine
 62
7
  6
CONTINUOUS
 10
15.3676917679
 20
7.9256965989
 11
14.5076929176
 21
7.9256965989
  0
LINE
  5
257
100
AcDbEntity
  8
0
100
AcDbLine
 62
7
  6
CONTINUOUS
 10
7.3676917679
 20
7.9256965989
 11
6.5076929176
 21
7.9256965989
  0
LINE
  5
258
100
AcDbEntity
  8
0
100
AcDbLine
 62
7
  6
CONTINUOUS
 10
14.689431727
 20
8.0406965989
 11
14.6663377162
 21
8.0406965989
  0
LINE
  5
259
100
AcDbEntity
  8
0
100
AcDbLine
 62
7
  6
CONTINUOUS
 10
7.2090469693
 20
8.0406965989
 11
7.1859529585
 21
8.0406965989
  0
LINE
  5
25A
100
AcDbEntity
  8
0
100
AcDbLine
 62
7
  6
CONTINUOUS
 10
18.0378923427
 20
8.0586965989
 11
17.9678923427
 21
8.0586965989
  0
LINE
  5
25B
100
AcDbEntity
  8
0
100
AcDbLine
 62
7
  6
CONTINUOUS
 10
3.8374923427
 20
8.0586965989
 11
3.9074923427
 21
8.0586965989
  0
LINE
  5
25C
100
AcDbEntity
  8
0
100
AcDbLine
 62
7
  6
CONTINUOUS
 10
14.7009787324
 20
8.0806965989
 11
14.6547907108
 21
8.0806965989
  0
LINE
  5
25D
100
AcDbEntity
  8
0
100
AcDbLine
 62
7
  6
CONTINUOUS
 10
7.1744059531
 20
8.0806965989
 11
7.2205939746
 21
8.0806965989
  0
LINE
  5
25E
100
AcDbEntity
  8
0
100
AcDbLine
 62
7
  6
CONTINUOUS
 10
7.1859529585
 20
8.1206965989
 11
7.2090469693
 21
8.1206965989
  0
LINE
  5
25F
100
AcDbEntity
  8
0
100
AcDbLine
 62
7
  6
CONTINUOUS
 10
14.6663377162
 20
8.1206965989
 11
14.689431727
 21
8.1206965989
  0
LINE
  5
260
100
AcDbEntity
  8
0
100
AcDbLine
 62
7
  6
CONTINUOUS
 10
7.1853782671
 20
8.1457830131
 11
7.18435114
 21
8.1457830131
  0
LINE
  5
261
100
AcDbEntity
  8
0
100
AcDbLine
 62
7
  6
CONTINUOUS
 10
18.1271023287
 20
8.1486965989
 11
18.0678923427
 21
8.1486965989
  0
LINE
  5
262
100
AcDbEntity
  8
0
100
AcDbLine
 62
7
  6
CONTINUOUS
 10
3.8074923427
 20
8.1486965989
 11
3.7482823568
 21
8.1486965989
  0
LINE
  5
263
100
AcDbEntity
  8
0
100
AcDbLine
 62
9
  6
CONTINUOUS
 10
3.7482823568
 20
8.1574833955
 11
3.8074923427
 21
8.1574833955
  0
LINE
  5
264
100
AcDbEntity
  8
0
100
AcDbLine
 62
9
  6
CONTINUOUS
 10
18.0678923427
 20
8.1574833955
 11
18.1271023287
 21
8.1574833954
  0
LINE
  5
265
100
AcDbEntity
  8
0
100
AcDbLine
 62
7
  6
CONTINUOUS
 10
6.4476923427
 20
8.2356965989
 11
7.4276923427
 21
8.2356965989
  0
LINE
  5
266
100
AcDbEntity
  8
0
100
AcDbLine
 62
7
  6
CONTINUOUS
 10
14.4476923427
 20
8.2356965989
 11
15.4276923427
 21
8.2356965989
  0
LINE
  5
267
100
AcDbEntity
  8
0
100
AcDbLine
 62
7
  6
CONTINUOUS
 10
10.3576923427
 20
10.8975802684
 11
10.3576923427
 21
10.8252472435
  0
LINE
  5
268
100
AcDbEntity
  8
0
100
AcDbLine
 62
7
  6
CONTINUOUS
 10
10.4751923427
 20
10.9295084923
 11
10.4751923427
 21
10.747319058
  0
LINE
  5
269
100
AcDbEntity
  8
0
100
AcDbLine
 62
7
  6
CONTINUOUS
 10
10.3676677284
 20
11.5854849813
 11
10.3644224333
 21
11.382047341
  0
LWPOLYLINE
  5
26A
100
AcDbEntity
  8
0
100
AcDbPolyline
 62
7
  6
CONTINUOUS
 90
5
 70
0
 10
10.3572581499
 20
11.2837021313
 10
10.3560915375
 20
11.2491747425
 10
10.3521540432
 20
11.1335738175
 10
10.3480571284
 20
11.016610697
 10
10.3444664002
 20
10.9182212164
  0
LINE
  5
26B
100
AcDbEntity
  8
0
100
AcDbLine
 62
7
  6
CONTINUOUS
 10
10.3625886573
 20
11.3821176726
 11
10.362490391
 21
11.3795486627
  0
LINE
  5
26C
100
AcDbEntity
  8
0
100
AcDbLine
 62
7
  6
CONTINUOUS
 10
10.362490391
 20
11.3795486627
 11
10.3590828493
 21
11.3209879522
  0
LINE
  5
26D
100
AcDbEntity
  8
0
100
AcDbLine
 62
7
  6
CONTINUOUS
 10
10.3591433506
 20
11.3210668521
 11
10.3644223583
 21
11.3820475324
  0
LINE
  5
26E
100
AcDbEntity
  8
0
100
AcDbLine
 62
7
  6
CONTINUOUS
 10
17.9479647121
 20
9.0419604851
 11
17.9678923427
 21
9.0436965989
  0
LINE
  5
26F
100
AcDbEntity
  8
0
100
AcDbLine
 62
7
  6
CONTINUOUS
 10
3.9274199734
 20
8.0554327126
 11
3.9074923427
 21
8.0536965989
  0
LINE
  5
270
100
AcDbEntity
  8
0
100
AcDbLine
 62
7
  6
CONTINUOUS
 10
17.9479647121
 20
9.0619967354
 11
15.6239924792
 21
8.8637576342
  0
LINE
  5
271
100
AcDbEntity
  8
0
100
AcDbLine
 62
7
  6
CONTINUOUS
 10
3.9274199734
 20
8.0353964624
 11
6.2513922062
 21
8.2336355636
  0
LINE
  5
272
100
AcDbEntity
  8
0
100
AcDbLine
 62
7
  6
CONTINUOUS
 10
17.9279647121
 20
8.7606058134
 11
15.6239924792
 21
8.6791991527
  0
LINE
  5
273
100
AcDbEntity
  8
0
100
AcDbLine
 62
7
  6
CONTINUOUS
 10
3.9474199734
 20
8.3367873843
 11
6.2513922062
 21
8.4181940451
  0
LINE
  5
274
100
AcDbEntity
  8
0
100
AcDbLine
 62
7
  6
CONTINUOUS
 10
6.4515273674
 20
8.3661965989
 11
6.4196923427
 21
8.3661965989
  0
LINE
  5
275
100
AcDbEntity
  8
0
100
AcDbLine
 62
7
  6
CONTINUOUS
 10
15.4238607431
 20
8.3661965989
 11
15.4556923427
 21
8.3661965989
  0
LINE
  5
276
100
AcDbEntity
  8
0
100
AcDbLine
 62
9
  6
CONTINUOUS
 10
18.1271023287
 20
8.3742243773
 11
18.0678923427
 21
8.3742243774
  0
LINE
  5
277
100
AcDbEntity
  8
0
100
AcDbLine
 62
9
  6
CONTINUOUS
 10
3.8074923427
 20
8.3742243774
 11
3.7482823568
 21
8.3742243774
  0
LINE
  5
278
100
AcDbEntity
  8
0
100
AcDbLine
 62
9
  6
CONTINUOUS
 10
3.7201924815
 20
8.3954375808
 11
3.8074923427
 21
8.3954375808
  0
LINE
  5
279
100
AcDbEntity
  8
0
100
AcDbLine
 62
9
  6
CONTINUOUS
 10
18.0678923427
 20
8.3954375808
 11
18.155192204
 21
8.3954375808
  0
LINE
  5
27A
100
AcDbEntity
  8
0
100
AcDbLine
 62
9
  6
CONTINUOUS
 10
18.155192204
 20
8.701955617
 11
18.0678923427
 21
8.701955617
  0
LINE
  5
27B
100
AcDbEntity
  8
0
100
AcDbLine
 62
9
  6
CONTINUOUS
 10
3.8074923427
 20
8.701955617
 11
3.7201924815
 21
8.701955617
  0
LINE
  5
27C
100
AcDbEntity
  8
0
100
AcDbLine
 62
9
  6
CONTINUOUS
 10
3.7482823568
 20
8.7231688204
 11
3.8074923427
 21
8.7231688204
  0
LINE
  5
27D
100
AcDbEntity
  8
0
100
AcDbLine
 62
9
  6
CONTINUOUS
 10
18.0678923427
 20
8.7231688204
 11
18.1271023287
 21
8.7231688204
  0
LINE
  5
27E
100
AcDbEntity
  8
0
100
AcDbLine
 62
7
  6
CONTINUOUS
 10
6.4515239421
 20
8.7311965989
 11
6.4196923427
 21
8.7311965989
  0
LINE
  5
27F
100
AcDbEntity
  8
0
100
AcDbLine
 62
7
  6
CONTINUOUS
 10
15.4238573182
 20
8.7311965989
 11
15.4556923427
 21
8.7311965989
  0
LINE
  5
280
100
AcDbEntity
  8
0
100
AcDbLine
 62
7
  6
CONTINUOUS
 10
3.9474199734
 20
8.7606058134
 11
6.2513922062
 21
8.6791991527
  0
LINE
  5
281
100
AcDbEntity
  8
0
100
AcDbLine
 62
7
  6
CONTINUOUS
 10
17.9279647121
 20
8.3367873843
 11
15.6239924792
 21
8.4181940451
  0
LINE
  5
282
100
AcDbEntity
  8
0
100
AcDbLine
 62
7
  6
CONTINUOUS
 10
3.9274199734
 20
9.0619967354
 11
6.2513922062
 21
8.8637576342
  0
LINE
  5
283
100
AcDbEntity
  8
0
100
AcDbLine
 62
7
  6
CONTINUOUS
 10
17.9479647121
 20
8.0353964624
 11
15.6239924792
 21
8.2336355636
  0
LINE
  5
284
100
AcDbEntity
  8
0
100
AcDbLine
 62
7
  6
CONTINUOUS
 10
3.9274199734
 20
9.0419604851
 11
3.9074923427
 21
9.0436965989
  0
LINE
  5
285
100
AcDbEntity
  8
0
100
AcDbLine
 62
7
  6
CONTINUOUS
 10
17.9479647121
 20
8.0554327126
 11
17.9678923427
 21
8.0536965989
  0
LINE
  5
286
100
AcDbEntity
  8
0
100
AcDbLine
 62
9
  6
CONTINUOUS
 10
10.9377439864
 20
6.8742811226
 11
10.937442182
 21
7.3465303443
  0
LINE
  5
287
100
AcDbEntity
  8
0
100
AcDbLine
 62
7
  6
CONTINUOUS
 10
10.5714423427
 20
10.6056246063
 11
10.5714423427
 21
10.591719433
  0
LINE
  5
288
100
AcDbEntity
  8
0
100
AcDbLine
 62
9
  6
CONTINUOUS
 10
10.937692343
 20
11.0197531021
 11
10.937692343
 21
11.3808100647
  0
LINE
  5
289
100
AcDbEntity
  8
0
100
AcDbLine
 62
9
  6
CONTINUOUS
 10
10.9376923517
 20
9.3890270526
 11
10.9376907228
 21
10.5072185012
  0
LINE
  5
28A
100
AcDbEntity
  8
0
100
AcDbLine
 62
9
  6
CONTINUOUS
 10
10.937692343
 20
11.3808100647
 11
10.93767239
 21
11.925965174
  0
LINE
  5
28B
100
AcDbEntity
  8
0
100
AcDbLine
 62
9
  6
CONTINUOUS
 10
10.937692853
 20
12.2571337323
 11
10.9376921759
 21
12.2566424054
  0
LINE
  5
28C
100
AcDbEntity
  8
0
100
AcDbLine
 62
7
  6
CONTINUOUS
 10
15.4276923427
 20
8.8606965989
 11
14.4476923427
 21
8.8606965989
  0
LINE
  5
28D
100
AcDbEntity
  8
0
100
AcDbLine
 62
7
  6
CONTINUOUS
 10
7.4276923427
 20
8.8606965989
 11
6.4476923427
 21
8.8606965989
  0
LINE
  5
28E
100
AcDbEntity
  8
0
100
AcDbLine
 62
9
  6
CONTINUOUS
 10
3.8074923427
 20
8.9399098023
 11
3.7482823568
 21
8.9399098023
  0
LINE
  5
28F
100
AcDbEntity
  8
0
100
AcDbLine
 62
9
  6
CONTINUOUS
 10
18.1271023287
 20
8.9399098023
 11
18.0678923427
 21
8.9399098023
  0
LINE
  5
290
100
AcDbEntity
  8
0
100
AcDbLine
 62
7
  6
CONTINUOUS
 10
3.7482823568
 20
8.9486965989
 11
3.8074923427
 21
8.9486965989
  0
LINE
  5
291
100
AcDbEntity
  8
0
100
AcDbLine
 62
7
  6
CONTINUOUS
 10
18.0678923427
 20
8.9486965989
 11
18.1271023287
 21
8.9486965989
  0
LINE
  5
292
100
AcDbEntity
  8
0
100
AcDbLine
 62
7
  6
CONTINUOUS
 10
18.0378923427
 20
9.0386965989
 11
17.9678923427
 21
9.0386965989
  0
LINE
  5
293
100
AcDbEntity
  8
0
100
AcDbLine
 62
7
  6
CONTINUOUS
 10
3.8374923427
 20
9.0386965989
 11
3.9074923427
 21
9.0386965989
  0
LINE
  5
294
100
AcDbEntity
  8
0
100
AcDbLine
 62
7
  6
CONTINUOUS
 10
11.3039423427
 20
10.6059506284
 11
11.3039423427
 21
10.591719433
  0
LINE
  5
295
100
AcDbEntity
  8
0
100
AcDbLine
 62
7
  6
CONTINUOUS
 10
11.4001923427
 20
10.9295084923
 11
11.4001923427
 21
10.747319058
  0
LINE
  5
296
100
AcDbEntity
  8
0
100
AcDbLine
 62
7
  6
CONTINUOUS
 10
11.5176923427
 20
10.8975458669
 11
11.5176923427
 21
10.814728142
  0
LINE
  5
297
100
AcDbEntity
  8
0
100
AcDbLine
 62
7
  6
CONTINUOUS
 10
11.5162594431
 20
11.3214087013
 11
11.5110044719
 21
11.3815626702
  0
LINE
  5
298
100
AcDbEntity
  8
0
100
AcDbLine
 62
7
  6
CONTINUOUS
 10
11.51625976
 20
11.3214038407
 11
11.5128802872
 21
11.379953326
  0
LINE
  5
299
100
AcDbEntity
  8
0
100
AcDbLine
 62
7
  6
CONTINUOUS
 10
11.5128802872
 20
11.379953326
 11
11.5128159691
 21
11.3816320743
  0
LWPOLYLINE
  5
29A
100
AcDbEntity
  8
0
100
AcDbPolyline
 62
7
  6
CONTINUOUS
 90
5
 70
0
 10
11.5309464987
 20
10.9182211402
 10
11.5273412198
 20
11.0164947928
 10
11.5232340747
 20
11.1333620978
 10
11.5192955925
 20
11.248886747
 10
11.5180874081
 20
11.2846762163
  0
LINE
  5
29B
100
AcDbEntity
  8
0
100
AcDbLine
 62
7
  6
CONTINUOUS
 10
11.6070924726
 20
10.1572765989
 11
11.5948752269
 21
10.1572765989
  0
LINE
  5
29C
100
AcDbEntity
  8
0
100
AcDbLine
 62
7
  6
CONTINUOUS
 10
10.2792603223
 20
10.1572765989
 11
10.2682922129
 21
10.1572765989
  0
LINE
  5
29D
100
AcDbEntity
  8
0
100
AcDbLine
 62
7
  6
CONTINUOUS
 10
12.1176923428
 20
6.2786965989
 11
12.1176923428
 21
6.9612749224
  0
LINE
  5
29E
100
AcDbEntity
  8
0
100
AcDbLine
 62
7
  6
CONTINUOUS
 10
15.6056923427
 20
8.42644834
 11
15.6239924792
 21
8.4181940451
  0
LINE
  5
29F
100
AcDbEntity
  8
0
100
AcDbLine
 62
7
  6
CONTINUOUS
 10
16.1251891024
 20
6.4303208
 11
15.9506923427
 21
6.6004647256
  0
LINE
  5
2A0
100
AcDbEntity
  8
0
100
AcDbLine
 62
7
  6
CONTINUOUS
 10
11.2120666667
 20
12.24700143
 11
11.2126923428
 21
12.2458162885
  0
LWPOLYLINE
  5
2A1
100
AcDbEntity
  8
0
100
AcDbPolyline
 62
7
  6
CONTINUOUS
 90
4
 70
0
 10
11.4538045821
 20
11.8395273613
 10
11.4063877791
 20
11.9383554684
 10
11.3446649474
 20
12.0499020918
 10
11.3021657018
 20
12.1183974296
  0
LINE
  5
2A2
100
AcDbEntity
  8
0
100
AcDbLine
 62
9
  6
CONTINUOUS
 10
11.2126923432
 20
12.2458162876
 11
11.3021657018
 21
12.1183974296
  0
LWPOLYLINE
  5
2A3
100
AcDbEntity
  8
0
100
AcDbPolyline
 62
7
  6
CONTINUOUS
 90
4
 70
0
 10
11.3021800659
 20
12.1183752347
 10
11.2863754114
 20
12.1424380166
 10
11.2458736615
 20
12.2010641844
 10
11.2128522516
 20
12.2459339703
  0
LINE
  5
2A4
100
AcDbEntity
  8
0
100
AcDbLine
 62
7
  6
CONTINUOUS
 10
11.3021657018
 20
12.1183974296
 11
11.3021800659
 21
12.1183752347
  0
LINE
  5
2A5
100
AcDbEntity
  8
0
100
AcDbLine
 62
7
  6
CONTINUOUS
 10
15.6056923427
 20
8.6709448578
 11
15.6239924792
 21
8.6791991527
  0
LINE
  5
2A6
100
AcDbEntity
  8
0
100
AcDbLine
 62
7
  6
CONTINUOUS
 10
11.2113984775
 20
12.2474694793
 11
11.2120666667
 21
12.24700143
  0
LINE
  5
2A7
100
AcDbEntity
  8
0
100
AcDbLine
 62
7
  6
CONTINUOUS
 10
14.6599868633
 20
8.0300738109
 11
14.6701678426
 21
8.0156757318
  0
LINE
  5
2A8
100
AcDbEntity
  8
0
100
AcDbLine
 62
7
  6
CONTINUOUS
 10
13.7501923427
 20
6.2786965989
 11
13.7501923427
 21
6.4303176404
  0
LWPOLYLINE
  5
2A9
100
AcDbEntity
  8
0
100
AcDbPolyline
 62
7
  6
CONTINUOUS
 90
4
 70
0
 10
10.937692853
 20
12.2571337321
 10
10.8614012509
 20
12.2563856452
 10
10.7596497605
 20
12.2530504888
 10
10.6639927403
 20
12.2474691296
  0
LWPOLYLINE
  5
2AA
100
AcDbEntity
  8
0
100
AcDbPolyline
 62
7
  6
CONTINUOUS
 90
4
 70
0
 10
11.2113984775
 20
12.2474694793
 10
11.1170944777
 20
12.2529877792
 10
11.0153537529
 20
12.2563583223
 10
10.937692853
 20
12.2571337323
  0
LINE
  5
2AB
100
AcDbEntity
  8
0
100
AcDbLine
 62
7
  6
CONTINUOUS
 10
15.6056923427
 20
8.2535631943
 11
15.6239924792
 21
8.2336355636
  0
LINE
  5
2AC
100
AcDbEntity
  8
0
100
AcDbLine
 62
7
  6
CONTINUOUS
 10
14.6547907108
 20
8.0806965989
 11
14.6663377162
 21
8.0406965989
  0
LINE
  5
2AD
100
AcDbEntity
  8
0
100
AcDbLine
 62
7
  6
CONTINUOUS
 10
14.4476923427
 20
8.2356965989
 11
14.4476923427
 21
8.8606965989
  0
LINE
  5
2AE
100
AcDbEntity
  8
0
100
AcDbLine
 62
7
  6
CONTINUOUS
 10
14.5076923427
 20
7.9256965989
 11
14.5076923427
 21
7.8056965989
  0
LINE
  5
2AF
100
AcDbEntity
  8
0
100
AcDbLine
 62
7
  6
CONTINUOUS
 10
14.6251923427
 20
7.9256965989
 11
14.6251923427
 21
8.2356965989
  0
LINE
  5
2B0
100
AcDbEntity
  8
0
100
AcDbLine
 62
7
  6
CONTINUOUS
 10
14.3621823625
 20
7.4128884487
 11
14.4376923427
 21
7.8056965989
  0
LINE
  5
2B1
100
AcDbEntity
  8
0
100
AcDbLine
 62
7
  6
CONTINUOUS
 10
14.6599868633
 20
8.1313193869
 11
14.6622067709
 21
8.1344588105
  0
LINE
  5
2B2
100
AcDbEntity
  8
0
100
AcDbLine
 62
7
  6
CONTINUOUS
 10
15.6056923427
 20
8.8438300035
 11
15.6239924792
 21
8.8637576342
  0
LINE
  5
2B3
100
AcDbEntity
  8
0
100
AcDbLine
 62
7
  6
CONTINUOUS
 10
14.7009787324
 20
8.0806965989
 11
14.689431727
 21
8.1206965989
  0
LINE
  5
2B4
100
AcDbEntity
  8
0
100
AcDbLine
 62
7
  6
CONTINUOUS
 10
14.9376923427
 20
6.5854438416
 11
14.9376923427
 21
6.6004647256
  0
LINE
  5
2B5
100
AcDbEntity
  8
0
100
AcDbLine
 62
7
  6
CONTINUOUS
 10
14.9376923427
 20
7.4128884487
 11
14.9376923427
 21
7.8056965989
  0
LINE
  5
2B6
100
AcDbEntity
  8
0
100
AcDbLine
 62
7
  6
CONTINUOUS
 10
14.6663377162
 20
8.1206965989
 11
14.6547907108
 21
8.0806965989
  0
LINE
  5
2B7
100
AcDbEntity
  8
0
100
AcDbLine
 62
7
  6
CONTINUOUS
 10
14.689431727
 20
8.0406965989
 11
14.7009787324
 21
8.0806965989
  0
LINE
  5
2B8
100
AcDbEntity
  8
0
100
AcDbLine
 62
7
  6
CONTINUOUS
 10
13.7501955831
 20
6.4303208
 11
13.9246923427
 21
6.6004647256
  0
LINE
  5
2B9
100
AcDbEntity
  8
0
100
AcDbLine
 62
7
  6
CONTINUOUS
 10
15.513202323
 20
7.4128884487
 11
15.4376923427
 21
7.8056965989
  0
LINE
  5
2BA
100
AcDbEntity
  8
0
100
AcDbLine
 62
7
  6
CONTINUOUS
 10
15.2501923427
 20
7.9256965989
 11
15.2501923427
 21
8.2356965989
  0
LINE
  5
2BB
100
AcDbEntity
  8
0
100
AcDbLine
 62
7
  6
CONTINUOUS
 10
15.3676923427
 20
7.9256965989
 11
15.3676923427
 21
7.8056965989
  0
LINE
  5
2BC
100
AcDbEntity
  8
0
100
AcDbLine
 62
7
  6
CONTINUOUS
 10
15.4276923427
 20
8.2356965989
 11
15.4276923427
 21
8.3561965989
  0
LINE
  5
2BD
100
AcDbEntity
  8
0
100
AcDbLine
 62
7
  6
CONTINUOUS
 10
15.4276923427
 20
8.7411965989
 11
15.4276923427
 21
8.8606965989
  0
LINE
  5
2BE
100
AcDbEntity
  8
0
100
AcDbLine
 62
9
  6
CONTINUOUS
 10
15.4556923427
 20
8.3661965989
 11
15.4556923427
 21
8.7311965989
  0
LINE
  5
2BF
100
AcDbEntity
  8
0
100
AcDbLine
 62
7
  6
CONTINUOUS
 10
15.5056923427
 20
8.8286965989
 11
15.5056923427
 21
8.2686965989
  0
LINE
  5
2C0
100
AcDbEntity
  8
0
100
AcDbLine
 62
7
  6
CONTINUOUS
 10
15.6056923427
 20
8.8438300035
 11
15.6056923427
 21
8.2535631943
  0
LINE
  5
2C1
100
AcDbEntity
  8
0
100
AcDbLine
 62
7
  6
CONTINUOUS
 10
15.6239924792
 20
8.8637576342
 11
15.6239924792
 21
8.2336355636
  0
LINE
  5
2C2
100
AcDbEntity
  8
0
100
AcDbLine
 62
7
  6
CONTINUOUS
 10
17.9279647121
 20
9.0602906986
 11
17.9479647121
 21
9.0419604851
  0
LINE
  5
2C3
100
AcDbEntity
  8
0
100
AcDbLine
 62
7
  6
CONTINUOUS
 10
17.9479647121
 20
9.0619967354
 11
17.9678923427
 21
9.0436965989
  0
LINE
  5
2C4
100
AcDbEntity
  8
0
100
AcDbLine
 62
7
  6
CONTINUOUS
 10
17.9279647121
 20
8.3367873843
 11
17.9479647121
 21
8.3160444705
  0
LINE
  5
2C5
100
AcDbEntity
  8
0
100
AcDbLine
 62
7
  6
CONTINUOUS
 10
17.9479647121
 20
8.3644162576
 11
17.9678923427
 21
8.3436608855
  0
LINE
  5
2C6
100
AcDbEntity
  8
0
100
AcDbLine
 62
7
  6
CONTINUOUS
 10
16.1251923427
 20
6.2786965989
 11
16.1251923427
 21
6.4303176404
  0
LINE
  5
2C7
100
AcDbEntity
  8
0
100
AcDbLine
 62
9
  6
CONTINUOUS
 10
18.155192204
 20
8.701955617
 11
18.293942204
 21
8.5486965989
  0
LINE
  5
2C8
100
AcDbEntity
  8
0
100
AcDbLine
 62
9
  6
CONTINUOUS
 10
18.293942204
 20
8.5561450519
 11
18.155192204
 21
8.70940407
  0
LINE
  5
2C9
100
AcDbEntity
  8
0
100
AcDbLine
 62
7
  6
CONTINUOUS
 10
17.9279647121
 20
8.7606058134
 11
17.9479647121
 21
8.7329769401
  0
LINE
  5
2CA
100
AcDbEntity
  8
0
100
AcDbLine
 62
7
  6
CONTINUOUS
 10
17.9479647121
 20
8.7329769401
 11
17.9678923427
 21
8.7537323123
  0
LINE
  5
2CB
100
AcDbEntity
  8
0
100
AcDbLine
 62
7
  6
CONTINUOUS
 10
17.9279647121
 20
8.7606058134
 11
17.9479647121
 21
8.7813487272
  0
LINE
  5
2CC
100
AcDbEntity
  8
0
100
AcDbLine
 62
7
  6
CONTINUOUS
 10
17.9479647121
 20
8.0353964624
 11
17.9678923427
 21
8.0536965989
  0
LINE
  5
2CD
100
AcDbEntity
  8
0
100
AcDbLine
 62
7
  6
CONTINUOUS
 10
17.9279647121
 20
8.0371024991
 11
17.9479647121
 21
8.0554327126
  0
LINE
  5
2CE
100
AcDbEntity
  8
0
100
AcDbLine
 62
7
  6
CONTINUOUS
 10
17.9479647121
 20
8.7813487272
 11
17.9678923427
 21
8.7537323123
  0
LINE
  5
2CF
100
AcDbEntity
  8
0
100
AcDbLine
 62
7
  6
CONTINUOUS
 10
17.9479647121
 20
8.3160444705
 11
17.9678923427
 21
8.3436608855
  0
LINE
  5
2D0
100
AcDbEntity
  8
0
100
AcDbLine
 62
7
  6
CONTINUOUS
 10
17.9279647121
 20
8.3367873843
 11
17.9479647121
 21
8.3644162576
  0
LINE
  5
2D1
100
AcDbEntity
  8
0
100
AcDbLine
 62
9
  6
CONTINUOUS
 10
18.293942204
 20
8.5486965989
 11
18.155192204
 21
8.3954375808
  0
LINE
  5
2D2
100
AcDbEntity
  8
0
100
AcDbLine
 62
9
  6
CONTINUOUS
 10
18.155192204
 20
8.3879891278
 11
18.293942204
 21
8.5412481459
  0
LINE
  5
2D3
100
AcDbEntity
  8
0
100
AcDbLine
 62
9
  6
CONTINUOUS
 10
18.155192204
 20
8.9261450519
 11
18.293942204
 21
8.5561450519
  0
LINE
  5
2D4
100
AcDbEntity
  8
0
100
AcDbLine
 62
7
  6
CONTINUOUS
 10
18.293942204
 20
8.5592303021
 11
18.155192204
 21
8.9292303021
  0
LINE
  5
2D5
100
AcDbEntity
  8
0
100
AcDbLine
 62
7
  6
CONTINUOUS
 10
17.9479647121
 20
8.0554327126
 11
17.9479647121
 21
8.3160444705
  0
LINE
  5
2D6
100
AcDbEntity
  8
0
100
AcDbLine
 62
7
  6
CONTINUOUS
 10
17.9479647121
 20
8.3644162576
 11
17.9479647121
 21
8.7329769401
  0
LINE
  5
2D7
100
AcDbEntity
  8
0
100
AcDbLine
 62
7
  6
CONTINUOUS
 10
17.9479647121
 20
8.7813487272
 11
17.9479647121
 21
9.0419604851
  0
LINE
  5
2D8
100
AcDbEntity
  8
0
100
AcDbLine
 62
7
  6
CONTINUOUS
 10
17.9678923427
 20
8.0536965989
 11
17.9678923427
 21
9.0436965989
  0
LINE
  5
2D9
100
AcDbEntity
  8
0
100
AcDbLine
 62
9
  6
CONTINUOUS
 10
18.0378923427
 20
8.0586965989
 11
18.0378923427
 21
9.0386965989
  0
LINE
  5
2DA
100
AcDbEntity
  8
0
100
AcDbLine
 62
7
  6
CONTINUOUS
 10
18.0678923427
 20
8.088700567
 11
18.0678923427
 21
9.0086926308
  0
LINE
  5
2DB
100
AcDbEntity
  8
0
100
AcDbLine
 62
9
  6
CONTINUOUS
 10
18.1271023287
 20
8.1486965989
 11
18.1271023287
 21
8.9486965989
  0
LINE
  5
2DC
100
AcDbEntity
  8
0
100
AcDbLine
 62
9
  6
CONTINUOUS
 10
18.155192204
 20
8.9261450519
 11
18.155192204
 21
8.70940407
  0
LINE
  5
2DD
100
AcDbEntity
  8
0
100
AcDbLine
 62
9
  6
CONTINUOUS
 10
18.155192204
 20
8.701955617
 11
18.155192204
 21
8.3954375808
  0
LINE
  5
2DE
100
AcDbEntity
  8
0
100
AcDbLine
 62
9
  6
CONTINUOUS
 10
18.155192204
 20
8.3879891278
 11
18.155192204
 21
8.1712481459
  0
LINE
  5
2DF
100
AcDbEntity
  8
0
100
AcDbLine
 62
9
  6
CONTINUOUS
 10
18.293942204
 20
8.5412481459
 11
18.155192204
 21
8.1712481459
  0
LINE
  5
2E0
100
AcDbEntity
  8
0
100
AcDbLine
 62
7
  6
CONTINUOUS
 10
18.155192204
 20
8.1681628956
 11
18.293942204
 21
8.5381628956
  0
ARC
  5
2E1
100
AcDbEntity
  8
0
100
AcDbCircle
 62
9
  6
CONTINUOUS
 10
-128.2196973969
 20
6.8136160683
 40
139.0462460328
100
AcDbArc
 50
1.7316401079
 51
1.905323849
  0
ARC
  5
2E2
100
AcDbEntity
  8
0
100
AcDbCircle
 62
7
  6
CONTINUOUS
 10
4.8488889638
 20
7.7037906475
 40
1.541
100
AcDbArc
 50
314.2763891045
 51
349.1186996529
  0
ARC
  5
2E3
100
AcDbEntity
  8
0
100
AcDbCircle
 62
7
  6
CONTINUOUS
 10
6.9376923427
 20
7.4429871787
 40
1.5
100
AcDbArc
 50
70.9334198993
 51
109.0665801007
  0
ARC
  5
2E4
100
AcDbEntity
  8
0
100
AcDbCircle
 62
7
  6
CONTINUOUS
 10
7.257295534
 20
8.0989972535
 40
0.0965933507
100
AcDbArc
 50
144.8088922009
 51
149.0881474211
  0
ARC
  5
2E5
100
AcDbEntity
  8
0
100
AcDbCircle
 62
7
  6
CONTINUOUS
 10
7.2519419323
 20
8.0938593929
 40
0.0932775073
100
AcDbArc
 50
165.7888116724
 51
169.7285910042
  0
ARC
  5
2E6
100
AcDbEntity
  8
0
100
AcDbCircle
 62
7
  6
CONTINUOUS
 10
7.2528743871
 20
8.0594167358
 40
0.0912633833
100
AcDbArc
 50
213.3208412754
 51
215.2621930179
  0
ARC
  5
2E7
100
AcDbEntity
  8
0
100
AcDbCircle
 62
7
  6
CONTINUOUS
 10
7.216991809
 20
8.0439828489
 40
0.0530368169
100
AcDbArc
 50
220.5886354023
 51
221.3677699436
  0
ARC
  5
2E8
100
AcDbEntity
  8
0
100
AcDbCircle
 62
7
  6
CONTINUOUS
 10
7.2150226196
 20
8.0422402102
 40
0.050407282
100
AcDbArc
 50
221.3604914539
 51
224.1649245123
  0
ARC
  5
2E9
100
AcDbEntity
  8
0
100
AcDbCircle
 62
7
  6
CONTINUOUS
 10
6.3196923427
 20
8.2686965989
 40
0.05
100
AcDbArc
 50
180.0
 51
360.0
  0
ARC
  5
2EA
100
AcDbEntity
  8
0
100
AcDbCircle
 62
7
  6
CONTINUOUS
 10
6.3196923427
 20
8.8286965989
 40
0.05
100
AcDbArc
 50
0.0
 51
180.0
  0
ARC
  5
2EB
100
AcDbEntity
  8
0
100
AcDbCircle
 62
7
  6
CONTINUOUS
 10
6.4196923427
 20
8.3161965989
 40
0.05
100
AcDbArc
 50
90.0
 51
180.0
  0
ARC
  5
2EC
100
AcDbEntity
  8
0
100
AcDbCircle
 62
7
  6
CONTINUOUS
 10
6.4196923427
 20
8.7811965989
 40
0.05
100
AcDbArc
 50
180.0
 51
270.0
  0
ARC
  5
2ED
100
AcDbEntity
  8
0
100
AcDbCircle
 62
7
  6
CONTINUOUS
 10
7.182715636
 20
8.0377408045
 40
0.0443756277
100
AcDbArc
 50
309.8467613663
 51
310.4045706743
  0
ARC
  5
2EE
100
AcDbEntity
  8
0
100
AcDbCircle
 62
7
  6
CONTINUOUS
 10
3.6095768006
 20
8.5486898253
 40
0.0300439705
100
AcDbArc
 50
159.4714125041
 51
165.1824351699
  0
ARC
  5
2EF
100
AcDbEntity
  8
0
100
AcDbCircle
 62
7
  6
CONTINUOUS
 10
3.8374923427
 20
8.0886965989
 40
0.03
100
AcDbArc
 50
180.0
 51
270.0
  0
ARC
  5
2F0
100
AcDbEntity
  8
0
100
AcDbCircle
 62
7
  6
CONTINUOUS
 10
3.8374923427
 20
9.0086965989
 40
0.03
100
AcDbArc
 50
90.0
 51
180.0
  0
ARC
  5
2F1
100
AcDbEntity
  8
0
100
AcDbCircle
 62
7
  6
CONTINUOUS
 10
3.7482823568
 20
8.1786965989
 40
0.03
100
AcDbArc
 50
200.5560452196
 51
269.9999999934
  0
ARC
  5
2F2
100
AcDbEntity
  8
0
100
AcDbCircle
 62
7
  6
CONTINUOUS
 10
3.7482823568
 20
8.9186965989
 40
0.03
100
AcDbArc
 50
90.0000000066
 51
159.4439547804
  0
ARC
  5
2F3
100
AcDbEntity
  8
0
100
AcDbCircle
 62
7
  6
CONTINUOUS
 10
3.6095034617
 20
8.5486964998
 40
0.0299713454
100
AcDbArc
 50
165.1589152148
 51
194.835320986
  0
ARC
  5
2F4
100
AcDbEntity
  8
0
100
AcDbCircle
 62
7
  6
CONTINUOUS
 10
3.6094595679
 20
8.5486667244
 40
0.0299213561
100
AcDbArc
 50
194.8017258314
 51
200.5512755597
  0
ARC
  5
2F5
100
AcDbEntity
  8
0
100
AcDbCircle
 62
7
  6
CONTINUOUS
 10
7.1906012659
 20
8.1154426367
 40
0.0293237015
100
AcDbArc
 50
46.5895629825
 51
47.6802761838
  0
ARC
  5
2F6
100
AcDbEntity
  8
0
100
AcDbCircle
 62
7
  6
CONTINUOUS
 10
7.2007937628
 20
8.0226935124
 40
0.0259787489
100
AcDbArc
 50
251.4857197636
 51
256.2328542272
  0
ARC
  5
2F7
100
AcDbEntity
  8
0
100
AcDbCircle
 62
7
  6
CONTINUOUS
 10
7.1966091922
 20
8.128081761
 40
0.0210916199
100
AcDbArc
 50
122.2381522636
 51
124.7488944045
  0
ARC
  5
2F8
100
AcDbEntity
  8
0
100
AcDbCircle
 62
7
  6
CONTINUOUS
 10
7.1901282089
 20
8.1343312141
 40
0.0206653044
100
AcDbArc
 50
113.6711462036
 51
118.9918014524
  0
ARC
  5
2F9
100
AcDbEntity
  8
0
100
AcDbCircle
 62
7
  6
CONTINUOUS
 10
-4.0971773526
 20
10.1324952282
 40
14.3654892782
100
AcDbArc
 50
359.7224925987
 51
359.9972868922
  0
ARC
  5
2FA
100
AcDbEntity
  8
0
100
AcDbCircle
 62
7
  6
CONTINUOUS
 10
2.247423302
 20
9.8232307553
 40
8.0197372508
100
AcDbArc
 50
339.467469707
 51
341.0252712546
  0
ARC
  5
2FB
100
AcDbEntity
  8
0
100
AcDbCircle
 62
7
  6
CONTINUOUS
 10
10.9356325285
 20
7.6386534772
 40
3.3811001962
100
AcDbArc
 50
89.9645536077
 51
92.9258419234
  0
ARC
  5
2FC
100
AcDbEntity
  8
0
100
AcDbCircle
 62
7
  6
CONTINUOUS
 10
9.5642692038
 20
7.0097932853
 40
2.5534232099
100
AcDbArc
 50
358.9112401271
 51
0.0135036793
  0
ARC
  5
2FD
100
AcDbEntity
  8
0
100
AcDbCircle
 62
7
  6
CONTINUOUS
 10
12.2632041898
 20
7.0093437024
 40
2.5055120676
100
AcDbArc
 50
179.9759570846
 51
181.0992991151
  0
ARC
  5
2FE
100
AcDbEntity
  8
0
100
AcDbCircle
 62
7
  6
CONTINUOUS
 10
12.8488889638
 20
7.7037906475
 40
1.541
100
AcDbArc
 50
314.2763891045
 51
349.1186996529
  0
ARC
  5
2FF
100
AcDbEntity
  8
0
100
AcDbCircle
 62
7
  6
CONTINUOUS
 10
17.0264957217
 20
7.7037906475
 40
1.541
100
AcDbArc
 50
190.8813003471
 51
225.7236108955
  0
ARC
  5
300
100
AcDbEntity
  8
0
100
AcDbCircle
 62
7
  6
CONTINUOUS
 10
9.0264957217
 20
7.7037906475
 40
1.541
100
AcDbArc
 50
190.8813003471
 51
225.7236108955
  0
ARC
  5
301
100
AcDbEntity
  8
0
100
AcDbCircle
 62
7
  6
CONTINUOUS
 10
14.9376923427
 20
7.4429871787
 40
1.5
100
AcDbArc
 50
70.9334198993
 51
109.0665801007
  0
ARC
  5
302
100
AcDbEntity
  8
0
100
AcDbCircle
 62
7
  6
CONTINUOUS
 10
12.9873905551
 20
7.4301832485
 40
1.4843815598
100
AcDbArc
 50
181.9763719036
 51
183.2182559476
  0
ARC
  5
303
100
AcDbEntity
  8
0
100
AcDbCircle
 62
7
  6
CONTINUOUS
 10
8.8996257478
 20
7.4261098788
 40
1.4718126292
100
AcDbArc
 50
356.912502626
 51
358.1358179161
  0
ARC
  5
304
100
AcDbEntity
  8
0
100
AcDbCircle
 62
7
  6
CONTINUOUS
 10
8.9629652648
 20
7.9055886871
 40
1.0151761552
100
AcDbArc
 50
344.3249613397
 51
348.1496225091
  0
ARC
  5
305
100
AcDbEntity
  8
0
100
AcDbCircle
 62
9
  6
CONTINUOUS
 10
10.9376646424
 20
8.7578144462
 40
3.4988279592
100
AcDbArc
 50
85.4915761508
 51
89.9995448816
  0
ARC
  5
306
100
AcDbEntity
  8
0
100
AcDbCircle
 62
9
  6
CONTINUOUS
 10
10.9376909009
 20
8.7585546641
 40
3.4980877413
100
AcDbArc
 50
89.9999748771
 51
94.5089010272
  0
ARC
  5
307
100
AcDbEntity
  8
0
100
AcDbCircle
 62
7
  6
CONTINUOUS
 10
10.9122969652
 20
8.126465419
 40
2.8927334613
100
AcDbArc
 50
92.9574224407
 51
94.1204901084
  0
ARC
  5
308
100
AcDbEntity
  8
0
100
AcDbCircle
 62
7
  6
CONTINUOUS
 10
12.9950394559
 20
7.9306569857
 40
1.1014372832
100
AcDbArc
 50
195.7236965047
 51
198.9072482029
  0
ARC
  5
309
100
AcDbEntity
  8
0
100
AcDbCircle
 62
7
  6
CONTINUOUS
 10
8.9103734881
 20
7.9200793758
 40
1.0697271598
100
AcDbArc
 50
341.1182859079
 51
344.3387547339
  0
ARC
  5
30A
100
AcDbEntity
  8
0
100
AcDbCircle
 62
7
  6
CONTINUOUS
 10
12.9388715996
 20
7.9152034169
 40
1.0431834044
100
AcDbArc
 50
191.933877365
 51
195.7427066029
  0
ARC
  5
30B
100
AcDbEntity
  8
0
100
AcDbCircle
 62
7
  6
CONTINUOUS
 10
14.6214473302
 20
8.0601388824
 40
0.0925483287
100
AcDbArc
 50
324.7526055214
 51
326.803482517
  0
ARC
  5
30C
100
AcDbEntity
  8
0
100
AcDbCircle
 62
7
  6
CONTINUOUS
 10
14.6585052205
 20
8.0438860647
 40
0.0528885389
100
AcDbArc
 50
318.5518078979
 51
319.6330995956
  0
ARC
  5
30D
100
AcDbEntity
  8
0
100
AcDbCircle
 62
7
  6
CONTINUOUS
 10
15.5556923427
 20
8.2686965989
 40
0.05
100
AcDbArc
 50
180.0
 51
360.0
  0
ARC
  5
30E
100
AcDbEntity
  8
0
100
AcDbCircle
 62
7
  6
CONTINUOUS
 10
15.5556923427
 20
8.8286965989
 40
0.05
100
AcDbArc
 50
0.0
 51
180.0
  0
ARC
  5
30F
100
AcDbEntity
  8
0
100
AcDbCircle
 62
7
  6
CONTINUOUS
 10
15.4556923427
 20
8.3161965989
 40
0.05
100
AcDbArc
 50
0.0
 51
90.0
  0
ARC
  5
310
100
AcDbEntity
  8
0
100
AcDbCircle
 62
7
  6
CONTINUOUS
 10
15.4556923427
 20
8.7811965989
 40
0.05
100
AcDbArc
 50
270.0
 51
360.0
  0
ARC
  5
311
100
AcDbEntity
  8
0
100
AcDbCircle
 62
7
  6
CONTINUOUS
 10
14.6609230714
 20
8.0417202053
 40
0.0496425585
100
AcDbArc
 50
315.8192338199
 51
318.5782976027
  0
ARC
  5
312
100
AcDbEntity
  8
0
100
AcDbCircle
 62
7
  6
CONTINUOUS
 10
14.6993608392
 20
8.0578004444
 40
0.0481579888
100
AcDbArc
 50
212.1422645457
 51
213.1571293737
  0
ARC
  5
313
100
AcDbEntity
  8
0
100
AcDbCircle
 62
7
  6
CONTINUOUS
 10
14.6970015377
 20
8.0562413997
 40
0.0453301467
100
AcDbArc
 50
213.1384200584
 51
215.2584020336
  0
ARC
  5
314
100
AcDbEntity
  8
0
100
AcDbCircle
 62
7
  6
CONTINUOUS
 10
14.6926291704
 20
8.03769159
 40
0.0443122025
100
AcDbArc
 50
229.7340966666
 51
230.1321349963
  0
ARC
  5
315
100
AcDbEntity
  8
0
100
AcDbCircle
 62
7
  6
CONTINUOUS
 10
14.6866330467
 20
8.1152967017
 40
0.0315452522
100
AcDbArc
 50
54.0445864187
 51
54.6758741861
  0
ARC
  5
316
100
AcDbEntity
  8
0
100
AcDbCircle
 62
7
  6
CONTINUOUS
 10
14.6869504246
 20
8.1157438035
 40
0.0309969561
100
AcDbArc
 50
54.6766727052
 51
55.3758702977
  0
ARC
  5
317
100
AcDbEntity
  8
0
100
AcDbCircle
 62
7
  6
CONTINUOUS
 10
18.2658078849
 20
8.5486898253
 40
0.0300439705
100
AcDbArc
 50
14.817564828
 51
20.528587496
  0
ARC
  5
318
100
AcDbEntity
  8
0
100
AcDbCircle
 62
7
  6
CONTINUOUS
 10
18.0378923427
 20
8.0886965989
 40
0.03
100
AcDbArc
 50
270.0
 51
360.0
  0
ARC
  5
319
100
AcDbEntity
  8
0
100
AcDbCircle
 62
7
  6
CONTINUOUS
 10
18.0378923427
 20
9.0086965989
 40
0.03
100
AcDbArc
 50
0.0
 51
90.0
  0
ARC
  5
31A
100
AcDbEntity
  8
0
100
AcDbCircle
 62
7
  6
CONTINUOUS
 10
18.1271023287
 20
8.9186965989
 40
0.03
100
AcDbArc
 50
20.5560452196
 51
89.9999999934
  0
ARC
  5
31B
100
AcDbEntity
  8
0
100
AcDbCircle
 62
7
  6
CONTINUOUS
 10
18.1271023287
 20
8.1786965989
 40
0.03
100
AcDbArc
 50
270.0000000066
 51
339.4439547804
  0
ARC
  5
31C
100
AcDbEntity
  8
0
100
AcDbCircle
 62
7
  6
CONTINUOUS
 10
18.2658812237
 20
8.5486964998
 40
0.0299713454
100
AcDbArc
 50
345.1646790583
 51
14.8410847366
  0
ARC
  5
31D
100
AcDbEntity
  8
0
100
AcDbCircle
 62
7
  6
CONTINUOUS
 10
18.2659251176
 20
8.5486667244
 40
0.0299213561
100
AcDbArc
 50
339.4487244405
 51
345.1982741664
  0
ARC
  5
31E
100
AcDbEntity
  8
0
100
AcDbCircle
 62
7
  6
CONTINUOUS
 10
14.6746676122
 20
8.022429216
 40
0.0257037644
100
AcDbArc
 50
283.4537330787
 51
288.5544894923
  0
ARC
  5
31F
100
AcDbEntity
  8
0
100
AcDbCircle
 62
9
  6
CONTINUOUS
 10
143.9065851202
 20
6.8178725901
 40
132.8609529522
100
AcDbArc
 50
178.0077099965
 51
178.1895452063
  0
ARC
  5
320
100
AcDbEntity
  8
0
100
AcDbCircle
 62
7
  6
CONTINUOUS
 10
25.9704717274
 20
10.1324948172
 40
14.363399054
100
AcDbArc
 50
180.0026906453
 51
180.3217185284
  0
ARC
  5
321
100
AcDbEntity
  8
0
100
AcDbCircle
 62
7
  6
CONTINUOUS
 10
19.6278290358
 20
9.823182482
 40
8.0195963792
100
AcDbArc
 50
198.9661948227
 51
200.5325389583
  0
ARC
  5
322
100
AcDbEntity
  8
0
100
AcDbCircle
 62
9
  6
CONTINUOUS
 10
10.9367270252
 20
12.6508255126
 40
3.2617981385
100
AcDbArc
 50
262.6616695828
 51
270.0169566461
  0
ARC
  5
323
100
AcDbEntity
  8
0
100
AcDbCircle
 62
9
  6
CONTINUOUS
 10
10.9373978469
 20
12.6458356902
 40
3.256808651
100
AcDbArc
 50
270.0051811091
 51
277.3439376459
  0
ARC
  5
324
100
AcDbEntity
  8
0
100
AcDbCircle
 62
9
  6
CONTINUOUS
 10
10.9377588727
 20
9.750708548
 40
2.1752566277
100
AcDbArc
 50
85.7447820428
 51
90.0022779343
  0
ARC
  5
325
100
AcDbEntity
  8
0
100
AcDbCircle
 62
9
  6
CONTINUOUS
 10
10.9377149473
 20
9.7522942811
 40
2.1736708908
100
AcDbArc
 50
90.0011217671
 51
94.2573040684
  0
ARC
  5
326
100
AcDbEntity
  8
0
100
AcDbCircle
 62
9
  6
CONTINUOUS
 10
10.9351915143
 20
9.7830991655
 40
2.1427636874
100
AcDbArc
 50
94.2511634067
 51
97.5494208527
  0
ARC
  5
327
100
AcDbEntity
  8
0
100
AcDbCircle
 62
9
  6
CONTINUOUS
 10
10.940423659
 20
9.7835693914
 40
2.1422886489
100
AcDbArc
 50
82.4561902542
 51
85.7506442434
  0
ARC
  5
328
100
AcDbEntity
  8
0
100
AcDbCircle
 62
7
  6
CONTINUOUS
 10
11.6847153256
 20
10.6895450003
 40
1.5928975653
100
AcDbArc
 50
140.7320911584
 51
145.773973493
  0
ARC
  5
329
100
AcDbEntity
  8
0
100
AcDbCircle
 62
7
  6
CONTINUOUS
 10
11.5122301762
 20
11.2440222795
 40
1.1556575628
100
AcDbArc
 50
176.1771861947
 51
178.0325896679
  0
ARC
  5
32A
100
AcDbEntity
  8
0
100
AcDbCircle
 62
7
  6
CONTINUOUS
 10
10.3763147284
 20
11.24531585
 40
1.1424723382
100
AcDbArc
 50
1.9736673727
 51
3.8185422524
  0
ARC
  5
32B
100
AcDbEntity
  8
0
100
AcDbCircle
 62
9
  6
CONTINUOUS
 10
10.814539081
 20
9.7816496268
 40
0.8654146391
100
AcDbArc
 50
95.6985472576
 51
95.8156783598
  0
ARC
  5
32C
100
AcDbEntity
  8
0
100
AcDbCircle
 62
7
  6
CONTINUOUS
 10
10.6349016228
 20
11.5838482224
 40
0.7488906601
100
AcDbArc
 50
255.8978561097
 51
257.5337008263
  0
ARC
  5
32D
100
AcDbEntity
  8
0
100
AcDbCircle
 62
7
  6
CONTINUOUS
 10
11.2477062282
 20
11.5534519984
 40
0.7176517542
100
AcDbArc
 50
282.4283834275
 51
284.1417300147
  0
ARC
  5
32E
100
AcDbEntity
  8
0
100
AcDbCircle
 62
7
  6
CONTINUOUS
 10
10.9981489407
 20
10.747335401
 40
0.4020436811
100
AcDbArc
 50
335.3767823756
 51
359.9976709382
  0
ARC
  5
32F
100
AcDbEntity
  8
0
100
AcDbCircle
 62
7
  6
CONTINUOUS
 10
10.8772266349
 20
10.7473335493
 40
0.4020343506
100
AcDbArc
 50
180.0020652303
 51
204.6235186644
  0
ARC
  5
330
100
AcDbEntity
  8
0
100
AcDbCircle
 62
7
  6
CONTINUOUS
 10
11.2749519318
 20
10.6888316279
 40
0.2806784607
100
AcDbArc
 50
70.0549201795
 51
71.1189860288
  0
ARC
  5
331
100
AcDbEntity
  8
0
100
AcDbCircle
 62
7
  6
CONTINUOUS
 10
11.3847451933
 20
10.9435071687
 40
0.024296618
100
AcDbArc
 50
321.2186827336
 51
323.389381213
  0
ARC
  5
332
100
AcDbEntity
  8
0
100
AcDbCircle
 62
7
  6
CONTINUOUS
 10
11.3863734284
 20
10.942291488
 40
0.022264623
100
AcDbArc
 50
323.4017305785
 51
326.0584430719
  0
SPLINE
  5
333
100
AcDbEntity
  8
0
100
AcDbSpline
 62
7
  6
CONTINUOUS
 70
0
 71
3
 72
21
 73
17
 74
0
 42
0.0000001
 43
0.0000001
 44
0.0000000001
 40
0.0
 40
0.0
 40
0.0
 40
0.0
 40
0.0697353255
 40
0.1393288736
 40
0.277185434
 40
0.4120863991
 40
0.4780199687
 40
0.5427150829
 40
0.6060183994
 40
0.6677895399
 40
0.727897119
 40
0.786226367
 40
0.8426742195
 40
0.8971571774
 40
0.9496133315
 40
1.0
 40
1.0
 40
1.0
 40
1.0
 10
14.6468847216
 20
8.0806965989
 30
0.0
 10
14.6468847216
 20
8.0819294642
 30
0.0
 10
14.6469215599
 20
8.0843928673
 30
0.0
 10
14.6471409902
 20
8.0892889377
 30
0.0
 10
14.6476840802
 20
8.0953209997
 30
0.0
 10
14.6485903592
 20
8.1012442383
 30
0.0
 10
14.6495292187
 20
8.1058445221
 30
0.0
 10
14.6503288707
 20
8.1091792614
 30
0.0
 10
14.6512265283
 20
8.1124126724
 30
0.0
 10
14.6522187653
 20
8.1155333909
 30
0.0
 10
14.653302426
 20
8.1185302742
 30
0.0
 10
14.6544733261
 20
8.121392817
 30
0.0
 10
14.6557275259
 20
8.1241108134
 30
0.0
 10
14.6570606782
 20
8.1266746381
 30
0.0
 10
14.6584677629
 20
8.1290752574
 30
0.0
 10
14.6594725799
 20
8.1305919786
 30
0.0
 10
14.659986893
 20
8.1313193026
 30
0.0
  0
SPLINE
  5
334
100
AcDbEntity
  8
0
100
AcDbSpline
 62
7
  6
CONTINUOUS
 70
0
 71
3
 72
9
 73
5
 74
0
 42
0.0000001
 43
0.0000001
 44
0.0000000001
 40
0.0
 40
0.0
 40
0.0
 40
0.0
 40
0.4887858246
 40
1.0
 40
1.0
 40
1.0
 40
1.0
 10
14.6747418783
 20
8.1495694513
 30
0.0
 10
14.6737717826
 20
8.1484547084
 30
0.0
 10
14.6718777612
 20
8.146094113
 30
0.0
 10
14.6701539186
 20
8.143607485
 30
0.0
 10
14.6693131521
 20
8.1423106225
 30
0.0
  0
SPLINE
  5
335
100
AcDbEntity
  8
0
100
AcDbSpline
 62
7
  6
CONTINUOUS
 70
0
 71
3
 72
21
 73
17
 74
0
 42
0.0000001
 43
0.0000001
 44
0.0000000001
 40
0.0
 40
0.0
 40
0.0
 40
0.0
 40
0.0516547352
 40
0.105198628
 40
0.1605797133
 40
0.217729446
 40
0.276560738
 40
0.3369771596
 40
0.3988689408
 40
0.4621160972
 40
0.5265915614
 40
0.5921548612
 40
0.725945408
 40
0.8623348106
 40
0.9311079891
 40
1.0
 40
1.0
 40
1.0
 40
1.0
 10
14.6585840397
 20
8.0321792713
 30
0.0
 10
14.658121297
 20
8.0329156048
 30
0.0
 10
14.6572184293
 20
8.0344403602
 30
0.0
 10
14.6559539326
 20
8.0368309851
 30
0.0
 10
14.6547584941
 20
8.0393595946
 30
0.0
 10
14.6536360071
 20
8.0420182131
 30
0.0
 10
14.6525896688
 20
8.0447984175
 30
0.0
 10
14.6516230598
 20
8.0476915803
 30
0.0
 10
14.6507390716
 20
8.0506885918
 30
0.0
 10
14.6499403888
 20
8.0537800451
 30
0.0
 10
14.6492298055
 20
8.0569562924
 30
0.0
 10
14.6483968616
 20
8.0613199837
 30
0.0
 10
14.6475933092
 20
8.0669188296
 30
0.0
 10
14.6471117131
 20
8.0726084357
 30
0.0
 10
14.6469173376
 20
8.0772188283
 30
0.0
 10
14.6468847216
 20
8.0795367248
 30
0.0
 10
14.6468847216
 20
8.0806965989
 30
0.0
  0
SPLINE
  5
336
100
AcDbEntity
  8
0
100
AcDbSpline
 62
7
  6
CONTINUOUS
 70
0
 71
3
 72
9
 73
5
 74
0
 42
0.0000001
 43
0.0000001
 44
0.0000000001
 40
0.0
 40
0.0
 40
0.0
 40
0.0
 40
0.5106493737
 40
1.0
 40
1.0
 40
1.0
 40
1.0
 10
14.6622077679
 20
8.1344602161
 30
0.0
 10
14.6628272255
 20
8.135336273
 30
0.0
 10
14.6640925893
 20
8.1370156447
 30
0.0
 10
14.6654682272
 20
8.1386064765
 30
0.0
 10
14.6661693355
 20
8.1393585549
 30
0.0
  0
SPLINE
  5
337
100
AcDbEntity
  8
0
100
AcDbSpline
 62
7
  6
CONTINUOUS
 70
0
 71
3
 72
29
 73
25
 74
0
 42
0.0000001
 43
0.0000001
 44
0.0000000001
 40
0.0
 40
0.0
 40
0.0
 40
0.0
 40
0.0685331372
 40
0.1335523153
 40
0.1953871583
 40
0.2544980191
 40
0.2832279119
 40
0.3115084369
 40
0.3394319784
 40
0.3670954265
 40
0.3945991371
 40
0.4220463147
 40
0.4495405607
 40
0.4771837472
 40
0.5050749937
 40
0.5333088285
 40
0.5619735059
 40
0.5911507006
 40
0.6513049831
 40
0.7142916068
 40
0.7804727022
 40
0.8500830248
 40
0.9232496023
 40
1.0
 40
1.0
 40
1.0
 40
1.0
 10
14.6661693355
 20
8.1393585549
 30
0.0
 10
14.6669772167
 20
8.1402251686
 30
0.0
 10
14.6686255366
 20
8.1418474027
 30
0.0
 10
14.6712588713
 20
8.1439721987
 30
0.0
 10
14.6739713744
 20
8.1457105499
 30
0.0
 10
14.6763083902
 20
8.1468386057
 30
0.0
 10
14.6781945075
 20
8.1475296863
 30
0.0
 10
14.6796051706
 20
8.1479412808
 30
0.0
 10
14.6810228595
 20
8.1482505854
 30
0.0
 10
14.6824455702
 20
8.1484573287
 30
0.0
 10
14.6838712319
 20
8.148561148
 30
0.0
 10
14.6852977443
 20
8.1485620307
 30
0.0
 10
14.686723032
 20
8.1484603614
 30
0.0
 10
14.6881450566
 20
8.1482564838
 30
0.0
 10
14.6895617533
 20
8.1479507159
 30
0.0
 10
14.6909711271
 20
8.1475438913
 30
0.0
 10
14.6923713103
 20
8.147036942
 30
0.0
 10
14.694242021
 20
8.1462206467
 30
0.0
 10
14.6965526479
 20
8.1449437227
 30
0.0
 10
14.6992267462
 20
8.1430462473
 30
0.0
 10
14.7018175995
 20
8.140780634
 30
0.0
 10
14.7043127245
 20
8.1381622198
 30
0.0
 10
14.7066998219
 20
8.1352071549
 30
0.0
 10
14.7081772223
 20
8.133074773
 30
0.0
 10
14.7088969158
 20
8.1319600876
 30
0.0
  0
SPLINE
  5
338
100
AcDbEntity
  8
0
100
AcDbSpline
 62
7
  6
CONTINUOUS
 70
0
 71
3
 72
11
 73
7
 74
0
 42
0.0000001
 43
0.0000001
 44
0.0000000001
 40
0.0
 40
0.0
 40
0.0
 40
0.0
 40
0.2614926353
 40
0.5143726803
 40
0.7600261706
 40
1.0
 40
1.0
 40
1.0
 40
1.0
 10
14.704562596
 20
8.1412511104
 30
0.0
 10
14.7038613494
 20
8.1417352748
 30
0.0
 10
14.7024412761
 20
8.1426305895
 30
0.0
 10
14.7002322151
 20
8.1437583113
 30
0.0
 10
14.697990545
 20
8.1446441136
 30
0.0
 10
14.6964645675
 20
8.145075787
 30
0.0
 10
14.6957018842
 20
8.1452486418
 30
0.0
  0
LINE
  5
339
100
AcDbEntity
  8
0
100
AcDbLine
 62
7
  6
CONTINUOUS
 10
14.659986893
 20
8.1313193026
 11
14.662350887
 21
8.1343510102
  0
SPLINE
  5
33A
100
AcDbEntity
  8
0
100
AcDbSpline
 62
7
  6
CONTINUOUS
 70
0
 71
3
 72
8
 73
4
 74
0
 42
0.0000001
 43
0.0000001
 44
0.0000000001
 40
0.0
 40
0.0
 40
0.0
 40
0.0
 40
1.0
 40
1.0
 40
1.0
 40
1.0
 10
14.662350887
 20
8.1343510102
 30
0.0
 10
14.6623628996
 20
8.1343649001
 30
0.0
 10
14.6623749122
 20
8.1343787899
 30
0.0
 10
14.6623869248
 20
8.1343926798
 30
0.0
  0
LINE
  5
33B
100
AcDbEntity
  8
0
100
AcDbLine
 62
7
  6
CONTINUOUS
 10
14.6623869248
 20
8.1343926798
 11
14.6645994404
 21
8.136714373
  0
SPLINE
  5
33C
100
AcDbEntity
  8
0
100
AcDbSpline
 62
7
  6
CONTINUOUS
 70
0
 71
3
 72
37
 73
33
 74
0
 42
0.0000001
 43
0.0000001
 44
0.0000000001
 40
0.0
 40
0.0
 40
0.0
 40
0.0
 40
0.0263643108
 40
0.0390986707
 40
0.0515504561
 40
0.075665339
 40
0.0988686746
 40
0.1213483022
 40
0.1433223128
 40
0.1650319253
 40
0.1867317448
 40
0.2086768071
 40
0.2311098231
 40
0.2542508459
 40
0.2782903487
 40
0.3033837161
 40
0.3296541785
 40
0.357189285
 40
0.3860487142
 40
0.4162633773
 40
0.4478402259
 40
0.4807664764
 40
0.5150084282
 40
0.5505192542
 40
0.5872351599
 40
0.6250818352
 40
0.6639743767
 40
0.7444988321
 40
0.8279722824
 40
0.9134755242
 40
0.9566873366
 40
1.0
 40
1.0
 40
1.0
 40
1.0
 10
14.6645994404
 20
8.136714373
 30
0.0
 10
14.6651732245
 20
8.137258699
 30
0.0
 10
14.6660567721
 20
8.1380329583
 30
0.0
 10
14.6672864092
 20
8.1389715062
 30
0.0
 10
14.6685029726
 20
8.1398133269
 30
0.0
 10
14.6700500122
 20
8.1407262555
 30
0.0
 10
14.6719595297
 20
8.1415953966
 30
0.0
 10
14.6738948076
 20
8.1422223221
 30
0.0
 10
14.67584769
 20
8.1426039471
 30
0.0
 10
14.6778097686
 20
8.1427374895
 30
0.0
 10
14.6797721801
 20
8.1426229008
 30
0.0
 10
14.6817260773
 20
8.1422601449
 30
0.0
 10
14.6836629688
 20
8.14165184
 30
0.0
 10
14.6855747858
 20
8.1408010385
 30
0.0
 10
14.6874538271
 20
8.1397118289
 30
0.0
 10
14.6892931826
 20
8.1383895341
 30
0.0
 10
14.6910855647
 20
8.1368393358
 30
0.0
 10
14.6928247267
 20
8.13506808
 30
0.0
 10
14.694503802
 20
8.133082508
 30
0.0
 10
14.6961166493
 20
8.1308906568
 30
0.0
 10
14.6976571573
 20
8.1285011147
 30
0.0
 10
14.6991191688
 20
8.1259231341
 30
0.0
 10
14.7004974268
 20
8.1231669927
 30
0.0
 10
14.7017861123
 20
8.1202433048
 30
0.0
 10
14.7029805893
 20
8.1171637302
 30
0.0
 10
14.704075955
 20
8.1139402437
 30
0.0
 10
14.705413969
 20
8.1094151544
 30
0.0
 10
14.7068024142
 20
8.1034830137
 30
0.0
 10
14.7079981132
 20
8.0960890187
 30
0.0
 10
14.7086002737
 20
8.0897472799
 30
0.0
 10
14.7088438158
 20
8.0845917716
 30
0.0
 10
14.7088847216
 20
8.0819959267
 30
0.0
 10
14.7088847216
 20
8.0806965989
 30
0.0
  0
SPLINE
  5
33D
100
AcDbEntity
  8
0
100
AcDbSpline
 62
7
  6
CONTINUOUS
 70
0
 71
3
 72
44
 73
40
 74
0
 42
0.0000001
 43
0.0000001
 44
0.0000000001
 40
0.0
 40
0.0
 40
0.0
 40
0.0
 40
0.043578031
 40
0.087030794
 40
0.1301738196
 40
0.1728558273
 40
0.2149407897
 40
0.2562919117
 40
0.2967731401
 40
0.3362582353
 40
0.3746326709
 40
0.4117920425
 40
0.4476461474
 40
0.4821178592
 40
0.5151511
 40
0.5467075376
 40
0.5767760037
 40
0.6053705629
 40
0.6325395696
 40
0.6583665713
 40
0.6829764526
 40
0.7065377992
 40
0.7292627028
 40
0.7403953607
 40
0.7514166433
 40
0.7623629661
 40
0.7732719448
 40
0.7841815798
 40
0.7951298677
 40
0.8061544024
 40
0.817291535
 40
0.8400288264
 40
0.8636066336
 40
0.8882362197
 40
0.9010034564
 40
0.914093165
 40
0.9412861839
 40
0.9699059164
 40
1.0
 40
1.0
 40
1.0
 40
1.0
 10
14.7088847216
 20
8.0806965989
 30
0.0
 10
14.7088847216
 20
8.0792859963
 30
0.0
 10
14.7088365278
 20
8.0764686113
 30
0.0
 10
14.7086206717
 20
8.0722596822
 30
0.0
 10
14.7082616644
 20
8.0680895788
 30
0.0
 10
14.7077614899
 20
8.0639786297
 30
0.0
 10
14.7071223415
 20
8.0599456589
 30
0.0
 10
14.7063473616
 20
8.0560091068
 30
0.0
 10
14.7054400806
 20
8.052187302
 30
0.0
 10
14.7044045974
 20
8.0484981245
 30
0.0
 10
14.7032459639
 20
8.0449586182
 30
0.0
 10
14.7019692134
 20
8.0415852455
 30
0.0
 10
14.7005806683
 20
8.0383934777
 30
0.0
 10
14.6990862001
 20
8.035398269
 30
0.0
 10
14.6974931803
 20
8.0326132223
 30
0.0
 10
14.6958083165
 20
8.0300514211
 30
0.0
 10
14.6940396421
 20
8.0277244275
 30
0.0
 10
14.6921946489
 20
8.0256432367
 30
0.0
 10
14.6902816815
 20
8.0238174151
 30
0.0
 10
14.6883089714
 20
8.0222557615
 30
0.0
 10
14.6862850095
 20
8.0209661172
 30
0.0
 10
14.6842191449
 20
8.0199551407
 30
0.0
 10
14.6824574658
 20
8.0193458735
 30
0.0
 10
14.6810438434
 20
8.0190073013
 30
0.0
 10
14.6799868015
 20
8.0188272112
 30
0.0
 10
14.6789272317
 20
8.0187196749
 30
0.0
 10
14.6778663965
 20
8.018684656
 30
0.0
 10
14.6768055833
 20
8.0187221785
 30
0.0
 10
14.6757460801
 20
8.0188322213
 30
0.0
 10
14.6746891502
 20
8.0190148171
 30
0.0
 10
14.6732756677
 20
8.0193567388
 30
0.0
 10
14.671514294
 20
8.0199702047
 30
0.0
 10
14.669449147
 20
8.0209860094
 30
0.0
 10
14.6677831759
 20
8.0220519166
 30
0.0
 10
14.666476672
 20
8.023034484
 30
0.0
 10
14.6651556574
 20
8.0241325809
 30
0.0
 10
14.6635422413
 20
8.0256771087
 30
0.0
 10
14.6616986523
 20
8.0277624795
 30
0.0
 10
14.6605493221
 20
8.0292785285
 30
0.0
 10
14.6599868931
 20
8.0300738954
 30
0.0
  0
SPLINE
  5
33E
100
AcDbEntity
  8
0
100
AcDbSpline
 62
7
  6
CONTINUOUS
 70
0
 71
3
 72
21
 73
17
 74
0
 42
0.0000001
 43
0.0000001
 44
0.0000000001
 40
0.0
 40
0.0
 40
0.0
 40
0.0
 40
0.0697353255
 40
0.1393288736
 40
0.277185434
 40
0.4120863991
 40
0.4780199687
 40
0.5427150829
 40
0.6060183994
 40
0.6677895399
 40
0.727897119
 40
0.786226367
 40
0.8426742195
 40
0.8971571774
 40
0.9496133315
 40
1.0
 40
1.0
 40
1.0
 40
1.0
 10
7.2284999639
 20
8.0806965989
 30
0.0
 10
7.2284999639
 20
8.0794637336
 30
0.0
 10
7.2284631256
 20
8.0770003305
 30
0.0
 10
7.2282436953
 20
8.0721042601
 30
0.0
 10
7.2277006053
 20
8.066072198
 30
0.0
 10
7.2267943263
 20
8.0601489594
 30
0.0
 10
7.2258554668
 20
8.0555486757
 30
0.0
 10
7.2250558148
 20
8.0522139363
 30
0.0
 10
7.2241581572
 20
8.0489805254
 30
0.0
 10
7.2231659201
 20
8.0458598069
 30
0.0
 10
7.2220822595
 20
8.0428629236
 30
0.0
 10
7.2209113594
 20
8.0400003808
 30
0.0
 10
7.2196571595
 20
8.0372823844
 30
0.0
 10
7.2183240073
 20
8.0347185597
 30
0.0
 10
7.2169169226
 20
8.0323179404
 30
0.0
 10
7.2159121055
 20
8.0308012192
 30
0.0
 10
7.2153977925
 20
8.0300738951
 30
0.0
  0
SPLINE
  5
33F
100
AcDbEntity
  8
0
100
AcDbSpline
 62
7
  6
CONTINUOUS
 70
0
 71
3
 72
15
 73
11
 74
0
 42
0.0000001
 43
0.0000001
 44
0.0000000001
 40
0.0
 40
0.0
 40
0.0
 40
0.0
 40
0.1496614732
 40
0.292619026
 40
0.4284476684
 40
0.5569843937
 40
0.6782025201
 40
0.7922148679
 40
0.8993076332
 40
1.0
 40
1.0
 40
1.0
 40
1.0
 10
7.170255405
 20
8.123384482
 30
0.0
 10
7.1706843389
 20
8.1246450832
 30
0.0
 10
7.1715862149
 20
8.1270889788
 30
0.0
 10
7.173105757
 20
8.1305873439
 30
0.0
 10
7.1747530099
 20
8.1338182549
 30
0.0
 10
7.1765165562
 20
8.1367643165
 30
0.0
 10
7.1783858741
 20
8.1394106031
 30
0.0
 10
7.1803496533
 20
8.1417441841
 30
0.0
 10
7.1823966432
 20
8.143752467
 30
0.0
 10
7.1838512049
 20
8.1449012977
 30
0.0
 10
7.1845873716
 20
8.1454118579
 30
0.0
  0
SPLINE
  5
340
100
AcDbEntity
  8
0
100
AcDbSpline
 62
7
  6
CONTINUOUS
 70
0
 71
3
 72
22
 73
18
 74
0
 42
0.0000001
 43
0.0000001
 44
0.0000000001
 40
0.0
 40
0.0
 40
0.0
 40
0.0
 40
0.0639990429
 40
0.1259942875
 40
0.1863156424
 40
0.2453386132
 40
0.3034705913
 40
0.3611412913
 40
0.4187933018
 40
0.4768651522
 40
0.5357803398
 40
0.5959357393
 40
0.6576907744
 40
0.7213652448
 40
0.7872336775
 40
0.8555230166
 40
1.0
 40
1.0
 40
1.0
 40
1.0
 10
7.1853580864
 20
8.1459218577
 30
0.0
 10
7.1858074642
 20
8.1462050637
 30
0.0
 10
7.1867144357
 20
8.1467283327
 30
0.0
 10
7.1881162073
 20
8.1473857065
 30
0.0
 10
7.1895327982
 20
8.1479004721
 30
0.0
 10
7.1909605869
 20
8.1482716881
 30
0.0
 10
7.1923961044
 20
8.1484987716
 30
0.0
 10
7.1938357968
 20
8.1485810209
 30
0.0
 10
7.195275971
 20
8.1485187095
 30
0.0
 10
7.1967130466
 20
8.1483125188
 30
0.0
 10
7.1981434391
 20
8.1479630406
 30
0.0
 10
7.1995637187
 20
8.1474716611
 30
0.0
 10
7.2009707143
 20
8.1468401472
 30
0.0
 10
7.2023611741
 20
8.1460701078
 30
0.0
 10
7.203732151
 20
8.1451635727
 30
0.0
 10
7.2055643396
 20
8.1437500038
 30
0.0
 10
7.2068482435
 20
8.1425284485
 30
0.0
 10
7.2076696926
 20
8.1416548887
 30
0.0
  0
LINE
  5
341
100
AcDbEntity
  8
0
100
AcDbLine
 62
7
  6
CONTINUOUS
 10
7.2076696926
 20
8.1416548887
 11
7.2109358083
 21
8.1376295771
  0
SPLINE
  5
342
100
AcDbEntity
  8
0
100
AcDbSpline
 62
7
  6
CONTINUOUS
 70
0
 71
3
 72
21
 73
17
 74
0
 42
0.0000001
 43
0.0000001
 44
0.0000000001
 40
0.0
 40
0.0
 40
0.0
 40
0.0
 40
0.0503864875
 40
0.1028423908
 40
0.1573250379
 40
0.2137726436
 40
0.2721016117
 40
0.3322090131
 40
0.393980093
 40
0.457283428
 40
0.5219786993
 40
0.5879124088
 40
0.7228137405
 40
0.8606710073
 40
0.9302647162
 40
1.0
 40
1.0
 40
1.0
 40
1.0
 10
7.2153977924
 20
8.1313193024
 30
0.0
 10
7.215912104
 20
8.1305919813
 30
0.0
 10
7.2169169154
 20
8.1290752654
 30
0.0
 10
7.2183239941
 20
8.1266746581
 30
0.0
 10
7.2196571442
 20
8.1241108482
 30
0.0
 10
7.220911334
 20
8.1213928637
 30
0.0
 10
7.2220822368
 20
8.1185303356
 30
0.0
 10
7.2231658947
 20
8.1155334609
 30
0.0
 10
7.2241581322
 20
8.1124127468
 30
0.0
 10
7.2250557971
 20
8.1091793357
 30
0.0
 10
7.2258554476
 20
8.1058445904
 30
0.0
 10
7.2267943174
 20
8.1012442969
 30
0.0
 10
7.2277006005
 20
8.095321037
 30
0.0
 10
7.2282436935
 20
8.0892889535
 30
0.0
 10
7.228463125
 20
8.0843928686
 30
0.0
 10
7.2284999639
 20
8.0819294634
 30
0.0
 10
7.2284999639
 20
8.0806965989
 30
0.0
  0
SPLINE
  5
343
100
AcDbEntity
  8
0
100
AcDbSpline
 62
7
  6
CONTINUOUS
 70
0
 71
3
 72
25
 73
21
 74
0
 42
0.0000001
 43
0.0000001
 44
0.0000000001
 40
0.0
 40
0.0
 40
0.0
 40
0.0
 40
0.0220291837
 40
0.0441435649
 40
0.0664306623
 40
0.0889770057
 40
0.1351393447
 40
0.1832226072
 40
0.2336872085
 40
0.286897212
 40
0.34313328
 40
0.4026072466
 40
0.4654759587
 40
0.5318425421
 40
0.6017040385
 40
0.6749903055
 40
0.7515983599
 40
0.8314011092
 40
0.9142539729
 40
1.0
 40
1.0
 40
1.0
 40
1.0
 10
7.184351139
 20
8.1457830131
 30
0.0
 10
7.1840619939
 20
8.1457830131
 30
0.0
 10
7.1834823733
 20
8.1457624504
 30
0.0
 10
7.1826146887
 20
8.1456697141
 30
0.0
 10
7.1817489547
 20
8.1455148074
 30
0.0
 10
7.1805899717
 20
8.1452228722
 30
0.0
 10
7.179144912
 20
8.1446970671
 30
0.0
 10
7.1774508559
 20
8.1438285516
 30
0.0
 10
7.1757890491
 20
8.14272333
 30
0.0
 10
7.1741663274
 20
8.1413869581
 30
0.0
 10
7.1725891993
 20
8.1398246144
 30
0.0
 10
7.1710643897
 20
8.1380412723
 30
0.0
 10
7.1695987369
 20
8.1360419214
 30
0.0
 10
7.1682000117
 20
8.1338323583
 30
0.0
 10
7.1668728252
 20
8.1314220826
 30
0.0
 10
7.1656220625
 20
8.1288214891
 30
0.0
 10
7.1644529784
 20
8.126041223
 30
0.0
 10
7.1633708329
 20
8.1230919636
 30
0.0
 10
7.1623809442
 20
8.1199844959
 30
0.0
 10
7.1617956895
 20
8.1178496231
 30
0.0
 10
7.1615189565
 20
8.116758712
 30
0.0
  0
SPLINE
  5
344
100
AcDbEntity
  8
0
100
AcDbSpline
 62
7
  6
CONTINUOUS
 70
0
 71
3
 72
24
 73
20
 74
0
 42
0.0000001
 43
0.0000001
 44
0.0000000001
 40
0.0
 40
0.0
 40
0.0
 40
0.0
 40
0.060798799
 40
0.1233394101
 40
0.1872988599
 40
0.2523501026
 40
0.3181664666
 40
0.3844192022
 40
0.4507670743
 40
0.5168667489
 40
0.5823785526
 40
0.6469709522
 40
0.6788245146
 40
0.7103322483
 40
0.7721813211
 40
0.8322839726
 40
0.8904166484
 40
0.9463782227
 40
1.0
 40
1.0
 40
1.0
 40
1.0
 10
7.1601592773
 20
8.1104918197
 30
0.0
 10
7.1598616572
 20
8.1088613838
 30
0.0
 10
7.1593382636
 20
8.1055386809
 30
0.0
 10
7.1587710256
 20
8.1004629657
 30
0.0
 10
7.1584149783
 20
8.0952518253
 30
0.0
 10
7.1582758581
 20
8.0899411153
 30
0.0
 10
7.1583598356
 20
8.0845666839
 30
0.0
 10
7.1586711268
 20
8.0791652285
 30
0.0
 10
7.1592060112
 20
8.073773583
 30
0.0
 10
7.1599617664
 20
8.0684287731
 30
0.0
 10
7.1609353948
 20
8.0631679688
 30
0.0
 10
7.1619304281
 20
8.0588648676
 30
0.0
 10
7.1628358544
 20
8.0554960985
 30
0.0
 10
7.1638014932
 20
8.0522220132
 30
0.0
 10
7.1651319814
 20
8.0482539047
 30
0.0
 10
7.166932075
 20
8.0436843039
 30
0.0
 10
7.1689149734
 20
8.0393665644
 30
0.0
 10
7.1710697495
 20
8.035331091
 30
0.0
 10
7.1726491894
 20
8.0327920966
 30
0.0
 10
7.1734676518
 20
8.0315809906
 30
0.0
  0
SPLINE
  5
345
100
AcDbEntity
  8
0
100
AcDbSpline
 62
7
  6
CONTINUOUS
 70
0
 71
3
 72
12
 73
8
 74
0
 42
0.0000001
 43
0.0000001
 44
0.0000000001
 40
0.0
 40
0.0
 40
0.0
 40
0.0
 40
0.2349263462
 40
0.4801429331
 40
0.6065265982
 40
0.735350453
 40
1.0
 40
1.0
 40
1.0
 40
1.0
 10
7.1734676518
 20
8.0315809906
 30
0.0
 10
7.1722696716
 20
8.0326307529
 30
0.0
 10
7.1699303439
 20
8.0349030471
 30
0.0
 10
7.1672452106
 20
8.0380242113
 30
0.0
 10
7.165189412
 20
8.0407243885
 30
0.0
 10
7.1631621673
 20
8.043608592
 30
0.0
 10
7.161748207
 20
8.0458741852
 30
0.0
 10
7.1608473634
 20
8.0474260426
 30
0.0
  0
SPLINE
  5
346
100
AcDbEntity
  8
0
100
AcDbSpline
 62
7
  6
CONTINUOUS
 70
0
 71
3
 72
37
 73
33
 74
0
 42
0.0000001
 43
0.0000001
 44
0.0000000001
 40
0.0
 40
0.0
 40
0.0
 40
0.0
 40
0.0432645981
 40
0.0864303441
 40
0.1718568563
 40
0.2552861661
 40
0.3358137601
 40
0.3747290002
 40
0.4126140797
 40
0.4493846437
 40
0.4849668872
 40
0.5192967257
 40
0.5523266874
 40
0.5840219909
 40
0.6143675521
 40
0.6433679898
 40
0.6710500343
 40
0.6974688616
 40
0.7102319388
 40
0.7227126765
 40
0.7468841309
 40
0.7701375707
 40
0.7926545355
 40
0.8146469857
 40
0.8363499676
 40
0.858013109
 40
0.8798877348
 40
0.9022149177
 40
0.9252144073
 40
0.9490784199
 40
0.9739647671
 40
1.0
 40
1.0
 40
1.0
 40
1.0
 10
7.1664999639
 20
8.0806965989
 30
0.0
 10
7.1664999639
 20
8.0819858034
 30
0.0
 10
7.1665402359
 20
8.0845614767
 30
0.0
 10
7.1667800243
 20
8.0896774936
 30
0.0
 10
7.1673729998
 20
8.0959722222
 30
0.0
 10
7.1685506096
 20
8.1033147363
 30
0.0
 10
7.1699181307
 20
8.1092092261
 30
0.0
 10
7.1712361723
 20
8.1137092627
 30
0.0
 10
7.1723155673
 20
8.1169177284
 30
0.0
 10
7.1734929134
 20
8.1199854578
 30
0.0
 10
7.1747633945
 20
8.1229007187
 30
0.0
 10
7.1761225444
 20
8.1256520538
 30
0.0
 10
7.1775647138
 20
8.1282290145
 30
0.0
 10
7.1790847343
 20
8.1306215245
 30
0.0
 10
7.1806767123
 20
8.1328203901
 30
0.0
 10
7.182334604
 20
8.1348172381
 30
0.0
 10
7.1840524327
 20
8.1366039594
 30
0.0
 10
7.1855453234
 20
8.137927323
 30
0.0
 10
7.1867631414
 20
8.1388698409
 30
0.0
 10
7.1879681422
 20
8.1397168473
 30
0.0
 10
7.1895005416
 20
8.140638607
 30
0.0
 10
7.1913923457
 20
8.1415226285
 30
0.0
 10
7.1933102368
 20
8.1421684966
 30
0.0
 10
7.1952462373
 20
8.1425732604
 30
0.0
 10
7.1971922376
 20
8.1427339796
 30
0.0
 10
7.1991395829
 20
8.1426504563
 30
0.0
 10
7.201079671
 20
8.1423225847
 30
0.0
 10
7.2030041133
 20
8.1417525393
 30
0.0
 10
7.2049050441
 20
8.140943402
 30
0.0
 10
7.2067748186
 20
8.1398987621
 30
0.0
 10
7.2086065526
 20
8.1386239947
 30
0.0
 10
7.2097703082
 20
8.1376468698
 30
0.0
 10
7.210343949
 20
8.1371245631
 30
0.0
  0
SPLINE
  5
347
100
AcDbEntity
  8
0
100
AcDbSpline
 62
7
  6
CONTINUOUS
 70
0
 71
3
 72
10
 73
6
 74
0
 42
0.0000001
 43
0.0000001
 44
0.0000000001
 40
0.0
 40
0.0
 40
0.0
 40
0.0
 40
0.483864442
 40
0.737863013
 40
1.0
 40
1.0
 40
1.0
 40
1.0
 10
7.2107530957
 20
8.1367448249
 30
0.0
 10
7.2115911134
 20
8.1359521852
 30
0.0
 10
7.2128002303
 20
8.1346687651
 30
0.0
 10
7.214304976
 20
8.132819227
 30
0.0
 10
7.2150369895
 20
8.1318295368
 30
0.0
 10
7.2153977924
 20
8.1313193024
 30
0.0
  0
SPLINE
  5
348
100
AcDbEntity
  8
0
100
AcDbSpline
 62
7
  6
CONTINUOUS
 70
0
 71
3
 72
18
 73
14
 74
0
 42
0.0000001
 43
0.0000001
 44
0.0000000001
 40
0.0
 40
0.0
 40
0.0
 40
0.0
 40
0.0554207563
 40
0.1121639562
 40
0.1701479584
 40
0.2292879405
 40
0.3507339572
 40
0.4759337371
 40
0.6042009051
 40
0.7348057135
 40
0.8007675965
 40
0.8670370405
 40
1.0
 40
1.0
 40
1.0
 40
1.0
 10
7.170255405
 20
8.123384482
 30
0.0
 10
7.1699329836
 20
8.1226440843
 30
0.0
 10
7.1693062367
 20
8.1211342691
 30
0.0
 10
7.1684292474
 20
8.1188148779
 30
0.0
 10
7.1676050793
 20
8.1164187975
 30
0.0
 10
7.1665690815
 20
8.1131000669
 30
0.0
 10
7.1654191904
 20
8.1087928595
 30
0.0
 10
7.1642852308
 20
8.1034465627
 30
0.0
 10
7.1633940876
 20
8.0979193581
 30
0.0
 10
7.1628617179
 20
8.0932143115
 30
0.0
 10
7.1625599341
 20
8.0893960619
 30
0.0
 10
7.1623418704
 20
8.0855377602
 30
0.0
 10
7.1622767315
 20
8.0826340457
 30
0.0
 10
7.1622789455
 20
8.0806965989
 30
0.0
  0
SPLINE
  5
349
100
AcDbEntity
  8
0
100
AcDbSpline
 62
7
  6
CONTINUOUS
 70
0
 71
3
 72
21
 73
17
 74
0
 42
0.0000001
 43
0.0000001
 44
0.0000000001
 40
0.0
 40
0.0
 40
0.0
 40
0.0
 40
0.0682808934
 40
0.1364542295
 40
0.2043391197
 40
0.2717747216
 40
0.3386267555
 40
0.4047632898
 40
0.4700516238
 40
0.5343599265
 40
0.5975607093
 40
0.6595353054
 40
0.7793447486
 40
0.8930454697
 40
0.9474108079
 40
1.0
 40
1.0
 40
1.0
 40
1.0
 10
7.1622789455
 20
8.0806965989
 30
0.0
 10
7.1622802694
 20
8.0795380479
 30
0.0
 10
7.1623122015
 20
8.0772226921
 30
0.0
 10
7.1624498282
 20
8.0737579298
 30
0.0
 10
7.1626795599
 20
8.0703123745
 30
0.0
 10
7.1630024338
 20
8.0668968126
 30
0.0
 10
7.1634163001
 20
8.0635209618
 30
0.0
 10
7.1639195177
 20
8.0601941018
 30
0.0
 10
7.1645104521
 20
8.0569255283
 30
0.0
 10
7.1651875738
 20
8.0537245985
 30
0.0
 10
7.1659493818
 20
8.0506005327
 30
0.0
 10
7.1670621591
 20
8.0465948921
 30
0.0
 10
7.1686404545
 20
8.0418318811
 30
0.0
 10
7.170511136
 20
8.0373139891
 30
0.0
 10
7.1721555767
 20
8.0339494741
 30
0.0
 10
7.1730228904
 20
8.0323545495
 30
0.0
 10
7.1734676518
 20
8.0315809906
 30
0.0
  0
SPLINE
  5
34A
100
AcDbEntity
  8
0
100
AcDbSpline
 62
7
  6
CONTINUOUS
 70
0
 71
3
 72
44
 73
40
 74
0
 42
0.0000001
 43
0.0000001
 44
0.0000000001
 40
0.0
 40
0.0
 40
0.0
 40
0.0
 40
0.0300940977
 40
0.0587137963
 40
0.0859067934
 40
0.0989964777
 40
0.1117636915
 40
0.1363932631
 40
0.1599710419
 40
0.182708326
 40
0.1938454535
 40
0.2048699785
 40
0.2158182592
 40
0.226727887
 40
0.2376368558
 40
0.2485831682
 40
0.2596044427
 40
0.2707370876
 40
0.2934619595
 40
0.3170232921
 40
0.3416331406
 40
0.3674601374
 40
0.3946291087
 40
0.4232236393
 40
0.4532920246
 40
0.4848483604
 40
0.5178814454
 40
0.5523529945
 40
0.5882069582
 40
0.6253662085
 40
0.6637406267
 40
0.7032257601
 40
0.7437071212
 40
0.7850583657
 40
0.827143468
 40
0.8698256963
 40
0.9129690029
 40
0.9564219421
 40
1.0
 40
1.0
 40
1.0
 40
1.0
 10
7.2153977925
 20
8.0300738951
 30
0.0
 10
7.2148353638
 20
8.0292785275
 30
0.0
 10
7.2136860359
 20
8.0277624773
 30
0.0
 10
7.2118424438
 20
8.0256771113
 30
0.0
 10
7.2102290332
 20
8.0241325815
 30
0.0
 10
7.2089080193
 20
8.0230344872
 30
0.0
 10
7.2076015155
 20
8.0220519233
 30
0.0
 10
7.2059355499
 20
8.0209860112
 30
0.0
 10
7.203870402
 20
8.0199702118
 30
0.0
 10
7.2021090313
 20
8.0193567426
 30
0.0
 10
7.2006955501
 20
8.0190148176
 30
0.0
 10
7.1996386206
 20
8.0188322242
 30
0.0
 10
7.1985791182
 20
8.0187221815
 30
0.0
 10
7.1975183059
 20
8.0186846561
 30
0.0
 10
7.1964574715
 20
8.0187196719
 30
0.0
 10
7.1953979025
 20
8.0188272077
 30
0.0
 10
7.194340862
 20
8.0190072999
 30
0.0
 10
7.1929272405
 20
8.0193458678
 30
0.0
 10
7.1911655611
 20
8.0199551295
 30
0.0
 10
7.1890997006
 20
8.0209661081
 30
0.0
 10
7.1870757347
 20
8.022255743
 30
0.0
 10
7.1851030294
 20
8.0238173989
 30
0.0
 10
7.1831900573
 20
8.0256432122
 30
0.0
 10
7.1813450694
 20
8.0277244015
 30
0.0
 10
7.1795763932
 20
8.0300513849
 30
0.0
 10
7.1778915361
 20
8.0326131776
 30
0.0
 10
7.1762985174
 20
8.0353982091
 30
0.0
 10
7.1748040533
 20
8.0383934032
 30
0.0
 10
7.1734155107
 20
8.041585157
 30
0.0
 10
7.1721387554
 20
8.0449585182
 30
0.0
 10
7.1709801236
 20
8.0484980216
 30
0.0
 10
7.169944629
 20
8.052187201
 30
0.0
 10
7.169037348
 20
8.0560090156
 30
0.0
 10
7.1682623569
 20
8.0599455784
 30
0.0
 10
7.1676232056
 20
8.0639785647
 30
0.0
 10
7.1671230252
 20
8.0680895339
 30
0.0
 10
7.1667640161
 20
8.0722596592
 30
0.0
 10
7.1665481586
 20
8.0764686039
 30
0.0
 10
7.1664999639
 20
8.0792859955
 30
0.0
 10
7.1664999639
 20
8.0806965989
 30
0.0
  0
SPLINE
  5
34B
100
AcDbEntity
  8
0
100
AcDbSpline
 62
9
  6
CONTINUOUS
 70
0
 71
3
 72
15
 73
11
 74
0
 42
0.0000001
 43
0.0000001
 44
0.0000000001
 40
0.0
 40
0.0
 40
0.0
 40
0.0
 40
0.1063650046
 40
0.2184010488
 40
0.3365712131
 40
0.4607487968
 40
0.590317618
 40
0.7242540367
 40
0.8613887863
 40
1.0
 40
1.0
 40
1.0
 40
1.0
 10
18.155192204
 20
8.3879891278
 30
0.0
 10
18.1546485566
 20
8.3869640165
 30
0.0
 10
18.1533239378
 20
8.3849647103
 30
0.0
 10
18.1507886911
 20
8.3822876521
 30
0.0
 10
18.1477180976
 20
8.3799154544
 30
0.0
 10
18.1441829879
 20
8.3779002015
 30
0.0
 10
18.1402630058
 20
8.3762848076
 30
0.0
 10
18.1360449072
 20
8.3751038021
 30
0.0
 10
18.1316250699
 20
8.3743857605
 30
0.0
 10
18.1286144533
 20
8.3742243774
 30
0.0
 10
18.1271023287
 20
8.3742243774
 30
0.0
  0
SPLINE
  5
34C
100
AcDbEntity
  8
0
100
AcDbSpline
 62
9
  6
CONTINUOUS
 70
0
 71
3
 72
9
 73
5
 74
0
 42
0.0000001
 43
0.0000001
 44
0.0000000001
 40
0.0
 40
0.0
 40
0.0
 40
0.0
 40
0.5045542052
 40
1.0
 40
1.0
 40
1.0
 40
1.0
 10
18.155192204
 20
8.3954375808
 30
0.0
 10
18.1553616407
 20
8.3941933675
 30
0.0
 10
18.1555353731
 20
8.3917022323
 30
0.0
 10
18.1553646952
 20
8.389210032
 30
0.0
 10
18.155192204
 20
8.3879891278
 30
0.0
  0
SPLINE
  5
34D
100
AcDbEntity
  8
0
100
AcDbSpline
 62
9
  6
CONTINUOUS
 70
0
 71
3
 72
11
 73
7
 74
0
 42
0.0000001
 43
0.0000001
 44
0.0000000001
 40
0.0
 40
0.0
 40
0.0
 40
0.0
 40
0.2337615973
 40
0.4744195616
 40
0.728133547
 40
1.0
 40
1.0
 40
1.0
 40
1.0
 10
18.293942204
 20
8.5381628956
 30
0.0
 10
18.2940280702
 20
8.5383918721
 30
0.0
 10
18.2941586667
 20
8.5388741966
 30
0.0
 10
18.2942209755
 20
8.5396371418
 30
0.0
 10
18.2941519363
 20
8.5404390238
 30
0.0
 10
18.2940245289
 20
8.5409759114
 30
0.0
 10
18.293942204
 20
8.5412481459
 30
0.0
  0
SPLINE
  5
34E
100
AcDbEntity
  8
0
100
AcDbSpline
 62
9
  6
CONTINUOUS
 70
0
 71
3
 72
9
 73
5
 74
0
 42
0.0000001
 43
0.0000001
 44
0.0000000001
 40
0.0
 40
0.0
 40
0.0
 40
0.0
 40
0.4954457948
 40
1.0
 40
1.0
 40
1.0
 40
1.0
 10
18.293942204
 20
8.5412481459
 30
0.0
 10
18.2941146952
 20
8.5424690501
 30
0.0
 10
18.2942853731
 20
8.5449612504
 30
0.0
 10
18.2941116407
 20
8.5474523856
 30
0.0
 10
18.293942204
 20
8.5486965989
 30
0.0
  0
SPLINE
  5
34F
100
AcDbEntity
  8
0
100
AcDbSpline
 62
9
  6
CONTINUOUS
 70
0
 71
3
 72
11
 73
7
 74
0
 42
0.0000001
 43
0.0000001
 44
0.0000000001
 40
0.0
 40
0.0
 40
0.0
 40
0.0
 40
0.2718775796
 40
0.525603703
 40
0.7662474692
 40
1.0
 40
1.0
 40
1.0
 40
1.0
 10
18.293942204
 20
8.5561450519
 30
0.0
 10
18.2940245323
 20
8.5564172975
 30
0.0
 10
18.2941519379
 20
8.556954211
 30
0.0
 10
18.2942209737
 20
8.5577561023
 30
0.0
 10
18.2941586694
 20
8.558519037
 30
0.0
 10
18.2940280669
 20
8.5590013345
 30
0.0
 10
18.293942204
 20
8.5592303021
 30
0.0
  0
SPLINE
  5
350
100
AcDbEntity
  8
0
100
AcDbSpline
 62
9
  6
CONTINUOUS
 70
0
 71
3
 72
9
 73
5
 74
0
 42
0.0000001
 43
0.0000001
 44
0.0000000001
 40
0.0
 40
0.0
 40
0.0
 40
0.0
 40
0.5045781686
 40
1.0
 40
1.0
 40
1.0
 40
1.0
 10
18.293942204
 20
8.5486965989
 30
0.0
 10
18.2941116488
 20
8.5499408713
 30
0.0
 10
18.2942853743
 20
8.5524320082
 30
0.0
 10
18.2941146868
 20
8.5549242067
 30
0.0
 10
18.293942204
 20
8.5561450519
 30
0.0
  0
SPLINE
  5
351
100
AcDbEntity
  8
0
100
AcDbSpline
 62
9
  6
CONTINUOUS
 70
0
 71
3
 72
11
 73
7
 74
0
 42
0.0000001
 43
0.0000001
 44
0.0000000001
 40
0.0
 40
0.0
 40
0.0
 40
0.0
 40
0.2337525308
 40
0.474396297
 40
0.7281224204
 40
1.0
 40
1.0
 40
1.0
 40
1.0
 10
18.155192204
 20
8.9292303021
 30
0.0
 10
18.1552780669
 20
8.9290013345
 30
0.0
 10
18.1554086694
 20
8.928519037
 30
0.0
 10
18.1554709737
 20
8.9277561023
 30
0.0
 10
18.1554019379
 20
8.926954211
 30
0.0
 10
18.1552745323
 20
8.9264172975
 30
0.0
 10
18.155192204
 20
8.9261450519
 30
0.0
  0
SPLINE
  5
352
100
AcDbEntity
  8
0
100
AcDbSpline
 62
9
  6
CONTINUOUS
 70
0
 71
3
 72
15
 73
11
 74
0
 42
0.0000001
 43
0.0000001
 44
0.0000000001
 40
0.0
 40
0.0
 40
0.0
 40
0.0
 40
0.1063650046
 40
0.2184010488
 40
0.3365712131
 40
0.4607487968
 40
0.590317618
 40
0.7242540367
 40
0.8613887863
 40
1.0
 40
1.0
 40
1.0
 40
1.0
 10
18.155192204
 20
8.9261450519
 30
0.0
 10
18.1546485566
 20
8.9271701632
 30
0.0
 10
18.1533239378
 20
8.9291694694
 30
0.0
 10
18.1507886911
 20
8.9318465276
 30
0.0
 10
18.1477180976
 20
8.9342187253
 30
0.0
 10
18.1441829879
 20
8.9362339782
 30
0.0
 10
18.1402630058
 20
8.9378493721
 30
0.0
 10
18.1360449072
 20
8.9390303776
 30
0.0
 10
18.1316250699
 20
8.9397484192
 30
0.0
 10
18.1286144533
 20
8.9399098023
 30
0.0
 10
18.1271023287
 20
8.9399098023
 30
0.0
  0
SPLINE
  5
353
100
AcDbEntity
  8
0
100
AcDbSpline
 62
9
  6
CONTINUOUS
 70
0
 71
3
 72
14
 73
10
 74
0
 42
0.0000001
 43
0.0000001
 44
0.0000000001
 40
0.0
 40
0.0
 40
0.0
 40
0.0
 40
0.138542227
 40
0.2756665943
 40
0.5387886954
 40
0.6630557163
 40
0.7813260762
 40
0.8935529431
 40
1.0
 40
1.0
 40
1.0
 40
1.0
 10
18.1271023287
 20
8.7231688204
 30
0.0
 10
18.1286129937
 20
8.7231688204
 30
0.0
 10
18.1316221163
 20
8.7230074643
 30
0.0
 10
18.137427608
 20
8.7220654412
 30
0.0
 10
18.1429088594
 20
8.7202173115
 30
0.0
 10
18.1477120046
 20
8.7174819625
 30
0.0
 10
18.150785681
 20
8.7151090105
 30
0.0
 10
18.1533218257
 20
8.7124297501
 30
0.0
 10
18.1546483918
 20
8.7104294921
 30
0.0
 10
18.155192204
 20
8.70940407
 30
0.0
  0
SPLINE
  5
354
100
AcDbEntity
  8
0
100
AcDbSpline
 62
9
  6
CONTINUOUS
 70
0
 71
3
 72
9
 73
5
 74
0
 42
0.0000001
 43
0.0000001
 44
0.0000000001
 40
0.0
 40
0.0
 40
0.0
 40
0.0
 40
0.4954457948
 40
1.0
 40
1.0
 40
1.0
 40
1.0
 10
18.155192204
 20
8.70940407
 30
0.0
 10
18.1553646952
 20
8.7081831658
 30
0.0
 10
18.1555353731
 20
8.7056909655
 30
0.0
 10
18.1553616407
 20
8.7031998303
 30
0.0
 10
18.155192204
 20
8.701955617
 30
0.0
  0
SPLINE
  5
355
100
AcDbEntity
  8
0
100
AcDbSpline
 62
9
  6
CONTINUOUS
 70
0
 71
3
 72
11
 73
7
 74
0
 42
0.0000001
 43
0.0000001
 44
0.0000000001
 40
0.0
 40
0.0
 40
0.0
 40
0.0
 40
0.2718775796
 40
0.525603703
 40
0.7662474692
 40
1.0
 40
1.0
 40
1.0
 40
1.0
 10
18.155192204
 20
8.1712481459
 30
0.0
 10
18.1552745323
 20
8.1709759003
 30
0.0
 10
18.1554019379
 20
8.1704389868
 30
0.0
 10
18.1554709737
 20
8.1696370955
 30
0.0
 10
18.1554086694
 20
8.1688741608
 30
0.0
 10
18.1552780669
 20
8.1683918632
 30
0.0
 10
18.155192204
 20
8.1681628956
 30
0.0
  0
SPLINE
  5
356
100
AcDbEntity
  8
0
100
AcDbSpline
 62
9
  6
CONTINUOUS
 70
0
 71
3
 72
14
 73
10
 74
0
 42
0.0000001
 43
0.0000001
 44
0.0000000001
 40
0.0
 40
0.0
 40
0.0
 40
0.0
 40
0.138542227
 40
0.2756665943
 40
0.5387886954
 40
0.6630557163
 40
0.7813260762
 40
0.8935529431
 40
1.0
 40
1.0
 40
1.0
 40
1.0
 10
18.1271023287
 20
8.1574833955
 30
0.0
 10
18.1286129937
 20
8.1574833955
 30
0.0
 10
18.1316221163
 20
8.1576447516
 30
0.0
 10
18.137427608
 20
8.1585867747
 30
0.0
 10
18.1429088594
 20
8.1604349044
 30
0.0
 10
18.1477120046
 20
8.1631702534
 30
0.0
 10
18.150785681
 20
8.1655432053
 30
0.0
 10
18.1533218257
 20
8.1682224658
 30
0.0
 10
18.1546483918
 20
8.1702227237
 30
0.0
 10
18.155192204
 20
8.1712481459
 30
0.0
  0
SPLINE
  5
357
100
AcDbEntity
  8
0
100
AcDbSpline
 62
9
  6
CONTINUOUS
 70
0
 71
3
 72
11
 73
7
 74
0
 42
0.0000001
 43
0.0000001
 44
0.0000000001
 40
0.0
 40
0.0
 40
0.0
 40
0.0
 40
0.2718775796
 40
0.525603703
 40
0.7662474692
 40
1.0
 40
1.0
 40
1.0
 40
1.0
 10
3.5814424815
 20
8.5412481459
 30
0.0
 10
3.5813601532
 20
8.5409759003
 30
0.0
 10
3.5812327476
 20
8.5404389868
 30
0.0
 10
3.5811637118
 20
8.5396370955
 30
0.0
 10
3.5812260161
 20
8.5388741608
 30
0.0
 10
3.5813566186
 20
8.5383918632
 30
0.0
 10
3.5814424815
 20
8.5381628956
 30
0.0
  0
SPLINE
  5
358
100
AcDbEntity
  8
0
100
AcDbSpline
 62
9
  6
CONTINUOUS
 70
0
 71
3
 72
9
 73
5
 74
0
 42
0.0000001
 43
0.0000001
 44
0.0000000001
 40
0.0
 40
0.0
 40
0.0
 40
0.0
 40
0.5045542052
 40
1.0
 40
1.0
 40
1.0
 40
1.0
 10
3.5814424815
 20
8.5486965989
 30
0.0
 10
3.5812730447
 20
8.5474523856
 30
0.0
 10
3.5810993123
 20
8.5449612504
 30
0.0
 10
3.5812699903
 20
8.5424690501
 30
0.0
 10
3.5814424815
 20
8.5412481459
 30
0.0
  0
SPLINE
  5
359
100
AcDbEntity
  8
0
100
AcDbSpline
 62
9
  6
CONTINUOUS
 70
0
 71
3
 72
15
 73
11
 74
0
 42
0.0000001
 43
0.0000001
 44
0.0000000001
 40
0.0
 40
0.0
 40
0.0
 40
0.0
 40
0.1063650046
 40
0.2184010488
 40
0.3365712131
 40
0.4607487968
 40
0.590317618
 40
0.7242540367
 40
0.8613887863
 40
1.0
 40
1.0
 40
1.0
 40
1.0
 10
3.7201924815
 20
8.1712481459
 30
0.0
 10
3.7207361288
 20
8.1702230346
 30
0.0
 10
3.7220607477
 20
8.1682237284
 30
0.0
 10
3.7245959944
 20
8.1655466701
 30
0.0
 10
3.7276665879
 20
8.1631744725
 30
0.0
 10
3.7312016976
 20
8.1611592196
 30
0.0
 10
3.7351216797
 20
8.1595438257
 30
0.0
 10
3.7393397783
 20
8.1583628202
 30
0.0
 10
3.7437596156
 20
8.1576447786
 30
0.0
 10
3.7467702322
 20
8.1574833955
 30
0.0
 10
3.7482823568
 20
8.1574833955
 30
0.0
  0
SPLINE
  5
35A
100
AcDbEntity
  8
0
100
AcDbSpline
 62
9
  6
CONTINUOUS
 70
0
 71
3
 72
11
 73
7
 74
0
 42
0.0000001
 43
0.0000001
 44
0.0000000001
 40
0.0
 40
0.0
 40
0.0
 40
0.0
 40
0.2337525308
 40
0.474396297
 40
0.7281224204
 40
1.0
 40
1.0
 40
1.0
 40
1.0
 10
3.7201924815
 20
8.1681628956
 30
0.0
 10
3.7201066186
 20
8.1683918632
 30
0.0
 10
3.7199760161
 20
8.1688741608
 30
0.0
 10
3.7199137118
 20
8.1696370955
 30
0.0
 10
3.7199827476
 20
8.1704389868
 30
0.0
 10
3.7201101532
 20
8.1709759003
 30
0.0
 10
3.7201924815
 20
8.1712481459
 30
0.0
  0
SPLINE
  5
35B
100
AcDbEntity
  8
0
100
AcDbSpline
 62
9
  6
CONTINUOUS
 70
0
 71
3
 72
9
 73
5
 74
0
 42
0.0000001
 43
0.0000001
 44
0.0000000001
 40
0.0
 40
0.0
 40
0.0
 40
0.0
 40
0.495445792
 40
1.0
 40
1.0
 40
1.0
 40
1.0
 10
3.7201924815
 20
8.3879891278
 30
0.0
 10
3.7200199903
 20
8.389210032
 30
0.0
 10
3.7198493123
 20
8.3917022323
 30
0.0
 10
3.7200230447
 20
8.3941933675
 30
0.0
 10
3.7201924815
 20
8.3954375808
 30
0.0
  0
SPLINE
  5
35C
100
AcDbEntity
  8
0
100
AcDbSpline
 62
9
  6
CONTINUOUS
 70
0
 71
3
 72
14
 73
10
 74
0
 42
0.0000001
 43
0.0000001
 44
0.0000000001
 40
0.0
 40
0.0
 40
0.0
 40
0.0
 40
0.138542227
 40
0.2756665943
 40
0.5387886954
 40
0.6630557163
 40
0.7813260762
 40
0.8935529431
 40
1.0
 40
1.0
 40
1.0
 40
1.0
 10
3.7482823568
 20
8.3742243774
 30
0.0
 10
3.7467716918
 20
8.3742243774
 30
0.0
 10
3.7437625692
 20
8.3743857335
 30
0.0
 10
3.7379570775
 20
8.3753277566
 30
0.0
 10
3.732475826
 20
8.3771758863
 30
0.0
 10
3.7276726808
 20
8.3799112353
 30
0.0
 10
3.7245990045
 20
8.3822841873
 30
0.0
 10
3.7220628598
 20
8.3849634477
 30
0.0
 10
3.7207362937
 20
8.3869637056
 30
0.0
 10
3.7201924815
 20
8.3879891278
 30
0.0
  0
SPLINE
  5
35D
100
AcDbEntity
  8
0
100
AcDbSpline
 62
9
  6
CONTINUOUS
 70
0
 71
3
 72
14
 73
10
 74
0
 42
0.0000001
 43
0.0000001
 44
0.0000000001
 40
0.0
 40
0.0
 40
0.0
 40
0.0
 40
0.138542227
 40
0.2756665943
 40
0.5387886954
 40
0.6630557163
 40
0.7813260762
 40
0.8935529431
 40
1.0
 40
1.0
 40
1.0
 40
1.0
 10
3.7482823568
 20
8.9399098023
 30
0.0
 10
3.7467716918
 20
8.9399098023
 30
0.0
 10
3.7437625692
 20
8.9397484462
 30
0.0
 10
3.7379570775
 20
8.9388064231
 30
0.0
 10
3.732475826
 20
8.9369582934
 30
0.0
 10
3.7276726808
 20
8.9342229444
 30
0.0
 10
3.7245990045
 20
8.9318499924
 30
0.0
 10
3.7220628598
 20
8.929170732
 30
0.0
 10
3.7207362937
 20
8.9271704741
 30
0.0
 10
3.7201924815
 20
8.9261450519
 30
0.0
  0
SPLINE
  5
35E
100
AcDbEntity
  8
0
100
AcDbSpline
 62
9
  6
CONTINUOUS
 70
0
 71
3
 72
11
 73
7
 74
0
 42
0.0000001
 43
0.0000001
 44
0.0000000001
 40
0.0
 40
0.0
 40
0.0
 40
0.0
 40
0.2718775785
 40
0.5256037002
 40
0.766247468
 40
1.0
 40
1.0
 40
1.0
 40
1.0
 10
3.7201924815
 20
8.9261450519
 30
0.0
 10
3.7201101532
 20
8.9264172975
 30
0.0
 10
3.7199827476
 20
8.926954211
 30
0.0
 10
3.7199137118
 20
8.9277561023
 30
0.0
 10
3.7199760161
 20
8.928519037
 30
0.0
 10
3.7201066186
 20
8.9290013345
 30
0.0
 10
3.7201924815
 20
8.9292303021
 30
0.0
  0
SPLINE
  5
35F
100
AcDbEntity
  8
0
100
AcDbSpline
 62
9
  6
CONTINUOUS
 70
0
 71
3
 72
9
 73
5
 74
0
 42
0.0000001
 43
0.0000001
 44
0.0000000001
 40
0.0
 40
0.0
 40
0.0
 40
0.0
 40
0.4954457948
 40
1.0
 40
1.0
 40
1.0
 40
1.0
 10
3.5814424815
 20
8.5561450519
 30
0.0
 10
3.5812699903
 20
8.5549241477
 30
0.0
 10
3.5810993123
 20
8.5524319474
 30
0.0
 10
3.5812730447
 20
8.5499408122
 30
0.0
 10
3.5814424815
 20
8.5486965989
 30
0.0
  0
SPLINE
  5
360
100
AcDbEntity
  8
0
100
AcDbSpline
 62
9
  6
CONTINUOUS
 70
0
 71
3
 72
11
 73
7
 74
0
 42
0.0000001
 43
0.0000001
 44
0.0000000001
 40
0.0
 40
0.0
 40
0.0
 40
0.0
 40
0.2337615973
 40
0.4744195616
 40
0.728133547
 40
1.0
 40
1.0
 40
1.0
 40
1.0
 10
3.5814424815
 20
8.5592303021
 30
0.0
 10
3.5813566153
 20
8.5590013257
 30
0.0
 10
3.5812260188
 20
8.5585190012
 30
0.0
 10
3.58116371
 20
8.557756056
 30
0.0
 10
3.5812327492
 20
8.5569541739
 30
0.0
 10
3.5813601566
 20
8.5564172863
 30
0.0
 10
3.5814424815
 20
8.5561450519
 30
0.0
  0
SPLINE
  5
361
100
AcDbEntity
  8
0
100
AcDbSpline
 62
9
  6
CONTINUOUS
 70
0
 71
3
 72
9
 73
5
 74
0
 42
0.0000001
 43
0.0000001
 44
0.0000000001
 40
0.0
 40
0.0
 40
0.0
 40
0.0
 40
0.5045542052
 40
1.0
 40
1.0
 40
1.0
 40
1.0
 10
3.7201924815
 20
8.701955617
 30
0.0
 10
3.7200230447
 20
8.7031998303
 30
0.0
 10
3.7198493123
 20
8.7056909655
 30
0.0
 10
3.7200199903
 20
8.7081831658
 30
0.0
 10
3.7201924815
 20
8.70940407
 30
0.0
  0
SPLINE
  5
362
100
AcDbEntity
  8
0
100
AcDbSpline
 62
9
  6
CONTINUOUS
 70
0
 71
3
 72
15
 73
11
 74
0
 42
0.0000001
 43
0.0000001
 44
0.0000000001
 40
0.0
 40
0.0
 40
0.0
 40
0.0
 40
0.1063650046
 40
0.2184010488
 40
0.3365712131
 40
0.4607487968
 40
0.590317618
 40
0.7242540367
 40
0.8613887863
 40
1.0
 40
1.0
 40
1.0
 40
1.0
 10
3.7201924815
 20
8.70940407
 30
0.0
 10
3.7207361288
 20
8.7104291813
 30
0.0
 10
3.7220607477
 20
8.7124284874
 30
0.0
 10
3.7245959944
 20
8.7151055457
 30
0.0
 10
3.7276665879
 20
8.7174777433
 30
0.0
 10
3.7312016976
 20
8.7194929963
 30
0.0
 10
3.7351216797
 20
8.7211083901
 30
0.0
 10
3.7393397783
 20
8.7222893957
 30
0.0
 10
3.7437596156
 20
8.7230074373
 30
0.0
 10
3.7467702322
 20
8.7231688204
 30
0.0
 10
3.7482823568
 20
8.7231688204
 30
0.0
  0
SPLINE
  5
363
100
AcDbEntity
  8
0
100
AcDbSpline
 62
7
  6
CONTINUOUS
 70
0
 71
3
 72
23
 73
19
 74
0
 42
0.0000001
 43
0.0000001
 44
0.0000000001
 40
0.0
 40
0.0
 40
0.0
 40
0.0
 40
0.034107692
 40
0.0693591718
 40
0.1067909607
 40
0.1472663964
 40
0.1914525824
 40
0.2398485292
 40
0.2928219977
 40
0.350641017
 40
0.4134900471
 40
0.481493256
 40
0.5547343035
 40
0.6332665434
 40
0.7171009993
 40
0.8062033007
 40
0.9005232293
 40
1.0
 40
1.0
 40
1.0
 40
1.0
 10
11.2701920372
 20
10.591719433
 30
0.0
 10
11.2701919857
 20
10.5923519291
 30
0.0
 10
11.2700684378
 20
10.5936411886
 30
0.0
 10
11.2695185351
 20
10.5955537876
 30
0.0
 10
11.2686084275
 20
10.5974541152
 30
0.0
 10
11.2673433793
 20
10.5993397223
 30
0.0
 10
11.2657279292
 20
10.6012114117
 30
0.0
 10
11.2637647305
 20
10.6030693436
 30
0.0
 10
11.2614556729
 20
10.6049131497
 30
0.0
 10
11.2588024707
 20
10.6067416421
 30
0.0
 10
11.2558075268
 20
10.6085537001
 30
0.0
 10
11.2524735663
 20
10.6103479075
 30
0.0
 10
11.2488034748
 20
10.6121225976
 30
0.0
 10
11.2448005481
 20
10.6138757961
 30
0.0
 10
11.2404691703
 20
10.6156055442
 30
0.0
 10
11.235814809
 20
10.6173100271
 30
0.0
 10
11.2308434514
 20
10.6189870548
 30
0.0
 10
11.2274123239
 20
10.6200571264
 30
0.0
 10
11.2256457895
 20
10.6205884425
 30
0.0
  0
SPLINE
  5
364
100
AcDbEntity
  8
0
100
AcDbSpline
 62
7
  6
CONTINUOUS
 70
0
 71
3
 72
32
 73
28
 74
0
 42
0.0000001
 43
0.0000001
 44
0.0000000001
 40
0.0
 40
0.0
 40
0.0
 40
0.0
 40
0.0105812609
 40
0.0215177376
 40
0.0331309493
 40
0.0456867392
 40
0.0593929614
 40
0.0744068467
 40
0.0908435498
 40
0.1087830499
 40
0.1282815855
 40
0.1493785053
 40
0.1721000164
 40
0.1964580465
 40
0.2224553727
 40
0.2500893264
 40
0.2793529543
 40
0.3102326479
 40
0.3427085846
 40
0.3767586521
 40
0.4494804166
 40
0.5281597015
 40
0.6125109291
 40
0.7022273624
 40
0.796981128
 40
0.8963967861
 40
1.0
 40
1.0
 40
1.0
 40
1.0
 10
11.3039418701
 20
10.5917194329
 30
0.0
 10
11.3039419447
 20
10.5910227412
 30
0.0
 10
11.3038061455
 20
10.5896025527
 30
0.0
 10
11.3032000622
 20
10.5874958232
 30
0.0
 10
11.3021971673
 20
10.5854028421
 30
0.0
 10
11.3008041585
 20
10.5833257479
 30
0.0
 10
11.2990251827
 20
10.5812639265
 30
0.0
 10
11.2968626598
 20
10.5792173755
 30
0.0
 10
11.2943186448
 20
10.577186659
 30
0.0
 10
11.291395798
 20
10.5751724506
 30
0.0
 10
11.2880967726
 20
10.5731762351
 30
0.0
 10
11.2844244224
 20
10.5711998
 30
0.0
 10
11.2803820302
 20
10.5692453304
 30
0.0
 10
11.2759738052
 20
10.5673145786
 30
0.0
 10
11.2712044297
 20
10.5654095021
 30
0.0
 10
11.2660787727
 20
10.5635321546
 30
0.0
 10
11.2606019563
 20
10.561684739
 30
0.0
 10
11.2547797233
 20
10.5598692428
 30
0.0
 10
11.2486183848
 20
10.5580874142
 30
0.0
 10
11.2397640527
 20
10.5557066864
 30
0.0
 10
11.227890944
 20
10.552846426
 30
0.0
 10
11.2126998989
 20
10.5496477975
 30
0.0
 10
11.196333575
 20
10.546626195
 30
0.0
 10
11.1788604451
 20
10.5437951252
 30
0.0
 10
11.1603534666
 20
10.541166621
 30
0.0
 10
11.1408957138
 20
10.5387532557
 30
0.0
 10
11.1276047638
 20
10.5373218692
 30
0.0
 10
11.1208173427
 20
10.5366413907
 30
0.0
  0
SPLINE
  5
365
100
AcDbEntity
  8
0
100
AcDbSpline
 62
7
  6
CONTINUOUS
 70
0
 71
3
 72
18
 73
14
 74
0
 42
0.0000001
 43
0.0000001
 44
0.0000000001
 40
0.0
 40
0.0
 40
0.0
 40
0.0
 40
0.0448361732
 40
0.0924202283
 40
0.1426789043
 40
0.1955355503
 40
0.2509118622
 40
0.3087281621
 40
0.4313466635
 40
0.5626483277
 40
0.7017983218
 40
0.8478974541
 40
1.0
 40
1.0
 40
1.0
 40
1.0
 10
11.2256457895
 20
10.6205884425
 30
0.0
 10
11.2232778812
 20
10.6213006323
 30
0.0
 10
11.218376854
 20
10.6227024125
 30
0.0
 10
11.2107628277
 20
10.6246902833
 30
0.0
 10
11.2026790826
 20
10.6266228408
 30
0.0
 10
11.1941409163
 20
10.6284958235
 30
0.0
 10
11.1851636243
 20
10.6303058238
 30
0.0
 10
11.172376507
 20
10.6326780158
 30
0.0
 10
11.1554063264
 20
10.6354455168
 30
0.0
 10
11.1339306533
 20
10.6384106551
 30
0.0
 10
11.1111096452
 20
10.6410593747
 30
0.0
 10
11.0870998968
 20
10.6433737896
 30
0.0
 10
11.0707036054
 20
10.6446594497
 30
0.0
 10
11.0623358334
 20
10.645247024
 30
0.0
  0
SPLINE
  5
366
100
AcDbEntity
  8
0
100
AcDbSpline
 62
7
  6
CONTINUOUS
 70
0
 71
3
 72
10
 73
6
 74
0
 42
0.0000001
 43
0.0000001
 44
0.0000000001
 40
0.0
 40
0.0
 40
0.0
 40
0.0
 40
0.5157537017
 40
0.7621898134
 40
1.0
 40
1.0
 40
1.0
 40
1.0
 10
10.8045276147
 20
10.644624641
 30
0.0
 10
10.7933308661
 20
10.6437747739
 30
0.0
 10
10.7767970247
 20
10.6423328778
 30
0.0
 10
10.7551484023
 20
10.6400146496
 30
0.0
 10
10.7446814614
 20
10.6387468812
 30
0.0
 10
10.7395463301
 20
10.6380851847
 30
0.0
  0
SPLINE
  5
367
100
AcDbEntity
  8
0
100
AcDbSpline
 62
7
  6
CONTINUOUS
 70
0
 71
3
 72
31
 73
27
 74
0
 42
0.0000001
 43
0.0000001
 44
0.0000000001
 40
0.0
 40
0.0
 40
0.0
 40
0.0
 40
0.1043062611
 40
0.2038903898
 40
0.2984477042
 40
0.3876886681
 40
0.4713597818
 40
0.5492246194
 40
0.6210867268
 40
0.6867867968
 40
0.717288004
 40
0.7462107612
 40
0.7735511612
 40
0.7993089553
 40
0.8234886901
 40
0.8461038833
 40
0.8671788131
 40
0.8867476509
 40
0.9048574175
 40
0.9215723635
 40
0.9369819946
 40
0.9512064076
 40
0.9644009735
 40
0.9767629523
 40
0.9885348131
 40
1.0
 40
1.0
 40
1.0
 40
1.0
 10
10.7395463301
 20
10.6380851847
 30
0.0
 10
10.7344695372
 20
10.6374310056
 30
0.0
 10
10.7245552108
 20
10.6360774095
 30
0.0
 10
10.7100782769
 20
10.6338527646
 30
0.0
 10
10.6963732953
 20
10.6314867964
 30
0.0
 10
10.68348657
 20
10.6289870006
 30
0.0
 10
10.6714615748
 20
10.6263629347
 30
0.0
 10
10.6603385538
 20
10.6236231752
 30
0.0
 10
10.6501548941
 20
10.6207774659
 30
0.0
 10
10.6422955454
 20
10.6182683054
 30
0.0
 10
10.6365127053
 20
10.6162020261
 30
0.0
 10
10.6325392903
 20
10.6146703842
 30
0.0
 10
10.6288243004
 20
10.6131195553
 30
0.0
 10
10.6253708551
 20
10.6115508189
 30
0.0
 10
10.6221819358
 20
10.6099653583
 30
0.0
 10
10.6192601135
 20
10.6083644154
 30
0.0
 10
10.616607448
 20
10.6067493891
 30
0.0
 10
10.6142258323
 20
10.6051214508
 30
0.0
 10
10.6121170779
 20
10.6034816678
 30
0.0
 10
10.6102829856
 20
10.6018307021
 30
0.0
 10
10.6087250057
 20
10.6001691639
 30
0.0
 10
10.6074443563
 20
10.5984974823
 30
0.0
 10
10.6064428681
 20
10.5968157895
 30
0.0
 10
10.6057232948
 20
10.595124197
 30
0.0
 10
10.6052895581
 20
10.5934246345
 30
0.0
 10
10.6051926024
 20
10.5922820801
 30
0.0
 10
10.6051926482
 20
10.591719433
 30
0.0
  0
SPLINE
  5
368
100
AcDbEntity
  8
0
100
AcDbSpline
 62
7
  6
CONTINUOUS
 70
0
 71
3
 72
44
 73
40
 74
0
 42
0.0000001
 43
0.0000001
 44
0.0000000001
 40
0.0
 40
0.0
 40
0.0
 40
0.0
 40
0.037605698
 40
0.0764194754
 40
0.1162577491
 40
0.1569537462
 40
0.1983469882
 40
0.2402679152
 40
0.3249874441
 40
0.4097063507
 40
0.4930204293
 40
0.5735500689
 40
0.6123546916
 40
0.6499710442
 40
0.6862468611
 40
0.7210349695
 40
0.7541968006
 40
0.7856019312
 40
0.8151289951
 40
0.8426689361
 40
0.8681225835
 40
0.8800416948
 40
0.8914095182
 40
0.9022178152
 40
0.9124608237
 40
0.9221341073
 40
0.9312343767
 40
0.93975995
 40
0.9477125681
 40
0.9550974514
 40
0.9619230902
 40
0.9682023931
 40
0.9739551073
 40
0.9792104489
 40
0.9840084909
 40
0.9884035538
 40
0.992468204
 40
0.9962961907
 40
1.0
 40
1.0
 40
1.0
 40
1.0
 10
11.1208173427
 20
10.5366413907
 30
0.0
 10
11.1137788186
 20
10.5359357377
 30
0.0
 10
11.0994645355
 20
10.5346109063
 30
0.0
 10
11.0776623514
 20
10.5328994147
 30
0.0
 10
11.0552593552
 20
10.5314387162
 30
0.0
 10
11.0323552556
 20
10.5302349291
 30
0.0
 10
11.0090467908
 20
10.5292933782
 30
0.0
 10
10.9774511919
 20
10.5283895479
 30
0.0
 10
10.9376922784
 20
10.5279410208
 30
0.0
 10
10.8901473615
 20
10.5284776229
 30
0.0
 10
10.8434148267
 20
10.5300781747
 30
0.0
 10
10.8053560868
 20
10.532300723
 30
0.0
 10
10.7759226231
 20
10.5346103606
 30
0.0
 10
10.7548133398
 20
10.5365646611
 30
0.0
 10
10.7344867385
 20
10.5387532447
 30
0.0
 10
10.7150295961
 20
10.5411669581
 30
0.0
 10
10.6965250756
 20
10.5437951295
 30
0.0
 10
10.679052149
 20
10.5466260879
 30
0.0
 10
10.6626851825
 20
10.5496477746
 30
0.0
 10
10.6474939755
 20
10.5528462061
 30
0.0
 10
10.6356210548
 20
10.5557068283
 30
0.0
 10
10.6267666827
 20
10.5580873054
 30
0.0
 10
10.6206052336
 20
10.5598690604
 30
0.0
 10
10.6147831089
 20
10.5616847385
 30
0.0
 10
10.6093063148
 20
10.5635322288
 30
0.0
 10
10.6041804252
 20
10.565409465
 30
0.0
 10
10.5994108648
 20
10.5673144042
 30
0.0
 10
10.5950027871
 20
10.5692452514
 30
0.0
 10
10.5909606313
 20
10.571199926
 30
0.0
 10
10.5872881504
 20
10.5731762599
 30
0.0
 10
10.5839888295
 20
10.5751723172
 30
0.0
 10
10.5810659493
 20
10.5771864846
 30
0.0
 10
10.5785223136
 20
10.5792174996
 30
0.0
 10
10.5763598096
 20
10.5812640248
 30
0.0
 10
10.574580459
 20
10.5833256797
 30
0.0
 10
10.5731871324
 20
10.5854026736
 30
0.0
 10
10.5721847412
 20
10.587495879
 30
0.0
 10
10.5715790147
 20
10.5896026
 30
0.0
 10
10.57144289
 20
10.5910227291
 30
0.0
 10
10.5714428153
 20
10.5917194331
 30
0.0
  0
SPLINE
  5
369
100
AcDbEntity
  8
0
100
AcDbSpline
 62
7
  6
CONTINUOUS
 70
0
 71
3
 72
46
 73
42
 74
0
 42
0.0000001
 43
0.0000001
 44
0.0000000001
 40
0.0
 40
0.0
 40
0.0
 40
0.0
 40
0.0052503758
 40
0.0110748176
 40
0.0175023961
 40
0.024552336
 40
0.0322366334
 40
0.040560127
 40
0.0495232781
 40
0.0591239416
 40
0.0693571885
 40
0.0802143764
 40
0.0916853502
 40
0.1037590301
 40
0.1164222746
 40
0.1296596421
 40
0.1577914825
 40
0.1880142878
 40
0.220168988
 40
0.2540832633
 40
0.2895720056
 40
0.3264393274
 40
0.3644805606
 40
0.4034827103
 40
0.4432272859
 40
0.5240433833
 40
0.6051108185
 40
0.6451679813
 40
0.6846050937
 40
0.7232006905
 40
0.7607384121
 40
0.7970087056
 40
0.8318109861
 40
0.864954202
 40
0.8962586157
 40
0.9255555798
 40
0.9526985457
 40
0.965421143
 40
0.9775559644
 40
0.989087269
 40
1.0
 40
1.0
 40
1.0
 40
1.0
 10
11.2650248511
 20
10.6012759797
 30
0.0
 10
11.2642419504
 20
10.6005137959
 30
0.0
 10
11.2624972683
 20
10.5990008472
 30
0.0
 10
11.2595427877
 20
10.5968647894
 30
0.0
 10
11.2561240666
 20
10.5947502282
 30
0.0
 10
11.2522454016
 20
10.5926599713
 30
0.0
 10
11.2479112211
 20
10.5905968723
 30
0.0
 10
11.2431275336
 20
10.5885634411
 30
0.0
 10
11.2379009771
 20
10.5865624969
 30
0.0
 10
11.2322386441
 20
10.5845971131
 30
0.0
 10
11.2261484124
 20
10.5826703885
 30
0.0
 10
11.219639164
 20
10.5807848417
 30
0.0
 10
11.2127202935
 20
10.5789432638
 30
0.0
 10
11.205401585
 20
10.577148586
 30
0.0
 10
11.1976935807
 20
10.5754034532
 30
0.0
 10
11.1866873434
 20
10.5730988912
 30
0.0
 10
11.1720370783
 20
10.5703774044
 30
0.0
 10
11.1534352111
 20
10.5674087563
 30
0.0
 10
11.1335796993
 20
10.5646924083
 30
0.0
 10
11.1125858324
 20
10.562244648
 30
0.0
 10
11.0905753373
 20
10.5600801972
 30
0.0
 10
11.0676760496
 20
10.5582116986
 30
0.0
 10
11.0440210431
 20
10.5566506447
 30
0.0
 10
11.0197477386
 20
10.5554057186
 30
0.0
 10
10.9865636978
 20
10.5541714345
 30
0.0
 10
10.944604125
 20
10.5534691103
 30
0.0
 10
10.9025756031
 20
10.5538685395
 30
0.0
 10
10.8691754714
 20
10.5548596519
 30
0.0
 10
10.8446225638
 20
10.5559275307
 30
0.0
 10
10.8206108482
 20
10.5573159213
 30
0.0
 10
10.7972799061
 20
10.5590169547
 30
0.0
 10
10.774765314
 20
10.561020357
 30
0.0
 10
10.7531977911
 20
10.5633142258
 30
0.0
 10
10.7327025171
 20
10.5658851845
 30
0.0
 10
10.7133986597
 20
10.5687172458
 30
0.0
 10
10.6953977156
 20
10.571794002
 30
0.0
 10
10.6812789353
 20
10.5746032927
 30
0.0
 10
10.6707200855
 20
10.5769756965
 30
0.0
 10
10.6633615966
 20
10.578766159
 30
0.0
 10
10.6564034106
 20
10.5806029983
 30
0.0
 10
10.6519136706
 20
10.5818924771
 30
0.0
 10
10.6497388959
 20
10.5825465785
 30
0.0
  0
SPLINE
  5
36A
100
AcDbEntity
  8
0
100
AcDbSpline
 62
7
  6
CONTINUOUS
 70
0
 71
3
 72
15
 73
11
 74
0
 42
0.0000001
 43
0.0000001
 44
0.0000000001
 40
0.0
 40
0.0
 40
0.0
 40
0.0
 40
0.1669932946
 40
0.3220350264
 40
0.4649516738
 40
0.5956380608
 40
0.7141654077
 40
0.8207599006
 40
0.9158147457
 40
1.0
 40
1.0
 40
1.0
 40
1.0
 10
10.6497388959
 20
10.5825465785
 30
0.0
 10
10.6473560643
 20
10.5832632568
 30
0.0
 10
10.6427794167
 20
10.5847081683
 30
0.0
 10
10.6362428272
 20
10.5870079305
 30
0.0
 10
10.6303008096
 20
10.5893551049
 30
0.0
 10
10.6249665294
 20
10.5917452629
 30
0.0
 10
10.6202500902
 20
10.5941733519
 30
0.0
 10
10.6161583302
 20
10.5966352131
 30
0.0
 10
10.6126980046
 20
10.5991273885
 30
0.0
 10
10.6106998432
 20
10.6009111112
 30
0.0
 10
10.6098257533
 20
10.6018108234
 30
0.0
  0
SPLINE
  5
36B
100
AcDbEntity
  8
0
100
AcDbSpline
 62
7
  6
CONTINUOUS
 70
0
 71
3
 72
21
 73
17
 74
0
 42
0.0000001
 43
0.0000001
 44
0.0000000001
 40
0.0
 40
0.0
 40
0.0
 40
0.0
 40
0.0418211391
 40
0.0843364283
 40
0.1282080237
 40
0.1740346914
 40
0.2223370006
 40
0.2735554451
 40
0.3280555271
 40
0.3861368015
 40
0.4480423582
 40
0.5139612817
 40
0.5840394992
 40
0.6583915939
 40
0.8202306654
 40
1.0
 40
1.0
 40
1.0
 40
1.0
 10
10.5714428153
 20
10.5917194331
 30
0.0
 10
10.5714427633
 20
10.5922052794
 30
0.0
 10
10.5715077374
 20
10.5931862324
 30
0.0
 10
10.5717994327
 20
10.5946507393
 30
0.0
 10
10.5722849106
 20
10.5961118782
 30
0.0
 10
10.5729626642
 20
10.597568259
 30
0.0
 10
10.5738313209
 20
10.5990193802
 30
0.0
 10
10.5748897787
 20
10.600464836
 30
0.0
 10
10.5761371978
 20
10.601904319
 30
0.0
 10
10.5775729204
 20
10.603337475
 30
0.0
 10
10.5791963556
 20
10.6047637791
 30
0.0
 10
10.5810066163
 20
10.6061827864
 30
0.0
 10
10.5830026732
 20
10.6075940486
 30
0.0
 10
10.5859959697
 20
10.6095192455
 30
0.0
 10
10.590212903
 20
10.6118880137
 30
0.0
 10
10.5937889218
 20
10.6136139925
 30
0.0
 10
10.5956911599
 20
10.6144759697
 30
0.0
  0
SPLINE
  5
36C
100
AcDbEntity
  8
0
100
AcDbSpline
 62
7
  6
CONTINUOUS
 70
0
 71
3
 72
53
 73
49
 74
0
 42
0.0000001
 43
0.0000001
 44
0.0000000001
 40
0.0
 40
0.0
 40
0.0
 40
0.0
 40
0.0115104437
 40
0.023717849
 40
0.0366038953
 40
0.0501494157
 40
0.0643348194
 40
0.0791401882
 40
0.1105275293
 40
0.1441269535
 40
0.1797302725
 40
0.2171134544
 40
0.2560408825
 40
0.2962626331
 40
0.3375205189
 40
0.3795477588
 40
0.4220725188
 40
0.4648190115
 40
0.5075100424
 40
0.549868605
 40
0.5916204168
 40
0.632495351
 40
0.6722297853
 40
0.7105690319
 40
0.7472679077
 40
0.7820956239
 40
0.8148340536
 40
0.84528462
 40
0.8595948679
 40
0.8732679246
 40
0.8862846152
 40
0.8986273994
 40
0.9102821017
 40
0.9212360065
 40
0.9314779787
 40
0.9410010759
 40
0.9498023176
 40
0.9578820419
 40
0.9652463222
 40
0.9719103687
 40
0.9778990658
 40
0.9832512214
 40
0.9880277479
 40
0.9923186321
 40
0.9943223996
 40
0.9962555758
 40
0.9981401619
 40
1.0
 40
1.0
 40
1.0
 40
1.0
 10
10.6497388959
 20
10.5628504235
 30
0.0
 10
10.6520757231
 20
10.5621475819
 30
0.0
 10
10.6569104326
 20
10.5607638467
 30
0.0
 10
10.6644185351
 20
10.5588001483
 30
0.0
 10
10.6723848579
 20
10.5568902771
 30
0.0
 10
10.6807946745
 20
10.5550383295
 30
0.0
 10
10.6896332731
 20
10.5532476405
 30
0.0
 10
10.7022167565
 20
10.5508995242
 30
0.0
 10
10.7189111686
 20
10.5481564312
 30
0.0
 10
10.7400338624
 20
10.545211278
 30
0.0
 10
10.7624773637
 20
10.54257331
 30
0.0
 10
10.7860916243
 20
10.5402599994
 30
0.0
 10
10.8107190658
 20
10.5382879036
 30
0.0
 10
10.8361953389
 20
10.5366698476
 30
0.0
 10
10.8623500642
 20
10.5354174163
 30
0.0
 10
10.8890084731
 20
10.5345388894
 30
0.0
 10
10.9159923029
 20
10.5340402027
 30
0.0
 10
10.9431212056
 20
10.533925072
 30
0.0
 10
10.9702137902
 20
10.534193757
 30
0.0
 10
10.9970889641
 20
10.5348450484
 30
0.0
 10
11.0235670695
 20
10.5358739326
 30
0.0
 10
11.0494711049
 20
10.537273812
 30
0.0
 10
11.0746279826
 20
10.539034984
 30
0.0
 10
11.0988695548
 20
10.5411452509
 30
0.0
 10
11.1220340118
 20
10.5435906215
 30
0.0
 10
11.143966746
 20
10.5463535298
 30
0.0
 10
11.1645214767
 20
10.5494158775
 30
0.0
 10
11.1807068825
 20
10.5522542143
 30
0.0
 10
11.1928565243
 20
10.5546754855
 30
0.0
 10
11.2013521535
 20
10.5565150792
 30
0.0
 10
11.2094070491
 20
10.5584129829
 30
0.0
 10
11.2170077349
 20
10.5603662831
 30
0.0
 10
11.2241417818
 20
10.562371326
 30
0.0
 10
11.2307974801
 20
10.5644246117
 30
0.0
 10
11.2369637215
 20
10.5665229919
 30
0.0
 10
11.2426305528
 20
10.5686628176
 30
0.0
 10
11.2477891586
 20
10.5708402089
 30
0.0
 10
11.2524314083
 20
10.5730517194
 30
0.0
 10
11.256550126
 20
10.5752942886
 30
0.0
 10
11.26013988
 20
10.5775643696
 30
0.0
 10
11.2631962657
 20
10.5798592673
 30
0.0
 10
11.265715212
 20
10.5821787175
 30
0.0
 10
11.2676927367
 20
10.584522245
 30
0.0
 10
11.2689118668
 20
10.5865439904
 30
0.0
 10
11.2695822327
 20
10.5881573534
 30
0.0
 10
11.2699339117
 20
10.5893429921
 30
0.0
 10
11.2701450631
 20
10.5905305382
 30
0.0
 10
11.2701920693
 20
10.5913251439
 30
0.0
 10
11.2701920372
 20
10.591719433
 30
0.0
  0
SPLINE
  5
36D
100
AcDbEntity
  8
0
100
AcDbSpline
 62
7
  6
CONTINUOUS
 70
0
 71
3
 72
21
 73
17
 74
0
 42
0.0000001
 43
0.0000001
 44
0.0000000001
 40
0.0
 40
0.0
 40
0.0
 40
0.0
 40
0.1803315932
 40
0.3426113139
 40
0.4171237853
 40
0.4873139621
 40
0.5532952696
 40
0.6152204327
 40
0.6732809983
 40
0.7277154952
 40
0.7788198801
 40
0.82695867
 40
0.8725768261
 40
0.9162064141
 40
0.9584569832
 40
1.0
 40
1.0
 40
1.0
 40
1.0
 10
11.2790546548
 20
10.6147634473
 30
0.0
 10
11.2810058786
 20
10.6138918365
 30
0.0
 10
11.2846740884
 20
10.6121461909
 30
0.0
 10
11.289002277
 20
10.6097491776
 30
0.0
 10
11.2920752026
 20
10.6078001163
 30
0.0
 10
11.2941238455
 20
10.60637137
 30
0.0
 10
11.2959816492
 20
10.6049344582
 30
0.0
 10
11.2976478461
 20
10.6034900241
 30
0.0
 10
11.2991217407
 20
10.6020386066
 30
0.0
 10
11.3004025813
 20
10.6005806388
 30
0.0
 10
11.3014894952
 20
10.5991164734
 30
0.0
 10
11.3023814046
 20
10.5976463717
 30
0.0
 10
11.3030769886
 20
10.5961706795
 30
0.0
 10
11.3035751929
 20
10.5946900615
 30
0.0
 10
11.3038748615
 20
10.5932059813
 30
0.0
 10
11.3039418173
 20
10.5922117453
 30
0.0
 10
11.3039418701
 20
10.5917194329
 30
0.0
  0
SPLINE
  5
36E
100
AcDbEntity
  8
0
100
AcDbSpline
 62
7
  6
CONTINUOUS
 70
0
 71
3
 72
23
 73
19
 74
0
 42
0.0000001
 43
0.0000001
 44
0.0000000001
 40
0.0
 40
0.0
 40
0.0
 40
0.0
 40
0.034107692
 40
0.0693591718
 40
0.1067909607
 40
0.1472663964
 40
0.1914525824
 40
0.2398485292
 40
0.2928219977
 40
0.350641017
 40
0.4134900471
 40
0.481493256
 40
0.5547343035
 40
0.6332665434
 40
0.7171009993
 40
0.8062033007
 40
0.9005232293
 40
1.0
 40
1.0
 40
1.0
 40
1.0
 10
10.6051926482
 20
10.591719433
 30
0.0
 10
10.6051926997
 20
10.5910869369
 30
0.0
 10
10.6053162476
 20
10.5897976774
 30
0.0
 10
10.6058661503
 20
10.5878850784
 30
0.0
 10
10.6067762579
 20
10.5859847508
 30
0.0
 10
10.6080413061
 20
10.5840991437
 30
0.0
 10
10.6096567562
 20
10.5822274543
 30
0.0
 10
10.6116199549
 20
10.5803695224
 30
0.0
 10
10.6139290125
 20
10.5785257163
 30
0.0
 10
10.6165822147
 20
10.5766972239
 30
0.0
 10
10.6195771586
 20
10.5748851659
 30
0.0
 10
10.6229111191
 20
10.5730909585
 30
0.0
 10
10.6265812106
 20
10.5713162684
 30
0.0
 10
10.6305841373
 20
10.5695630699
 30
0.0
 10
10.6349155151
 20
10.5678333218
 30
0.0
 10
10.6395698764
 20
10.566128839
 30
0.0
 10
10.644541234
 20
10.5644518112
 30
0.0
 10
10.6479723615
 20
10.5633817396
 30
0.0
 10
10.6497388959
 20
10.5628504235
 30
0.0
  0
SPLINE
  5
36F
100
AcDbEntity
  8
0
100
AcDbSpline
 62
7
  6
CONTINUOUS
 70
0
 71
3
 72
30
 73
26
 74
0
 42
0.0000001
 43
0.0000001
 44
0.0000000001
 40
0.0
 40
0.0
 40
0.0
 40
0.0
 40
0.0401861263
 40
0.0879206723
 40
0.1508808402
 40
0.2263774521
 40
0.2679892726
 40
0.3117160068
 40
0.3342588852
 40
0.3571932082
 40
0.4040224918
 40
0.427813165
 40
0.4517809389
 40
0.5000076688
 40
0.548233023
 40
0.5959863381
 40
0.6428105135
 40
0.6657420095
 40
0.688282204
 40
0.7320033926
 40
0.7736103058
 40
0.84910245
 40
0.9120662102
 40
0.9598084008
 40
1.0
 40
1.0
 40
1.0
 40
1.0
 10
15.4276923427
 20
8.7411965989
 30
0.0
 10
15.4257559777
 20
8.7362679933
 30
0.0
 10
15.4216386186
 20
8.7254376944
 30
0.0
 10
15.4150527844
 20
8.7066756607
 30
0.0
 10
15.4077320065
 20
8.6832519021
 30
0.0
 10
15.4017286143
 20
8.6602827272
 30
0.0
 10
15.3972707789
 20
8.639560399
 30
0.0
 10
15.3947449438
 20
8.6255676877
 30
0.0
 10
15.3929674046
 20
8.6139477785
 30
0.0
 10
15.3913559423
 20
8.6018911222
 30
0.0
 10
15.390077951
 20
8.5896259529
 30
0.0
 10
15.3891637171
 20
8.5771948784
 30
0.0
 10
15.3884993866
 20
8.5645635059
 30
0.0
 10
15.3881603988
 20
8.5486941646
 30
0.0
 10
15.3885660861
 20
8.5296908349
 30
0.0
 10
15.3897501814
 20
8.5109055577
 30
0.0
 10
15.391356122
 20
8.4955003572
 30
0.0
 10
15.3929674953
 20
8.4834450521
 30
0.0
 10
15.3947447281
 20
8.4718265825
 30
0.0
 10
15.3972701663
 20
8.4578355517
 30
0.0
 10
15.4017276217
 20
8.4371151561
 30
0.0
 10
15.4077305057
 20
8.4141466403
 30
0.0
 10
15.4150513473
 20
8.390721964
 30
0.0
 10
15.4216377918
 20
8.3719578103
 30
0.0
 10
15.4257557266
 20
8.3611258808
 30
0.0
 10
15.4276923427
 20
8.3561965989
 30
0.0
  0
SPLINE
  5
370
100
AcDbEntity
  8
0
100
AcDbSpline
 62
7
  6
CONTINUOUS
 70
0
 71
3
 72
10
 73
6
 74
0
 42
0.0000001
 43
0.0000001
 44
0.0000000001
 40
0.0
 40
0.0
 40
0.0
 40
0.0
 40
0.2731684798
 40
0.5307226695
 40
1.0
 40
1.0
 40
1.0
 40
1.0
 10
14.6661217208
 20
8.1394443913
 30
0.0
 10
14.6667448797
 20
8.1405155071
 30
0.0
 10
14.6680271483
 20
8.1425569332
 30
0.0
 10
14.6707306058
 20
8.1462014829
 30
0.0
 10
14.6730324766
 20
8.1486009962
 30
0.0
 10
14.6746738561
 20
8.1499566425
 30
0.0
  0
SPLINE
  5
371
100
AcDbEntity
  8
0
100
AcDbSpline
 62
7
  6
CONTINUOUS
 70
0
 71
3
 72
14
 73
10
 74
0
 42
0.0000001
 43
0.0000001
 44
0.0000000001
 40
0.0
 40
0.0
 40
0.0
 40
0.0
 40
0.2701666191
 40
0.395971566
 40
0.5175303191
 40
0.636706112
 40
0.7555169195
 40
0.8759861052
 40
1.0
 40
1.0
 40
1.0
 40
1.0
 10
14.6746738561
 20
8.1499566425
 30
0.0
 10
14.6760650996
 20
8.1511056968
 30
0.0
 10
14.6782882225
 20
8.1525983131
 30
0.0
 10
14.6814906215
 20
8.153922289
 30
0.0
 10
14.6838695654
 20
8.1545360347
 30
0.0
 10
14.6862666904
 20
8.154787847
 30
0.0
 10
14.6886672974
 20
8.1546756582
 30
0.0
 10
14.6910557348
 20
8.1542038562
 30
0.0
 10
14.692602575
 20
8.1536624641
 30
0.0
 10
14.6933650347
 20
8.1533389055
 30
0.0
  0
LINE
  5
372
100
AcDbEntity
  8
0
100
AcDbLine
 62
7
  6
CONTINUOUS
 10
14.6933650347
 20
8.1533389055
 11
14.6952901424
 21
8.1523971731
  0
SPLINE
  5
373
100
AcDbEntity
  8
0
100
AcDbSpline
 62
7
  6
CONTINUOUS
 70
0
 71
3
 72
9
 73
5
 74
0
 42
0.0000001
 43
0.0000001
 44
0.0000000001
 40
0.0
 40
0.0
 40
0.0
 40
0.0
 40
0.2371191323
 40
1.0
 40
1.0
 40
1.0
 40
1.0
 10
14.6952901424
 20
8.1523971731
 30
0.0
 10
14.6958017861
 20
8.1521133266
 30
0.0
 10
14.6979109559
 20
8.1508288977
 30
0.0
 10
14.6998156714
 20
8.1492236309
 30
0.0
 10
14.701147945
 20
8.1478937152
 30
0.0
  0
LINE
  5
374
100
AcDbEntity
  8
0
100
AcDbLine
 62
7
  6
CONTINUOUS
 10
14.6970285237
 20
8.1546644413
 11
14.7012821103
 21
8.1480816469
  0
SPLINE
  5
375
100
AcDbEntity
  8
0
100
AcDbSpline
 62
7
  6
CONTINUOUS
 70
0
 71
3
 72
9
 73
5
 74
0
 42
0.0000001
 43
0.0000001
 44
0.0000000001
 40
0.0
 40
0.0
 40
0.0
 40
0.0
 40
0.4905932077
 40
1.0
 40
1.0
 40
1.0
 40
1.0
 10
14.7012821103
 20
8.1480816469
 30
0.0
 10
14.7027644035
 20
8.1455738332
 30
0.0
 10
14.7055711112
 20
8.1403329031
 30
0.0
 10
14.7079672866
 20
8.1348932117
 30
0.0
 10
14.7090863827
 20
8.1320829974
 30
0.0
  0
SPLINE
  5
376
100
AcDbEntity
  8
0
100
AcDbSpline
 62
7
  6
CONTINUOUS
 70
0
 71
3
 72
12
 73
8
 74
0
 42
0.0000001
 43
0.0000001
 44
0.0000000001
 40
0.0
 40
0.0
 40
0.0
 40
0.0
 40
0.2420885651
 40
0.4910004596
 40
0.617342357
 40
0.7445430924
 40
1.0
 40
1.0
 40
1.0
 40
1.0
 10
14.7090863827
 20
8.1320829974
 30
0.0
 10
14.7106560922
 20
8.1281412266
 30
0.0
 10
14.7134391921
 20
8.1199818501
 30
0.0
 10
14.7159451872
 20
8.1094397195
 30
0.0
 10
14.7173787031
 20
8.1007481711
 30
0.0
 10
14.7184149272
 20
8.0918855652
 30
0.0
 10
14.7187292013
 20
8.085173714
 30
0.0
 10
14.7187292013
 20
8.0806965989
 30
0.0
  0
SPLINE
  5
377
100
AcDbEntity
  8
0
100
AcDbSpline
 62
7
  6
CONTINUOUS
 70
0
 71
3
 72
11
 73
7
 74
0
 42
0.0000001
 43
0.0000001
 44
0.0000000001
 40
0.0
 40
0.0
 40
0.0
 40
0.0
 40
0.2606417114
 40
0.5102260974
 40
0.7544070639
 40
1.0
 40
1.0
 40
1.0
 40
1.0
 10
14.6621311433
 20
8.0003061341
 30
0.0
 10
14.6635838847
 20
7.9994917846
 30
0.0
 10
14.6665600783
 20
7.998116955
 30
0.0
 10
14.6712535759
 20
7.9969017365
 30
0.0
 10
14.6759997639
 20
7.9966248317
 30
0.0
 10
14.6791215785
 20
7.9970660192
 30
0.0
 10
14.6806478523
 20
7.9974308114
 30
0.0
  0
SPLINE
  5
378
100
AcDbEntity
  8
0
100
AcDbSpline
 62
7
  6
CONTINUOUS
 70
0
 71
3
 72
11
 73
7
 74
0
 42
0.0000001
 43
0.0000001
 44
0.0000000001
 40
0.0
 40
0.0
 40
0.0
 40
0.0
 40
0.2319492549
 40
0.4745032123
 40
0.7299808598
 40
1.0
 40
1.0
 40
1.0
 40
1.0
 10
14.6828467142
 20
7.9980614957
 30
0.0
 10
14.6840602734
 20
7.9984679611
 30
0.0
 10
14.6864853728
 20
7.9994801665
 30
0.0
 10
14.6899757539
 20
8.0015102191
 30
0.0
 10
14.6933658765
 20
8.0040679395
 30
0.0
 10
14.6954854538
 20
8.0060548108
 30
0.0
 10
14.6965239642
 20
8.0071230949
 30
0.0
  0
SPLINE
  5
379
100
AcDbEntity
  8
0
100
AcDbSpline
 62
7
  6
CONTINUOUS
 70
0
 71
3
 72
15
 73
11
 74
0
 42
0.0000001
 43
0.0000001
 44
0.0000000001
 40
0.0
 40
0.0
 40
0.0
 40
0.0
 40
0.1315819337
 40
0.2627279883
 40
0.3926361197
 40
0.5206504333
 40
0.6461591091
 40
0.7684371825
 40
0.88667667
 40
1.0
 40
1.0
 40
1.0
 40
1.0
 10
14.7187292013
 20
8.0806965989
 30
0.0
 10
14.7187292013
 20
8.0774104357
 30
0.0
 10
14.7185029336
 20
8.0708468668
 30
0.0
 10
14.7175004003
 20
8.0610851495
 30
0.0
 10
14.7158436778
 20
8.0515027998
 30
0.0
 10
14.7135642018
 20
8.0421942598
 30
0.0
 10
14.7106976194
 20
8.0332492192
 30
0.0
 10
14.7072899211
 20
8.0247580378
 30
0.0
 10
14.7033947673
 20
8.0168169282
 30
0.0
 10
14.7004413388
 20
8.0118356502
 30
0.0
 10
14.6988915489
 20
8.0094675283
 30
0.0
  0
SPLINE
  5
37A
100
AcDbEntity
  8
0
100
AcDbSpline
 62
7
  6
CONTINUOUS
 70
0
 71
3
 72
11
 73
7
 74
0
 42
0.0000001
 43
0.0000001
 44
0.0000000001
 40
0.0
 40
0.0
 40
0.0
 40
0.0
 40
0.2368156635
 40
0.4813275367
 40
0.7352500272
 40
1.0
 40
1.0
 40
1.0
 40
1.0
 10
14.6764693463
 20
7.9968872966
 30
0.0
 10
14.6754021823
 20
7.9972022781
 30
0.0
 10
14.6732693899
 20
7.9979715555
 30
0.0
 10
14.6701625518
 20
7.9994960915
 30
0.0
 10
14.667116847
 20
8.0013994509
 30
0.0
 10
14.6651789455
 20
8.0028835006
 30
0.0
 10
14.6642241952
 20
8.0036808758
 30
0.0
  0
SPLINE
  5
37B
100
AcDbEntity
  8
0
100
AcDbSpline
 62
7
  6
CONTINUOUS
 70
0
 71
3
 72
18
 73
14
 74
0
 42
0.0000001
 43
0.0000001
 44
0.0000000001
 40
0.0
 40
0.0
 40
0.0
 40
0.0
 40
0.0983362221
 40
0.1509442398
 40
0.2058485792
 40
0.2630231314
 40
0.3223884186
 40
0.3838213061
 40
0.4471770667
 40
0.5789735934
 40
0.7163092899
 40
0.8573166164
 40
1.0
 40
1.0
 40
1.0
 40
1.0
 10
14.6639886074
 20
8.0038790265
 30
0.0
 10
14.6618991806
 20
8.0056488297
 30
0.0
 10
14.6589365174
 20
8.0086634631
 30
0.0
 10
14.655375745
 20
8.0131577132
 30
0.0
 10
14.6527711026
 20
8.0169365347
 30
0.0
 10
14.6503069967
 20
8.0210284389
 30
0.0
 10
14.6479920441
 20
8.025413019
 30
0.0
 10
14.6458345091
 20
8.0300673023
 30
0.0
 10
14.6431443015
 20
8.0366887186
 30
0.0
 10
14.6402533734
 20
8.0454976179
 30
0.0
 10
14.6375891318
 20
8.0566145361
 30
0.0
 10
14.6357089454
 20
8.0681965647
 30
0.0
 10
14.635003457
 20
8.0760723562
 30
0.0
 10
14.6347876377
 20
8.0800395941
 30
0.0
  0
SPLINE
  5
37C
100
AcDbEntity
  8
0
100
AcDbSpline
 62
7
  6
CONTINUOUS
 70
0
 71
3
 72
33
 73
29
 74
0
 42
0.0000001
 43
0.0000001
 44
0.0000000001
 40
0.0
 40
0.0
 40
0.0
 40
0.0
 40
0.0726531959
 40
0.1070523092
 40
0.1400428427
 40
0.1715617191
 40
0.2015688123
 40
0.2300529934
 40
0.2570440827
 40
0.2826361515
 40
0.3069966766
 40
0.3303526699
 40
0.3530022937
 40
0.375316095
 40
0.3976791735
 40
0.4204656891
 40
0.4440194253
 40
0.4943871284
 40
0.5216213701
 40
0.5503314155
 40
0.5805501159
 40
0.6122750584
 40
0.6454830683
 40
0.6801262895
 40
0.7534430083
 40
0.8316886504
 40
0.9141720104
 40
1.0
 40
1.0
 40
1.0
 40
1.0
 10
14.6970285701
 20
8.0067284967
 30
0.0
 10
14.6954378938
 20
8.0044790236
 30
0.0
 10
14.6929379227
 20
8.0012683909
 30
0.0
 10
14.6893337167
 20
7.9973650657
 30
0.0
 10
14.6866256719
 20
7.9947662349
 30
0.0
 10
14.6838772114
 20
7.99246123
 30
0.0
 10
14.6811036155
 20
7.9904659124
 30
0.0
 10
14.6783208014
 20
7.9887953464
 30
0.0
 10
14.6755435109
 20
7.9874654358
 30
0.0
 10
14.6727869358
 20
7.9864904699
 30
0.0
 10
14.670067947
 20
7.9858781249
 30
0.0
 10
14.6674020136
 20
7.9856368969
 30
0.0
 10
14.6648056417
 20
7.9857762192
 30
0.0
 10
14.6622954866
 20
7.9862920612
 30
0.0
 10
14.6598854676
 20
7.9871778696
 30
0.0
 10
14.6575892862
 20
7.9884272701
 30
0.0
 10
14.6546252143
 20
7.9906021745
 30
0.0
 10
14.6519789003
 20
7.9934280289
 30
0.0
 10
14.6496489948
 20
7.9967204149
 30
0.0
 10
14.6479793594
 20
7.9995332612
 30
0.0
 10
14.6464332247
 20
8.0026060542
 30
0.0
 10
14.6450073107
 20
8.0059226619
 30
0.0
 10
14.6436973533
 20
8.0094657266
 30
0.0
 10
14.6420689298
 20
8.0145667843
 30
0.0
 10
14.6403254145
 20
8.021415848
 30
0.0
 10
14.6386585897
 20
8.0301370407
 30
0.0
 10
14.6373436311
 20
8.0393966385
 30
0.0
 10
14.6366931828
 20
8.0457474409
 30
0.0
 10
14.6364135123
 20
8.0489900654
 30
0.0
  0
SPLINE
  5
37D
100
AcDbEntity
  8
0
100
AcDbSpline
 62
7
  6
CONTINUOUS
 70
0
 71
3
 72
10
 73
6
 74
0
 42
0.0000001
 43
0.0000001
 44
0.0000000001
 40
0.0
 40
0.0
 40
0.0
 40
0.0
 40
0.2467780371
 40
0.496106419
 40
1.0
 40
1.0
 40
1.0
 40
1.0
 10
14.6357704466
 20
8.1034856646
 30
0.0
 10
14.6356349574
 20
8.1015595916
 30
0.0
 10
14.6353932504
 20
8.097685325
 30
0.0
 10
14.6350154746
 20
8.089870117
 30
0.0
 10
14.6348503167
 20
8.0839782402
 30
0.0
 10
14.6347866863
 20
8.0800362061
 30
0.0
  0
SPLINE
  5
37E
100
AcDbEntity
  8
0
100
AcDbSpline
 62
7
  6
CONTINUOUS
 70
0
 71
3
 72
11
 73
7
 74
0
 42
0.0000001
 43
0.0000001
 44
0.0000000001
 40
0.0
 40
0.0
 40
0.0
 40
0.0
 40
0.2558174198
 40
0.5092090911
 40
0.7579604346
 40
1.0
 40
1.0
 40
1.0
 40
1.0
 10
14.6347866863
 20
8.0800362061
 30
0.0
 10
14.6347919298
 20
8.0773840235
 30
0.0
 10
14.6348653521
 20
8.0721047102
 30
0.0
 10
14.6351666762
 20
8.0642515217
 30
0.0
 10
14.6356638153
 20
8.0565513461
 30
0.0
 10
14.6361378388
 20
8.0514842227
 30
0.0
 10
14.6364135123
 20
8.0489900654
 30
0.0
  0
SPLINE
  5
37F
100
AcDbEntity
  8
0
100
AcDbSpline
 62
7
  6
CONTINUOUS
 70
0
 71
3
 72
11
 73
7
 74
0
 42
0.0000001
 43
0.0000001
 44
0.0000000001
 40
0.0
 40
0.0
 40
0.0
 40
0.0
 40
0.2480640869
 40
0.4980096087
 40
0.7489585561
 40
1.0
 40
1.0
 40
1.0
 40
1.0
 10
14.6357716434
 20
8.1034917214
 30
0.0
 10
14.6358719852
 20
8.1015934934
 30
0.0
 10
14.6361390762
 20
8.0977857705
 30
0.0
 10
14.6367421889
 20
8.0920772191
 30
0.0
 10
14.6375502527
 20
8.0863710259
 30
0.0
 10
14.6382271387
 20
8.0825832778
 30
0.0
 10
14.6386026895
 20
8.0806965989
 30
0.0
  0
SPLINE
  5
380
100
AcDbEntity
  8
0
100
AcDbSpline
 62
7
  6
CONTINUOUS
 70
0
 71
3
 72
13
 73
9
 74
0
 42
0.0000001
 43
0.0000001
 44
0.0000000001
 40
0.0
 40
0.0
 40
0.0
 40
0.0
 40
0.2622107884
 40
0.5188597959
 40
0.6437862888
 40
0.7658670948
 40
0.8847258899
 40
1.0
 40
1.0
 40
1.0
 40
1.0
 10
14.6386026895
 20
8.0806965989
 30
0.0
 10
14.6393767805
 20
8.0768077475
 30
0.0
 10
14.6411991924
 20
8.069166723
 30
0.0
 10
14.6442448442
 20
8.0599053268
 30
0.0
 10
14.6471384588
 20
8.052857169
 30
0.0
 10
14.6494974645
 20
8.0478497315
 30
0.0
 10
14.6520577116
 20
8.0431073374
 30
0.0
 10
14.6539229106
 20
8.0400947049
 30
0.0
 10
14.6548891301
 20
8.0386438188
 30
0.0
  0
SPLINE
  5
381
100
AcDbEntity
  8
0
100
AcDbSpline
 62
7
  6
CONTINUOUS
 70
0
 71
3
 72
34
 73
30
 74
0
 42
0.0000001
 43
0.0000001
 44
0.0000000001
 40
0.0
 40
0.0
 40
0.0
 40
0.0
 40
0.0862693924
 40
0.1697587337
 40
0.2494783305
 40
0.3246384915
 40
0.3602948352
 40
0.3945498845
 40
0.4273339818
 40
0.4585963924
 40
0.4882994366
 40
0.5164377383
 40
0.5430539829
 40
0.5682430434
 40
0.5921596499
 40
0.6150396022
 40
0.6372040879
 40
0.6590320329
 40
0.6809433741
 40
0.703360413
 40
0.7266441531
 40
0.7510923011
 40
0.7769229169
 40
0.8042579123
 40
0.8331553348
 40
0.8636216927
 40
0.8956181673
 40
0.9290751158
 40
1.0
 40
1.0
 40
1.0
 40
1.0
 10
14.6357704466
 20
8.1034856646
 30
0.0
 10
14.6359771005
 20
8.1070082598
 30
0.0
 10
14.6364875994
 20
8.1139344765
 30
0.0
 10
14.6375980633
 20
8.1240807642
 30
0.0
 10
14.6390727732
 20
8.1337219554
 30
0.0
 10
14.6406647724
 20
8.1413567846
 30
0.0
 10
14.6421817635
 20
8.1470947445
 30
0.0
 10
14.6434178315
 20
8.1511106529
 30
0.0
 10
14.6447774449
 20
8.1548963534
 30
0.0
 10
14.6462659655
 20
8.1584325707
 30
0.0
 10
14.6478872921
 20
8.1616997002
 30
0.0
 10
14.6496452336
 20
8.1646776338
 30
0.0
 10
14.6515444255
 20
8.1673451574
 30
0.0
 10
14.6535861354
 20
8.1696819195
 30
0.0
 10
14.6557688672
 20
8.1716689661
 30
0.0
 10
14.6580921384
 20
8.1732845534
 30
0.0
 10
14.6605504868
 20
8.1745073033
 30
0.0
 10
14.6631307309
 20
8.1753252665
 30
0.0
 10
14.6658186028
 20
8.1757249285
 30
0.0
 10
14.6685945679
 20
8.1757001282
 30
0.0
 10
14.6714390207
 20
8.1752588923
 30
0.0
 10
14.6743328621
 20
8.1744062627
 30
0.0
 10
14.6772567119
 20
8.1731531408
 30
0.0
 10
14.6801936021
 20
8.1715170839
 30
0.0
 10
14.6831245517
 20
8.1695130152
 30
0.0
 10
14.6860313391
 20
8.1671589744
 30
0.0
 10
14.6888977313
 20
8.1644754205
 30
0.0
 10
14.6927161832
 20
8.1604050722
 30
0.0
 10
14.695353529
 20
8.1570330503
 30
0.0
 10
14.6970285237
 20
8.1546644413
 30
0.0
  0
SPLINE
  5
382
100
AcDbEntity
  8
0
100
AcDbSpline
 62
7
  6
CONTINUOUS
 70
0
 71
3
 72
15
 73
11
 74
0
 42
0.0000001
 43
0.0000001
 44
0.0000000001
 40
0.0
 40
0.0
 40
0.0
 40
0.0
 40
0.0964246303
 40
0.2010045951
 40
0.3141607172
 40
0.4359507082
 40
0.566129119
 40
0.7041473982
 40
0.8491984842
 40
1.0
 40
1.0
 40
1.0
 40
1.0
 10
14.6621311433
 20
8.0003061341
 30
0.0
 10
14.6606344239
 20
8.0013224674
 30
0.0
 10
14.6576939314
 20
8.0037119372
 30
0.0
 10
14.6536702174
 20
8.0080395937
 30
0.0
 10
14.6499083428
 20
8.0131968478
 30
0.0
 10
14.6464470397
 20
8.0191203986
 30
0.0
 10
14.643324621
 20
8.0257471465
 30
0.0
 10
14.6405734583
 20
8.0330038317
 30
0.0
 10
14.6382294979
 20
8.0408056951
 30
0.0
 10
14.6369725606
 20
8.0462166505
 30
0.0
 10
14.6364134994
 20
8.0489902892
 30
0.0
  0
SPLINE
  5
383
100
AcDbEntity
  8
0
100
AcDbSpline
 62
7
  6
CONTINUOUS
 70
0
 71
3
 72
30
 73
26
 74
0
 42
0.0000001
 43
0.0000001
 44
0.0000000001
 40
0.0
 40
0.0
 40
0.0
 40
0.0
 40
0.040186126
 40
0.0879206721
 40
0.1508808404
 40
0.2263774523
 40
0.2679892731
 40
0.3117160076
 40
0.334258886
 40
0.3571932091
 40
0.4040224927
 40
0.4278131658
 40
0.4517809397
 40
0.5000076695
 40
0.5482330236
 40
0.5959863387
 40
0.642810514
 40
0.66574201
 40
0.6882822043
 40
0.7320033925
 40
0.7736103053
 40
0.8491024497
 40
0.9120662104
 40
0.9598084
 40
1.0
 40
1.0
 40
1.0
 40
1.0
 10
6.4476923427
 20
8.3561965989
 30
0.0
 10
6.4496287078
 20
8.3611252044
 30
0.0
 10
6.4537460669
 20
8.3719555033
 30
0.0
 10
6.460331901
 20
8.390717537
 30
0.0
 10
6.4676526789
 20
8.4141412957
 30
0.0
 10
6.4736560713
 20
8.4371104707
 30
0.0
 10
6.4781139067
 20
8.457832799
 30
0.0
 10
6.4806397417
 20
8.4718255104
 30
0.0
 10
6.4824172809
 20
8.4834454196
 30
0.0
 10
6.4840287432
 20
8.4955020759
 30
0.0
 10
6.4853067345
 20
8.5077672453
 30
0.0
 10
6.4862209685
 20
8.5201983197
 30
0.0
 10
6.4868852989
 20
8.5328296921
 30
0.0
 10
6.4872242867
 20
8.5486990334
 30
0.0
 10
6.4868185993
 20
8.5677023632
 30
0.0
 10
6.485634504
 20
8.5864876403
 30
0.0
 10
6.4840285635
 20
8.6018928408
 30
0.0
 10
6.4824171903
 20
8.6139481459
 30
0.0
 10
6.4806399574
 20
8.6255666154
 30
0.0
 10
6.4781145192
 20
8.639557646
 30
0.0
 10
6.4736570637
 20
8.6602780415
 30
0.0
 10
6.4676541797
 20
8.6832465574
 30
0.0
 10
6.4603333385
 20
8.7066712338
 30
0.0
 10
6.4537468935
 20
8.7254353873
 30
0.0
 10
6.4496289588
 20
8.7362673168
 30
0.0
 10
6.4476923427
 20
8.7411965989
 30
0.0
  0
SPLINE
  5
384
100
AcDbEntity
  8
0
100
AcDbSpline
 62
7
  6
CONTINUOUS
 70
0
 71
3
 72
9
 73
5
 74
0
 42
0.0000001
 43
0.0000001
 44
0.0000000001
 40
0.0
 40
0.0
 40
0.0
 40
0.0
 40
0.263123231
 40
1.0
 40
1.0
 40
1.0
 40
1.0
 10
7.1746277294
 20
8.1482775739
 30
0.0
 10
7.1750616226
 20
8.1486963991
 30
0.0
 10
7.1767543142
 20
8.1502411587
 30
0.0
 10
7.1786344834
 20
8.1515889867
 30
0.0
 10
7.1801120569
 20
8.15240693
 30
0.0
  0
SPLINE
  5
385
100
AcDbEntity
  8
0
100
AcDbSpline
 62
7
  6
CONTINUOUS
 70
0
 71
3
 72
17
 73
13
 74
0
 42
0.0000001
 43
0.0000001
 44
0.0000000001
 40
0.0
 40
0.0
 40
0.0
 40
0.0
 40
0.1144134823
 40
0.170028926
 40
0.225138446
 40
0.2802248405
 40
0.3357774974
 40
0.4499916156
 40
0.5713193412
 40
0.7023815698
 40
0.8449334177
 40
1.0
 40
1.0
 40
1.0
 40
1.0
 10
7.181831366
 20
8.153257841
 30
0.0
 10
7.1829148793
 20
8.1537312012
 30
0.0
 10
7.1845972771
 20
8.1542888679
 30
0.0
 10
7.1868962814
 20
8.1546672299
 30
0.0
 10
7.1886105314
 20
8.1547650064
 30
0.0
 10
7.1903245888
 20
8.1546771154
 30
0.0
 10
7.1926229886
 20
8.1543097075
 30
0.0
 10
7.1955025441
 20
8.1533640699
 30
0.0
 10
7.1988267247
 20
8.1515057237
 30
0.0
 10
7.2020223364
 20
8.1489406092
 30
0.0
 10
7.2050588772
 20
8.1456981364
 30
0.0
 10
7.2068795227
 20
8.1432099636
 30
0.0
 10
7.2077610482
 20
8.141871678
 30
0.0
  0
SPLINE
  5
386
100
AcDbEntity
  8
0
100
AcDbSpline
 62
7
  6
CONTINUOUS
 70
0
 71
3
 72
15
 73
11
 74
0
 42
0.0000001
 43
0.0000001
 44
0.0000000001
 40
0.0
 40
0.0
 40
0.0
 40
0.0
 40
0.113212152
 40
0.2313883179
 40
0.353634557
 40
0.4791430212
 40
0.6071808884
 40
0.7371348974
 40
0.8683464689
 40
1.0
 40
1.0
 40
1.0
 40
1.0
 10
7.1766140104
 20
8.0092833129
 30
0.0
 10
7.1750556459
 20
8.0116524253
 30
0.0
 10
7.1720856312
 20
8.0166386477
 30
0.0
 10
7.1681677177
 20
8.024591848
 30
0.0
 10
7.1647397185
 20
8.0331013481
 30
0.0
 10
7.1618549866
 20
8.0420693765
 30
0.0
 10
7.1595605927
 20
8.0514051021
 30
0.0
 10
7.1578927878
 20
8.0610180223
 30
0.0
 10
7.1568833737
 20
8.0708126801
 30
0.0
 10
7.1566554842
 20
8.0773989857
 30
0.0
 10
7.1566554842
 20
8.0806965989
 30
0.0
  0
SPLINE
  5
387
100
AcDbEntity
  8
0
100
AcDbSpline
 62
7
  6
CONTINUOUS
 70
0
 71
3
 72
11
 73
7
 74
0
 42
0.0000001
 43
0.0000001
 44
0.0000000001
 40
0.0
 40
0.0
 40
0.0
 40
0.0
 40
0.2700206215
 40
0.5254968686
 40
0.7680496105
 40
1.0
 40
1.0
 40
1.0
 40
1.0
 10
7.1788635977
 20
8.0071201416
 30
0.0
 10
7.1799023738
 20
8.0060517648
 30
0.0
 10
7.182022483
 20
8.0040647606
 30
0.0
 10
7.1854135264
 20
8.0015071039
 30
0.0
 10
7.1889048601
 20
7.9994773848
 30
0.0
 10
7.1913305787
 20
7.9984655326
 30
0.0
 10
7.1925444448
 20
7.9980593055
 30
0.0
  0
SPLINE
  5
388
100
AcDbEntity
  8
0
100
AcDbSpline
 62
7
  6
CONTINUOUS
 70
0
 71
3
 72
11
 73
7
 74
0
 42
0.0000001
 43
0.0000001
 44
0.0000000001
 40
0.0
 40
0.0
 40
0.0
 40
0.0
 40
0.2457171193
 40
0.4898774143
 40
0.7393933873
 40
1.0
 40
1.0
 40
1.0
 40
1.0
 10
7.1946114296
 20
7.9974611096
 30
0.0
 10
7.1961468072
 20
7.9970858315
 30
0.0
 10
7.1992883577
 20
7.9966268333
 30
0.0
 10
7.2040679262
 20
7.9968896632
 30
0.0
 10
7.2087947672
 20
7.9981041577
 30
0.0
 10
7.2117912647
 20
7.999486439
 30
0.0
 10
7.2132535422
 20
8.0003061341
 30
0.0
  0
SPLINE
  5
389
100
AcDbEntity
  8
0
100
AcDbSpline
 62
7
  6
CONTINUOUS
 70
0
 71
3
 72
14
 73
10
 74
0
 42
0.0000001
 43
0.0000001
 44
0.0000000001
 40
0.0
 40
0.0
 40
0.0
 40
0.0
 40
0.1307676978
 40
0.2611567375
 40
0.5179634288
 40
0.6434028099
 40
0.7660256939
 40
0.8851390688
 40
1.0
 40
1.0
 40
1.0
 40
1.0
 10
7.1566554842
 20
8.0806965989
 30
0.0
 10
7.1566554842
 20
8.0837920603
 30
0.0
 10
7.1568561583
 20
8.0899762048
 30
0.0
 10
7.1580371568
 20
8.1021858477
 30
0.0
 10
7.1603705821
 20
8.1141364207
 30
0.0
 10
7.1638097254
 20
8.125588798
 30
0.0
 10
7.1668628025
 20
8.1337341613
 30
0.0
 10
7.1703655993
 20
8.1414213625
 30
0.0
 10
7.1730247104
 20
8.146286918
 30
0.0
 10
7.1744224329
 20
8.1486190685
 30
0.0
  0
SPLINE
  5
38A
100
AcDbEntity
  8
0
100
AcDbSpline
 62
7
  6
CONTINUOUS
 70
0
 71
3
 72
10
 73
6
 74
0
 42
0.0000001
 43
0.0000001
 44
0.0000000001
 40
0.0
 40
0.0
 40
0.0
 40
0.0
 40
0.5038935976
 40
0.7532219788
 40
1.0
 40
1.0
 40
1.0
 40
1.0
 10
7.240598001
 20
8.0800363067
 30
0.0
 10
7.2405343709
 20
8.083978306
 30
0.0
 10
7.2403692135
 20
8.0898701308
 30
0.0
 10
7.2399914401
 20
8.0976852695
 30
0.0
 10
7.2397497348
 20
8.1015595016
 30
0.0
 10
7.2396142464
 20
8.1034855574
 30
0.0
  0
SPLINE
  5
38B
100
AcDbEntity
  8
0
100
AcDbSpline
 62
7
  6
CONTINUOUS
 70
0
 71
3
 72
11
 73
7
 74
0
 42
0.0000001
 43
0.0000001
 44
0.0000000001
 40
0.0
 40
0.0
 40
0.0
 40
0.0
 40
0.2420395669
 40
0.4907909298
 40
0.7441825991
 40
1.0
 40
1.0
 40
1.0
 40
1.0
 10
7.2389711732
 20
8.0489900654
 30
0.0
 10
7.2392468476
 20
8.0514842308
 30
0.0
 10
7.2397208724
 20
8.0565513709
 30
0.0
 10
7.2402180119
 20
8.0642515716
 30
0.0
 10
7.2405193355
 20
8.0721047856
 30
0.0
 10
7.2405927575
 20
8.0773841157
 30
0.0
 10
7.240598001
 20
8.0800363067
 30
0.0
  0
SPLINE
  5
38C
100
AcDbEntity
  8
0
100
AcDbSpline
 62
7
  6
CONTINUOUS
 70
0
 71
3
 72
35
 73
31
 74
0
 42
0.0000001
 43
0.0000001
 44
0.0000000001
 40
0.0
 40
0.0
 40
0.0
 40
0.0
 40
0.0709601622
 40
0.1044306175
 40
0.1364360516
 40
0.1669112729
 40
0.1958163247
 40
0.2231519824
 40
0.2489823531
 40
0.2734388448
 40
0.2967225076
 40
0.3191330073
 40
0.3410471693
 40
0.3628734037
 40
0.3850348609
 40
0.4079149587
 40
0.4318257863
 40
0.4570078365
 40
0.4836212524
 40
0.5117551786
 40
0.5414505547
 40
0.5727065636
 40
0.605485567
 40
0.6397315447
 40
0.6753777817
 40
0.7123410355
 40
0.7505314225
 40
0.8302383857
 40
0.9137256998
 40
1.0
 40
1.0
 40
1.0
 40
1.0
 10
7.1783561298
 20
8.1546645318
 30
0.0
 10
7.1800320348
 20
8.1570342986
 30
0.0
 10
7.1826711986
 20
8.1604074756
 30
0.0
 10
7.1864910816
 20
8.1644797783
 30
0.0
 10
7.1893587411
 20
8.1671639593
 30
0.0
 10
7.192267208
 20
8.1695176192
 30
0.0
 10
7.1951986275
 20
8.1715222446
 30
0.0
 10
7.1981362698
 20
8.173157917
 30
0.0
 10
7.2010617528
 20
8.1744081397
 30
0.0
 10
7.2039556699
 20
8.1752612656
 30
0.0
 10
7.2068004453
 20
8.1757025854
 30
0.0
 10
7.2095762928
 20
8.1757226288
 30
0.0
 10
7.2122638108
 20
8.1753233134
 30
0.0
 10
7.214844045
 20
8.1745047037
 30
0.0
 10
7.2173002703
 20
8.1732781831
 30
0.0
 10
7.2196234729
 20
8.1716633691
 30
0.0
 10
7.2218057659
 20
8.1696763639
 30
0.0
 10
7.223845097
 20
8.1673383397
 30
0.0
 10
7.2257433511
 20
8.1646709095
 30
0.0
 10
7.2275010764
 20
8.1616935016
 30
0.0
 10
7.2291214262
 20
8.1584266786
 30
0.0
 10
7.2306091277
 20
8.1548909422
 30
0.0
 10
7.2319684157
 20
8.1511059761
 30
0.0
 10
7.2332040402
 20
8.1470909454
 30
0.0
 10
7.2343214936
 20
8.1428644433
 30
0.0
 10
7.2353264617
 20
8.1384443762
 30
0.0
 10
7.2365408762
 20
8.1322267766
 30
0.0
 10
7.2377865535
 20
8.1240805489
 30
0.0
 10
7.238897077
 20
8.1139348556
 30
0.0
 10
7.2394075801
 20
8.107008387
 30
0.0
 10
7.2396142464
 20
8.1034855574
 30
0.0
  0
LINE
  5
38D
100
AcDbEntity
  8
0
100
AcDbLine
 62
7
  6
CONTINUOUS
 10
7.2018140488
 20
8.1464051002
 11
7.198655653
 21
8.1517093854
  0
SPLINE
  5
38E
100
AcDbEntity
  8
0
100
AcDbSpline
 62
7
  6
CONTINUOUS
 70
0
 71
3
 72
11
 73
7
 74
0
 42
0.0000001
 43
0.0000001
 44
0.0000000001
 40
0.0
 40
0.0
 40
0.0
 40
0.0
 40
0.2368150673
 40
0.4813231729
 40
0.7352443134
 40
1.0
 40
1.0
 40
1.0
 40
1.0
 10
7.1988889657
 20
7.9968795629
 30
0.0
 10
7.1999573419
 20
7.9971937837
 30
0.0
 10
7.2020926253
 20
7.9979618517
 30
0.0
 10
7.2052031915
 20
7.9994854795
 30
0.0
 10
7.2082525918
 20
8.0013887467
 30
0.0
 10
7.2101928356
 20
8.0028732192
 30
0.0
 10
7.2111487209
 20
8.0036709349
 30
0.0
  0
SPLINE
  5
38F
100
AcDbEntity
  8
0
100
AcDbSpline
 62
7
  6
CONTINUOUS
 70
0
 71
3
 72
17
 73
13
 74
0
 42
0.0000001
 43
0.0000001
 44
0.0000000001
 40
0.0
 40
0.0
 40
0.0
 40
0.0
 40
0.0984155129
 40
0.2059361553
 40
0.2631314639
 40
0.3224980324
 40
0.4472521268
 40
0.5123882759
 40
0.5791021684
 40
0.7163921452
 40
0.8573553965
 40
1.0
 40
1.0
 40
1.0
 40
1.0
 10
7.2114790591
 20
8.0039493585
 30
0.0
 10
7.2135630492
 20
8.0057232146
 30
0.0
 10
7.2175887874
 20
8.0098368047
 30
0.0
 10
7.221911635
 20
8.0157655692
 30
0.0
 10
7.2251223638
 20
8.0211091408
 30
0.0
 10
7.2282537955
 20
8.0270474871
 30
0.0
 10
7.2310005987
 20
8.0334254212
 30
0.0
 10
7.2333772415
 20
8.0401551207
 30
0.0
 10
7.2355664487
 20
8.0473141231
 30
0.0
 10
7.2378068328
 20
8.05665272
 30
0.0
 10
7.2396758683
 20
8.0682163335
 30
0.0
 10
7.2403818137
 20
8.0760788934
 30
0.0
 10
7.2405980601
 20
8.0800396138
 30
0.0
  0
SPLINE
  5
390
100
AcDbEntity
  8
0
100
AcDbSpline
 62
7
  6
CONTINUOUS
 70
0
 71
3
 72
14
 73
10
 74
0
 42
0.0000001
 43
0.0000001
 44
0.0000000001
 40
0.0
 40
0.0
 40
0.0
 40
0.0
 40
0.1152488317
 40
0.2340857198
 40
0.356148452
 40
0.4810632424
 40
0.6084269757
 40
0.7377794437
 40
1.0
 40
1.0
 40
1.0
 40
1.0
 10
7.2204811848
 20
8.0386222402
 30
0.0
 10
7.2214482835
 20
8.0400734106
 30
0.0
 10
7.2233151797
 20
8.043086801
 30
0.0
 10
7.2258777069
 20
8.0478307459
 30
0.0
 10
7.2282388699
 20
8.0528401435
 30
0.0
 10
7.2303916565
 20
8.0580818745
 30
0.0
 10
7.2323301885
 20
8.063523777
 30
0.0
 10
7.2346301084
 20
8.0710336647
 30
0.0
 10
7.236007201
 20
8.0768051341
 30
0.0
 10
7.2367818122
 20
8.0806965989
 30
0.0
  0
SPLINE
  5
391
100
AcDbEntity
  8
0
100
AcDbSpline
 62
7
  6
CONTINUOUS
 70
0
 71
3
 72
10
 73
6
 74
0
 42
0.0000001
 43
0.0000001
 44
0.0000000001
 40
0.0
 40
0.0
 40
0.0
 40
0.0
 40
0.251060487
 40
0.5020277831
 40
1.0
 40
1.0
 40
1.0
 40
1.0
 10
7.2367818122
 20
8.0806965989
 30
0.0
 10
7.2371573641
 20
8.0825832834
 30
0.0
 10
7.2378344857
 20
8.0863710875
 30
0.0
 10
7.2389088385
 20
8.093958692
 30
0.0
 10
7.2394122755
 20
8.0996814352
 30
0.0
 10
7.2396137128
 20
8.1034917231
 30
0.0
  0
SPLINE
  5
392
100
AcDbEntity
  8
0
100
AcDbSpline
 62
7
  6
CONTINUOUS
 70
0
 71
3
 72
15
 73
11
 74
0
 42
0.0000001
 43
0.0000001
 44
0.0000000001
 40
0.0
 40
0.0
 40
0.0
 40
0.0
 40
0.1508015158
 40
0.2958526017
 40
0.4338708808
 40
0.5640492914
 40
0.6858392825
 40
0.7989954046
 40
0.9035753695
 40
1.0
 40
1.0
 40
1.0
 40
1.0
 10
7.2389711859
 20
8.0489902885
 30
0.0
 10
7.2384121248
 20
8.0462166498
 30
0.0
 10
7.2371551874
 20
8.0408056945
 30
0.0
 10
7.234811227
 20
8.0330038312
 30
0.0
 10
7.2320600643
 20
8.0257471461
 30
0.0
 10
7.2289376457
 20
8.0191203984
 30
0.0
 10
7.2254763425
 20
8.0131968476
 30
0.0
 10
7.221714468
 20
8.0080395936
 30
0.0
 10
7.2176907541
 20
8.0037119371
 30
0.0
 10
7.2147502616
 20
8.0013224674
 30
0.0
 10
7.2132535422
 20
8.0003061341
 30
0.0
  0
SPLINE
  5
393
100
AcDbEntity
  8
0
100
AcDbSpline
 62
7
  6
CONTINUOUS
 70
0
 71
3
 72
32
 73
28
 74
0
 42
0.0000001
 43
0.0000001
 44
0.0000000001
 40
0.0
 40
0.0
 40
0.0
 40
0.0
 40
0.0858267579
 40
0.168317077
 40
0.2465822215
 40
0.3199188034
 40
0.3545727948
 40
0.3877935885
 40
0.4195290056
 40
0.4497531041
 40
0.4784699808
 40
0.5057122662
 40
0.5315603127
 40
0.5561580884
 40
0.5797175666
 40
0.6025107628
 40
0.6248730719
 40
0.6471907202
 40
0.6698471596
 40
0.6931979773
 40
0.7430702514
 40
0.7700612097
 40
0.7985364377
 40
0.8285346541
 40
0.8600446714
 40
0.9273729947
 40
1.0
 40
1.0
 40
1.0
 40
1.0
 10
7.2389711732
 20
8.0489900654
 30
0.0
 10
7.2386915196
 20
8.0457476372
 30
0.0
 10
7.2380411095
 20
8.0393969086
 30
0.0
 10
7.2367260278
 20
8.0301367982
 30
0.0
 10
7.235059079
 20
8.0214142629
 30
0.0
 10
7.233315129
 20
8.0145636641
 30
0.0
 10
7.2316857787
 20
8.0094614365
 30
0.0
 10
7.2303750952
 20
8.0059174337
 30
0.0
 10
7.2289486514
 20
8.0026001198
 30
0.0
 10
7.227402108
 20
7.9995265205
 30
0.0
 10
7.2257316191
 20
7.9967142044
 30
0.0
 10
7.2239360359
 20
7.9941799587
 30
0.0
 10
7.2220140355
 20
7.9919410082
 30
0.0
 10
7.219963441
 20
7.990016274
 30
0.0
 10
7.2177863756
 20
7.9884231161
 30
0.0
 10
7.2154894992
 20
7.9871750824
 30
0.0
 10
7.2130797611
 20
7.9862874104
 30
0.0
 10
7.2105684634
 20
7.9857750301
 30
0.0
 10
7.2079718904
 20
7.9856388493
 30
0.0
 10
7.2043403236
 20
7.985964781
 30
0.0
 10
7.200660404
 20
7.9870736303
 30
0.0
 10
7.1970552863
 20
7.9888002095
 30
0.0
 10
7.1942723321
 20
7.990470581
 30
0.0
 10
7.1915008158
 20
7.992466488
 30
0.0
 10
7.1877555375
 20
7.9956092465
 30
0.0
 10
7.1832125527
 20
8.0002848929
 30
0.0
 10
7.1799462355
 20
8.0044801516
 30
0.0
 10
7.1783561266
 20
8.0067286538
 30
0.0
  0
SPLINE
  5
394
100
AcDbEntity
  8
0
100
AcDbSpline
 62
7
  6
CONTINUOUS
 70
0
 71
3
 72
32
 73
28
 74
0
 42
0.0000001
 43
0.0000001
 44
0.0000000001
 40
0.0
 40
0.0
 40
0.0
 40
0.0
 40
0.1036031864
 40
0.2030184935
 40
0.2977717682
 40
0.387487952
 40
0.4718390989
 40
0.5505184056
 40
0.6232400807
 40
0.6572901928
 40
0.6897662099
 40
0.720645966
 40
0.7499096201
 40
0.777543683
 40
0.8035411633
 40
0.8278993296
 40
0.8506209032
 40
0.8717179046
 40
0.8912165661
 40
0.909156185
 40
0.9255929539
 40
0.9406068677
 40
0.9543131473
 40
0.9668689919
 40
0.9784822339
 40
0.9894187202
 40
1.0
 40
1.0
 40
1.0
 40
1.0
 10
10.7396923427
 20
10.6394536983
 30
0.0
 10
10.7323535901
 20
10.6387179456
 30
0.0
 10
10.7179830602
 20
10.6371702943
 30
0.0
 10
10.6969448407
 20
10.6345609035
 30
0.0
 10
10.6769346416
 20
10.6317188991
 30
0.0
 10
10.6580422486
 20
10.6286578826
 30
0.0
 10
10.6403465312
 20
10.6253908428
 30
0.0
 10
10.6239215434
 20
10.6219324159
 30
0.0
 10
10.6110840003
 20
10.6188398157
 30
0.0
 10
10.6015104374
 20
10.6162657136
 30
0.0
 10
10.5948486061
 20
10.6143391542
 30
0.0
 10
10.5885534271
 20
10.6123761905
 30
0.0
 10
10.582631724
 20
10.6103787034
 30
0.0
 10
10.5770896948
 20
10.6083488612
 30
0.0
 10
10.5719328788
 20
10.6062890373
 30
0.0
 10
10.5671665518
 20
10.6042014531
 30
0.0
 10
10.5627957846
 20
10.602088213
 30
0.0
 10
10.5588251172
 20
10.5999512259
 30
0.0
 10
10.5552580916
 20
10.5977928565
 30
0.0
 10
10.5520978013
 20
10.5956150331
 30
0.0
 10
10.5493471248
 20
10.5934193573
 30
0.0
 10
10.5470089409
 20
10.5912065544
 30
0.0
 10
10.5450854495
 20
10.5889772513
 30
0.0
 10
10.543579275
 20
10.5867314344
 30
0.0
 10
10.5424949069
 20
10.584468439
 30
0.0
 10
10.5418396058
 20
10.5821905741
 30
0.0
 10
10.5416927747
 20
10.5806550245
 30
0.0
 10
10.541692854
 20
10.57990174
 30
0.0
  0
SPLINE
  5
395
100
AcDbEntity
  8
0
100
AcDbSpline
 62
7
  6
CONTINUOUS
 70
0
 71
3
 72
12
 73
8
 74
0
 42
0.0000001
 43
0.0000001
 44
0.0000000001
 40
0.0
 40
0.0
 40
0.0
 40
0.0
 40
0.277797257
 40
0.5325055521
 40
0.7705177056
 40
0.8858204287
 40
1.0
 40
1.0
 40
1.0
 40
1.0
 10
10.4797487911
 20
10.9407534504
 30
0.0
 10
10.4790256646
 20
10.9398655442
 30
0.0
 10
10.4777370287
 20
10.9380787966
 30
0.0
 10
10.4762762936
 20
10.9352437943
 30
0.0
 10
10.4755316642
 20
10.9328335552
 30
0.0
 10
10.4752410779
 20
10.9309258413
 30
0.0
 10
10.4751928812
 20
10.9299791549
 30
0.0
 10
10.4751928393
 20
10.9295084922
 30
0.0
  0
SPLINE
  5
396
100
AcDbEntity
  8
0
100
AcDbSpline
 62
7
  6
CONTINUOUS
 70
0
 71
3
 72
44
 73
40
 74
0
 42
0.0000001
 43
0.0000001
 44
0.0000000001
 40
0.0
 40
0.0
 40
0.0
 40
0.0
 40
0.0037038086
 40
0.0075317934
 40
0.0115964484
 40
0.0159915162
 40
0.0207895549
 40
0.0260448923
 40
0.0317976123
 40
0.0380769319
 40
0.0449025774
 40
0.0522874636
 40
0.0602400895
 40
0.0687656828
 40
0.0778659663
 40
0.0875392566
 40
0.0977822702
 40
0.1085905766
 40
0.1199584063
 40
0.131877513
 40
0.1573311406
 40
0.1848710529
 40
0.2143980641
 40
0.2458031487
 40
0.2789649145
 40
0.3137529772
 40
0.3500287292
 40
0.3876450103
 40
0.4264495194
 40
0.5069788557
 40
0.5902926349
 40
0.6750114415
 40
0.7597311859
 40
0.8016522737
 40
0.8430456638
 40
0.8837418629
 40
0.9235803619
 40
0.9623942757
 40
1.0
 40
1.0
 40
1.0
 40
1.0
 10
11.3336918315
 20
10.5799017399
 30
0.0
 10
11.3336917522
 20
10.580655036
 30
0.0
 10
11.3335445755
 20
10.5821905201
 30
0.0
 10
11.3328896522
 20
10.5844683701
 30
0.0
 10
11.3318058275
 20
10.586731601
 30
0.0
 10
11.3302993187
 20
10.5889773044
 30
0.0
 10
11.3283754383
 20
10.5912064279
 30
0.0
 10
11.3260372801
 20
10.5934191926
 30
0.0
 10
11.3232870239
 20
10.5956151852
 30
0.0
 10
11.3201267126
 20
10.5977929573
 30
0.0
 10
11.3165593888
 20
10.599951156
 30
0.0
 10
11.3125885949
 20
10.6020880284
 30
0.0
 10
11.3082180949
 20
10.6042014819
 30
0.0
 10
11.3034519447
 20
10.6062891676
 30
0.0
 10
11.2982949512
 20
10.6083488445
 30
0.0
 10
11.2927526875
 20
10.6103785683
 30
0.0
 10
11.2868310167
 20
10.6123761294
 30
0.0
 10
11.2805359638
 20
10.6143392914
 30
0.0
 10
11.2738740255
 20
10.6162657743
 30
0.0
 10
11.2643004281
 20
10.6188396139
 30
0.0
 10
11.2514630961
 20
10.6219325973
 30
0.0
 10
11.235037947
 20
10.6253908256
 30
0.0
 10
11.2173415396
 20
10.6286579585
 30
0.0
 10
11.1984493426
 20
10.6317188622
 30
0.0
 10
11.1784417568
 20
10.6345605182
 30
0.0
 10
11.1574041715
 20
10.6371702853
 30
0.0
 10
11.1354265049
 20
10.639536648
 30
0.0
 10
11.1126025929
 20
10.6416496865
 30
0.0
 10
11.0807783877
 20
10.644146934
 30
0.0
 10
11.0396283325
 20
10.6465500131
 30
0.0
 10
10.9890999191
 20
10.6482805816
 30
0.0
 10
10.9376930292
 20
10.6488607855
 30
0.0
 10
10.8947044957
 20
10.6483758314
 30
0.0
 10
10.8605423211
 20
10.647398597
 30
0.0
 10
10.8353404366
 20
10.6463805632
 30
0.0
 10
10.8105757502
 20
10.6450789935
 30
0.0
 10
10.7863528739
 20
10.6434996373
 30
0.0
 10
10.7627796485
 20
10.6416491184
 30
0.0
 10
10.7473026022
 20
10.6402166711
 30
0.0
 10
10.7396923427
 20
10.6394536983
 30
0.0
  0
LINE
  5
397
100
AcDbEntity
  8
0
100
AcDbLine
 62
7
  6
CONTINUOUS
 10
11.1477740926
 20
10.5169139751
 11
11.1485913266
 21
10.5169961207
  0
SPLINE
  5
398
100
AcDbEntity
  8
0
100
AcDbSpline
 62
7
  6
CONTINUOUS
 70
0
 71
3
 72
30
 73
26
 74
0
 42
0.0000001
 43
0.0000001
 44
0.0000000001
 40
0.0
 40
0.0
 40
0.0
 40
0.0
 40
0.0951215108
 40
0.1867586854
 40
0.2745387379
 40
0.3581718469
 40
0.4374192893
 40
0.5120608197
 40
0.5819013814
 40
0.646773817
 40
0.7065919956
 40
0.734591382
 40
0.7613166924
 40
0.7867828059
 40
0.8110090516
 40
0.8340184275
 40
0.8558386975
 40
0.8765256581
 40
0.8961821372
 40
0.9149307649
 40
0.9329133521
 40
0.9502792514
 40
0.967137017
 40
0.9836345783
 40
1.0
 40
1.0
 40
1.0
 40
1.0
 10
11.1485913266
 20
10.5169961207
 30
0.0
 10
11.1558210877
 20
10.51772472
 30
0.0
 10
11.1700062209
 20
10.5192525116
 30
0.0
 10
11.1908228138
 20
10.5218088098
 30
0.0
 10
11.2107261941
 20
10.5245810765
 30
0.0
 10
11.2296423485
 20
10.5275595032
 30
0.0
 10
11.2475081756
 20
10.5307344854
 30
0.0
 10
11.2642665654
 20
10.5340968678
 30
0.0
 10
11.2798646965
 20
10.5376363399
 30
0.0
 10
11.2942571763
 20
10.5413449795
 30
0.0
 10
11.3054489111
 20
10.544641785
 30
0.0
 10
11.3137604405
 20
10.5473789217
 30
0.0
 10
11.3195339646
 20
10.5494281838
 30
0.0
 10
11.3249843924
 20
10.5515206456
 30
0.0
 10
11.330111307
 20
10.5536579033
 30
0.0
 10
11.3349142692
 20
10.5558419073
 30
0.0
 10
11.3393949726
 20
10.5580742876
 30
0.0
 10
11.3435571623
 20
10.560363685
 30
0.0
 10
11.3474032247
 20
10.5627308657
 30
0.0
 10
11.3509388235
 20
10.5651961485
 30
0.0
 10
11.3541677304
 20
10.5677805152
 30
0.0
 10
11.3570923305
 20
10.570498136
 30
0.0
 10
11.359686219
 20
10.5733851112
 30
0.0
 10
11.3619091353
 20
10.5764748551
 30
0.0
 10
11.3631132661
 20
10.578687546
 30
0.0
 10
11.3636340656
 20
10.5798240651
 30
0.0
  0
SPLINE
  5
399
100
AcDbEntity
  8
0
100
AcDbSpline
 62
7
  6
CONTINUOUS
 70
0
 71
3
 72
43
 73
39
 74
0
 42
0.0000001
 43
0.0000001
 44
0.0000000001
 40
0.0
 40
0.0
 40
0.0
 40
0.0
 40
0.0060021134
 40
0.0120565424
 40
0.0182500101
 40
0.0214174747
 40
0.0246379065
 40
0.0312672228
 40
0.038202126
 40
0.04549788
 40
0.0532014
 40
0.0613439571
 40
0.069940498
 40
0.0790028439
 40
0.0885410368
 40
0.0985628302
 40
0.1090699281
 40
0.1315343882
 40
0.1559175063
 40
0.1821705409
 40
0.2102261006
 40
0.2400016179
 40
0.2714009759
 40
0.3043189653
 40
0.338638949
 40
0.374238707
 40
0.4109867042
 40
0.4487477281
 40
0.52673539
 40
0.6070250621
 40
0.6883939962
 40
0.7696000126
 40
0.8097543983
 40
0.8494027384
 40
0.888395289
 40
0.9265915822
 40
0.9638467461
 40
1.0
 40
1.0
 40
1.0
 40
1.0
 10
10.5117506198
 20
10.5798240651
 30
0.0
 10
10.5122922243
 20
10.5786421441
 30
0.0
 10
10.5135520333
 20
10.5763433726
 30
0.0
 10
10.515889583
 20
10.5731445375
 30
0.0
 10
10.5181497493
 20
10.5706783811
 30
0.0
 10
10.5201235277
 20
10.5687984602
 30
0.0
 10
10.5222433064
 20
10.5669381092
 30
0.0
 10
10.5251130653
 20
10.5647002696
 30
0.0
 10
10.5288566415
 20
10.5621651217
 30
0.0
 10
10.5329383467
 20
10.5597292447
 30
0.0
 10
10.5373614302
 20
10.5573672485
 30
0.0
 10
10.5421290475
 20
10.5550619431
 30
0.0
 10
10.5472454497
 20
10.552810516
 30
0.0
 10
10.5527109096
 20
10.5506095814
 30
0.0
 10
10.5585256771
 20
10.5484566091
 30
0.0
 10
10.5646886902
 20
10.5463491179
 30
0.0
 10
10.573566995
 20
10.5435358719
 30
0.0
 10
10.5855246621
 20
10.5401539374
 30
0.0
 10
10.6008998084
 20
10.5363592058
 30
0.0
 10
10.617560567
 20
10.5327495913
 30
0.0
 10
10.6354527288
 20
10.5293359316
 30
0.0
 10
10.654514153
 20
10.5261286127
 30
0.0
 10
10.6746760224
 20
10.5231383546
 30
0.0
 10
10.6958633176
 20
10.5203759163
 30
0.0
 10
10.7179961156
 20
10.5178510724
 30
0.0
 10
10.7409894876
 20
10.5155739243
 30
0.0
 10
10.7647548312
 20
10.5135523732
 30
0.0
 10
10.7977025694
 20
10.5111839201
 30
0.0
 10
10.8401108836
 20
10.5089349608
 30
0.0
 10
10.8920009413
 20
10.5073758493
 30
0.0
 10
10.9446097359
 20
10.506953968
 30
0.0
 10
10.9885222263
 20
10.5075574841
 30
0.0
 10
11.0233823862
 20
10.5086208318
 30
0.0
 10
11.0490924096
 20
10.5096982145
 30
0.0
 10
11.0743644809
 20
10.5110545867
 30
0.0
 10
11.0991009681
 20
10.5126844851
 30
0.0
 10
11.1232014984
 20
10.5145818802
 30
0.0
 10
11.139035692
 20
10.5160428703
 30
0.0
 10
11.1468281729
 20
10.5168194258
 30
0.0
  0
LINE
  5
39A
100
AcDbEntity
  8
0
100
AcDbLine
 62
7
  6
CONTINUOUS
 10
11.1468281729
 20
10.5168194258
 11
11.1477740926
 21
10.5169139751
  0
SPLINE
  5
39B
100
AcDbEntity
  8
0
100
AcDbSpline
 62
7
  6
CONTINUOUS
 70
0
 71
3
 72
9
 73
5
 74
0
 42
0.0000001
 43
0.0000001
 44
0.0000000001
 40
0.0
 40
0.0
 40
0.0
 40
0.0
 40
0.4959767906
 40
1.0
 40
1.0
 40
1.0
 40
1.0
 10
11.4001918461
 20
10.9295084923
 30
0.0
 10
11.4001919002
 20
10.9301148885
 30
0.0
 10
11.4001117926
 20
10.9313388113
 30
0.0
 10
11.3998749248
 20
10.9325419557
 30
0.0
 10
11.399719557
 20
10.933138282
 30
0.0
  0
SPLINE
  5
39C
100
AcDbEntity
  8
0
100
AcDbSpline
 62
7
  6
CONTINUOUS
 70
0
 71
3
 72
11
 73
7
 74
0
 42
0.0000001
 43
0.0000001
 44
0.0000000001
 40
0.0
 40
0.0
 40
0.0
 40
0.0
 40
0.2313597353
 40
0.4733006031
 40
0.7287046422
 40
1.0
 40
1.0
 40
1.0
 40
1.0
 10
11.399719557
 20
10.933138282
 30
0.0
 10
11.3995532227
 20
10.9337766991
 30
0.0
 10
11.3991278915
 20
10.9350618047
 30
0.0
 10
11.398246059
 20
10.9369478572
 30
0.0
 10
11.3971107826
 20
10.9388269511
 30
0.0
 10
11.3962150073
 20
10.9400353108
 30
0.0
 10
11.3957296497
 20
10.9406377198
 30
0.0
  0
SPLINE
  5
39D
100
AcDbEntity
  8
0
100
AcDbSpline
 62
9
  6
CONTINUOUS
 70
0
 71
3
 72
69
 73
65
 74
0
 42
0.0000001
 43
0.0000001
 44
0.0000000001
 40
0.0
 40
0.0
 40
0.0
 40
0.0
 40
0.0421456581
 40
0.0861502103
 40
0.1315850069
 40
0.1780419914
 40
0.2250872334
 40
0.2722819825
 40
0.3191879465
 40
0.3653681927
 40
0.410394157
 40
0.4538492656
 40
0.4953335863
 40
0.5344696737
 40
0.5530463013
 40
0.5709067373
 40
0.5880111446
 40
0.6043236389
 40
0.619810443
 40
0.6344394375
 40
0.6481836102
 40
0.6610187067
 40
0.6729235838
 40
0.6838841487
 40
0.6938911451
 40
0.7029422722
 40
0.7071126796
 40
0.7110489276
 40
0.7147543199
 40
0.7182333328
 40
0.7214922186
 40
0.7245394597
 40
0.7273858154
 40
0.7300448571
 40
0.7325336236
 40
0.7348733222
 40
0.737090082
 40
0.7392149426
 40
0.7412831694
 40
0.7433330322
 40
0.7454038998
 40
0.7475340379
 40
0.7521002873
 40
0.7545998943
 40
0.7572709694
 40
0.7601305501
 40
0.7631922103
 40
0.766466268
 40
0.7699606233
 40
0.7736813759
 40
0.7776332064
 40
0.7862421376
 40
0.7958038214
 40
0.8063203915
 40
0.8177871113
 40
0.8301912013
 40
0.8435142747
 40
0.8577351182
 40
0.872826496
 40
0.8887576347
 40
0.9054965097
 40
0.9230086711
 40
0.9602064477
 40
1.0
 40
1.0
 40
1.0
 40
1.0
 10
11.1467765356
 20
10.517016017
 30
0.0
 10
11.1346422153
 20
10.5157994808
 30
0.0
 10
11.10980923
 20
10.5135972479
 30
0.0
 10
11.0718204562
 20
10.5110021201
 30
0.0
 10
11.0325435416
 20
10.5090615537
 30
0.0
 10
10.992359055
 20
10.5077941634
 30
0.0
 10
10.9516495456
 20
10.507212381
 30
0.0
 10
10.9108061335
 20
10.5073219321
 30
0.0
 10
10.8702207134
 20
10.5081218789
 30
0.0
 10
10.8302823721
 20
10.5096043488
 30
0.0
 10
10.7913742775
 20
10.5117545024
 30
0.0
 10
10.7538694456
 20
10.5145512449
 30
0.0
 10
10.7181274546
 20
10.5179672478
 30
0.0
 10
10.689621632
 20
10.5213569349
 30
0.0
 10
10.6679626598
 20
10.5243750899
 30
0.0
 10
10.6526497301
 20
10.526731603
 30
0.0
 10
10.6380209478
 20
10.529215196
 30
0.0
 10
10.624111268
 20
10.5318194964
 30
0.0
 10
10.6109539236
 20
10.5345378826
 30
0.0
 10
10.5985804185
 20
10.5373643625
 30
0.0
 10
10.5870201031
 20
10.5402914697
 30
0.0
 10
10.5763002914
 20
10.5433118176
 30
0.0
 10
10.5664464175
 20
10.546418733
 30
0.0
 10
10.5574810457
 20
10.5496038473
 30
0.0
 10
10.5494249303
 20
10.5528593675
 30
0.0
 10
10.5433275212
 20
10.5556975385
 30
0.0
 10
10.5389341123
 20
10.558011688
 30
0.0
 10
10.5359686006
 20
10.5597127188
 30
0.0
 10
10.5332435068
 20
10.5614258166
 30
0.0
 10
10.5307605324
 20
10.5631502311
 30
0.0
 10
10.5285210971
 20
10.5648851642
 30
0.0
 10
10.5265261981
 20
10.5666297175
 30
0.0
 10
10.5247767864
 20
10.5683832345
 30
0.0
 10
10.5232739173
 20
10.5701452029
 30
0.0
 10
10.5220188328
 20
10.5719152365
 30
0.0
 10
10.5210132119
 20
10.5736931106
 30
0.0
 10
10.5202587659
 20
10.5754782299
 30
0.0
 10
10.5197571103
 20
10.5772694158
 30
0.0
 10
10.5195099665
 20
10.5790647937
 30
0.0
 10
10.5195184736
 20
10.5808615991
 30
0.0
 10
10.5197828885
 20
10.5826569324
 30
0.0
 10
10.5204910886
 20
10.5850998989
 30
0.0
 10
10.5217230197
 20
10.5874896168
 30
0.0
 10
10.5233687605
 20
10.5897787064
 30
0.0
 10
10.5248883931
 20
10.5915407047
 30
0.0
 10
10.5266544551
 20
10.5932935405
 30
0.0
 10
10.5286664332
 20
10.5950373818
 30
0.0
 10
10.5309228926
 20
10.5967714777
 30
0.0
 10
10.5334224927
 20
10.5984951553
 30
0.0
 10
10.5361638041
 20
10.6002076001
 30
0.0
 10
10.5402573794
 20
10.6025416312
 30
0.0
 10
10.5459878364
 20
10.6054055252
 30
0.0
 10
10.5536142376
 20
10.6086913884
 30
0.0
 10
10.5621584536
 20
10.6119106604
 30
0.0
 10
10.571601105
 20
10.6150547039
 30
0.0
 10
10.5819205357
 20
10.6181162212
 30
0.0
 10
10.5930926332
 20
10.6210880165
 30
0.0
 10
10.6050911858
 20
10.623961985
 30
0.0
 10
10.6178873261
 20
10.6267315302
 30
0.0
 10
10.6314501322
 20
10.6293899978
 30
0.0
 10
10.6457474714
 20
10.6319303723
 30
0.0
 10
10.6661592694
 20
10.6352187628
 30
0.0
 10
10.6932512602
 20
10.6389592565
 30
0.0
 10
10.7153920623
 20
10.6414485329
 30
0.0
 10
10.7268478864
 20
10.642609993
 30
0.0
  0
SPLINE
  5
39E
100
AcDbEntity
  8
0
100
AcDbSpline
 62
7
  6
CONTINUOUS
 70
0
 71
3
 72
32
 73
28
 74
0
 42
0.0000001
 43
0.0000001
 44
0.0000000001
 40
0.0
 40
0.0
 40
0.0
 40
0.0
 40
0.1036031864
 40
0.2030184935
 40
0.2977717682
 40
0.387487952
 40
0.4718390989
 40
0.5505184056
 40
0.6232400807
 40
0.6572901928
 40
0.6897662099
 40
0.720645966
 40
0.7499096201
 40
0.777543683
 40
0.8035411633
 40
0.8278993296
 40
0.8506209032
 40
0.8717179046
 40
0.8912165661
 40
0.909156185
 40
0.9255929539
 40
0.9406068677
 40
0.9543131473
 40
0.9668689919
 40
0.9784822339
 40
0.9894187202
 40
1.0
 40
1.0
 40
1.0
 40
1.0
 10
11.1356923427
 20
10.5203497816
 30
0.0
 10
11.1430310953
 20
10.5210855343
 30
0.0
 10
11.1574016252
 20
10.5226331856
 30
0.0
 10
11.1784398447
 20
10.5252425764
 30
0.0
 10
11.1984500438
 20
10.5280845808
 30
0.0
 10
11.2173424368
 20
10.5311455973
 30
0.0
 10
11.2350381542
 20
10.5344126371
 30
0.0
 10
11.251463142
 20
10.5378710641
 30
0.0
 10
11.2643006851
 20
10.5409636643
 30
0.0
 10
11.273874248
 20
10.5435377664
 30
0.0
 10
11.2805360793
 20
10.5454643257
 30
0.0
 10
11.2868312583
 20
10.5474272895
 30
0.0
 10
11.2927529614
 20
10.5494247765
 30
0.0
 10
11.2982949906
 20
10.5514546187
 30
0.0
 10
11.3034518066
 20
10.5535144427
 30
0.0
 10
11.3082181336
 20
10.5556020268
 30
0.0
 10
11.3125889008
 20
10.5577152669
 30
0.0
 10
11.3165595682
 20
10.559852254
 30
0.0
 10
11.3201265938
 20
10.5620106234
 30
0.0
 10
11.3232868841
 20
10.5641884468
 30
0.0
 10
11.3260375606
 20
10.5663841226
 30
0.0
 10
11.3283757445
 20
10.5685969256
 30
0.0
 10
11.3302992359
 20
10.5708262287
 30
0.0
 10
11.3318054104
 20
10.5730720455
 30
0.0
 10
11.3328897785
 20
10.5753350409
 30
0.0
 10
11.3335450797
 20
10.5776129058
 30
0.0
 10
11.3336919107
 20
10.5791484554
 30
0.0
 10
11.3336918315
 20
10.5799017399
 30
0.0
  0
LINE
  5
39F
100
AcDbEntity
  8
0
100
AcDbLine
 62
9
  6
CONTINUOUS
 10
11.1467765356
 20
10.517016017
 11
11.1479510103
 21
10.5171340409
  0
LINE
  5
3A0
100
AcDbEntity
  8
0
100
AcDbLine
 62
9
  6
CONTINUOUS
 10
11.1479510103
 20
10.5171340409
 11
11.148536799
 21
10.517193487
  0
SPLINE
  5
3A1
100
AcDbEntity
  8
0
100
AcDbSpline
 62
7
  6
CONTINUOUS
 70
0
 71
3
 72
44
 73
40
 74
0
 42
0.0000001
 43
0.0000001
 44
0.0000000001
 40
0.0
 40
0.0
 40
0.0
 40
0.0
 40
0.0037038086
 40
0.0075317934
 40
0.0115964484
 40
0.0159915162
 40
0.0207895549
 40
0.0260448923
 40
0.0317976123
 40
0.0380769319
 40
0.0449025774
 40
0.0522874636
 40
0.0602400895
 40
0.0687656828
 40
0.0778659663
 40
0.0875392566
 40
0.0977822702
 40
0.1085905766
 40
0.1199584063
 40
0.131877513
 40
0.1573311406
 40
0.1848710529
 40
0.2143980641
 40
0.2458031487
 40
0.2789649145
 40
0.3137529772
 40
0.3500287292
 40
0.3876450103
 40
0.4264495194
 40
0.5069788557
 40
0.5902926349
 40
0.6750114415
 40
0.7597311859
 40
0.8016522737
 40
0.8430456638
 40
0.8837418629
 40
0.9235803619
 40
0.9623942757
 40
1.0
 40
1.0
 40
1.0
 40
1.0
 10
10.541692854
 20
10.57990174
 30
0.0
 10
10.5416929332
 20
10.5791484439
 30
0.0
 10
10.5418401099
 20
10.5776129598
 30
0.0
 10
10.5424950332
 20
10.5753351098
 30
0.0
 10
10.5435788579
 20
10.573071879
 30
0.0
 10
10.5450853668
 20
10.5708261756
 30
0.0
 10
10.5470092471
 20
10.568597052
 30
0.0
 10
10.5493474053
 20
10.5663842873
 30
0.0
 10
10.5520976615
 20
10.5641882948
 30
0.0
 10
10.5552579728
 20
10.5620105226
 30
0.0
 10
10.5588252966
 20
10.5598523239
 30
0.0
 10
10.5627960905
 20
10.5577154516
 30
0.0
 10
10.5671665906
 20
10.555601998
 30
0.0
 10
10.5719327407
 20
10.5535143123
 30
0.0
 10
10.5770897342
 20
10.5514546354
 30
0.0
 10
10.5826319979
 20
10.5494249116
 30
0.0
 10
10.5885536687
 20
10.5474273505
 30
0.0
 10
10.5948487216
 20
10.5454641885
 30
0.0
 10
10.6015106599
 20
10.5435377056
 30
0.0
 10
10.6110842573
 20
10.540963866
 30
0.0
 10
10.6239215893
 20
10.5378708827
 30
0.0
 10
10.6403467384
 20
10.5344126543
 30
0.0
 10
10.6580431458
 20
10.5311455215
 30
0.0
 10
10.6769353428
 20
10.5280846178
 30
0.0
 10
10.6969429286
 20
10.5252429617
 30
0.0
 10
10.7179805139
 20
10.5226331946
 30
0.0
 10
10.7399581805
 20
10.520266832
 30
0.0
 10
10.7627820925
 20
10.5181537934
 30
0.0
 10
10.7946062977
 20
10.5156565459
 30
0.0
 10
10.8357563529
 20
10.5132534669
 30
0.0
 10
10.8862847663
 20
10.5115228983
 30
0.0
 10
10.9376916562
 20
10.5109426944
 30
0.0
 10
10.9806801897
 20
10.5114276486
 30
0.0
 10
11.0148423643
 20
10.5124048829
 30
0.0
 10
11.0400442488
 20
10.5134229167
 30
0.0
 10
11.0648089352
 20
10.5147244864
 30
0.0
 10
11.0890318115
 20
10.5163038426
 30
0.0
 10
11.1126050369
 20
10.5181543616
 30
0.0
 10
11.1280820833
 20
10.5195868088
 30
0.0
 10
11.1356923427
 20
10.5203497816
 30
0.0
  0
SPLINE
  5
3A2
100
AcDbEntity
  8
0
100
AcDbSpline
 62
9
  6
CONTINUOUS
 70
0
 71
3
 72
47
 73
43
 74
0
 42
0.0000001
 43
0.0000001
 44
0.0000000001
 40
0.0
 40
0.0
 40
0.0
 40
0.0
 40
0.0040231392
 40
0.0078649558
 40
0.0116595662
 40
0.0155461677
 40
0.0196541891
 40
0.0240928881
 40
0.0289478175
 40
0.0342829795
 40
0.0401446516
 40
0.0465657024
 40
0.0535688147
 40
0.0611691167
 40
0.0693759944
 40
0.0781943457
 40
0.0876256509
 40
0.0976684356
 40
0.1083190483
 40
0.1195716748
 40
0.1314190215
 40
0.1438520723
 40
0.1704326556
 40
0.1992190924
 40
0.2300999547
 40
0.2629500736
 40
0.2976322574
 40
0.3339986993
 40
0.3718922019
 40
0.4111472938
 40
0.451591282
 40
0.4930452694
 40
0.5353251513
 40
0.578242603
 40
0.6652201802
 40
0.7524259133
 40
0.7956274724
 40
0.8383030727
 40
0.8802624476
 40
0.9213187254
 40
0.9612902453
 40
1.0
 40
1.0
 40
1.0
 40
1.0
 10
11.3636340369
 20
10.5798240655
 30
0.0
 10
11.3640052323
 20
10.5806341085
 30
0.0
 10
11.3646076142
 20
10.5822795512
 30
0.0
 10
11.3650353521
 20
10.584841957
 30
0.0
 10
11.3649524555
 20
10.58740961
 30
0.0
 10
11.3643597431
 20
10.5899683362
 30
0.0
 10
11.3632657209
 20
10.5925093979
 30
0.0
 10
11.3616791551
 20
10.5950297912
 30
0.0
 10
11.3596066475
 20
10.5975300068
 30
0.0
 10
11.3570520802
 20
10.600010606
 30
0.0
 10
11.3540184683
 20
10.6024714905
 30
0.0
 10
11.3505086082
 20
10.6049114691
 30
0.0
 10
11.3465258051
 20
10.6073287739
 30
0.0
 10
11.3420739462
 20
10.6097211577
 30
0.0
 10
11.3371576012
 20
10.6120861395
 30
0.0
 10
11.331782005
 20
10.6144211579
 30
0.0
 10
11.3259530121
 20
10.6167235207
 30
0.0
 10
11.3196770976
 20
10.6189906421
 30
0.0
 10
11.3129612966
 20
10.6212198142
 30
0.0
 10
11.3058132114
 20
10.6234085102
 30
0.0
 10
11.2982409684
 20
10.625554137
 30
0.0
 10
11.2873459468
 20
10.6284183374
 30
0.0
 10
11.2727244185
 20
10.6318514449
 30
0.0
 10
11.2540070239
 20
10.6356766778
 30
0.0
 10
11.2338328651
 20
10.6392752881
 30
0.0
 10
11.2122945792
 20
10.6426302704
 30
0.0
 10
11.1894909568
 20
10.6457256509
 30
0.0
 10
11.1655268704
 20
10.6485468109
 30
0.0
 10
11.1405126081
 20
10.6510804531
 30
0.0
 10
11.1145633748
 20
10.6533146698
 30
0.0
 10
11.087798726
 20
10.6552389853
 30
0.0
 10
11.0603420229
 20
10.6568443705
 30
0.0
 10
11.0323197892
 20
10.6581233818
 30
0.0
 10
10.994206877
 20
10.6593908568
 30
0.0
 10
10.9461242578
 20
10.6601187157
 30
0.0
 10
10.8979749163
 20
10.6597203753
 30
0.0
 10
10.8596529832
 20
10.6587172906
 30
0.0
 10
10.8313599044
 20
10.6576319314
 30
0.0
 10
10.8035571602
 20
10.6562165103
 30
0.0
 10
10.7763727894
 20
10.6544775919
 30
0.0
 10
10.7499322695
 20
10.6524233161
 30
0.0
 10
10.7325789428
 20
10.6508220053
 30
0.0
 10
10.7240482991
 20
10.6499667586
 30
0.0
  0
SPLINE
  5
3A3
100
AcDbEntity
  8
0
100
AcDbSpline
 62
9
  6
CONTINUOUS
 70
0
 71
3
 72
32
 73
28
 74
0
 42
0.0000001
 43
0.0000001
 44
0.0000000001
 40
0.0
 40
0.0
 40
0.0
 40
0.0
 40
0.0105814211
 40
0.0215178836
 40
0.033130644
 40
0.0456863245
 40
0.0593933802
 40
0.0744077928
 40
0.0908437434
 40
0.1087827749
 40
0.128282007
 40
0.1493799882
 40
0.1721008772
 40
0.196458017
 40
0.2224555115
 40
0.2500908158
 40
0.2793548198
 40
0.3102340588
 40
0.3427100092
 40
0.3767610622
 40
0.4494810208
 40
0.5281588884
 40
0.6125154984
 40
0.7022367454
 40
0.7969766809
 40
0.8963641251
 40
1.0
 40
1.0
 40
1.0
 40
1.0
 10
10.4751923427
 20
10.747319058
 30
0.0
 10
10.4751923427
 20
10.7481988542
 30
0.0
 10
10.4753642187
 20
10.7499922351
 30
0.0
 10
10.4761294123
 20
10.7526525953
 30
0.0
 10
10.4773955416
 20
10.7552957273
 30
0.0
 10
10.4791546167
 20
10.7579187458
 30
0.0
 10
10.4814014555
 20
10.76052226
 30
0.0
 10
10.4841324073
 20
10.7631065741
 30
0.0
 10
10.4873447672
 20
10.7656711481
 30
0.0
 10
10.4910356593
 20
10.7682147453
 30
0.0
 10
10.4952018437
 20
10.7707354957
 30
0.0
 10
10.49983948
 20
10.7732311791
 30
0.0
 10
10.5049441027
 20
10.775699424
 30
0.0
 10
10.5105106626
 20
10.7781376482
 30
0.0
 10
10.516533493
 20
10.7805433773
 30
0.0
 10
10.5230063998
 20
10.7829139412
 30
0.0
 10
10.5299226222
 20
10.7852469028
 30
0.0
 10
10.5372749068
 20
10.7875396087
 30
0.0
 10
10.5450554855
 20
10.7897897463
 30
0.0
 10
10.5562367336
 20
10.7927959049
 30
0.0
 10
10.5712298713
 20
10.7964079984
 30
0.0
 10
10.5904133107
 20
10.8004472855
 30
0.0
 10
10.6110814812
 20
10.8042628411
 30
0.0
 10
10.6331462581
 20
10.8078379029
 30
0.0
 10
10.6565138198
 20
10.8111567251
 30
0.0
 10
10.6810842513
 20
10.8142047137
 30
0.0
 10
10.6978684803
 20
10.8160119549
 30
0.0
 10
10.7064423427
 20
10.8168715346
 30
0.0
  0
SPLINE
  5
3A4
100
AcDbEntity
  8
0
100
AcDbSpline
 62
9
  6
CONTINUOUS
 70
0
 71
3
 72
44
 73
40
 74
0
 42
0.0000001
 43
0.0000001
 44
0.0000000001
 40
0.0
 40
0.0
 40
0.0
 40
0.0
 40
0.0376164917
 40
0.0764211266
 40
0.1162542105
 40
0.1569523475
 40
0.2402662825
 40
0.3249855319
 40
0.4097047823
 40
0.4930187289
 40
0.5337168175
 40
0.5735500211
 40
0.6123544246
 40
0.6499710635
 40
0.6862467657
 40
0.7210350159
 40
0.7541968543
 40
0.7856018386
 40
0.8151291105
 40
0.8426686349
 40
0.8681227264
 40
0.8800415798
 40
0.8914091022
 40
0.9022177295
 40
0.9124609778
 40
0.9221341339
 40
0.9312340092
 40
0.939759713
 40
0.9477126816
 40
0.9550975855
 40
0.961922881
 40
0.9682020611
 40
0.9739551194
 40
0.9792105983
 40
0.9840084644
 40
0.9884033159
 40
0.9924681181
 40
0.9962961964
 40
1.0
 40
1.0
 40
1.0
 40
1.0
 10
10.7064423427
 20
10.8168715346
 30
0.0
 10
10.7153331405
 20
10.8177628888
 30
0.0
 10
10.7334095765
 20
10.8194362534
 30
0.0
 10
10.7609405628
 20
10.8215969908
 30
0.0
 10
10.7892281897
 20
10.8234414591
 30
0.0
 10
10.828094946
 20
10.8254839337
 30
0.0
 10
10.8776526951
 20
10.8271806818
 30
0.0
 10
10.9376923429
 20
10.8278585462
 30
0.0
 10
10.9977319945
 20
10.8271806825
 30
0.0
 10
11.0472897324
 20
10.8254839313
 30
0.0
 10
11.0861565136
 20
10.8234414612
 30
0.0
 10
11.1144440875
 20
10.8215969885
 30
0.0
 10
11.1419751353
 20
10.819436257
 30
0.0
 10
11.1686319157
 20
10.8169685799
 30
0.0
 10
11.1943004127
 20
10.8142047173
 30
0.0
 10
11.2188708973
 20
10.8111567166
 30
0.0
 10
11.2422384112
 20
10.8078379089
 30
0.0
 10
11.2643032107
 20
10.8042628378
 30
0.0
 10
11.2849713725
 20
10.8004472871
 30
0.0
 10
11.3041548149
 20
10.7964079977
 30
0.0
 10
11.3191479515
 20
10.7927959051
 30
0.0
 10
11.3303291999
 20
10.7897897462
 30
0.0
 10
11.3381097786
 20
10.7875396087
 30
0.0
 10
11.3454620632
 20
10.7852469028
 30
0.0
 10
11.3523782856
 20
10.7829139412
 30
0.0
 10
11.3588511924
 20
10.7805433773
 30
0.0
 10
11.3648740228
 20
10.7781376482
 30
0.0
 10
11.3704405827
 20
10.775699424
 30
0.0
 10
11.3755452054
 20
10.7732311791
 30
0.0
 10
11.3801828417
 20
10.7707354957
 30
0.0
 10
11.3843490261
 20
10.7682147453
 30
0.0
 10
11.3880399182
 20
10.7656711481
 30
0.0
 10
11.3912522781
 20
10.7631065741
 30
0.0
 10
11.3939832299
 20
10.76052226
 30
0.0
 10
11.3962300687
 20
10.7579187458
 30
0.0
 10
11.3979891438
 20
10.7552957273
 30
0.0
 10
11.3992552731
 20
10.7526525953
 30
0.0
 10
11.4000204667
 20
10.7499922351
 30
0.0
 10
11.4001923427
 20
10.7481988542
 30
0.0
 10
11.4001923427
 20
10.747319058
 30
0.0
  0
LINE
  5
3A5
100
AcDbEntity
  8
0
100
AcDbLine
 62
9
  6
CONTINUOUS
 10
10.7240482991
 20
10.6499667586
 11
10.7222496466
 21
10.6497854182
  0
SPLINE
  5
3A6
100
AcDbEntity
  8
0
100
AcDbSpline
 62
9
  6
CONTINUOUS
 70
0
 71
3
 72
33
 73
29
 74
0
 42
0.0000001
 43
0.0000001
 44
0.0000000001
 40
0.0
 40
0.0
 40
0.0
 40
0.0
 40
0.108522383
 40
0.2121912692
 40
0.3105321678
 40
0.4031037632
 40
0.4895008501
 40
0.5693603121
 40
0.6067393709
 40
0.6423706723
 40
0.6762237544
 40
0.7082731902
 40
0.7384980519
 40
0.7668837987
 40
0.7934222821
 40
0.8181141531
 40
0.840969893
 40
0.8620133821
 40
0.8812849687
 40
0.8988475907
 40
0.9147938261
 40
0.9292568147
 40
0.942423009
 40
0.954546292
 40
0.9659559982
 40
0.9770489928
 40
0.988257378
 40
1.0
 40
1.0
 40
1.0
 40
1.0
 10
10.7222496466
 20
10.6497854182
 30
0.0
 10
10.7138024931
 20
10.6489289952
 30
0.0
 10
10.697298789
 20
10.6471241198
 30
0.0
 10
10.6731963534
 20
10.6440602373
 30
0.0
 10
10.6503919921
 20
10.6407128326
 30
0.0
 10
10.6289972859
 20
10.6370988905
 30
0.0
 10
10.6091168827
 20
10.6332365924
 30
0.0
 10
10.5935671001
 20
10.6297553382
 30
0.0
 10
10.5819666483
 20
10.6268422155
 30
0.0
 10
10.5738964101
 20
10.6246556708
 30
0.0
 10
10.5662726649
 20
10.6224217349
 30
0.0
 10
10.5591046601
 20
10.6201432143
 30
0.0
 10
10.5524010537
 20
10.6178228775
 30
0.0
 10
10.5461698729
 20
10.6154636829
 30
0.0
 10
10.540418519
 20
10.6130684569
 30
0.0
 10
10.5351536916
 20
10.61064019
 30
0.0
 10
10.5303814129
 20
10.6081816754
 30
0.0
 10
10.526106916
 20
10.6056957497
 30
0.0
 10
10.5223347151
 20
10.6031848692
 30
0.0
 10
10.5190685224
 20
10.6006511962
 30
0.0
 10
10.5163115479
 20
10.5980960363
 30
0.0
 10
10.5140668582
 20
10.5955197375
 30
0.0
 10
10.5123386215
 20
10.5929214341
 30
0.0
 10
10.5111335972
 20
10.5903002538
 30
0.0
 10
10.510461943
 20
10.5876585741
 30
0.0
 10
10.5103336762
 20
10.5850056562
 30
0.0
 10
10.5107509282
 20
10.582357649
 30
0.0
 10
10.5113679286
 20
10.5806592635
 30
0.0
 10
10.5117506372
 20
10.5798240653
 30
0.0
  0
SPLINE
  5
3A7
100
AcDbEntity
  8
0
100
AcDbSpline
 62
9
  6
CONTINUOUS
 70
0
 71
3
 72
69
 73
65
 74
0
 42
0.0000001
 43
0.0000001
 44
0.0000000001
 40
0.0
 40
0.0
 40
0.0
 40
0.0
 40
0.0421456581
 40
0.0861502103
 40
0.1315850069
 40
0.1780419914
 40
0.2250872334
 40
0.2722819825
 40
0.3191879465
 40
0.3653681927
 40
0.410394157
 40
0.4538492656
 40
0.4953335863
 40
0.5344696737
 40
0.5530463013
 40
0.5709067373
 40
0.5880111446
 40
0.6043236389
 40
0.619810443
 40
0.6344394375
 40
0.6481836102
 40
0.6610187067
 40
0.6729235838
 40
0.6838841487
 40
0.6938911451
 40
0.7029422722
 40
0.7071126796
 40
0.7110489276
 40
0.7147543199
 40
0.7182333328
 40
0.7214922186
 40
0.7245394597
 40
0.7273858154
 40
0.7300448571
 40
0.7325336236
 40
0.7348733222
 40
0.737090082
 40
0.7392149426
 40
0.7412831694
 40
0.7433330322
 40
0.7454038998
 40
0.7475340379
 40
0.7521002873
 40
0.7545998943
 40
0.7572709694
 40
0.7601305501
 40
0.7631922103
 40
0.766466268
 40
0.7699606233
 40
0.7736813759
 40
0.7776332064
 40
0.7862421376
 40
0.7958038214
 40
0.8063203915
 40
0.8177871113
 40
0.8301912013
 40
0.8435142747
 40
0.8577351182
 40
0.872826496
 40
0.8887576347
 40
0.9054965097
 40
0.9230086711
 40
0.9602064477
 40
1.0
 40
1.0
 40
1.0
 40
1.0
 10
10.7286081498
 20
10.6427874629
 30
0.0
 10
10.7407424702
 20
10.6440039992
 30
0.0
 10
10.7655754554
 20
10.646206232
 30
0.0
 10
10.8035642293
 20
10.6488013599
 30
0.0
 10
10.8428411438
 20
10.6507419262
 30
0.0
 10
10.8830256304
 20
10.6520093166
 30
0.0
 10
10.9237351398
 20
10.6525910989
 30
0.0
 10
10.9645785519
 20
10.6524815478
 30
0.0
 10
11.0051639721
 20
10.651681601
 30
0.0
 10
11.0451023133
 20
10.6501991311
 30
0.0
 10
11.0840104079
 20
10.6480489775
 30
0.0
 10
11.1215152398
 20
10.645252235
 30
0.0
 10
11.1572572308
 20
10.6418362322
 30
0.0
 10
11.1857630534
 20
10.638446545
 30
0.0
 10
11.2074220256
 20
10.63542839
 30
0.0
 10
11.2227349553
 20
10.633071877
 30
0.0
 10
11.2373637376
 20
10.6305882839
 30
0.0
 10
11.2512734174
 20
10.6279839836
 30
0.0
 10
11.2644307618
 20
10.6252655973
 30
0.0
 10
11.2768042669
 20
10.6224391175
 30
0.0
 10
11.2883645824
 20
10.6195120102
 30
0.0
 10
11.2990843941
 20
10.6164916624
 30
0.0
 10
11.3089382679
 20
10.6133847469
 30
0.0
 10
11.3179036397
 20
10.6101996326
 30
0.0
 10
11.3259597551
 20
10.6069441124
 30
0.0
 10
11.3320571642
 20
10.6041059414
 30
0.0
 10
11.3364505731
 20
10.6017917919
 30
0.0
 10
11.3394160848
 20
10.6000907612
 30
0.0
 10
11.3421411786
 20
10.5983776633
 30
0.0
 10
11.344624153
 20
10.5966532488
 30
0.0
 10
11.3468635883
 20
10.5949183157
 30
0.0
 10
11.3488584873
 20
10.5931737624
 30
0.0
 10
11.350607899
 20
10.5914202454
 30
0.0
 10
11.3521107681
 20
10.589658277
 30
0.0
 10
11.3533658526
 20
10.5878882434
 30
0.0
 10
11.3543714735
 20
10.5861103693
 30
0.0
 10
11.3551259195
 20
10.58432525
 30
0.0
 10
11.3556275751
 20
10.5825340641
 30
0.0
 10
11.3558747189
 20
10.5807386862
 30
0.0
 10
11.3558662118
 20
10.5789418809
 30
0.0
 10
11.3556017969
 20
10.5771465475
 30
0.0
 10
11.3548935968
 20
10.5747035811
 30
0.0
 10
11.3536616657
 20
10.5723138631
 30
0.0
 10
11.3520159249
 20
10.5700247736
 30
0.0
 10
11.3504962923
 20
10.5682627753
 30
0.0
 10
11.3487302303
 20
10.5665099395
 30
0.0
 10
11.3467182522
 20
10.5647660981
 30
0.0
 10
11.3444617928
 20
10.5630320022
 30
0.0
 10
11.3419621927
 20
10.5613083246
 30
0.0
 10
11.3392208813
 20
10.5595958798
 30
0.0
 10
11.335127306
 20
10.5572618487
 30
0.0
 10
11.329396849
 20
10.5543979547
 30
0.0
 10
11.3217704478
 20
10.5511120916
 30
0.0
 10
11.3132262319
 20
10.5478928195
 30
0.0
 10
11.3037835804
 20
10.544748776
 30
0.0
 10
11.2934641498
 20
10.5416872588
 30
0.0
 10
11.2822920522
 20
10.5387154634
 30
0.0
 10
11.2702934996
 20
10.5358414949
 30
0.0
 10
11.2574973593
 20
10.5330719497
 30
0.0
 10
11.2439345532
 20
10.5304134821
 30
0.0
 10
11.229637214
 20
10.5278731076
 30
0.0
 10
11.209225416
 20
10.5245847171
 30
0.0
 10
11.1821334252
 20
10.5208442234
 30
0.0
 10
11.1599926231
 20
10.518354947
 30
0.0
 10
11.148536799
 20
10.517193487
 30
0.0
  0
LINE
  5
3A8
100
AcDbEntity
  8
0
100
AcDbLine
 62
7
  6
CONTINUOUS
 10
14.9376923427
 20
6.6004647256
 11
14.9376923427
 21
7.4128884487
  0
LINE
  5
3A9
100
AcDbEntity
  8
0
100
AcDbLine
 62
7
  6
CONTINUOUS
 10
6.9376923427
 20
6.6004647256
 11
6.9376923427
 21
7.4128884487
  0
SPLINE
  5
3AA
100
AcDbEntity
  8
0
100
AcDbSpline
 62
7
  6
CONTINUOUS
 70
0
 71
3
 72
20
 73
16
 74
0
 42
0.0000001
 43
0.0000001
 44
0.0000000001
 40
0.0
 40
0.0
 40
0.0
 40
0.0
 40
0.1986218393
 40
0.3758155478
 40
0.5306169245
 40
0.5995436177
 40
0.662873674
 40
0.7207004285
 40
0.7731745847
 40
0.820540063
 40
0.8631592591
 40
0.9015506155
 40
0.9364453034
 40
0.9688404529
 40
1.0
 40
1.0
 40
1.0
 40
1.0
 10
10.4524334382
 20
10.8575269558
 30
0.0
 10
10.4440999303
 20
10.8596288311
 30
0.0
 10
10.4283995587
 20
10.8638865554
 30
0.0
 10
10.4065333352
 20
10.8709179004
 30
0.0
 10
10.3903495786
 20
10.8772126855
 30
0.0
 10
10.3790767031
 20
10.8824380452
 30
0.0
 10
10.3717862019
 20
10.8862539942
 30
0.0
 10
10.3653353049
 20
10.8901148282
 30
0.0
 10
10.3597314742
 20
10.894017421
 30
0.0
 10
10.3549799841
 20
10.8979582848
 30
0.0
 10
10.3510849292
 20
10.901935822
 30
0.0
 10
10.3480523189
 20
10.9059512696
 30
0.0
 10
10.3458937652
 20
10.9100091097
 30
0.0
 10
10.3446305984
 20
10.9141068627
 30
0.0
 10
10.3443992901
 20
10.9168734779
 30
0.0
 10
10.344437057
 20
10.9182212416
 30
0.0
  0
SPLINE
  5
3AB
100
AcDbEntity
  8
0
100
AcDbSpline
 62
7
  6
CONTINUOUS
 70
0
 71
3
 72
11
 73
7
 74
0
 42
0.0000001
 43
0.0000001
 44
0.0000000001
 40
0.0
 40
0.0
 40
0.0
 40
0.0
 40
0.2596917635
 40
0.5157185484
 40
0.7637031158
 40
1.0
 40
1.0
 40
1.0
 40
1.0
 10
10.937692343
 20
11.0000571168
 30
0.0
 10
10.9176473466
 20
11.0000571168
 30
0.0
 10
10.8778389142
 20
10.9996232935
 30
0.0
 10
10.818917341
 20
10.9976902839
 30
0.0
 10
10.7618589208
 20
10.9944962463
 30
0.0
 10
10.7245951047
 20
10.9914792509
 30
0.0
 10
10.7064385099
 20
10.9897453226
 30
0.0
  0
SPLINE
  5
3AC
100
AcDbEntity
  8
0
100
AcDbSpline
 62
7
  6
CONTINUOUS
 70
0
 71
3
 72
14
 73
10
 74
0
 42
0.0000001
 43
0.0000001
 44
0.0000000001
 40
0.0
 40
0.0
 40
0.0
 40
0.0
 40
0.3046377046
 40
0.4450607715
 40
0.5765130305
 40
0.6983082247
 40
0.8098042676
 40
0.9105047144
 40
1.0
 40
1.0
 40
1.0
 40
1.0
 10
10.7064385099
 20
10.9897453226
 30
0.0
 10
10.6857557877
 20
10.9877701529
 30
0.0
 10
10.6555799605
 20
10.9843968049
 30
0.0
 10
10.6166610841
 20
10.9787819359
 30
0.0
 10
10.5901822215
 20
10.9743212784
 30
0.0
 10
10.5657689562
 20
10.9695268969
 30
0.0
 10
10.5435641596
 20
10.9644236854
 30
0.0
 10
10.5236975698
 20
10.959047341
 30
0.0
 10
10.5113437026
 20
10.9550659875
 30
0.0
 10
10.5055988582
 20
10.9530038692
 30
0.0
  0
SPLINE
  5
3AD
100
AcDbEntity
  8
0
100
AcDbSpline
 62
7
  6
CONTINUOUS
 70
0
 71
3
 72
11
 73
7
 74
0
 42
0.0000001
 43
0.0000001
 44
0.0000000001
 40
0.0
 40
0.0
 40
0.0
 40
0.0
 40
0.293519988
 40
0.5578160594
 40
0.7931079518
 40
1.0
 40
1.0
 40
1.0
 40
1.0
 10
10.5055988582
 20
10.9530038692
 30
0.0
 10
10.5020722465
 20
10.9517379879
 30
0.0
 10
10.4954177591
 20
10.9491952502
 30
0.0
 10
10.4861552697
 20
10.9450933165
 30
0.0
 10
10.4781552946
 20
10.9409152274
 30
0.0
 10
10.4733741472
 20
10.937895121
 30
0.0
 10
10.4712263539
 20
10.9363581524
 30
0.0
  0
SPLINE
  5
3AE
100
AcDbEntity
  8
0
100
AcDbSpline
 62
7
  6
CONTINUOUS
 70
0
 71
3
 72
9
 73
5
 74
0
 42
0.0000001
 43
0.0000001
 44
0.0000000001
 40
0.0
 40
0.0
 40
0.0
 40
0.0
 40
0.2658624659
 40
1.0
 40
1.0
 40
1.0
 40
1.0
 10
10.4712263539
 20
10.9363581524
 30
0.0
 10
10.4706646912
 20
10.9359562245
 30
0.0
 10
10.4685758886
 20
10.9344120633
 30
0.0
 10
10.466585087
 20
10.9327307482
 30
0.0
 10
10.4652160802
 20
10.9314029542
 30
0.0
  0
LINE
  5
3AF
100
AcDbEntity
  8
0
100
AcDbLine
 62
7
  6
CONTINUOUS
 10
11.5076744881
 20
11.5855912763
 11
11.5091874226
 21
11.4917886641
  0
SPLINE
  5
3B0
100
AcDbEntity
  8
0
100
AcDbSpline
 62
7
  6
CONTINUOUS
 70
0
 71
3
 72
11
 73
7
 74
0
 42
0.0000001
 43
0.0000001
 44
0.0000000001
 40
0.0
 40
0.0
 40
0.0
 40
0.0
 40
0.2732374096
 40
0.5314236203
 40
0.7738952547
 40
1.0
 40
1.0
 40
1.0
 40
1.0
 10
11.6250634856
 20
9.9119198861
 30
0.0
 10
11.6138164659
 20
10.0014140546
 30
0.0
 10
11.592158299
 20
10.1754999668
 30
0.0
 10
11.561474829
 20
10.4291210595
 30
0.0
 10
11.5337022808
 20
10.6674198738
 30
0.0
 10
11.5166623808
 20
10.8211610045
 30
0.0
 10
11.5087143229
 20
10.8953758264
 30
0.0
  0
SPLINE
  5
3B1
100
AcDbEntity
  8
0
100
AcDbSpline
 62
7
  6
CONTINUOUS
 70
0
 71
3
 72
11
 73
7
 74
0
 42
0.0000001
 43
0.0000001
 44
0.0000000001
 40
0.0
 40
0.0
 40
0.0
 40
0.0
 40
0.273232118
 40
0.531422398
 40
0.7738986835
 40
1.0
 40
1.0
 40
1.0
 40
1.0
 10
10.2489806334
 20
9.9113041379
 30
0.0
 10
10.2602383209
 20
10.0009020234
 30
0.0
 10
10.2819256658
 20
10.1751916031
 30
0.0
 10
10.3126774778
 20
10.4291079088
 30
0.0
 10
10.3405402185
 20
10.6676817369
 30
0.0
 10
10.3576564109
 20
10.8215976266
 30
0.0
 10
10.3656462265
 20
10.8958950353
 30
0.0
  0
SPLINE
  5
3B2
100
AcDbEntity
  8
0
100
AcDbSpline
 62
7
  6
CONTINUOUS
 70
0
 71
3
 72
10
 73
6
 74
0
 42
0.0000001
 43
0.0000001
 44
0.0000000001
 40
0.0
 40
0.0
 40
0.0
 40
0.0
 40
0.2441262208
 40
0.4927472512
 40
1.0
 40
1.0
 40
1.0
 40
1.0
 10
9.9565051784
 20
7.6971155174
 30
0.0
 10
9.959640448
 20
7.7120613174
 30
0.0
 10
9.9655453333
 20
7.7423179337
 30
0.0
 10
9.9761435574
 20
7.8039710217
 30
0.0
 10
9.9828324586
 20
7.8507904166
 30
0.0
 10
9.9868774949
 20
7.8822623018
 30
0.0
  0
SPLINE
  5
3B3
100
AcDbEntity
  8
0
100
AcDbSpline
 62
7
  6
CONTINUOUS
 70
0
 71
3
 72
11
 73
7
 74
0
 42
0.0000001
 43
0.0000001
 44
0.0000000001
 40
0.0
 40
0.0
 40
0.0
 40
0.0
 40
0.2665736726
 40
0.5241668773
 40
0.7697103008
 40
1.0
 40
1.0
 40
1.0
 40
1.0
 10
9.9868774949
 20
7.8822623018
 30
0.0
 10
10.0100527452
 20
8.0625735478
 30
0.0
 10
10.0559797874
 20
8.4170756737
 30
0.0
 10
10.1238500138
 20
8.9375866111
 30
0.0
 10
10.1882693589
 20
9.4335935272
 30
0.0
 10
10.229401744
 20
9.7554793204
 30
0.0
 10
10.2489806335
 20
9.9113041389
 30
0.0
  0
SPLINE
  5
3B4
100
AcDbEntity
  8
0
100
AcDbSpline
 62
7
  6
CONTINUOUS
 70
0
 71
3
 72
9
 73
5
 74
0
 42
0.0000001
 43
0.0000001
 44
0.0000000001
 40
0.0
 40
0.0
 40
0.0
 40
0.0
 40
0.2348662535
 40
1.0
 40
1.0
 40
1.0
 40
1.0
 10
11.4101687227
 20
10.9314029577
 30
0.0
 10
11.4097390357
 20
10.9318197073
 30
0.0
 10
11.4078705337
 20
10.933553868
 30
0.0
 10
11.4058619234
 20
10.9351334992
 30
0.0
 10
11.4042785789
 20
10.9362718032
 30
0.0
  0
SPLINE
  5
3B5
100
AcDbEntity
  8
0
100
AcDbSpline
 62
7
  6
CONTINUOUS
 70
0
 71
3
 72
9
 73
5
 74
0
 42
0.0000001
 43
0.0000001
 44
0.0000000001
 40
0.0
 40
0.0
 40
0.0
 40
0.0
 40
0.2365587596
 40
1.0
 40
1.0
 40
1.0
 40
1.0
 10
11.4042785789
 20
10.9362718032
 30
0.0
 10
11.4037330792
 20
10.9366639759
 30
0.0
 10
11.401402011
 20
10.9382868608
 30
0.0
 10
11.3989801742
 20
10.9397773034
 30
0.0
 10
11.3970992906
 20
10.9408559315
 30
0.0
  0
SPLINE
  5
3B6
100
AcDbEntity
  8
0
100
AcDbSpline
 62
7
  6
CONTINUOUS
 70
0
 71
3
 72
9
 73
5
 74
0
 42
0.0000001
 43
0.0000001
 44
0.0000000001
 40
0.0
 40
0.0
 40
0.0
 40
0.0
 40
0.4604549781
 40
1.0
 40
1.0
 40
1.0
 40
1.0
 10
11.3970992906
 20
10.9408559315
 30
0.0
 10
11.3932443431
 20
10.9430666236
 30
0.0
 10
11.3845721642
 20
10.947344633
 30
0.0
 10
11.3755914061
 20
10.9508982666
 30
0.0
 10
11.3706967593
 20
10.9526750025
 30
0.0
  0
SPLINE
  5
3B7
100
AcDbEntity
  8
0
100
AcDbSpline
 62
7
  6
CONTINUOUS
 70
0
 71
3
 72
18
 73
14
 74
0
 42
0.0000001
 43
0.0000001
 44
0.0000000001
 40
0.0
 40
0.0
 40
0.0
 40
0.0
 40
0.0387165612
 40
0.0816348562
 40
0.1286168792
 40
0.1794979512
 40
0.2340649894
 40
0.2920900824
 40
0.417517262
 40
0.5535315089
 40
0.6977155983
 40
0.84753818
 40
1.0
 40
1.0
 40
1.0
 40
1.0
 10
11.3657805756
 20
10.9544075225
 30
0.0
 10
11.3605068025
 20
10.956212857
 30
0.0
 10
11.3492823468
 20
10.9597163555
 30
0.0
 10
11.3313898342
 20
10.9645018211
 30
0.0
 10
11.3116382592
 20
10.9690678231
 30
0.0
 10
11.290119152
 20
10.9733890967
 30
0.0
 10
11.2669335338
 20
10.9774480356
 30
0.0
 10
11.2330544598
 20
10.9826167953
 30
0.0
 10
11.1873874855
 20
10.9881925847
 30
0.0
 10
11.1292138552
 20
10.9934186436
 30
0.0
 10
11.0674111736
 20
10.9972267288
 30
0.0
 10
11.0031662702
 20
10.999538708
 30
0.0
 10
10.9596430413
 20
11.0000571168
 30
0.0
 10
10.937692343
 20
11.0000571168
 30
0.0
  0
LINE
  5
3B8
100
AcDbEntity
  8
0
100
AcDbLine
 62
7
  6
CONTINUOUS
 10
11.4013352299
 20
10.9246807735
 11
11.4021969986
 21
10.9265040428
  0
SPLINE
  5
3B9
100
AcDbEntity
  8
0
100
AcDbSpline
 62
7
  6
CONTINUOUS
 70
0
 71
3
 72
11
 73
7
 74
0
 42
0.0000001
 43
0.0000001
 44
0.0000000001
 40
0.0
 40
0.0
 40
0.0
 40
0.0
 40
0.2508257982
 40
0.4929120729
 40
0.7386965757
 40
1.0
 40
1.0
 40
1.0
 40
1.0
 10
11.4021969986
 20
10.9265040428
 30
0.0
 10
11.4025782691
 20
10.9274570749
 30
0.0
 10
11.403144899
 20
10.9294125314
 30
0.0
 10
11.4032996348
 20
10.932459045
 30
0.0
 10
11.402730913
 20
10.9354982309
 30
0.0
 10
11.4019146182
 20
10.9374234172
 30
0.0
 10
11.4014132157
 20
10.9383679265
 30
0.0
  0
SPLINE
  5
3BA
100
AcDbEntity
  8
0
100
AcDbSpline
 62
7
  6
CONTINUOUS
 70
0
 71
3
 72
11
 73
7
 74
0
 42
0.0000001
 43
0.0000001
 44
0.0000000001
 40
0.0
 40
0.0
 40
0.0
 40
0.0
 40
0.2666142881
 40
0.524219252
 40
0.7697471504
 40
1.0
 40
1.0
 40
1.0
 40
1.0
 10
11.8875235639
 20
7.8852958727
 30
0.0
 10
11.8642655551
 20
8.0654136474
 30
0.0
 10
11.8182016895
 20
8.4195195951
 30
0.0
 10
11.7502038672
 20
8.939430655
 30
0.0
 10
11.6857366299
 20
9.4348236673
 30
0.0
 10
11.6446207851
 20
9.7562996109
 30
0.0
 10
11.6250634846
 20
9.9119198904
 30
0.0
  0
SPLINE
  5
3BB
100
AcDbEntity
  8
0
100
AcDbSpline
 62
7
  6
CONTINUOUS
 70
0
 71
3
 72
10
 73
6
 74
0
 42
0.0000001
 43
0.0000001
 44
0.0000000001
 40
0.0
 40
0.0
 40
0.0
 40
0.0
 40
0.5069455212
 40
0.7556152747
 40
1.0
 40
1.0
 40
1.0
 40
1.0
 10
11.8875236282
 20
7.885295395
 30
0.0
 10
11.8915999471
 20
7.8537268387
 30
0.0
 10
11.8983616608
 20
7.8067543646
 30
0.0
 10
11.9090876515
 20
7.7448848819
 30
0.0
 10
11.9150639299
 20
7.7145046438
 30
0.0
 10
11.9182346892
 20
7.6994911189
 30
0.0
  0
SPLINE
  5
3BC
100
AcDbEntity
  8
0
100
AcDbSpline
 62
7
  6
CONTINUOUS
 70
0
 71
3
 72
10
 73
6
 74
0
 42
0.0000001
 43
0.0000001
 44
0.0000000001
 40
0.0
 40
0.0
 40
0.0
 40
0.0
 40
0.2517992994
 40
0.6279098149
 40
1.0
 40
1.0
 40
1.0
 40
1.0
 10
12.0436125341
 20
7.2167316114
 30
0.0
 10
12.0335549652
 20
7.2459985116
 30
0.0
 10
12.0099407595
 20
7.3194931661
 30
0.0
 10
11.9784236383
 20
7.4383671077
 30
0.0
 10
11.9604715005
 20
7.5286288994
 30
0.0
 10
11.9530309108
 20
7.5737504425
 30
0.0
  0
LINE
  5
3BD
100
AcDbEntity
  8
0
100
AcDbLine
 62
7
  6
CONTINUOUS
 10
11.6070726892
 20
10.1318203031
 11
11.6070887225
 21
10.1572765989
  0
LINE
  5
3BE
100
AcDbEntity
  8
0
100
AcDbLine
 62
7
  6
CONTINUOUS
 10
10.2682958763
 20
10.1572765989
 11
10.2683119095
 21
10.1318149841
  0
SPLINE
  5
3BF
100
AcDbEntity
  8
0
100
AcDbSpline
 62
7
  6
CONTINUOUS
 70
0
 71
3
 72
11
 73
7
 74
0
 42
0.0000001
 43
0.0000001
 44
0.0000000001
 40
0.0
 40
0.0
 40
0.0
 40
0.0
 40
0.2475302586
 40
0.4346325338
 40
0.6226028709
 40
1.0
 40
1.0
 40
1.0
 40
1.0
 10
9.9225372267
 20
7.5738991298
 30
0.0
 10
9.9175487026
 20
7.5437721752
 30
0.0
 10
9.9076103996
 20
7.4910608297
 30
0.0
 10
9.8906092245
 20
7.4161453949
 30
0.0
 10
9.8672521746
 20
7.3262899018
 30
0.0
 10
9.846522579
 20
7.2596333337
 30
0.0
 10
9.8313847185
 20
7.2156044777
 30
0.0
  0
SPLINE
  5
3C0
100
AcDbEntity
  8
0
100
AcDbSpline
 62
7
  6
CONTINUOUS
 70
0
 71
3
 72
18
 73
14
 74
0
 42
0.0000001
 43
0.0000001
 44
0.0000000001
 40
0.0
 40
0.0
 40
0.0
 40
0.0
 40
0.021799978
 40
0.0487693567
 40
0.081055033
 40
0.1187869635
 40
0.1620861853
 40
0.211068614
 40
0.3265215648
 40
0.4650785988
 40
0.6248857394
 40
0.8038821084
 40
1.0
 40
1.0
 40
1.0
 40
1.0
 10
10.4216342387
 20
11.8396258778
 30
0.0
 10
10.4208635293
 20
11.8379001501
 30
0.0
 10
10.4192983019
 20
11.8339688419
 30
0.0
 10
10.4170090965
 20
11.8273235461
 30
0.0
 10
10.4145395666
 20
11.8192844227
 30
0.0
 10
10.4118911516
 20
11.8098230803
 30
0.0
 10
10.4090651384
 20
11.7989106047
 30
0.0
 10
10.4048245303
 20
11.7814062558
 30
0.0
 10
10.3991546305
 20
11.7557542394
 30
0.0
 10
10.3920218305
 20
11.7205924293
 30
0.0
 10
10.3842893128
 20
11.6799343162
 30
0.0
 10
10.376049928
 20
11.6342951534
 30
0.0
 10
10.3705120965
 20
11.6022482743
 30
0.0
 10
10.3676677343
 20
11.5854849058
 30
0.0
  0
SPLINE
  5
3C1
100
AcDbEntity
  8
0
100
AcDbSpline
 62
7
  6
CONTINUOUS
 70
0
 71
3
 72
18
 73
14
 74
0
 42
0.0000001
 43
0.0000001
 44
0.0000000001
 40
0.0
 40
0.0
 40
0.0
 40
0.0
 40
0.0219037624
 40
0.0489645003
 40
0.0813287286
 40
0.1191260677
 40
0.1624772113
 40
0.2114977147
 40
0.3269832493
 40
0.4655064786
 40
0.6252187255
 40
0.8040691489
 40
1.0
 40
1.0
 40
1.0
 40
1.0
 10
11.4538046123
 20
11.8395272936
 30
0.0
 10
11.4545782723
 20
11.83779489
 30
0.0
 10
11.4561490729
 20
11.8338516895
 30
0.0
 10
11.4584453605
 20
11.8271903958
 30
0.0
 10
11.4609200344
 20
11.8191393947
 30
0.0
 10
11.4635715915
 20
11.8096704328
 30
0.0
 10
11.4663986908
 20
11.7987547458
 30
0.0
 10
11.4706370605
 20
11.7812555031
 30
0.0
 10
11.4762982978
 20
11.7556223458
 30
0.0
 10
11.4834132532
 20
11.7204981514
 30
0.0
 10
11.4911193512
 20
11.6798969128
 30
0.0
 10
11.4993243719
 20
11.6343313692
 30
0.0
 10
11.5048358871
 20
11.6023387411
 30
0.0
 10
11.507665914
 20
11.585604806
 30
0.0
  0
SPLINE
  5
3C2
100
AcDbEntity
  8
0
100
AcDbSpline
 62
7
  6
CONTINUOUS
 70
0
 71
3
 72
20
 73
16
 74
0
 42
0.0000001
 43
0.0000001
 44
0.0000000001
 40
0.0
 40
0.0
 40
0.0
 40
0.0
 40
0.0311636317
 40
0.0635618435
 40
0.098458629
 40
0.1368511743
 40
0.1794708013
 40
0.2268360978
 40
0.2793095751
 40
0.3371352212
 40
0.40046405
 40
0.4693897814
 40
0.6241914278
 40
0.8013856608
 40
1.0
 40
1.0
 40
1.0
 40
1.0
 10
11.5309746627
 20
10.9182211644
 30
0.0
 10
11.5310125978
 20
10.9168739526
 30
0.0
 10
11.5307818267
 20
10.9141084809
 30
0.0
 10
11.5295199259
 20
10.9100123244
 30
0.0
 10
11.5273630812
 20
10.9059560541
 30
0.0
 10
11.5243326433
 20
10.9019421442
 30
0.0
 10
11.5204402156
 20
10.8979661236
 30
0.0
 10
11.5156918115
 20
10.8940267528
 30
0.0
 10
11.5100915252
 20
10.8901256283
 30
0.0
 10
11.5036446273
 20
10.8862662183
 30
0.0
 10
11.4963585392
 20
10.8824516634
 30
0.0
 10
11.4850922385
 20
10.8772281644
 30
0.0
 10
11.4689175727
 20
10.8709357034
 30
0.0
 10
11.4470637589
 20
10.8639069825
 30
0.0
 10
11.431372411
 20
10.8596505071
 30
0.0
 10
11.4230438594
 20
10.8575491637
 30
0.0
  0
SPLINE
  5
3C3
100
AcDbEntity
  8
0
100
AcDbSpline
 62
7
  6
CONTINUOUS
 70
0
 71
3
 72
10
 73
6
 74
0
 42
0.0000001
 43
0.0000001
 44
0.0000000001
 40
0.0
 40
0.0
 40
0.0
 40
0.0
 40
0.505080336
 40
0.7544682835
 40
1.0
 40
1.0
 40
1.0
 40
1.0
 10
10.9377242672
 20
11.0197530263
 30
0.0
 10
10.9670568185
 20
11.0197529882
 30
0.0
 10
11.010875511
 20
11.0192199876
 30
0.0
 10
11.0689227128
 20
11.0173898157
 30
0.0
 10
11.0976378138
 20
11.0161101382
 30
0.0
 10
11.1118779876
 20
11.0153726181
 30
0.0
  0
SPLINE
  5
3C4
100
AcDbEntity
  8
0
100
AcDbSpline
 62
7
  6
CONTINUOUS
 70
0
 71
3
 72
11
 73
7
 74
0
 42
0.0000001
 43
0.0000001
 44
0.0000000001
 40
0.0
 40
0.0
 40
0.0
 40
0.0
 40
0.2635521894
 40
0.5172459112
 40
0.7622942499
 40
1.0
 40
1.0
 40
1.0
 40
1.0
 10
11.1259447254
 20
11.436785418
 30
0.0
 10
11.1354784872
 20
11.4429812666
 30
0.0
 10
11.153541843
 20
11.4561704318
 30
0.0
 10
11.1779872189
 20
11.4782495503
 30
0.0
 10
11.1993839912
 20
11.5018009411
 30
0.0
 10
11.2119079977
 20
11.5184833723
 30
0.0
 10
11.2176923427
 20
11.5269514772
 30
0.0
  0
SPLINE
  5
3C5
100
AcDbEntity
  8
0
100
AcDbSpline
 62
9
  6
CONTINUOUS
 70
0
 71
3
 72
11
 73
7
 74
0
 42
0.0000001
 43
0.0000001
 44
0.0000000001
 40
0.0
 40
0.0
 40
0.0
 40
0.0
 40
0.2872247505
 40
0.549577281
 40
0.7871344556
 40
1.0
 40
1.0
 40
1.0
 40
1.0
 10
11.1259447254
 20
11.436785418
 30
0.0
 10
11.1248301871
 20
11.4831141991
 30
0.0
 10
11.1221479147
 20
11.5717483221
 30
0.0
 10
11.1163543053
 20
11.6986221432
 30
0.0
 10
11.1089774065
 20
11.8133948936
 30
0.0
 10
11.1026647661
 20
11.8858033547
 30
0.0
 10
11.0991614138
 20
11.9199689299
 30
0.0
  0
SPLINE
  5
3C6
100
AcDbEntity
  8
0
100
AcDbSpline
 62
7
  6
CONTINUOUS
 70
0
 71
3
 72
19
 73
15
 74
0
 42
0.0000001
 43
0.0000001
 44
0.0000000001
 40
0.0
 40
0.0
 40
0.0
 40
0.0
 40
0.1694626459
 40
0.3306467379
 40
0.4809537711
 40
0.6182103191
 40
0.6812998506
 40
0.7403614785
 40
0.7951722439
 40
0.8455500208
 40
0.8913309124
 40
0.9323800741
 40
0.968611799
 40
1.0
 40
1.0
 40
1.0
 40
1.0
 10
11.1118779876
 20
11.0153726181
 30
0.0
 10
11.1346383027
 20
11.0141938274
 30
0.0
 10
11.1790235806
 20
11.0114021645
 30
0.0
 10
11.2434669808
 20
11.0057573179
 30
0.0
 10
11.3034255273
 20
10.99880708
 30
0.0
 10
11.3500783831
 20
10.9918336401
 30
0.0
 10
11.3844047232
 20
10.9855872713
 30
0.0
 10
11.4077150888
 20
10.9807747607
 30
0.0
 10
11.4292218477
 20
10.9757192722
 30
0.0
 10
11.4488320225
 20
10.9704419748
 30
0.0
 10
11.4664583027
 20
10.9649627259
 30
0.0
 10
11.4820191637
 20
10.9593014623
 30
0.0
 10
11.4954388686
 20
10.9534901527
 30
0.0
 10
11.5034918028
 20
10.9492304126
 30
0.0
 10
11.5071029666
 20
10.9470442339
 30
0.0
  0
SPLINE
  5
3C7
100
AcDbEntity
  8
0
100
AcDbSpline
 62
7
  6
CONTINUOUS
 70
0
 71
3
 72
11
 73
7
 74
0
 42
0.0000001
 43
0.0000001
 44
0.0000000001
 40
0.0
 40
0.0
 40
0.0
 40
0.0
 40
0.2953852093
 40
0.5621029353
 40
0.7968493542
 40
1.0
 40
1.0
 40
1.0
 40
1.0
 10
11.5110044719
 20
11.3815626702
 30
0.0
 10
11.5107605178
 20
11.377462707
 30
0.0
 10
11.510175623
 20
11.3696665567
 30
0.0
 10
11.5087501386
 20
11.3586694936
 30
0.0
 10
11.5066864499
 20
11.3490790902
 30
0.0
 10
11.5046571161
 20
11.3433046448
 30
0.0
 10
11.5034520886
 20
11.3407498445
 30
0.0
  0
SPLINE
  5
3C8
100
AcDbEntity
  8
0
100
AcDbSpline
 62
7
  6
CONTINUOUS
 70
0
 71
3
 72
14
 73
10
 74
0
 42
0.0000001
 43
0.0000001
 44
0.0000000001
 40
0.0
 40
0.0
 40
0.0
 40
0.0
 40
0.2685226451
 40
0.3987226031
 40
0.5259052864
 40
0.6498413027
 40
0.7703053681
 40
0.8870890029
 40
1.0
 40
1.0
 40
1.0
 40
1.0
 10
11.3537000657
 20
9.4157439786
 30
0.0
 10
11.3442404079
 20
9.5159498228
 30
0.0
 10
11.3302603789
 20
9.6647497534
 30
0.0
 10
11.3127280768
 20
9.8610960902
 30
0.0
 10
11.3006586381
 20
10.0035173648
 30
0.0
 10
11.2897387606
 20
10.1423714967
 30
0.0
 10
11.2801773439
 20
10.277419063
 30
0.0
 10
11.2721698529
 20
10.4084281088
 30
0.0
 10
11.2679161723
 20
10.4944231116
 30
0.0
 10
11.2661245257
 20
10.5367080287
 30
0.0
  0
SPLINE
  5
3C9
100
AcDbEntity
  8
0
100
AcDbSpline
 62
9
  6
CONTINUOUS
 70
0
 71
3
 72
11
 73
7
 74
0
 42
0.0000001
 43
0.0000001
 44
0.0000000001
 40
0.0
 40
0.0
 40
0.0
 40
0.0
 40
0.2456165579
 40
0.4939637377
 40
0.7453379014
 40
1.0
 40
1.0
 40
1.0
 40
1.0
 10
11.6250634372
 20
9.9119202707
 30
0.0
 10
11.6081714808
 20
9.8686885649
 30
0.0
 10
11.5713223004
 20
9.7828403566
 30
0.0
 10
11.5075627676
 20
9.6571494966
 30
0.0
 10
11.4352216597
 20
9.5342091112
 30
0.0
 10
11.3817562894
 20
9.4548434262
 30
0.0
 10
11.3537000657
 20
9.4157439786
 30
0.0
  0
SPLINE
  5
3CA
100
AcDbEntity
  8
0
100
AcDbSpline
 62
7
  6
CONTINUOUS
 70
0
 71
3
 72
14
 73
10
 74
0
 42
0.0000001
 43
0.0000001
 44
0.0000000001
 40
0.0
 40
0.0
 40
0.0
 40
0.0
 40
0.2685184885
 40
0.3987189992
 40
0.5259031296
 40
0.6498408482
 40
0.7703062697
 40
0.8870902705
 40
1.0
 40
1.0
 40
1.0
 40
1.0
 10
10.5201035847
 20
9.41574406
 30
0.0
 10
10.5296502018
 20
9.5159558843
 30
0.0
 10
10.5437787015
 20
9.6647638347
 30
0.0
 10
10.561532554
 20
9.8611203502
 30
0.0
 10
10.5737715961
 20
10.0035509378
 30
0.0
 10
10.5848618052
 20
10.1424150805
 30
0.0
 10
10.5945899383
 20
10.2774732311
 30
0.0
 10
10.6027561921
 20
10.408493202
 30
0.0
 10
10.6071092754
 20
10.4944963906
 30
0.0
 10
10.6089477711
 20
10.536785438
 30
0.0
  0
SPLINE
  5
3CB
100
AcDbEntity
  8
0
100
AcDbSpline
 62
7
  6
CONTINUOUS
 70
0
 71
3
 72
29
 73
25
 74
0
 42
0.0000001
 43
0.0000001
 44
0.0000000001
 40
0.0
 40
0.0
 40
0.0
 40
0.0
 40
0.0139853595
 40
0.0268396815
 40
0.0389987204
 40
0.0510374148
 40
0.0635849315
 40
0.0772165446
 40
0.0923866101
 40
0.1094136053
 40
0.1284984347
 40
0.1497512119
 40
0.1732042002
 40
0.1988332384
 40
0.2265676868
 40
0.2563037493
 40
0.32133019
 40
0.3929800308
 40
0.4702336304
 40
0.5520514555
 40
0.6374522659
 40
0.7255911263
 40
0.8157762025
 40
1.0
 40
1.0
 40
1.0
 40
1.0
 10
11.5034520886
 20
11.3407498445
 30
0.0
 10
11.502731551
 20
11.33922222
 30
0.0
 10
11.5011650306
 20
11.3363692675
 30
0.0
 10
11.4982332541
 20
11.3326499623
 30
0.0
 10
11.4947851872
 20
11.3297428768
 30
0.0
 10
11.4908040735
 20
11.3276969843
 30
0.0
 10
11.4863010865
 20
11.3265376439
 30
0.0
 10
11.4812894401
 20
11.3262529749
 30
0.0
 10
11.4757654681
 20
11.3268196159
 30
0.0
 10
11.4697192066
 20
11.3282173831
 30
0.0
 10
11.4631446746
 20
11.330428493
 30
0.0
 10
11.4560450132
 20
11.3334344723
 30
0.0
 10
11.4484308506
 20
11.3372089271
 30
0.0
 10
11.440321125
 20
11.3417200069
 30
0.0
 10
11.4317403007
 20
11.3469286352
 30
0.0
 10
11.4193328743
 20
11.3549892582
 30
0.0
 10
11.4029104166
 20
11.3665874623
 30
0.0
 10
11.382363823
 20
11.3822577755
 30
0.0
 10
11.3606796031
 20
11.3997613737
 30
0.0
 10
11.3380902912
 20
11.4187756444
 30
0.0
 10
11.3147891116
 20
11.4389794977
 30
0.0
 10
11.2909466114
 20
11.4600983359
 30
0.0
 10
11.2584057613
 20
11.489394697
 30
0.0
 10
11.2340123752
 20
11.5118296325
 30
0.0
 10
11.2176923427
 20
11.5269514772
 30
0.0
  0
SPLINE
  5
3CC
100
AcDbEntity
  8
0
100
AcDbSpline
 62
9
  6
CONTINUOUS
 70
0
 71
3
 72
11
 73
7
 74
0
 42
0.0000001
 43
0.0000001
 44
0.0000000001
 40
0.0
 40
0.0
 40
0.0
 40
0.0
 40
0.2547211837
 40
0.5061107693
 40
0.7544357877
 40
1.0
 40
1.0
 40
1.0
 40
1.0
 10
10.5201035788
 20
9.4157439975
 30
0.0
 10
10.492009176
 20
9.4547645478
 30
0.0
 10
10.4384939633
 20
9.5339885499
 30
0.0
 10
10.3661606442
 20
9.656765379
 30
0.0
 10
10.3025036165
 20
9.7823243793
 30
0.0
 10
10.2657877621
 20
9.8681047619
 30
0.0
 10
10.2489806334
 20
9.9113041379
 30
0.0
  0
SPLINE
  5
3CD
100
AcDbEntity
  8
0
100
AcDbSpline
 62
7
  6
CONTINUOUS
 70
0
 71
3
 72
11
 73
7
 74
0
 42
0.0000001
 43
0.0000001
 44
0.0000000001
 40
0.0
 40
0.0
 40
0.0
 40
0.0
 40
0.2814768743
 40
0.5419136238
 40
0.7813879716
 40
1.0
 40
1.0
 40
1.0
 40
1.0
 10
11.2176923427
 20
11.5269514772
 30
0.0
 10
11.2192080635
 20
11.5626170892
 30
0.0
 10
11.221676126
 20
11.6313028052
 30
0.0
 10
11.2236703159
 20
11.7303857045
 30
0.0
 10
11.2238149111
 20
11.8215165786
 30
0.0
 10
11.2226268863
 20
11.8796073856
 30
0.0
 10
11.2216723893
 20
11.9073160329
 30
0.0
  0
SPLINE
  5
3CE
100
AcDbEntity
  8
0
100
AcDbSpline
 62
7
  6
CONTINUOUS
 70
0
 71
3
 72
13
 73
9
 74
0
 42
0.0000001
 43
0.0000001
 44
0.0000000001
 40
0.0
 40
0.0
 40
0.0
 40
0.0
 40
0.2477480885
 40
0.3715704505
 40
0.4952870842
 40
0.6195182891
 40
0.7449440366
 40
1.0
 40
1.0
 40
1.0
 40
1.0
 10
11.5076744672
 20
11.5855913797
 30
0.0
 10
11.501265421
 20
11.5950273842
 30
0.0
 10
11.491498687
 20
11.6090758431
 30
0.0
 10
11.478122517
 20
11.6275452829
 30
0.0
 10
11.4678964415
 20
11.6412723778
 30
0.0
 10
11.4574831447
 20
11.6549505732
 30
0.0
 10
11.4432743812
 20
11.6733384415
 30
0.0
 10
11.4324397175
 20
11.6871048037
 30
0.0
 10
11.4251167707
 20
11.6962850931
 30
0.0
  0
SPLINE
  5
3CF
100
AcDbEntity
  8
0
100
AcDbSpline
 62
7
  6
CONTINUOUS
 70
0
 71
3
 72
12
 73
8
 74
0
 42
0.0000001
 43
0.0000001
 44
0.0000000001
 40
0.0
 40
0.0
 40
0.0
 40
0.0
 40
0.2456067844
 40
0.3694279367
 40
0.4939077381
 40
0.7452103739
 40
1.0
 40
1.0
 40
1.0
 40
1.0
 10
11.4251167707
 20
11.6962850931
 30
0.0
 10
11.4099721528
 20
11.7149342028
 30
0.0
 10
11.3865811503
 20
11.7424967861
 30
0.0
 10
11.3541466356
 20
11.7783052256
 30
0.0
 10
11.3205636625
 20
11.8138110494
 30
0.0
 10
11.2767951062
 20
11.8572935667
 30
0.0
 10
11.2403408458
 20
11.8908053821
 30
0.0
 10
11.2216723893
 20
11.9073160329
 30
0.0
  0
SPLINE
  5
3D0
100
AcDbEntity
  8
0
100
AcDbSpline
 62
7
  6
CONTINUOUS
 70
0
 71
3
 72
21
 73
17
 74
0
 42
0.0000001
 43
0.0000001
 44
0.0000000001
 40
0.0
 40
0.0
 40
0.0
 40
0.0
 40
0.2253026954
 40
0.4309125787
 40
0.6078179619
 40
0.6839910018
 40
0.7513879994
 40
0.8097108923
 40
0.8592346806
 40
0.9003778436
 40
0.9335597769
 40
0.9592769001
 40
0.9783291514
 40
0.9915998555
 40
0.9963503418
 40
1.0
 40
1.0
 40
1.0
 40
1.0
 10
11.2216723893
 20
11.9073160329
 30
0.0
 10
11.2219240708
 20
11.9327718352
 30
0.0
 10
11.222235783
 20
11.98146037
 30
0.0
 10
11.2221206244
 20
12.050138761
 30
0.0
 10
11.2214742847
 20
12.1019636139
 30
0.0
 10
11.2206418032
 20
12.1381649876
 30
0.0
 10
11.2199382995
 20
12.1609663926
 30
0.0
 10
11.2191373543
 20
12.1807514117
 30
0.0
 10
11.2182653679
 20
12.1975636433
 30
0.0
 10
11.2173489552
 20
12.2115279498
 30
0.0
 10
11.2164135205
 20
12.2227935329
 30
0.0
 10
11.2154811995
 20
12.231553359
 30
0.0
 10
11.2145691891
 20
12.2380482363
 30
0.0
 10
11.2137862833
 20
12.2421679173
 30
0.0
 10
11.2131532351
 20
12.2445341654
 30
0.0
 10
11.2128474801
 20
12.2454342053
 30
0.0
 10
11.2126923432
 20
12.2458162876
 30
0.0
  0
SPLINE
  5
3D1
100
AcDbEntity
  8
0
100
AcDbSpline
 62
7
  6
CONTINUOUS
 70
0
 71
3
 72
11
 73
7
 74
0
 42
0.0000001
 43
0.0000001
 44
0.0000000001
 40
0.0
 40
0.0
 40
0.0
 40
0.0
 40
0.3004131756
 40
0.568463832
 40
0.8011732984
 40
1.0
 40
1.0
 40
1.0
 40
1.0
 10
10.3644223583
 20
11.3820475324
 30
0.0
 10
10.3646422133
 20
11.3778049031
 30
0.0
 10
10.3652033424
 20
11.3697825257
 30
0.0
 10
10.3666119921
 20
11.3585321914
 30
0.0
 10
10.3686807073
 20
11.348839288
 30
0.0
 10
10.3707942827
 20
11.343078959
 30
0.0
 10
10.3720162202
 20
11.3405466325
 30
0.0
  0
LINE
  5
3D2
100
AcDbEntity
  8
0
100
AcDbLine
 62
9
  6
CONTINUOUS
 10
10.9376724852
 20
11.925965175
 11
10.9376924347
 21
12.2566424053
  0
SPLINE
  5
3D3
100
AcDbEntity
  8
0
100
AcDbSpline
 62
9
  6
CONTINUOUS
 70
0
 71
3
 72
10
 73
6
 74
0
 42
0.0000001
 43
0.0000001
 44
0.0000000001
 40
0.0
 40
0.0
 40
0.0
 40
0.0
 40
0.2515389498
 40
0.6255313489
 40
1.0
 40
1.0
 40
1.0
 40
1.0
 10
10.3706593955
 20
7.3782312767
 30
0.0
 10
10.3574757037
 20
7.3876835184
 30
0.0
 10
10.3246153957
 20
7.4110849874
 30
0.0
 10
10.2720371261
 20
7.4484293011
 30
0.0
 10
10.2329950105
 20
7.4768179218
 30
0.0
 10
10.2136280133
 20
7.4912449136
 30
0.0
  0
SPLINE
  5
3D4
100
AcDbEntity
  8
0
100
AcDbSpline
 62
9
  6
CONTINUOUS
 70
0
 71
3
 72
13
 73
9
 74
0
 42
0.0000001
 43
0.0000001
 44
0.0000000001
 40
0.0
 40
0.0
 40
0.0
 40
0.0
 40
0.2535785097
 40
0.5047344108
 40
0.62931758
 40
0.7534058409
 40
0.8770391892
 40
1.0
 40
1.0
 40
1.0
 40
1.0
 10
9.9565051882
 20
7.6971155178
 30
0.0
 10
9.9781105802
 20
7.6795497882
 30
0.0
 10
10.0207565501
 20
7.6441485305
 30
0.0
 10
10.0740958367
 20
7.6002111853
 30
0.0
 10
10.1168776778
 20
7.5658282145
 30
0.0
 10
10.1489442847
 20
7.5404683613
 30
0.0
 10
10.1811040581
 20
7.5155156931
 30
0.0
 10
10.2027506387
 20
7.4992445485
 30
0.0
 10
10.2136280361
 20
7.4912451754
 30
0.0
  0
SPLINE
  5
3D5
100
AcDbEntity
  8
0
100
AcDbSpline
 62
9
  6
CONTINUOUS
 70
0
 71
3
 72
11
 73
7
 74
0
 42
0.0000001
 43
0.0000001
 44
0.0000000001
 40
0.0
 40
0.0
 40
0.0
 40
0.0
 40
0.252844724
 40
0.5047898252
 40
0.7543052799
 40
1.0
 40
1.0
 40
1.0
 40
1.0
 10
10.0699571579
 20
6.9612749216
 30
0.0
 10
10.0895050159
 20
7.0034595824
 30
0.0
 10
10.1250298885
 20
7.0893516631
 30
0.0
 10
10.1671572456
 20
7.2216745929
 30
0.0
 10
10.197383002
 20
7.3558680447
 30
0.0
 10
10.2096059573
 20
7.4462453595
 30
0.0
 10
10.2136280127
 20
7.491244914
 30
0.0
  0
SPLINE
  5
3D6
100
AcDbEntity
  8
0
100
AcDbSpline
 62
9
  6
CONTINUOUS
 70
0
 71
3
 72
12
 73
8
 74
0
 42
0.0000001
 43
0.0000001
 44
0.0000000001
 40
0.0
 40
0.0
 40
0.0
 40
0.0
 40
0.1358495075
 40
0.2682850039
 40
0.5230957655
 40
0.7665152004
 40
1.0
 40
1.0
 40
1.0
 40
1.0
 10
10.9376046641
 20
7.3465299431
 30
0.0
 10
10.9118695644
 20
7.3465385154
 30
0.0
 10
10.8610461651
 20
7.3467437979
 30
0.0
 10
10.7619549285
 20
7.3475218704
 30
0.0
 10
10.6424857462
 20
7.3484429235
 30
0.0
 10
10.5038691079
 20
7.3484099409
 30
0.0
 10
10.4135276112
 20
7.3475224793
 30
0.0
 10
10.3693019629
 20
7.3468366362
 30
0.0
  0
SPLINE
  5
3D7
100
AcDbEntity
  8
0
100
AcDbSpline
 62
7
  6
CONTINUOUS
 70
0
 71
3
 72
15
 73
11
 74
0
 42
0.0000001
 43
0.0000001
 44
0.0000000001
 40
0.0
 40
0.0
 40
0.0
 40
0.0
 40
0.1301425002
 40
0.2589440301
 40
0.3863892782
 40
0.5124573636
 40
0.6370331679
 40
0.7599387311
 40
0.8809901049
 40
1.0
 40
1.0
 40
1.0
 40
1.0
 10
10.3706593326
 20
7.3782299401
 30
0.0
 10
10.3735430546
 20
7.4668252895
 30
0.0
 10
10.3805720917
 20
7.6430631034
 30
0.0
 10
10.3944656136
 20
7.9058784803
 30
0.0
 10
10.4112186096
 20
8.1657454819
 30
0.0
 10
10.4304100382
 20
8.4225560386
 30
0.0
 10
10.4514894196
 20
8.6761144598
 30
0.0
 10
10.4738448437
 20
8.9261319916
 30
0.0
 10
10.4968752689
 20
9.1722801569
 30
0.0
 10
10.5124162895
 20
9.3350497335
 30
0.0
 10
10.5201035843
 20
9.4157440599
 30
0.0
  0
SPLINE
  5
3D8
100
AcDbEntity
  8
0
100
AcDbSpline
 62
7
  6
CONTINUOUS
 70
0
 71
3
 72
9
 73
5
 74
0
 42
0.0000001
 43
0.0000001
 44
0.0000000001
 40
0.0
 40
0.0
 40
0.0
 40
0.0
 40
0.5014213489
 40
1.0
 40
1.0
 40
1.0
 40
1.0
 10
10.3489240309
 20
7.1057460104
 30
0.0
 10
10.3534367278
 20
7.1459374022
 30
0.0
 10
10.3614576637
 20
7.2262065632
 30
0.0
 10
10.3671360641
 20
7.3066803506
 30
0.0
 10
10.3693019576
 20
7.3468366362
 30
0.0
  0
SPLINE
  5
3D9
100
AcDbEntity
  8
0
100
AcDbSpline
 62
7
  6
CONTINUOUS
 70
0
 71
3
 72
17
 73
13
 74
0
 42
0.0000001
 43
0.0000001
 44
0.0000000001
 40
0.0
 40
0.0
 40
0.0
 40
0.0
 40
0.1229773539
 40
0.2463042247
 40
0.370104992
 40
0.4945418249
 40
0.6197464451
 40
0.745782513
 40
0.8091400356
 40
0.8726575497
 40
0.9363019535
 40
1.0
 40
1.0
 40
1.0
 40
1.0
 10
11.4266570378
 20
6.8549047125
 30
0.0
 10
11.4120583501
 20
6.8356212633
 30
0.0
 10
11.3816006734
 20
6.797899375
 30
0.0
 10
11.3318672434
 20
6.7446535757
 30
0.0
 10
11.2776276075
 20
6.6955347502
 30
0.0
 10
11.2185402855
 20
6.6516825492
 30
0.0
 10
11.1544513805
 20
6.6145639069
 30
0.0
 10
11.097101685
 20
6.5907484955
 30
0.0
 10
11.0492921727
 20
6.5768733431
 30
0.0
 10
11.0125646033
 20
6.5692470796
 30
0.0
 10
10.9752770698
 20
6.5645977516
 30
0.0
 10
10.9502199728
 20
6.563555012
 30
0.0
 10
10.9376923428
 20
6.563555012
 30
0.0
  0
SPLINE
  5
3DA
100
AcDbEntity
  8
0
100
AcDbSpline
 62
9
  6
CONTINUOUS
 70
0
 71
3
 72
19
 73
15
 74
0
 42
0.0000001
 43
0.0000001
 44
0.0000000001
 40
0.0
 40
0.0
 40
0.0
 40
0.0
 40
0.1278316531
 40
0.2543042843
 40
0.3172557893
 40
0.3801328333
 40
0.442942609
 40
0.5056364315
 40
0.5681633039
 40
0.6304718703
 40
0.6925119741
 40
0.7542790316
 40
0.8772653056
 40
1.0
 40
1.0
 40
1.0
 40
1.0
 10
11.9182346892
 20
7.6994911189
 30
0.0
 10
11.9063655561
 20
7.6903890272
 30
0.0
 10
11.882763646
 20
7.6722683116
 30
0.0
 10
11.8534467156
 20
7.6494961679
 30
0.0
 10
11.8302690183
 20
7.6312117543
 30
0.0
 10
11.8130278956
 20
7.617429958
 30
0.0
 10
11.7958845777
 20
7.6035747387
 30
0.0
 10
11.778814536
 20
7.5896942776
 30
0.0
 10
11.7618024064
 20
7.5758355875
 30
0.0
 10
11.7448327214
 20
7.5620458951
 30
0.0
 10
11.7278823716
 20
7.5483735164
 30
0.0
 10
11.7053170598
 20
7.5303542855
 30
0.0
 10
11.6770793093
 20
7.5080581647
 30
0.0
 10
11.6544515054
 20
7.4903203318
 30
0.0
 10
11.643151601
 20
7.481457411
 30
0.0
  0
SPLINE
  5
3DB
100
AcDbEntity
  8
0
100
AcDbSpline
 62
7
  6
CONTINUOUS
 70
0
 71
3
 72
15
 73
11
 74
0
 42
0.0000001
 43
0.0000001
 44
0.0000000001
 40
0.0
 40
0.0
 40
0.0
 40
0.0
 40
0.1301432316
 40
0.258945303
 40
0.3863912208
 40
0.512460554
 40
0.6370375411
 40
0.7599432975
 40
0.880993306
 40
1.0
 40
1.0
 40
1.0
 40
1.0
 10
11.5038920065
 20
7.3789908516
 30
0.0
 10
11.5008360098
 20
7.4675490328
 30
0.0
 10
11.4935071107
 20
7.6437115815
 30
0.0
 10
11.4792844291
 20
7.9064154846
 30
0.0
 10
11.4623157482
 20
8.1661759497
 30
0.0
 10
11.4430133854
 20
8.4228871542
 30
0.0
 10
11.4219167625
 20
8.6763539266
 30
0.0
 10
11.3996253941
 20
8.9262864452
 30
0.0
 10
11.3767283506
 20
9.1723547249
 30
0.0
 10
11.361315465
 20
9.3350743006
 30
0.0
 10
11.3537000654
 20
9.415743979
 30
0.0
  0
SPLINE
  5
3DC
100
AcDbEntity
  8
0
100
AcDbSpline
 62
9
  6
CONTINUOUS
 70
0
 71
3
 72
13
 73
9
 74
0
 42
0.0000001
 43
0.0000001
 44
0.0000000001
 40
0.0
 40
0.0
 40
0.0
 40
0.0
 40
0.2499981777
 40
0.3749934612
 40
0.4999818817
 40
0.6249739278
 40
0.7499840359
 40
1.0
 40
1.0
 40
1.0
 40
1.0
 10
10.4487453431
 20
6.8548814052
 30
0.0
 10
10.4895121969
 20
6.8561099701
 30
0.0
 10
10.5506394891
 20
6.8586881052
 30
0.0
 10
10.6321034221
 20
6.8628065622
 30
0.0
 10
10.6931931164
 20
6.8660265886
 30
0.0
 10
10.7542935075
 20
6.8690990497
 30
0.0
 10
10.8357886577
 20
6.8726574052
 30
0.0
 10
10.896969174
 20
6.8742272224
 30
0.0
 10
10.9377574016
 20
6.8742814111
 30
0.0
  0
SPLINE
  5
3DD
100
AcDbEntity
  8
0
100
AcDbSpline
 62
9
  6
CONTINUOUS
 70
0
 71
3
 72
11
 73
7
 74
0
 42
0.0000001
 43
0.0000001
 44
0.0000000001
 40
0.0
 40
0.0
 40
0.0
 40
0.0
 40
0.2528483647
 40
0.5047621765
 40
0.7542613759
 40
1.0
 40
1.0
 40
1.0
 40
1.0
 10
11.7886288576
 20
6.961274467
 30
0.0
 10
11.7691608564
 20
7.0026545474
 30
0.0
 10
11.7336819684
 20
7.0869028762
 30
0.0
 10
11.6912772187
 20
7.2167278136
 30
0.0
 10
11.660420735
 20
7.348454083
 30
0.0
 10
11.6475517446
 20
7.4372307613
 30
0.0
 10
11.6431516042
 20
7.4814574135
 30
0.0
  0
SPLINE
  5
3DE
100
AcDbEntity
  8
0
100
AcDbSpline
 62
9
  6
CONTINUOUS
 70
0
 71
3
 72
13
 73
9
 74
0
 42
0.0000001
 43
0.0000001
 44
0.0000000001
 40
0.0
 40
0.0
 40
0.0
 40
0.0
 40
0.2500160723
 40
0.375026265
 40
0.5000180682
 40
0.6250065537
 40
0.7500021856
 40
1.0
 40
1.0
 40
1.0
 40
1.0
 10
10.9377574016
 20
6.8742814111
 30
0.0
 10
10.9785362764
 20
6.8742398719
 30
0.0
 10
11.0397033631
 20
6.8726883628
 30
0.0
 10
11.1211800135
 20
6.8691360195
 30
0.0
 10
11.1822661333
 20
6.8660602247
 30
0.0
 10
11.2433415389
 20
6.8628360213
 30
0.0
 10
11.3247866197
 20
6.8587161858
 30
0.0
 10
11.3858996905
 20
6.8561352142
 30
0.0
 10
11.4266570378
 20
6.8549047125
 30
0.0
  0
SPLINE
  5
3DF
100
AcDbEntity
  8
0
100
AcDbSpline
 62
7
  6
CONTINUOUS
 70
0
 71
3
 72
11
 73
7
 74
0
 42
0.0000001
 43
0.0000001
 44
0.0000000001
 40
0.0
 40
0.0
 40
0.0
 40
0.0
 40
0.2465316257
 40
0.4953657515
 40
0.7466713137
 40
1.0
 40
1.0
 40
1.0
 40
1.0
 10
11.4266570428
 20
6.8549046995
 30
0.0
 10
11.4401631069
 20
6.8727448944
 30
0.0
 10
11.4648048231
 20
6.910553917
 30
0.0
 10
11.493871148
 20
6.9719868651
 30
0.0
 10
11.5149003875
 20
7.03724858
 30
0.0
 10
11.5234705601
 20
7.0823774661
 30
0.0
 10
11.5263972438
 20
7.1051833869
 30
0.0
  0
SPLINE
  5
3E0
100
AcDbEntity
  8
0
100
AcDbSpline
 62
7
  6
CONTINUOUS
 70
0
 71
3
 72
12
 73
8
 74
0
 42
0.0000001
 43
0.0000001
 44
0.0000000001
 40
0.0
 40
0.0
 40
0.0
 40
0.0
 40
0.1282635282
 40
0.2560777748
 40
0.6342780549
 40
0.8193147006
 40
1.0
 40
1.0
 40
1.0
 40
1.0
 10
11.5263972438
 20
7.1051833869
 30
0.0
 10
11.5291363866
 20
7.092323688
 30
0.0
 10
11.5351548667
 20
7.0667603732
 30
0.0
 10
11.5528387662
 20
7.0041871986
 30
0.0
 10
11.5783555508
 20
6.937756341
 30
0.0
 10
11.6139909134
 20
6.8702632909
 30
0.0
 10
11.6342637369
 20
6.8386553764
 30
0.0
 10
11.6449819502
 20
6.8235497311
 30
0.0
  0
SPLINE
  5
3E1
100
AcDbEntity
  8
0
100
AcDbSpline
 62
9
  6
CONTINUOUS
 70
0
 71
3
 72
13
 73
9
 74
0
 42
0.0000001
 43
0.0000001
 44
0.0000000001
 40
0.0
 40
0.0
 40
0.0
 40
0.0
 40
0.2554971181
 40
0.5097418194
 40
0.6354480864
 40
0.7594499377
 40
0.8811337688
 40
1.0
 40
1.0
 40
1.0
 40
1.0
 10
11.7886288657
 20
6.9612744755
 30
0.0
 10
11.8099989599
 20
6.9833977227
 30
0.0
 10
11.8520950227
 20
7.0280532001
 30
0.0
 10
11.9044667551
 20
7.0838181908
 30
0.0
 10
11.9466917654
 20
7.1273866975
 30
0.0
 10
11.9784453331
 20
7.1588708926
 30
0.0
 10
12.0105311966
 20
7.1888268077
 30
0.0
 10
12.0325068892
 20
7.2077080587
 30
0.0
 10
12.0436114173
 20
7.2167341853
 30
0.0
  0
SPLINE
  5
3E2
100
AcDbEntity
  8
0
100
AcDbSpline
 62
7
  6
CONTINUOUS
 70
0
 71
3
 72
39
 73
35
 74
0
 42
0.0000001
 43
0.0000001
 44
0.0000000001
 40
0.0
 40
0.0
 40
0.0
 40
0.0
 40
0.073838779
 40
0.1097271564
 40
0.1448357277
 40
0.1790838353
 40
0.2123939668
 40
0.2446721814
 40
0.2758233522
 40
0.3057487176
 40
0.3343559095
 40
0.3615671075
 40
0.3873418355
 40
0.4116995438
 40
0.4347629019
 40
0.4567966087
 40
0.4675681336
 40
0.4782599597
 40
0.4889494768
 40
0.4997200491
 40
0.510654916
 40
0.5218343409
 40
0.5451885479
 40
0.5702626511
 40
0.597315328
 40
0.6264260275
 40
0.6575405453
 40
0.6905194546
 40
0.725180581
 40
0.7613309557
 40
0.7987778249
 40
0.8373478026
 40
0.91724179
 40
1.0
 40
1.0
 40
1.0
 40
1.0
 10
12.1172314161
 20
6.9612749224
 30
0.0
 10
12.1168080777
 20
6.9394966422
 30
0.0
 10
12.1157226719
 20
6.9071372865
 30
0.0
 10
12.1130681499
 20
6.864490944
 30
0.0
 10
12.110467399
 20
6.8335499074
 30
0.0
 10
12.1071673963
 20
6.8034398759
 30
0.0
 10
12.1031034542
 20
6.7742649647
 30
0.0
 10
12.0981943481
 20
6.746145562
 30
0.0
 10
12.0923572105
 20
6.7192225099
 30
0.0
 10
12.0855009974
 20
6.6936568847
 30
0.0
 10
12.0775282363
 20
6.6696336937
 30
0.0
 10
12.0683367036
 20
6.6473613734
 30
0.0
 10
12.0578207343
 20
6.6270738296
 30
0.0
 10
12.0458700873
 20
6.6090291024
 30
0.0
 10
12.0323868578
 20
6.5935123556
 30
0.0
 10
12.0196905781
 20
6.5828654002
 30
0.0
 10
12.0088097304
 20
6.5760328477
 30
0.0
 10
12.0003204141
 20
6.5717683294
 30
0.0
 10
11.9914546749
 20
6.5683546493
 30
0.0
 10
11.9822240895
 20
6.5658204858
 30
0.0
 10
11.9726469331
 20
6.5641801492
 30
0.0
 10
11.9592528088
 20
6.5631869169
 30
0.0
 10
11.9416095887
 20
6.5643374181
 30
0.0
 10
11.9198278142
 20
6.5693090323
 30
0.0
 10
11.8973187054
 20
6.5777030976
 30
0.0
 10
11.8742799025
 20
6.5892893699
 30
0.0
 10
11.8508918644
 20
6.6038027194
 30
0.0
 10
11.827322178
 20
6.6209622672
 30
0.0
 10
11.8037142453
 20
6.6404848401
 30
0.0
 10
11.7801890805
 20
6.6621012261
 30
0.0
 10
11.7568411544
 20
6.6855620463
 30
0.0
 10
11.7256807509
 20
6.7194043951
 30
0.0
 10
11.6877416117
 20
6.7651105884
 30
0.0
 10
11.659109579
 20
6.803639056
 30
0.0
 10
11.6449819493
 20
6.8235497308
 30
0.0
  0
SPLINE
  5
3E3
100
AcDbEntity
  8
0
100
AcDbSpline
 62
9
  6
CONTINUOUS
 70
0
 71
3
 72
9
 73
5
 74
0
 42
0.0000001
 43
0.0000001
 44
0.0000000001
 40
0.0
 40
0.0
 40
0.0
 40
0.0
 40
0.4966802553
 40
1.0
 40
1.0
 40
1.0
 40
1.0
 10
11.6449818632
 20
6.8235499065
 30
0.0
 10
11.6698031319
 20
6.8452266305
 30
0.0
 10
11.7185435532
 20
6.8902906056
 30
0.0
 10
11.7653806268
 20
6.9373013801
 30
0.0
 10
11.7886285745
 20
6.961275049
 30
0.0
  0
SPLINE
  5
3E4
100
AcDbEntity
  8
0
100
AcDbSpline
 62
9
  6
CONTINUOUS
 70
0
 71
3
 72
13
 73
9
 74
0
 42
0.0000001
 43
0.0000001
 44
0.0000000001
 40
0.0
 40
0.0
 40
0.0
 40
0.0
 40
0.2500756435
 40
0.3749218122
 40
0.4996702571
 40
0.6244725694
 40
0.7494697595
 40
1.0
 40
1.0
 40
1.0
 40
1.0
 10
11.5038920032
 20
7.3789908519
 30
0.0
 10
11.5156620259
 20
7.3873098726
 30
0.0
 10
11.5332343286
 20
7.3998863935
 30
0.0
 10
11.5565638495
 20
7.4167711121
 30
0.0
 10
11.5739998296
 20
7.4294840827
 30
0.0
 10
11.5913760758
 20
7.4422933759
 30
0.0
 10
11.6144693362
 20
7.4595637095
 30
0.0
 10
11.6316884244
 20
7.4726772649
 30
0.0
 10
11.6431516042
 20
7.4814574135
 30
0.0
  0
SPLINE
  5
3E5
100
AcDbEntity
  8
0
100
AcDbSpline
 62
7
  6
CONTINUOUS
 70
0
 71
3
 72
9
 73
5
 74
0
 42
0.0000001
 43
0.0000001
 44
0.0000000001
 40
0.0
 40
0.0
 40
0.0
 40
0.0
 40
0.5014152331
 40
1.0
 40
1.0
 40
1.0
 40
1.0
 10
11.5263972437
 20
7.1051833869
 30
0.0
 10
11.5217773467
 20
7.1454684005
 30
0.0
 10
11.5135205491
 20
7.2259250486
 30
0.0
 10
11.5076134994
 20
7.3065940441
 30
0.0
 10
11.505349973
 20
7.3468506144
 30
0.0
  0
SPLINE
  5
3E6
100
AcDbEntity
  8
0
100
AcDbSpline
 62
9
  6
CONTINUOUS
 70
0
 71
3
 72
11
 73
7
 74
0
 42
0.0000001
 43
0.0000001
 44
0.0000000001
 40
0.0
 40
0.0
 40
0.0
 40
0.0
 40
0.233445254
 40
0.4768513819
 40
0.7316856329
 40
1.0
 40
1.0
 40
1.0
 40
1.0
 10
11.5053499774
 20
7.3468508346
 30
0.0
 10
11.4611753258
 20
7.3475435388
 30
0.0
 10
11.3709324158
 20
7.3484303157
 30
0.0
 10
11.2324571661
 20
7.3484431964
 30
0.0
 10
11.0873893415
 20
7.3472995607
 30
0.0
 10
10.9883838355
 20
7.346536295
 30
0.0
 10
10.9376046889
 20
7.346530362
 30
0.0
  0
LINE
  5
3E7
100
AcDbEntity
  8
0
100
AcDbLine
 62
9
  6
CONTINUOUS
 10
10.937718612
 20
7.3465297631
 11
10.9377101782
 21
9.3890270557
  0
SPLINE
  5
3E8
100
AcDbEntity
  8
0
100
AcDbSpline
 62
7
  6
CONTINUOUS
 70
0
 71
3
 72
12
 73
8
 74
0
 42
0.0000001
 43
0.0000001
 44
0.0000000001
 40
0.0
 40
0.0
 40
0.0
 40
0.0
 40
0.1198453933
 40
0.2418947865
 40
0.4906525802
 40
0.743954774
 40
1.0
 40
1.0
 40
1.0
 40
1.0
 10
10.2292212286
 20
6.8218867564
 30
0.0
 10
10.2364024724
 20
6.8319811018
 30
0.0
 10
10.2502675819
 20
6.8528107468
 30
0.0
 10
10.2758994085
 20
6.8965998743
 30
0.0
 10
10.3037960853
 20
6.9549199262
 30
0.0
 10
10.3303305525
 20
7.0287751253
 30
0.0
 10
10.3434540315
 20
7.0798506265
 30
0.0
 10
10.3489240309
 20
7.1057460104
 30
0.0
  0
SPLINE
  5
3E9
100
AcDbEntity
  8
0
100
AcDbSpline
 62
7
  6
CONTINUOUS
 70
0
 71
3
 72
11
 73
7
 74
0
 42
0.0000001
 43
0.0000001
 44
0.0000000001
 40
0.0
 40
0.0
 40
0.0
 40
0.0
 40
0.253332873
 40
0.5046413254
 40
0.7534739255
 40
1.0
 40
1.0
 40
1.0
 40
1.0
 10
10.3489240309
 20
7.1057460104
 30
0.0
 10
10.3518339724
 20
7.0828871526
 30
0.0
 10
10.360382501
 20
7.037651341
 30
0.0
 10
10.3814134974
 20
6.9722322851
 30
0.0
 10
10.4105184745
 20
6.9106535807
 30
0.0
 10
10.4352097426
 20
6.8727596428
 30
0.0
 10
10.4487453427
 20
6.8548814044
 30
0.0
  0
SPLINE
  5
3EA
100
AcDbEntity
  8
0
100
AcDbSpline
 62
7
  6
CONTINUOUS
 70
0
 71
3
 72
19
 73
15
 74
0
 42
0.0000001
 43
0.0000001
 44
0.0000000001
 40
0.0
 40
0.0
 40
0.0
 40
0.0
 40
0.1228988251
 40
0.1844898522
 40
0.2461883695
 40
0.3699358102
 40
0.4943589123
 40
0.6195712816
 40
0.6825199439
 40
0.7456850645
 40
0.809053981
 40
0.8726116843
 40
0.9363123044
 40
1.0
 40
1.0
 40
1.0
 40
1.0
 10
10.4487453427
 20
6.8548814044
 30
0.0
 10
10.4633359457
 20
6.8356096479
 30
0.0
 10
10.486151816
 20
6.8073479965
 30
0.0
 10
10.5185683622
 20
6.7713664545
 30
0.0
 10
10.552466795
 20
6.7365433259
 30
0.0
 10
10.5977099977
 20
6.6955764841
 30
0.0
 10
10.6567794407
 20
6.6517287077
 30
0.0
 10
10.7101288536
 20
6.6208313713
 30
0.0
 10
10.7551506524
 20
6.6003423698
 30
0.0
 10
10.79010368
 20
6.5873164208
 30
0.0
 10
10.8260416192
 20
6.5768778376
 30
0.0
 10
10.8627917388
 20
6.5692492486
 30
0.0
 10
10.9000994131
 20
6.5646103451
 30
0.0
 10
10.925166105
 20
6.563555012
 30
0.0
 10
10.9376923428
 20
6.563555012
 30
0.0
  0
SPLINE
  5
3EB
100
AcDbEntity
  8
0
100
AcDbSpline
 62
7
  6
CONTINUOUS
 70
0
 71
3
 72
12
 73
8
 74
0
 42
0.0000001
 43
0.0000001
 44
0.0000000001
 40
0.0
 40
0.0
 40
0.0
 40
0.0
 40
0.2623995961
 40
0.5189293778
 40
0.6435539506
 40
0.765399434
 40
1.0
 40
1.0
 40
1.0
 40
1.0
 10
10.937692343
 20
11.3808100647
 30
0.0
 10
10.9203070604
 20
11.380810603
 30
0.0
 10
10.885873038
 20
11.3833509786
 30
0.0
 10
10.8441251073
 20
11.3928282502
 30
0.0
 10
10.8126682337
 20
11.4039197367
 30
0.0
 10
10.7834183503
 20
11.4166273612
 30
0.0
 10
10.7627156878
 20
11.4281750646
 30
0.0
 10
10.7496742619
 20
11.4366320323
 30
0.0
  0
SPLINE
  5
3EC
100
AcDbEntity
  8
0
100
AcDbSpline
 62
9
  6
CONTINUOUS
 70
0
 71
3
 72
11
 73
7
 74
0
 42
0.0000001
 43
0.0000001
 44
0.0000000001
 40
0.0
 40
0.0
 40
0.0
 40
0.0
 40
0.2487303817
 40
0.5001592043
 40
0.7511406953
 40
1.0
 40
1.0
 40
1.0
 40
1.0
 10
9.8313846977
 20
7.2156044347
 30
0.0
 10
9.8513150924
 20
7.1946561475
 30
0.0
 10
9.890702327
 20
7.1518794628
 30
0.0
 10
9.9492723734
 20
7.0871187344
 30
0.0
 10
10.0087125523
 20
7.0231274917
 30
0.0
 10
10.0493386182
 20
6.9815676119
 30
0.0
 10
10.0699571346
 20
6.9612748775
 30
0.0
  0
SPLINE
  5
3ED
100
AcDbEntity
  8
0
100
AcDbSpline
 62
7
  6
CONTINUOUS
 70
0
 71
3
 72
39
 73
35
 74
0
 42
0.0000001
 43
0.0000001
 44
0.0000000001
 40
0.0
 40
0.0
 40
0.0
 40
0.0
 40
0.0827414435
 40
0.1625992121
 40
0.2011425983
 40
0.2385563332
 40
0.2746668513
 40
0.3092815377
 40
0.3422079538
 40
0.3732655822
 40
0.4023178094
 40
0.4293145322
 40
0.4543405025
 40
0.4776603454
 40
0.4888292496
 40
0.4997585618
 40
0.5105285219
 40
0.5212222659
 40
0.5319227395
 40
0.5427067916
 40
0.5647746035
 40
0.5878791296
 40
0.612280677
 40
0.6380990278
 40
0.6653519531
 40
0.6939980963
 40
0.7239598085
 40
0.7551444599
 40
0.7874538678
 40
0.8207929261
 40
0.8550682499
 40
0.8902025569
 40
0.9261153383
 40
1.0
 40
1.0
 40
1.0
 40
1.0
 10
10.229221228
 20
6.8218867574
 30
0.0
 10
10.2151044567
 20
6.8020434343
 30
0.0
 10
10.1864976131
 20
6.7636533945
 30
0.0
 10
10.1485924838
 20
6.7181269907
 30
0.0
 10
10.1174650322
 20
6.6844367727
 30
0.0
 10
10.0941471571
 20
6.6610949712
 30
0.0
 10
10.0706564293
 20
6.6396018123
 30
0.0
 10
10.0470877694
 20
6.6202065179
 30
0.0
 10
10.0235626915
 20
6.6031775937
 30
0.0
 10
10.0002248511
 20
6.5887970482
 30
0.0
 10
9.9772416917
 20
6.5773441471
 30
0.0
 10
9.9547934043
 20
6.5690815707
 30
0.0
 10
9.9330769601
 20
6.5642369556
 30
0.0
 10
9.915495335
 20
6.5631873935
 30
0.0
 10
9.9021527808
 20
6.5642538137
 30
0.0
 10
9.8926121186
 20
6.5659445043
 30
0.0
 10
9.8834180017
 20
6.5685252964
 30
0.0
 10
9.8745883407
 20
6.5719811862
 30
0.0
 10
9.8661343736
 20
6.5762834692
 30
0.0
 10
9.855298341
 20
6.5831618059
 30
0.0
 10
9.8426570804
 20
6.5938536971
 30
0.0
 10
9.8292336687
 20
6.609405028
 30
0.0
 10
9.8173353012
 20
6.6274692626
 30
0.0
 10
9.8068642502
 20
6.6477631767
 30
0.0
 10
9.7977111944
 20
6.6700306233
 30
0.0
 10
9.7897707935
 20
6.6940392219
 30
0.0
 10
9.782941791
 20
6.7195820369
 30
0.0
 10
9.777126876
 20
6.7464753044
 30
0.0
 10
9.77223602
 20
6.7745590424
 30
0.0
 10
9.7681864266
 20
6.8036933397
 30
0.0
 10
9.7648976586
 20
6.8337586083
 30
0.0
 10
9.7623052872
 20
6.8646513783
 30
0.0
 10
9.7596587206
 20
6.9072278661
 30
0.0
 10
9.7585758947
 20
6.9395333268
 30
0.0
 10
9.7581532695
 20
6.9612749224
 30
0.0
  0
SPLINE
  5
3EE
100
AcDbEntity
  8
0
100
AcDbSpline
 62
9
  6
CONTINUOUS
 70
0
 71
3
 72
9
 73
5
 74
0
 42
0.0000001
 43
0.0000001
 44
0.0000000001
 40
0.0
 40
0.0
 40
0.0
 40
0.0
 40
0.5054315104
 40
1.0
 40
1.0
 40
1.0
 40
1.0
 10
10.069957157
 20
6.9612749224
 30
0.0
 10
10.0954309524
 20
6.9363002258
 30
0.0
 10
10.1470206834
 20
6.8880752795
 30
0.0
 10
10.2015184714
 20
6.8431256336
 30
0.0
 10
10.229221228
 20
6.8218867574
 30
0.0
  0
SPLINE
  5
3EF
100
AcDbEntity
  8
0
100
AcDbSpline
 62
9
  6
CONTINUOUS
 70
0
 71
3
 72
11
 73
7
 74
0
 42
0.0000001
 43
0.0000001
 44
0.0000000001
 40
0.0
 40
0.0
 40
0.0
 40
0.0
 40
0.2872317074
 40
0.5495867473
 40
0.7871417196
 40
1.0
 40
1.0
 40
1.0
 40
1.0
 10
10.7496742619
 20
11.4366320323
 30
0.0
 10
10.7507807052
 20
11.4829760587
 30
0.0
 10
10.7534466743
 20
11.571638846
 30
0.0
 10
10.759214117
 20
11.6985532121
 30
0.0
 10
10.7665642197
 20
11.8133611592
 30
0.0
 10
10.7728576058
 20
11.8857916513
 30
0.0
 10
10.776351143
 20
11.9199674262
 30
0.0
  0
SPLINE
  5
3F0
100
AcDbEntity
  8
0
100
AcDbSpline
 62
7
  6
CONTINUOUS
 70
0
 71
3
 72
21
 73
17
 74
0
 42
0.0000001
 43
0.0000001
 44
0.0000000001
 40
0.0
 40
0.0
 40
0.0
 40
0.0
 40
0.2253018532
 40
0.43091143
 40
0.6078163143
 40
0.6839889634
 40
0.7513854608
 40
0.8097077588
 40
0.8592309406
 40
0.9003735869
 40
0.9335552038
 40
0.9592723461
 40
0.9783251399
 40
0.9915971844
 40
0.9963487944
 40
1.0
 40
1.0
 40
1.0
 40
1.0
 10
10.6536723906
 20
11.9072891758
 30
0.0
 10
10.6534186196
 20
11.9327472418
 30
0.0
 10
10.6531038578
 20
11.9814401842
 30
0.0
 10
10.6532177998
 20
12.0501248201
 30
0.0
 10
10.6538663308
 20
12.1019543717
 30
0.0
 10
10.6547024464
 20
12.1381588932
 30
0.0
 10
10.6554092229
 20
12.1609621654
 30
0.0
 10
10.6562140509
 20
12.1807486908
 30
0.0
 10
10.65709038
 20
12.1975620823
 30
0.0
 10
10.658011443
 20
12.2115272371
 30
0.0
 10
10.6589516875
 20
12.2227933939
 30
0.0
 10
10.6598888553
 20
12.2315535745
 30
0.0
 10
10.6608056406
 20
12.2380486238
 30
0.0
 10
10.6615926851
 20
12.242168306
 30
0.0
 10
10.6622290539
 20
12.2445343794
 30
0.0
 10
10.6625364116
 20
12.2454342994
 30
0.0
 10
10.6626923427
 20
12.2458162888
 30
0.0
  0
SPLINE
  5
3F1
100
AcDbEntity
  8
0
100
AcDbSpline
 62
7
  6
CONTINUOUS
 70
0
 71
3
 72
9
 73
5
 74
0
 42
0.0000001
 43
0.0000001
 44
0.0000000001
 40
0.0
 40
0.0
 40
0.0
 40
0.0
 40
0.4936074861
 40
1.0
 40
1.0
 40
1.0
 40
1.0
 10
10.4515022631
 20
11.6977653956
 30
0.0
 10
10.4818170021
 20
11.7349105454
 30
0.0
 10
10.5464994456
 20
11.8075439283
 30
0.0
 10
10.6168297471
 20
11.8747010933
 30
0.0
 10
10.6536723931
 20
11.907289246
 30
0.0
  0
SPLINE
  5
3F2
100
AcDbEntity
  8
0
100
AcDbSpline
 62
7
  6
CONTINUOUS
 70
0
 71
3
 72
17
 73
13
 74
0
 42
0.0000001
 43
0.0000001
 44
0.0000000001
 40
0.0
 40
0.0
 40
0.0
 40
0.0
 40
0.1334573381
 40
0.2492470175
 40
0.3025653266
 40
0.354099732
 40
0.4050140889
 40
0.4565213143
 40
0.5656021867
 40
0.6893737044
 40
0.8330857937
 40
1.0
 40
1.0
 40
1.0
 40
1.0
 10
10.4652160802
 20
10.9314029542
 30
0.0
 10
10.4637930522
 20
10.9300227653
 30
0.0
 10
10.4613093268
 20
10.9272490657
 30
0.0
 10
10.4590516533
 20
10.9233062044
 30
0.0
 10
10.4580504988
 20
10.9201739021
 30
0.0
 10
10.4576811824
 20
10.9178803889
 30
0.0
 10
10.4576773455
 20
10.9155837861
 30
0.0
 10
10.4581666748
 20
10.9124683801
 30
0.0
 10
10.4597825805
 20
10.9085015345
 30
0.0
 10
10.4631067927
 20
10.9039550168
 30
0.0
 10
10.4678008332
 20
10.899491399
 30
0.0
 10
10.4715460406
 20
10.8967767046
 30
0.0
 10
10.4736181749
 20
10.8954152388
 30
0.0
  0
SPLINE
  5
3F3
100
AcDbEntity
  8
0
100
AcDbSpline
 62
7
  6
CONTINUOUS
 70
0
 71
3
 72
11
 73
7
 74
0
 42
0.0000001
 43
0.0000001
 44
0.0000000001
 40
0.0
 40
0.0
 40
0.0
 40
0.0
 40
0.2814633727
 40
0.541895699
 40
0.7813745963
 40
1.0
 40
1.0
 40
1.0
 40
1.0
 10
10.6576813364
 20
11.526961509
 30
0.0
 10
10.6561638208
 20
11.5626218835
 30
0.0
 10
10.6536919482
 20
11.6312985487
 30
0.0
 10
10.6516910403
 20
11.7303700454
 30
0.0
 10
10.6515388931
 20
11.8214938187
 30
0.0
 10
10.6527210413
 20
11.8795814005
 30
0.0
 10
10.6536723907
 20
11.9072891765
 30
0.0
  0
SPLINE
  5
3F4
100
AcDbEntity
  8
0
100
AcDbSpline
 62
7
  6
CONTINUOUS
 70
0
 71
3
 72
18
 73
14
 74
0
 42
0.0000001
 43
0.0000001
 44
0.0000000001
 40
0.0
 40
0.0
 40
0.0
 40
0.0
 40
0.0325053979
 40
0.0695308244
 40
0.1110658052
 40
0.1570515782
 40
0.2073908252
 40
0.2619558403
 40
0.3831686782
 40
0.5192940685
 40
0.6686615622
 40
0.8295181979
 40
1.0
 40
1.0
 40
1.0
 40
1.0
 10
10.3682004807
 20
10.9469851541
 30
0.0
 10
10.3713903445
 20
10.9489213333
 30
0.0
 10
10.378428629
 20
10.9527106537
 30
0.0
 10
10.3900691923
 20
10.9579301378
 30
0.0
 10
10.4034315764
 20
10.963033816
 30
0.0
 10
10.4184629424
 20
10.9679988748
 30
0.0
 10
10.4351070653
 20
10.9728082955
 30
0.0
 10
10.4602631068
 20
10.9792221333
 30
0.0
 10
10.4953105871
 20
10.9866235345
 30
0.0
 10
10.5413535818
 20
10.9944132955
 30
0.0
 10
10.5921373962
 20
11.0012896924
 30
0.0
 10
10.6470116015
 20
11.0071751102
 30
0.0
 10
10.6849221684
 20
11.0103134649
 30
0.0
 10
10.7044420774
 20
11.011721599
 30
0.0
  0
LINE
  5
3F5
100
AcDbEntity
  8
0
100
AcDbLine
 62
7
  6
CONTINUOUS
 10
11.4016662688
 20
10.8953493475
 11
11.4054885608
 21
10.8980315053
  0
SPLINE
  5
3F6
100
AcDbEntity
  8
0
100
AcDbSpline
 62
7
  6
CONTINUOUS
 70
0
 71
3
 72
16
 73
12
 74
0
 42
0.0000001
 43
0.0000001
 44
0.0000000001
 40
0.0
 40
0.0
 40
0.0
 40
0.0
 40
0.158485549
 40
0.2298177432
 40
0.2963587994
 40
0.4170180462
 40
0.5260968358
 40
0.6310975004
 40
0.74045298
 40
0.861605712
 40
1.0
 40
1.0
 40
1.0
 40
1.0
 10
11.4054885608
 20
10.8980315053
 30
0.0
 10
11.4071749633
 20
10.8993053416
 30
0.0
 10
11.4095322497
 20
10.9012813423
 30
0.0
 10
11.4122596291
 20
10.9041469786
 30
0.0
 10
11.4144200667
 20
10.9068371757
 30
0.0
 10
11.416459989
 20
10.9102588845
 30
0.0
 10
11.4177504334
 20
10.9145902833
 30
0.0
 10
11.4177279255
 20
10.9189682387
 30
0.0
 10
11.4163944387
 20
10.9232973452
 30
0.0
 10
11.41382513
 20
10.9275360746
 30
0.0
 10
11.4114934904
 20
10.9301180777
 30
0.0
 10
11.4101687227
 20
10.9314029577
 30
0.0
  0
SPLINE
  5
3F7
100
AcDbEntity
  8
0
100
AcDbSpline
 62
7
  6
CONTINUOUS
 70
0
 71
3
 72
15
 73
11
 74
0
 42
0.0000001
 43
0.0000001
 44
0.0000000001
 40
0.0
 40
0.0
 40
0.0
 40
0.0
 40
0.1668325141
 40
0.3196563343
 40
0.4590194358
 40
0.5857543162
 40
0.7010902432
 40
0.8068073522
 40
0.9054074193
 40
1.0
 40
1.0
 40
1.0
 40
1.0
 10
11.5071029666
 20
10.9470442339
 30
0.0
 10
11.5089536159
 20
10.945923861
 30
0.0
 10
11.5124432499
 20
10.9436813808
 30
0.0
 10
11.5172297574
 20
10.9401347358
 30
0.0
 10
11.5213272092
 20
10.9365574983
 30
0.0
 10
11.5247261334
 20
10.9329512509
 30
0.0
 10
11.5274164584
 20
10.9293157793
 30
0.0
 10
11.5293834465
 20
10.9256473424
 30
0.0
 10
11.5306147392
 20
10.9219506524
 30
0.0
 10
11.5309401373
 20
10.9194472862
 30
0.0
 10
11.5309746627
 20
10.9182211644
 30
0.0
  0
SPLINE
  5
3F8
100
AcDbEntity
  8
0
100
AcDbSpline
 62
7
  6
CONTINUOUS
 70
0
 71
3
 72
13
 73
9
 74
0
 42
0.0000001
 43
0.0000001
 44
0.0000000001
 40
0.0
 40
0.0
 40
0.0
 40
0.0
 40
0.131609202
 40
0.262575364
 40
0.519049303
 40
0.6436774728
 40
0.7655119953
 40
1.0
 40
1.0
 40
1.0
 40
1.0
 10
10.937692343
 20
11.3808100647
 30
0.0
 10
10.9464260138
 20
11.3808097942
 30
0.0
 10
10.9638590607
 20
11.3814631122
 30
0.0
 10
10.9981102588
 20
11.385300229
 30
0.0
 10
11.0314028871
 20
11.3928565888
 30
0.0
 10
11.0628962833
 20
11.4039830646
 30
0.0
 10
11.0921772439
 20
11.4167284697
 30
0.0
 10
11.1128972082
 20
11.4283060326
 30
0.0
 10
11.1259447254
 20
11.436785418
 30
0.0
  0
LINE
  5
3F9
100
AcDbEntity
  8
0
100
AcDbLine
 62
9
  6
CONTINUOUS
 10
10.3681159391
 20
10.9469485237
 11
10.3720162233
 21
11.3405469176
  0
SPLINE
  5
3FA
100
AcDbEntity
  8
0
100
AcDbSpline
 62
7
  6
CONTINUOUS
 70
0
 71
3
 72
29
 73
25
 74
0
 42
0.0000001
 43
0.0000001
 44
0.0000000001
 40
0.0
 40
0.0
 40
0.0
 40
0.0
 40
0.013956618
 40
0.0268197827
 40
0.0389183317
 40
0.0509314695
 40
0.0635004883
 40
0.0771691572
 40
0.0923917394
 40
0.1094637931
 40
0.1285724837
 40
0.1498465878
 40
0.1733357626
 40
0.1990207478
 40
0.2268200312
 40
0.2565998925
 40
0.3216548957
 40
0.3933569078
 40
0.4706209391
 40
0.5523729412
 40
0.6376844122
 40
0.7257554226
 40
0.8158872809
 40
1.0
 40
1.0
 40
1.0
 40
1.0
 10
10.3720162233
 20
11.3405469176
 30
0.0
 10
10.3727483294
 20
11.3390297077
 30
0.0
 10
10.374319121
 20
11.3361867428
 30
0.0
 10
10.3772392428
 20
11.3324699721
 30
0.0
 10
10.3807279252
 20
11.3296235202
 30
0.0
 10
10.3847335986
 20
11.3276560869
 30
0.0
 10
10.3892421172
 20
11.3265231624
 30
0.0
 10
10.3942669008
 20
11.3262655016
 30
0.0
 10
10.399799456
 20
11.3268708456
 30
0.0
 10
10.4058526063
 20
11.328283373
 30
0.0
 10
10.4124358186
 20
11.3304901825
 30
0.0
 10
10.4195420614
 20
11.3334953004
 30
0.0
 10
10.4271611556
 20
11.3372803916
 30
0.0
 10
10.4352722822
 20
11.3418175138
 30
0.0
 10
10.4438498194
 20
11.3470587677
 30
0.0
 10
10.456252438
 20
11.3551414023
 30
0.0
 10
10.4726806989
 20
11.3667379247
 30
0.0
 10
10.4931968233
 20
11.3824430619
 30
0.0
 10
10.5148508777
 20
11.3999576305
 30
0.0
 10
10.5374344512
 20
11.4189254737
 30
0.0
 10
10.5607316879
 20
11.439066389
 30
0.0
 10
10.5845532936
 20
11.4601436611
 30
0.0
 10
10.6170470086
 20
11.489413881
 30
0.0
 10
10.6413850064
 20
11.5118522068
 30
0.0
 10
10.6576813364
 20
11.526961509
 30
0.0
  0
SPLINE
  5
3FB
100
AcDbEntity
  8
0
100
AcDbSpline
 62
7
  6
CONTINUOUS
 70
0
 71
3
 72
9
 73
5
 74
0
 42
0.0000001
 43
0.0000001
 44
0.0000000001
 40
0.0
 40
0.0
 40
0.0
 40
0.0
 40
0.5431295438
 40
1.0
 40
1.0
 40
1.0
 40
1.0
 10
11.3935978361
 20
10.9196957528
 30
0.0
 10
11.3956227673
 20
10.920996382
 30
0.0
 10
11.3992340075
 20
10.923584151
 30
0.0
 10
11.4024176376
 20
10.9267106939
 30
0.0
 10
11.4036854334
 20
10.9282889904
 30
0.0
  0
LINE
  5
3FC
100
AcDbEntity
  8
0
100
AcDbLine
 62
9
  6
CONTINUOUS
 10
11.5071871675
 20
10.947007731
 11
11.5034520886
 21
11.3407498445
  0
LINE
  5
3FD
100
AcDbEntity
  8
0
100
AcDbLine
 62
7
  6
CONTINUOUS
 10
11.5091874226
 20
11.4917886641
 11
11.5110044719
 21
11.3815626702
  0
SPLINE
  5
3FE
100
AcDbEntity
  8
0
100
AcDbSpline
 62
7
  6
CONTINUOUS
 70
0
 71
3
 72
11
 73
7
 74
0
 42
0.0000001
 43
0.0000001
 44
0.0000000001
 40
0.0
 40
0.0
 40
0.0
 40
0.0
 40
0.237680562
 40
0.4827230552
 40
0.7364204078
 40
1.0
 40
1.0
 40
1.0
 40
1.0
 10
10.6576813364
 20
11.526961509
 30
0.0
 10
10.6634798002
 20
11.5184761051
 30
0.0
 10
10.6760341817
 20
11.5017588007
 30
0.0
 10
10.6974844246
 20
11.4781595612
 30
0.0
 10
10.7219958556
 20
11.4560397462
 30
0.0
 10
10.740111631
 20
11.4428331073
 30
0.0
 10
10.7496742619
 20
11.4366320323
 30
0.0
  0
SPLINE
  5
3FF
100
AcDbEntity
  8
0
100
AcDbSpline
 62
7
  6
CONTINUOUS
 70
0
 71
3
 72
14
 73
10
 74
0
 42
0.0000001
 43
0.0000001
 44
0.0000000001
 40
0.0
 40
0.0
 40
0.0
 40
0.0
 40
0.0947001344
 40
0.1933933265
 40
0.2991809549
 40
0.4145594288
 40
0.5413064087
 40
0.6806508991
 40
1.0
 40
1.0
 40
1.0
 40
1.0
 10
10.344437057
 20
10.9182212416
 30
0.0
 10
10.3444713411
 20
10.9194447181
 30
0.0
 10
10.3447950425
 20
10.9219424667
 30
0.0
 10
10.3460204717
 20
10.9256312116
 30
0.0
 10
10.3479784062
 20
10.9292919444
 30
0.0
 10
10.3506565249
 20
10.9329198374
 30
0.0
 10
10.3540400534
 20
10.9365190705
 30
0.0
 10
10.3597413641
 20
10.9415069855
 30
0.0
 10
10.3646721358
 20
10.9448435247
 30
0.0
 10
10.3682004807
 20
10.9469851541
 30
0.0
  0
ELLIPSE
  5
400
100
AcDbEntity
  8
0
100
AcDbEllipse
 62
7
  6
CONTINUOUS
 10
14.9376923427
 20
7.5881953693
 30
0.0
 11
1.0411369379
 21
0.9898582626
 31
0.0
 40
0.5769821704
 41
-3.1197341656
 42
-2.0725366144
  0
ELLIPSE
  5
401
100
AcDbEntity
  8
0
100
AcDbEllipse
 62
7
  6
CONTINUOUS
 10
14.9376923427
 20
7.5881953693
 30
0.0
 11
-1.0411369379
 21
0.9898582626
 31
0.0
 40
0.5769821704
 41
-4.2106486927
 42
-3.1634511416
  0
ELLIPSE
  5
402
100
AcDbEntity
  8
0
100
AcDbEllipse
 62
7
  6
CONTINUOUS
 10
6.9376923427
 20
7.5881953693
 30
0.0
 11
1.0411369379
 21
0.9898582626
 31
0.0
 40
0.5769821704
 41
-3.1197341656
 42
-2.0725366144
  0
ELLIPSE
  5
403
100
AcDbEntity
  8
0
100
AcDbEllipse
 62
7
  6
CONTINUOUS
 10
6.9376923427
 20
7.5881953693
 30
0.0
 11
-1.0411369379
 21
0.9898582626
 31
0.0
 40
0.5769821704
 41
-4.2106486927
 42
-3.1634511416
  0
ENDSEC
  0
SECTION
  2
OBJECTS
  0
DICTIONARY
  5
C
100
AcDbDictionary
280
0
281
1
  3
ACAD_GROUP
350
D
  3
ACAD_MLINESTYLE
350
17
  3
ACAD_LAYOUT
350
1A
  3
ACAD_PLOTSETTINGS
350
19
  3
ACAD_PLOTSTYLENAME
350
E
  0
DICTIONARY
  5
D
102
{ACAD_REACTORS
330
C
102
}
100
AcDbDictionary
280
0
281
1
  0
ACDBDICTIONARYWDFLT
  5
E
102
{ACAD_REACTORS
330
C
102
}
100
AcDbDictionary
281
1
  3
Normal
350
F
100
AcDbDictionaryWithDefault
340
F
  0
DICTIONARY
  5
17
102
{ACAD_REACTORS
330
C
102
}
100
AcDbDictionary
280
0
281
1
  3
Standard
350
18
  0
DICTIONARY
  5
19
102
{ACAD_REACTORS
330
C
102
}
100
AcDbDictionary
281
1
  0
DICTIONARY
  5
1A
102
{ACAD_REACTORS
330
C
102
}
100
AcDbDictionary
281
1
  3
Model
350
404
  3
Layout1
350
405
  0
ACDBPLACEHOLDER
  5
F
102
{ACAD_REACTORS
330
E
102
}
  0
MLINESTYLE
  5
18
102
{ACAD_REACTORS
330
17
102
}
100
AcDbMlineStyle
  2
STANDARD
 70
0
  3

 62
256
 51
90.0
 52
90.0
 71
2
 49
0.5
 62
256
  6
BYLAYER
 49
-0.5
 62
256
  6
BYLAYER
  0
LAYOUT
  5
404
102
{ACAD_REACTORS
330
1A
102
}
100
AcDbPlotSettings
  1

  2
none_device
  4
ANSI_C_(22.00_x_17.00_Inches)
  6

 40
0.0
 41
0.0
 42
0.0
 43
0.0
 44
558.8
 45
431.8
 46
0.0
 47
0.0
 48
0.0
 49
0.0
140
0.0
141
0.0
142
1.0
143
1.0
 70
1024
 72
0
 73
0
 74
0
  7

 75
0
147
1.0
148
0.0
149
0.0
100
AcDbLayout
  1
Model
 70
0
 71
0
 10
0.0
 20
0.0
 11
22.0
 21
17.0
 12
0.0
 22
0.0
 32
0.0
 14
0.0
 24
0.0
 34
0.0
 15
0.0
 25
0.0
 35
0.0
146
0.0
 13
0.0
 23
0.0
 33
0.0
 16
1.0
 26
0.0
 36
0.0
 17
0.0
 27
1.0
 37
0.0
 76
0
330
202
345
0
346
0
  0
LAYOUT
  5
405
102
{ACAD_REACTORS
330
1A
102
}
100
AcDbPlotSettings
  1

  2
none_device
  4
ANSI_C_(22.00_x_17.00_Inches)
  6

 40
0.0
 41
0.0
 42
0.0
 43
0.0
 44
558.8
 45
431.8
 46
0.0
 47
0.0
 48
0.0
 49
0.0
140
0.0
141
0.0
142
1.0
143
1.0
 70
0
 72
0
 73
0
 74
0
  7

 75
0
147
1.0
148
0.0
149
0.0
100
AcDbLayout
  1
Layout1
 70
0
 71
1
 10
0.0
 20
0.0
 11
22.0
 21
17.0
 12
0.0
 22
0.0
 32
0.0
 14
0.0
 24
0.0
 34
0.0
 15
0.0
 25
0.0
 35
0.0
146
0.0
 13
0.0
 23
0.0
 33
0.0
 16
1.0
 26
0.0
 36
0.0
 17
0.0
 27
1.0
 37
0.0
 76
0
330
203
345
0
346
0
  0
ENDSEC
  0
EOF
