999
DXF file: E:\BRASSTECH\RAY\EN-4300m\Webdata\1230\CAD\1230_TOP.dxf
999
Pro/ENGINEER 2018400 by Parametric Technology Corporation
  0
SECTION
  2
HEADER
  9
$ACADVER
  1
AC1018
  9
$DWGCODEPAGE
  3
ANSI_1252
  9
$EXTMAX
 10
22.0
 20
17.0
 30
0.0
  9
$EXTMIN
 10
0.0
 20
0.0
 30
0.0
  9
$LIMMIN
 10
0.0
 20
0.0
  9
$LIMMAX
 10
22.0
 20
17.0
  9
$VIEWCTR
 10
11.0
 20
8.5
  9
$VIEWSIZE
 40
17.0
  9
$CLAYER
  8
0
  9
$LTSCALE
 40
1.21
  9
$CELTYPE
  6
BYLAYER
  9
$DIMSCALE
 40
1.0
  9
$DIMASZ
 40
0.1
  9
$DIMEXO
 40
0.0625
  9
$DIMDLI
 40
0.836
  9
$DIMEXE
 40
0.125
  9
$DIMCEN
 40
0.198
  9
$DIMLFAC
 40
1.0
  9
$DIMBLK
  1
_FILLED
  9
$DIMALT
 70
1
  9
$DIMALTD
 70
2
  9
$DIMALTTD
 70
2
  9
$DIMALTF
 40
25.4
  9
$DIMTXT
 40
0.08
  9
$DIMTOL
 70
1
  9
$DIMLIM
 70
0
  9
$DIMTFAC
 40
1.0
  9
$DIMTP
 40
0.001
  9
$DIMTM
 40
0.001
  9
$DIMGAP
 40
0.09
  9
$DIMDSEP
 70
46
  9
$AUNITS
 70
0
  9
$PDMODE
 70
3
  9
$PDSIZE
 40
0.06
  9
$HANDSEED
  5
3DC
  9
$TILEMODE
 70
1
  9
$MEASUREMENT
 70
0
  9
$INSUNITS
 70
1
  0
ENDSEC
  0
SECTION
  2
CLASSES
  0
CLASS
  1
ACDBDICTIONARYWDFLT
  2
AcDbDictionaryWithDefault
  3
AutoCAD 2000
 90
0
 91
1
280
0
281
0
  0
CLASS
  1
ACDBPLACEHOLDER
  2
AcDbPlaceHolder
  3
AutoCAD 2000
 90
0
 91
1
280
0
281
0
  0
CLASS
  1
LAYOUT
  2
AcDbLayout
  3
AutoCAD 2000
 90
0
 91
0
280
0
281
0
  0
ENDSEC
  0
SECTION
  2
TABLES
  0
TABLE
  2
VPORT
  5
8
100
AcDbSymbolTable
 70
2
  0
VPORT
  5
1F4
100
AcDbSymbolTableRecord
100
AcDbViewportTableRecord
  2
*ACTIVE
 70
0
 10
0.0
 20
0.0
 11
1.0
 21
1.0
 12
11.0
 22
8.5
 13
0.0
 23
0.0
 14
1.0
 24
1.0
 15
0.0
 25
0.0
 16
0.0
 26
0.0
 36
1.0
 17
0.0
 27
0.0
 37
0.0
 40
17.0
 41
1.2941176471
 42
50.0
 43
0.0
 44
0.0
 50
0.0
 51
0.0
 71
0
 72
100
 73
1
 74
1
 75
0
 76
0
 77
0
 78
0
  0
ENDTAB
  0
TABLE
  2
LTYPE
  5
5
100
AcDbSymbolTable
 70
6
  0
LTYPE
  5
14
100
AcDbSymbolTableRecord
100
AcDbLinetypeTableRecord
  2
BYBLOCK
 70
0
  3

 72
65
 73
0
 40
0.0
  0
LTYPE
  5
15
100
AcDbSymbolTableRecord
100
AcDbLinetypeTableRecord
  2
BYLAYER
 70
0
  3

 72
65
 73
0
 40
0.0
  0
LTYPE
  5
16
100
AcDbSymbolTableRecord
100
AcDbLinetypeTableRecord
  2
CONTINUOUS
 70
64
  3
Solid line
 72
65
 73
0
 40
0.0
  0
LTYPE
  5
1F5
100
AcDbSymbolTableRecord
100
AcDbLinetypeTableRecord
  2
CENTER
 70
64
  3
____ _ ____ _ ____ _ ____ _ ____ _ ____ _ ____
 72
65
 73
4
 40
0.6
 49
0.375
 74
0
 49
-0.075
 74
0
 49
0.075
 74
0
 49
-0.075
 74
0
  0
LTYPE
  5
1F6
100
AcDbSymbolTableRecord
100
AcDbLinetypeTableRecord
  2
HIDDEN
 70
64
  3
- - - - - - - - - - - - - - - - - - - -
 72
65
 73
2
 40
0.2
 49
0.1
 74
0
 49
-0.1
 74
0
  0
LTYPE
  5
1F7
100
AcDbSymbolTableRecord
100
AcDbLinetypeTableRecord
  2
PHANTOM
 70
64
  3
_____ _ _ _____ _ _ _____ _ _ _____
 72
65
 73
6
 40
0.8
 49
0.45
 74
0
 49
-0.05
 74
0
 49
0.1
 74
0
 49
-0.05
 74
0
 49
0.1
 74
0
 49
-0.05
 74
0
  0
LTYPE
  5
1F8
100
AcDbSymbolTableRecord
100
AcDbLinetypeTableRecord
  2
DOT
 70
64
  3
. . . . . . . . . . . . . . . . . . . .
 72
65
 73
2
 40
0.2
 49
0.1
 74
0
 49
-0.1
 74
0
  0
LTYPE
  5
1F9
100
AcDbSymbolTableRecord
100
AcDbLinetypeTableRecord
  2
DASHED
 70
64
  3
- - - - - - - - - - - - - - - - - - - -
 72
65
 73
2
 40
0.2
 49
0.1
 74
0
 49
-0.1
 74
0
  0
ENDTAB
  0
TABLE
  2
LAYER
  5
2
100
AcDbSymbolTable
 70
36
  0
LAYER
  5
10
100
AcDbSymbolTableRecord
100
AcDbLayerTableRecord
  2
0
 70
0
 62
7
  6
CONTINUOUS
370
-3
390
F
  0
LAYER
  5
1FA
100
AcDbSymbolTableRecord
100
AcDbLayerTableRecord
  2
DEFAULT_1
 70
0
 62
7
  6
CENTER
370
-3
390
F
  0
LAYER
  5
1FB
100
AcDbSymbolTableRecord
100
AcDbLayerTableRecord
  2
DEFAULT_2
 70
0
 62
8
  6
HIDDEN
370
-3
390
F
  0
LAYER
  5
1FC
100
AcDbSymbolTableRecord
100
AcDbLayerTableRecord
  2
DEFAULT_3
 70
0
 62
7
  6
PHANTOM
370
-3
390
F
  0
LAYER
  5
1FD
100
AcDbSymbolTableRecord
100
AcDbLayerTableRecord
  2
ALL_FEATURES
 70
0
 62
7
  6
CONTINUOUS
370
-3
390
F
  0
LAYER
  5
1FE
100
AcDbSymbolTableRecord
100
AcDbLayerTableRecord
  2
AXES_FEATURES
 70
0
 62
7
  6
CONTINUOUS
370
-3
390
F
  0
LAYER
  5
1FF
100
AcDbSymbolTableRecord
100
AcDbLayerTableRecord
  2
DIMENSIONS
 70
0
 62
7
  6
CONTINUOUS
370
-3
390
F
  0
ENDTAB
  0
TABLE
  2
STYLE
  5
3
100
AcDbSymbolTable
 70
1
  0
STYLE
  5
11
100
AcDbSymbolTableRecord
100
AcDbTextStyleTableRecord
  2
STANDARD
 70
0
 40
0.0
 41
0.8
 50
0.0
 71
0
 42
0.2
  3
txt
  4

  0
STYLE
  5
200
100
AcDbSymbolTableRecord
100
AcDbTextStyleTableRecord
  2
TEXTSTYLE_1
 70
0
 40
0.0
 41
0.8
 50
0.0
 71
0
 42
0.2
  3
gdt
  4

  0
ENDTAB
  0
TABLE
  2
VIEW
  5
6
100
AcDbSymbolTable
 70
0
  0
ENDTAB
  0
TABLE
  2
UCS
  5
7
100
AcDbSymbolTable
 70
0
  0
ENDTAB
  0
TABLE
  2
APPID
  5
9
100
AcDbSymbolTable
 70
1
  0
APPID
  5
201
100
AcDbSymbolTableRecord
100
AcDbRegAppTableRecord
  2
ACAD
 70
0
  0
ENDTAB
  0
TABLE
  2
BLOCK_RECORD
  5
1
100
AcDbSymbolTable
 70
0
  0
BLOCK_RECORD
  5
202
100
AcDbSymbolTableRecord
100
AcDbBlockTableRecord
  2
*Model_Space
  0
BLOCK_RECORD
  5
203
100
AcDbSymbolTableRecord
100
AcDbBlockTableRecord
  2
*Paper_Space
  0
BLOCK_RECORD
  5
204
100
AcDbSymbolTableRecord
100
AcDbBlockTableRecord
  2
_FILLED
  0
ENDTAB
  0
TABLE
  2
DIMSTYLE
  5
A
100
AcDbSymbolTable
 70
1
100
AcDbDimStyleTable
 71
0
  0
DIMSTYLE
105
205
100
AcDbSymbolTableRecord
100
AcDbDimStyleTableRecord
  2
STANDARD
 70
0
  3

  4

 40
1.0
 41
0.1
 42
0.0625
 43
0.38
 44
0.125
 45
0.0
 46
0.0
 47
0.001
 48
0.001
140
0.08
141
0.09
142
0.0
143
25.4
144
1.0
145
0.0
146
1.0
147
0.09
 71
1.0
 72
0.0
 73
1
 74
1
 75
0
 76
0
 77
0
 78
4
 79
1
170
1
171
2
172
0
173
0
174
0
175
0
176
0
177
0
178
0
270
2
179
3
271
3
272
3
273
2
274
2
275
0
280
0
281
0
282
0
283
1
284
4
285
0
286
0
287
3
288
0
340
11
278
46
341
204
342
204
343
204
344
204
  0
ENDTAB
  0
ENDSEC
  0
SECTION
  2
BLOCKS
  0
BLOCK
  5
20
100
AcDbEntity
  8
0
100
AcDbBlockBegin
  2
*Model_Space
 70
0
 10
0.0
 20
0.0
 30
0.0
  3
*Model_Space
  1

  0
ENDBLK
  5
21
100
AcDbEntity
  8
0
100
AcDbBlockEnd
  0
BLOCK
  5
1C
100
AcDbEntity
  8
0
100
AcDbBlockBegin
  2
*Paper_Space
 70
0
 10
0.0
 20
0.0
 30
0.0
  3
*Paper_Space
  1

  0
ENDBLK
  5
1D
100
AcDbEntity
  8
0
100
AcDbBlockEnd
  0
BLOCK
  5
206
100
AcDbEntity
  8
0
100
AcDbBlockBegin
  2
_FILLED
 70
64
 10
0.0
 20
0.0
  3
_FILLED
  1

  0
SOLID
  5
207
100
AcDbEntity
  8
0
  6
BYBLOCK
 62
0
100
AcDbTrace
 10
0.0
 20
0.0
 11
-1.0
 21
0.2
 12
-1.0
 22
-0.2
 13
-1.0
 23
-0.2
  0
ENDBLK
  5
208
100
AcDbEntity
  8
0
  6
BYBLOCK
 62
0
100
AcDbBlockEnd
  0
ENDSEC
  0
SECTION
  2
ENTITIES
  0
LINE
  5
209
100
AcDbEntity
  8
0
100
AcDbLine
 62
7
  6
CONTINUOUS
 10
3.829818477
 20
10.2882168463
 11
3.691068477
 21
9.9182168463
  0
LINE
  5
20A
100
AcDbEntity
  8
0
100
AcDbLine
 62
9
  6
CONTINUOUS
 10
3.691068477
 20
9.9151315961
 11
3.829818477
 21
10.2851315961
  0
LINE
  5
20B
100
AcDbEntity
  8
0
100
AcDbLine
 62
9
  6
CONTINUOUS
 10
3.829818477
 20
9.5302346901
 11
3.829818477
 21
9.746975672
  0
LINE
  5
20C
100
AcDbEntity
  8
0
100
AcDbLine
 62
9
  6
CONTINUOUS
 10
3.829818477
 20
9.754424125
 11
3.829818477
 21
10.0609421612
  0
LINE
  5
20D
100
AcDbEntity
  8
0
100
AcDbLine
 62
9
  6
CONTINUOUS
 10
3.829818477
 20
10.0683906142
 11
3.829818477
 21
10.2851315961
  0
LINE
  5
20E
100
AcDbEntity
  8
0
100
AcDbLine
 62
9
  6
CONTINUOUS
 10
3.8579083523
 20
10.3076831431
 11
3.8579083523
 21
9.5076831431
  0
LINE
  5
20F
100
AcDbEntity
  8
0
100
AcDbLine
 62
7
  6
CONTINUOUS
 10
3.9171183383
 20
10.3676831431
 11
3.9171183383
 21
9.4476882216
  0
LINE
  5
210
100
AcDbEntity
  8
0
100
AcDbLine
 62
9
  6
CONTINUOUS
 10
3.9471183383
 20
10.3976831431
 11
3.9471183383
 21
9.4176885528
  0
LINE
  5
211
100
AcDbEntity
  8
0
100
AcDbLine
 62
7
  6
CONTINUOUS
 10
4.037045969
 20
10.1403352715
 11
4.0171183383
 21
10.1127188565
  0
LINE
  5
212
100
AcDbEntity
  8
0
100
AcDbLine
 62
7
  6
CONTINUOUS
 10
4.037045969
 20
10.0919634844
 11
4.057045969
 21
10.1195923576
  0
LINE
  5
213
100
AcDbEntity
  8
0
100
AcDbLine
 62
9
  6
CONTINUOUS
 10
3.829818477
 20
10.0683906142
 11
3.691068477
 21
9.9151315961
  0
LINE
  5
214
100
AcDbEntity
  8
0
100
AcDbLine
 62
9
  6
CONTINUOUS
 10
3.691068477
 20
9.9076831431
 11
3.829818477
 21
10.0609421612
  0
LINE
  5
215
100
AcDbEntity
  8
0
100
AcDbLine
 62
7
  6
CONTINUOUS
 10
4.0171183383
 20
10.4026831431
 11
4.0171183383
 21
9.4126831431
  0
LINE
  5
216
100
AcDbEntity
  8
0
100
AcDbLine
 62
7
  6
CONTINUOUS
 10
4.037045969
 20
10.4009470293
 11
4.037045969
 21
10.1403352715
  0
LINE
  5
217
100
AcDbEntity
  8
0
100
AcDbLine
 62
7
  6
CONTINUOUS
 10
4.037045969
 20
10.0919634844
 11
4.037045969
 21
9.7234028018
  0
LINE
  5
218
100
AcDbEntity
  8
0
100
AcDbLine
 62
7
  6
CONTINUOUS
 10
4.037045969
 20
9.6750310147
 11
4.037045969
 21
9.4144192569
  0
LINE
  5
219
100
AcDbEntity
  8
0
100
AcDbLine
 62
7
  6
CONTINUOUS
 10
4.037045969
 20
9.7234028018
 11
4.0171183383
 21
9.7026474297
  0
LINE
  5
21A
100
AcDbEntity
  8
0
100
AcDbLine
 62
7
  6
CONTINUOUS
 10
4.057045969
 20
9.6957739286
 11
4.037045969
 21
9.6750310147
  0
LINE
  5
21B
100
AcDbEntity
  8
0
100
AcDbLine
 62
7
  6
CONTINUOUS
 10
4.037045969
 20
10.4209832796
 11
4.0171183383
 21
10.4026831431
  0
LINE
  5
21C
100
AcDbEntity
  8
0
100
AcDbLine
 62
7
  6
CONTINUOUS
 10
4.057045969
 20
10.4192772428
 11
4.037045969
 21
10.4009470293
  0
LINE
  5
21D
100
AcDbEntity
  8
0
100
AcDbLine
 62
7
  6
CONTINUOUS
 10
3.691068477
 20
9.8971494398
 11
3.829818477
 21
9.5271494398
  0
LINE
  5
21E
100
AcDbEntity
  8
0
100
AcDbLine
 62
9
  6
CONTINUOUS
 10
3.829818477
 20
9.5302346901
 11
3.691068477
 21
9.9002346901
  0
LINE
  5
21F
100
AcDbEntity
  8
0
100
AcDbLine
 62
9
  6
CONTINUOUS
 10
6.0343183383
 20
9.3228273204
 11
6.0343183383
 21
9.5647540092
  0
LINE
  5
220
100
AcDbEntity
  8
0
100
AcDbLine
 62
9
  6
CONTINUOUS
 10
6.0343183383
 20
10.250612277
 11
6.0343183383
 21
10.4925389658
  0
LINE
  5
221
100
AcDbEntity
  8
0
100
AcDbLine
 62
7
  6
CONTINUOUS
 10
6.3793183383
 20
9.6125497385
 11
6.3610182018
 21
9.5926221078
  0
LINE
  5
222
100
AcDbEntity
  8
0
100
AcDbLine
 62
9
  6
CONTINUOUS
 10
6.0343183383
 20
10.4925389658
 11
7.0473183383
 21
11.0773947885
  0
LINE
  5
223
100
AcDbEntity
  8
0
100
AcDbLine
 62
7
  6
CONTINUOUS
 10
6.3610182018
 20
9.5926221078
 11
6.3610182018
 21
10.2227441784
  0
LINE
  5
224
100
AcDbEntity
  8
0
100
AcDbLine
 62
7
  6
CONTINUOUS
 10
6.3793183383
 20
9.6125497385
 11
6.3793183383
 21
10.2028165477
  0
LINE
  5
225
100
AcDbEntity
  8
0
100
AcDbLine
 62
9
  6
CONTINUOUS
 10
6.4718083581
 20
10.2399539851
 11
6.4718083581
 21
10.2134490379
  0
LINE
  5
226
100
AcDbEntity
  8
0
100
AcDbLine
 62
9
  6
CONTINUOUS
 10
6.4718083581
 20
9.6019172483
 11
6.4718083581
 21
9.5754123011
  0
LINE
  5
227
100
AcDbEntity
  8
0
100
AcDbLine
 62
7
  6
CONTINUOUS
 10
6.4793183383
 20
10.1876831431
 11
6.4793183383
 21
9.6276831431
  0
LINE
  5
228
100
AcDbEntity
  8
0
100
AcDbLine
 62
9
  6
CONTINUOUS
 10
6.5293183383
 20
10.0901831431
 11
6.5293183383
 21
9.7251831431
  0
LINE
  5
229
100
AcDbEntity
  8
0
100
AcDbLine
 62
7
  6
CONTINUOUS
 10
6.5473183383
 20
9.6190080085
 11
6.5473183383
 21
9.7251831431
  0
LINE
  5
22A
100
AcDbEntity
  8
0
100
AcDbLine
 62
7
  6
CONTINUOUS
 10
6.5473183383
 20
10.0901831431
 11
6.5473183383
 21
10.1963582777
  0
LINE
  5
22B
100
AcDbEntity
  8
0
100
AcDbLine
 62
9
  6
CONTINUOUS
 10
7.0473183383
 20
10.5722248271
 11
6.4718083581
 21
10.2399539851
  0
LINE
  5
22C
100
AcDbEntity
  8
0
100
AcDbLine
 62
7
  6
CONTINUOUS
 10
6.5473183383
 20
10.1963582777
 11
7.0473183383
 21
10.4850334123
  0
LINE
  5
22D
100
AcDbEntity
  8
0
100
AcDbLine
 62
7
  6
CONTINUOUS
 10
4.037045969
 20
9.7234028018
 11
4.057045969
 21
9.6957739286
  0
LINE
  5
22E
100
AcDbEntity
  8
0
100
AcDbLine
 62
7
  6
CONTINUOUS
 10
4.037045969
 20
9.6750310147
 11
4.0171183383
 21
9.7026474297
  0
LINE
  5
22F
100
AcDbEntity
  8
0
100
AcDbLine
 62
7
  6
CONTINUOUS
 10
7.0473183383
 20
11.0951831431
 11
7.0473183383
 21
11.0773947885
  0
LINE
  5
230
100
AcDbEntity
  8
0
100
AcDbLine
 62
7
  6
CONTINUOUS
 10
7.0473183383
 20
10.5722248271
 11
7.0473183383
 21
10.4850334123
  0
LINE
  5
231
100
AcDbEntity
  8
0
100
AcDbLine
 62
7
  6
CONTINUOUS
 10
7.0473183383
 20
8.7201831431
 11
7.0473183383
 21
8.7379714977
  0
LINE
  5
232
100
AcDbEntity
  8
0
100
AcDbLine
 62
7
  6
CONTINUOUS
 10
7.0473183383
 20
9.2431414591
 11
7.0473183383
 21
9.3303328739
  0
LINE
  5
233
100
AcDbEntity
  8
0
100
AcDbLine
 62
7
  6
CONTINUOUS
 10
8.0757235053
 20
10.5014331431
 11
8.0603183383
 21
10.4925389658
  0
LINE
  5
234
100
AcDbEntity
  8
0
100
AcDbLine
 62
7
  6
CONTINUOUS
 10
7.6228283185
 20
10.2399539851
 11
7.5473183383
 21
10.1963582777
  0
LINE
  5
235
100
AcDbEntity
  8
0
100
AcDbLine
 62
7
  6
CONTINUOUS
 10
6.0189131713
 20
9.3139331431
 11
6.0343183383
 21
9.3228273204
  0
LINE
  5
236
100
AcDbEntity
  8
0
100
AcDbLine
 62
7
  6
CONTINUOUS
 10
6.4718083581
 20
9.5754123011
 11
6.5473183383
 21
9.6190080085
  0
LINE
  5
237
100
AcDbEntity
  8
0
100
AcDbLine
 62
7
  6
CONTINUOUS
 10
6.3793183383
 20
9.7854348842
 11
6.3610182018
 21
9.7771805893
  0
LINE
  5
238
100
AcDbEntity
  8
0
100
AcDbLine
 62
9
  6
CONTINUOUS
 10
3.691068477
 20
9.9002346901
 11
3.829818477
 21
9.746975672
  0
LINE
  5
239
100
AcDbEntity
  8
0
100
AcDbLine
 62
9
  6
CONTINUOUS
 10
3.829818477
 20
9.754424125
 11
3.691068477
 21
9.9076831431
  0
LINE
  5
23A
100
AcDbEntity
  8
0
100
AcDbLine
 62
7
  6
CONTINUOUS
 10
7.5473183383
 20
9.6190080085
 11
7.5473183383
 21
10.1963582777
  0
LINE
  5
23B
100
AcDbEntity
  8
0
100
AcDbLine
 62
9
  6
CONTINUOUS
 10
7.6228283185
 20
9.5754123011
 11
7.6228283185
 21
10.2399539851
  0
LINE
  5
23C
100
AcDbEntity
  8
0
100
AcDbLine
 62
7
  6
CONTINUOUS
 10
7.5473183383
 20
9.6190080085
 11
7.0473183383
 21
9.3303328739
  0
LINE
  5
23D
100
AcDbEntity
  8
0
100
AcDbLine
 62
9
  6
CONTINUOUS
 10
7.0473183383
 20
9.2431414591
 11
7.6228283185
 21
9.5754123011
  0
LINE
  5
23E
100
AcDbEntity
  8
0
100
AcDbLine
 62
7
  6
CONTINUOUS
 10
4.057045969
 20
9.3960890434
 11
4.037045969
 21
9.4144192569
  0
LINE
  5
23F
100
AcDbEntity
  8
0
100
AcDbLine
 62
7
  6
CONTINUOUS
 10
4.037045969
 20
9.3943830066
 11
4.0171183383
 21
9.4126831431
  0
LINE
  5
240
100
AcDbEntity
  8
0
100
AcDbLine
 62
7
  6
CONTINUOUS
 10
4.037045969
 20
10.0919634844
 11
4.0171183383
 21
10.1127188565
  0
LINE
  5
241
100
AcDbEntity
  8
0
100
AcDbLine
 62
9
  6
CONTINUOUS
 10
8.0603183383
 20
10.4925389658
 11
8.0603183383
 21
9.3228273204
  0
LINE
  5
242
100
AcDbEntity
  8
0
100
AcDbLine
 62
9
  6
CONTINUOUS
 10
8.0603183383
 20
9.3228273204
 11
7.0473183383
 21
8.7379714977
  0
LINE
  5
243
100
AcDbEntity
  8
0
100
AcDbLine
 62
7
  6
CONTINUOUS
 10
4.057045969
 20
10.1195923576
 11
4.037045969
 21
10.1403352715
  0
LINE
  5
244
100
AcDbEntity
  8
0
100
AcDbLine
 62
7
  6
CONTINUOUS
 10
10.4064011242
 20
9.9225821265
 11
10.4895480799
 21
10.0665968788
  0
LINE
  5
245
100
AcDbEntity
  8
0
100
AcDbLine
 62
7
  6
CONTINUOUS
 10
10.6308088524
 20
10.3112677148
 11
10.7139568348
 21
10.4552842455
  0
LINE
  5
246
100
AcDbEntity
  8
0
100
AcDbLine
 62
7
  6
CONTINUOUS
 10
6.3793183383
 20
10.2028165477
 11
6.3610182018
 21
10.2227441784
  0
LINE
  5
247
100
AcDbEntity
  8
0
100
AcDbLine
 62
9
  6
CONTINUOUS
 10
14.0343183383
 20
10.4925389658
 11
15.0473183383
 21
11.0773947885
  0
LINE
  5
248
100
AcDbEntity
  8
0
100
AcDbLine
 62
7
  6
CONTINUOUS
 10
10.3932453397
 20
8.9582505915
 11
10.4176780106
 21
8.5694655436
  0
LWPOLYLINE
  5
249
100
AcDbEntity
  8
0
100
AcDbPolyline
 62
7
  6
CONTINUOUS
 90
3
 70
0
 10
10.4176797713
 20
8.5693756036
 10
10.454259604
 20
7.5449465369
 10
10.4779381305
 20
6.5056703109
  0
LINE
  5
24A
100
AcDbEntity
  8
0
100
AcDbLine
 62
7
  6
CONTINUOUS
 10
10.4176780121
 20
8.569466019
 11
10.4176797719
 21
8.56937577
  0
LINE
  5
24B
100
AcDbEntity
  8
0
100
AcDbLine
 62
7
  6
CONTINUOUS
 10
10.4779381305
 20
6.5056703109
 11
10.4881053335
 21
5.4765374487
  0
LINE
  5
24C
100
AcDbEntity
  8
0
100
AcDbLine
 62
7
  6
CONTINUOUS
 10
10.4668199708
 20
4.3798255848
 11
10.4668183383
 21
4.3778827152
  0
LWPOLYLINE
  5
24D
100
AcDbEntity
  8
0
100
AcDbPolyline
 62
7
  6
CONTINUOUS
 90
11
 70
0
 10
10.488105345
 20
5.4765470012
 10
10.4876368166
 20
5.3198358991
 10
10.4863623471
 20
5.1591180104
 10
10.4839586509
 20
5.0072610222
 10
10.4808924176
 20
4.8653992201
 10
10.4774202427
 20
4.7351596445
 10
10.4737913338
 20
4.622815318
 10
10.4705722075
 20
4.5330893809
 10
10.4682975752
 20
4.4630462163
 10
10.4671070813
 20
4.4099240212
 10
10.4668217447
 20
4.3798236178
  0
LINE
  5
24E
100
AcDbEntity
  8
0
100
AcDbLine
 62
7
  6
CONTINUOUS
 10
11.6882355405
 20
9.8927841524
 11
11.6050886218
 21
9.7487695081
  0
LINE
  5
24F
100
AcDbEntity
  8
0
100
AcDbLine
 62
7
  6
CONTINUOUS
 10
11.463827652
 20
9.5040984051
 11
11.4052871641
 21
9.4027033364
  0
LINE
  5
250
100
AcDbEntity
  8
0
100
AcDbLine
 62
9
  6
CONTINUOUS
 10
15.0473183383
 20
10.5722248271
 11
14.4718083581
 21
10.2399539851
  0
LINE
  5
251
100
AcDbEntity
  8
0
100
AcDbLine
 62
7
  6
CONTINUOUS
 10
14.5473183383
 20
10.1963582777
 11
15.0473183383
 21
10.4850334123
  0
LINE
  5
252
100
AcDbEntity
  8
0
100
AcDbLine
 62
9
  6
CONTINUOUS
 10
7.0473183383
 20
8.7379714977
 11
6.0343183383
 21
9.3228273204
  0
LINE
  5
253
100
AcDbEntity
  8
0
100
AcDbLine
 62
9
  6
CONTINUOUS
 10
6.4718083581
 20
9.5754123011
 11
7.0473183383
 21
9.2431414591
  0
LINE
  5
254
100
AcDbEntity
  8
0
100
AcDbLine
 62
9
  6
CONTINUOUS
 10
11.3704360158
 20
9.3458586961
 11
11.3701211829
 21
9.3446950698
  0
LINE
  5
255
100
AcDbEntity
  8
0
100
AcDbLine
 62
9
  6
CONTINUOUS
 10
11.3887795274
 20
9.3545469704
 11
11.3891740433
 21
9.355746087
  0
LINE
  5
256
100
AcDbEntity
  8
0
100
AcDbLine
 62
7
  6
CONTINUOUS
 10
11.784061937
 20
9.3596794261
 11
11.9153500002
 21
9.73150241
  0
LINE
  5
257
100
AcDbEntity
  8
0
100
AcDbLine
 62
7
  6
CONTINUOUS
 10
11.9142383441
 20
9.72888109
 11
11.9153791198
 21
9.7315708953
  0
LINE
  5
258
100
AcDbEntity
  8
0
100
AcDbLine
 62
7
  6
CONTINUOUS
 10
11.9153791198
 20
9.7315708953
 11
11.9271088156
 21
9.7588663208
  0
LINE
  5
259
100
AcDbEntity
  8
0
100
AcDbLine
 62
9
  6
CONTINUOUS
 10
11.927108768
 20
9.7588662086
 11
11.9290807732
 21
9.763392065
  0
LINE
  5
25A
100
AcDbEntity
  8
0
100
AcDbLine
 62
7
  6
CONTINUOUS
 10
16.0757235053
 20
10.5014331431
 11
16.0603183383
 21
10.4925389658
  0
LINE
  5
25B
100
AcDbEntity
  8
0
100
AcDbLine
 62
7
  6
CONTINUOUS
 10
15.6228283185
 20
10.2399539851
 11
15.5473183383
 21
10.1963582777
  0
LINE
  5
25C
100
AcDbEntity
  8
0
100
AcDbLine
 62
7
  6
CONTINUOUS
 10
14.0189131713
 20
9.3139331431
 11
14.0343183383
 21
9.3228273204
  0
LINE
  5
25D
100
AcDbEntity
  8
0
100
AcDbLine
 62
7
  6
CONTINUOUS
 10
14.4718083581
 20
9.5754123011
 11
14.5473183383
 21
9.6190080085
  0
LINE
  5
25E
100
AcDbEntity
  8
0
100
AcDbLine
 62
7
  6
CONTINUOUS
 10
15.7153183383
 20
10.029931402
 11
15.7336184748
 21
10.0381856969
  0
LINE
  5
25F
100
AcDbEntity
  8
0
100
AcDbLine
 62
7
  6
CONTINUOUS
 10
7.0473183383
 20
9.3303328739
 11
6.5473183383
 21
9.6190080085
  0
LINE
  5
260
100
AcDbEntity
  8
0
100
AcDbLine
 62
7
  6
CONTINUOUS
 10
10.179283366
 20
9.7315102077
 11
10.3106650916
 21
9.3593589828
  0
LINE
  5
261
100
AcDbEntity
  8
0
100
AcDbLine
 62
7
  6
CONTINUOUS
 10
10.3106650916
 20
9.3593589828
 11
10.3932453397
 21
8.9582505915
  0
LWPOLYLINE
  5
262
100
AcDbEntity
  8
0
100
AcDbPolyline
 62
7
  6
CONTINUOUS
 90
10
 70
0
 10
11.627747113
 20
4.4096971
 10
11.6272007259
 20
4.4622925163
 10
11.625601935
 20
4.5309981542
 10
11.6223299275
 20
4.6177347644
 10
11.6181135277
 20
4.7268715541
 10
11.6141702504
 20
4.8558501794
 10
11.6109935396
 20
4.998935773
 10
11.6086118641
 20
5.1530608731
 10
11.6071448977
 20
5.3166402016
 10
11.6065312463
 20
5.4765199706
  0
LINE
  5
263
100
AcDbEntity
  8
0
100
AcDbLine
 62
7
  6
CONTINUOUS
 10
11.6278183383
 20
4.3778831431
 11
11.627747113
 21
4.4096971
  0
LINE
  5
264
100
AcDbEntity
  8
0
100
AcDbLine
 62
7
  6
CONTINUOUS
 10
11.6065312416
 20
5.4765082892
 11
11.6065312481
 21
5.4765200618
  0
LWPOLYLINE
  5
265
100
AcDbEntity
  8
0
100
AcDbPolyline
 62
7
  6
CONTINUOUS
 90
4
 70
0
 10
11.6065312416
 20
5.4765082892
 10
11.6166813134
 20
6.504611903
 10
11.6403459299
 20
7.5438827603
 10
11.6769569056
 20
8.5693756096
  0
LINE
  5
266
100
AcDbEntity
  8
0
100
AcDbLine
 62
7
  6
CONTINUOUS
 10
11.6769586605
 20
8.5694654404
 11
11.6769569037
 21
8.5693755643
  0
LINE
  5
267
100
AcDbEntity
  8
0
100
AcDbLine
 62
7
  6
CONTINUOUS
 10
11.6769586661
 20
8.5694655733
 11
11.7014817288
 21
8.9589393121
  0
LINE
  5
268
100
AcDbEntity
  8
0
100
AcDbLine
 62
7
  6
CONTINUOUS
 10
11.7014817288
 20
8.9589393121
 11
11.784061937
 21
9.3596794261
  0
LINE
  5
269
100
AcDbEntity
  8
0
100
AcDbLine
 62
7
  6
CONTINUOUS
 10
15.5473183383
 20
9.6190080085
 11
15.0473183383
 21
9.3303328739
  0
LINE
  5
26A
100
AcDbEntity
  8
0
100
AcDbLine
 62
9
  6
CONTINUOUS
 10
15.0473183383
 20
9.2431414591
 11
15.6228283185
 21
9.5754123011
  0
LINE
  5
26B
100
AcDbEntity
  8
0
100
AcDbLine
 62
7
  6
CONTINUOUS
 10
6.3793183383
 20
10.029931402
 11
6.3610182018
 21
10.0381856969
  0
LINE
  5
26C
100
AcDbEntity
  8
0
100
AcDbLine
 62
7
  6
CONTINUOUS
 10
8.0757235053
 20
9.3139331431
 11
8.0603183383
 21
9.3228273204
  0
LINE
  5
26D
100
AcDbEntity
  8
0
100
AcDbLine
 62
7
  6
CONTINUOUS
 10
7.6228283185
 20
9.5754123011
 11
7.5473183383
 21
9.6190080085
  0
LINE
  5
26E
100
AcDbEntity
  8
0
100
AcDbLine
 62
7
  6
CONTINUOUS
 10
6.0189131713
 20
10.5014331431
 11
6.0343183383
 21
10.4925389658
  0
LINE
  5
26F
100
AcDbEntity
  8
0
100
AcDbLine
 62
7
  6
CONTINUOUS
 10
6.4718083581
 20
10.2399539851
 11
6.5473183383
 21
10.1963582777
  0
LINE
  5
270
100
AcDbEntity
  8
0
100
AcDbLine
 62
7
  6
CONTINUOUS
 10
7.0473183383
 20
10.4850334123
 11
7.5473183383
 21
10.1963582777
  0
LINE
  5
271
100
AcDbEntity
  8
0
100
AcDbLine
 62
9
  6
CONTINUOUS
 10
10.1655534874
 20
9.7633975999
 11
10.1675254886
 21
9.7588717745
  0
LINE
  5
272
100
AcDbEntity
  8
0
100
AcDbLine
 62
7
  6
CONTINUOUS
 10
10.1675254457
 20
9.7588718755
 11
10.1792404654
 21
9.7316110172
  0
LINE
  5
273
100
AcDbEntity
  8
0
100
AcDbLine
 62
7
  6
CONTINUOUS
 10
10.1792404654
 20
9.7316110172
 11
10.180429427
 21
9.7288077189
  0
LINE
  5
274
100
AcDbEntity
  8
0
100
AcDbLine
 62
9
  6
CONTINUOUS
 10
10.7054624149
 20
9.3557464167
 11
10.7058571441
 21
9.3545470443
  0
LINE
  5
275
100
AcDbEntity
  8
0
100
AcDbLine
 62
9
  6
CONTINUOUS
 10
10.7245155258
 20
9.3446951029
 11
10.7242007055
 21
9.3458586849
  0
LINE
  5
276
100
AcDbEntity
  8
0
100
AcDbLine
 62
9
  6
CONTINUOUS
 10
16.0603183383
 20
9.3228273204
 11
15.0473183383
 21
8.7379714977
  0
LINE
  5
277
100
AcDbEntity
  8
0
100
AcDbLine
 62
9
  6
CONTINUOUS
 10
7.6228283185
 20
10.2399539851
 11
7.0473183383
 21
10.5722248271
  0
LINE
  5
278
100
AcDbEntity
  8
0
100
AcDbLine
 62
9
  6
CONTINUOUS
 10
7.0473183383
 20
11.0773947885
 11
8.0603183383
 21
10.4925389658
  0
LINE
  5
279
100
AcDbEntity
  8
0
100
AcDbLine
 62
7
  6
CONTINUOUS
 10
10.6893495057
 20
9.4027033486
 11
10.6308112313
 21
9.5040945807
  0
LINE
  5
27A
100
AcDbEntity
  8
0
100
AcDbLine
 62
7
  6
CONTINUOUS
 10
10.4895486839
 20
9.7487684097
 11
10.406401124
 21
9.8927841605
  0
LINE
  5
27B
100
AcDbEntity
  8
0
100
AcDbLine
 62
7
  6
CONTINUOUS
 10
15.7153183383
 20
10.2028165477
 11
15.7336184748
 21
10.2227441784
  0
LINE
  5
27C
100
AcDbEntity
  8
0
100
AcDbLine
 62
7
  6
CONTINUOUS
 10
4.0171183383
 20
9.4176831431
 11
3.9471183383
 21
9.4176831431
  0
LINE
  5
27D
100
AcDbEntity
  8
0
100
AcDbLine
 62
7
  6
CONTINUOUS
 10
18.0775183383
 20
9.4176831431
 11
18.1475183383
 21
9.4176831431
  0
LINE
  5
27E
100
AcDbEntity
  8
0
100
AcDbLine
 62
7
  6
CONTINUOUS
 10
18.2367283242
 20
9.5076831431
 11
18.1775183383
 21
9.5076831431
  0
LINE
  5
27F
100
AcDbEntity
  8
0
100
AcDbLine
 62
7
  6
CONTINUOUS
 10
3.9171183383
 20
9.5076831431
 11
3.8579083523
 21
9.5076831431
  0
LINE
  5
280
100
AcDbEntity
  8
0
100
AcDbLine
 62
9
  6
CONTINUOUS
 10
3.8579083523
 20
9.5164699397
 11
3.9171183383
 21
9.5164699397
  0
LINE
  5
281
100
AcDbEntity
  8
0
100
AcDbLine
 62
9
  6
CONTINUOUS
 10
18.1775183383
 20
9.5164699397
 11
18.2367283242
 21
9.5164699396
  0
LINE
  5
282
100
AcDbEntity
  8
0
100
AcDbLine
 62
7
  6
CONTINUOUS
 10
15.5653183383
 20
9.7251831431
 11
15.5008905119
 21
9.7251831431
  0
LINE
  5
283
100
AcDbEntity
  8
0
100
AcDbLine
 62
7
  6
CONTINUOUS
 10
6.5293183383
 20
9.7251831431
 11
6.5937461646
 21
9.7251831431
  0
LINE
  5
284
100
AcDbEntity
  8
0
100
AcDbLine
 62
9
  6
CONTINUOUS
 10
18.2367283242
 20
9.7332109216
 11
18.1775183383
 21
9.7332109216
  0
LINE
  5
285
100
AcDbEntity
  8
0
100
AcDbLine
 62
9
  6
CONTINUOUS
 10
3.9171183383
 20
9.7332109216
 11
3.8579083523
 21
9.7332109216
  0
LINE
  5
286
100
AcDbEntity
  8
0
100
AcDbLine
 62
7
  6
CONTINUOUS
 10
11.3806798437
 20
10.4552842232
 11
11.4638255918
 21
10.311271564
  0
LINE
  5
287
100
AcDbEntity
  8
0
100
AcDbLine
 62
7
  6
CONTINUOUS
 10
11.6050879781
 20
10.0665979352
 11
11.6882355407
 21
9.922582133
  0
LINE
  5
288
100
AcDbEntity
  8
0
100
AcDbLine
 62
7
  6
CONTINUOUS
 10
18.0575907076
 20
10.4009470293
 11
18.0775183383
 21
10.4026831431
  0
LINE
  5
289
100
AcDbEntity
  8
0
100
AcDbLine
 62
7
  6
CONTINUOUS
 10
4.037045969
 20
9.4144192569
 11
4.0171183383
 21
9.4126831431
  0
LINE
  5
28A
100
AcDbEntity
  8
0
100
AcDbLine
 62
7
  6
CONTINUOUS
 10
15.7336184748
 20
10.2227441784
 11
18.0575907076
 21
10.4209832796
  0
LINE
  5
28B
100
AcDbEntity
  8
0
100
AcDbLine
 62
7
  6
CONTINUOUS
 10
4.037045969
 20
9.3943830066
 11
6.3610182018
 21
9.5926221078
  0
LINE
  5
28C
100
AcDbEntity
  8
0
100
AcDbLine
 62
7
  6
CONTINUOUS
 10
18.0375907076
 20
10.1195923576
 11
15.7336184748
 21
10.0381856969
  0
LINE
  5
28D
100
AcDbEntity
  8
0
100
AcDbLine
 62
7
  6
CONTINUOUS
 10
4.057045969
 20
9.6957739286
 11
6.3610182018
 21
9.7771805893
  0
LINE
  5
28E
100
AcDbEntity
  8
0
100
AcDbLine
 62
9
  6
CONTINUOUS
 10
11.9893585908
 20
9.8937853701
 11
12.2872511716
 21
9.8947769862
  0
LINE
  5
28F
100
AcDbEntity
  8
0
100
AcDbLine
 62
9
  6
CONTINUOUS
 10
11.6882354763
 20
9.8927841895
 11
11.9746563875
 21
9.8937364508
  0
LINE
  5
290
100
AcDbEntity
  8
0
100
AcDbLine
 62
9
  6
CONTINUOUS
 10
10.4064011942
 20
9.9225820861
 11
10.163129432
 21
9.9217698662
  0
LINE
  5
291
100
AcDbEntity
  8
0
100
AcDbLine
 62
9
  6
CONTINUOUS
 10
3.829818477
 20
9.754424125
 11
3.9171183383
 21
9.754424125
  0
LINE
  5
292
100
AcDbEntity
  8
0
100
AcDbLine
 62
9
  6
CONTINUOUS
 10
18.1775183383
 20
9.754424125
 11
18.2648181996
 21
9.754424125
  0
LINE
  5
293
100
AcDbEntity
  8
0
100
AcDbLine
 62
9
  6
CONTINUOUS
 10
18.2648181996
 20
10.0609421612
 11
18.1775183383
 21
10.0609421612
  0
LINE
  5
294
100
AcDbEntity
  8
0
100
AcDbLine
 62
9
  6
CONTINUOUS
 10
3.9171183383
 20
10.0609421612
 11
3.829818477
 21
10.0609421612
  0
LINE
  5
295
100
AcDbEntity
  8
0
100
AcDbLine
 62
9
  6
CONTINUOUS
 10
3.8579083523
 20
10.0821553646
 11
3.9171183383
 21
10.0821553646
  0
LINE
  5
296
100
AcDbEntity
  8
0
100
AcDbLine
 62
9
  6
CONTINUOUS
 10
18.1775183383
 20
10.0821553646
 11
18.2367283242
 21
10.0821553646
  0
LINE
  5
297
100
AcDbEntity
  8
0
100
AcDbLine
 62
7
  6
CONTINUOUS
 10
15.5653183383
 20
10.0901831431
 11
15.5008905119
 21
10.0901831431
  0
LINE
  5
298
100
AcDbEntity
  8
0
100
AcDbLine
 62
7
  6
CONTINUOUS
 10
6.5293183383
 20
10.0901831431
 11
6.5937461646
 21
10.0901831431
  0
LINE
  5
299
100
AcDbEntity
  8
0
100
AcDbLine
 62
7
  6
CONTINUOUS
 10
4.057045969
 20
10.1195923576
 11
6.3610182018
 21
10.0381856969
  0
LINE
  5
29A
100
AcDbEntity
  8
0
100
AcDbLine
 62
7
  6
CONTINUOUS
 10
18.0375907076
 20
9.6957739286
 11
15.7336184748
 21
9.7771805893
  0
LINE
  5
29B
100
AcDbEntity
  8
0
100
AcDbLine
 62
7
  6
CONTINUOUS
 10
4.037045969
 20
10.4209832796
 11
6.3610182018
 21
10.2227441784
  0
LINE
  5
29C
100
AcDbEntity
  8
0
100
AcDbLine
 62
7
  6
CONTINUOUS
 10
15.7336184748
 20
9.5926221078
 11
18.0575907076
 21
9.3943830066
  0
LINE
  5
29D
100
AcDbEntity
  8
0
100
AcDbLine
 62
7
  6
CONTINUOUS
 10
4.037045969
 20
10.4009470293
 11
4.0171183383
 21
10.4026831431
  0
LINE
  5
29E
100
AcDbEntity
  8
0
100
AcDbLine
 62
7
  6
CONTINUOUS
 10
18.0575907076
 20
9.4144192569
 11
18.0775183383
 21
9.4126831431
  0
LINE
  5
29F
100
AcDbEntity
  8
0
100
AcDbLine
 62
9
  6
CONTINUOUS
 10
14.0343183383
 20
9.3228273204
 11
14.0343183383
 21
10.4925389658
  0
LINE
  5
2A0
100
AcDbEntity
  8
0
100
AcDbLine
 62
7
  6
CONTINUOUS
 10
18.0575907076
 20
10.0919634844
 11
18.0775183383
 21
10.1127188565
  0
LINE
  5
2A1
100
AcDbEntity
  8
0
100
AcDbLine
 62
7
  6
CONTINUOUS
 10
18.0375907076
 20
10.1195923576
 11
18.0575907076
 21
10.1403352715
  0
LINE
  5
2A2
100
AcDbEntity
  8
0
100
AcDbLine
 62
7
  6
CONTINUOUS
 10
18.0575907076
 20
9.3943830066
 11
18.0775183383
 21
9.4126831431
  0
LINE
  5
2A3
100
AcDbEntity
  8
0
100
AcDbLine
 62
7
  6
CONTINUOUS
 10
18.0375907076
 20
9.3960890434
 11
18.0575907076
 21
9.4144192569
  0
LINE
  5
2A4
100
AcDbEntity
  8
0
100
AcDbLine
 62
9
  6
CONTINUOUS
 10
18.2367283242
 20
10.2988963465
 11
18.1775183383
 21
10.2988963465
  0
LINE
  5
2A5
100
AcDbEntity
  8
0
100
AcDbLine
 62
9
  6
CONTINUOUS
 10
3.9171183383
 20
10.2988963465
 11
3.8579083523
 21
10.2988963465
  0
LINE
  5
2A6
100
AcDbEntity
  8
0
100
AcDbLine
 62
7
  6
CONTINUOUS
 10
3.8579083523
 20
10.3076831431
 11
3.9171183383
 21
10.3076831431
  0
LINE
  5
2A7
100
AcDbEntity
  8
0
100
AcDbLine
 62
7
  6
CONTINUOUS
 10
18.1775183383
 20
10.3076831431
 11
18.2367283242
 21
10.3076831431
  0
LINE
  5
2A8
100
AcDbEntity
  8
0
100
AcDbLine
 62
7
  6
CONTINUOUS
 10
4.0171183383
 20
10.3976831431
 11
3.9471183383
 21
10.3976831431
  0
LINE
  5
2A9
100
AcDbEntity
  8
0
100
AcDbLine
 62
7
  6
CONTINUOUS
 10
18.0775183383
 20
10.3976831431
 11
18.1475183383
 21
10.3976831431
  0
LINE
  5
2AA
100
AcDbEntity
  8
0
100
AcDbLine
 62
7
  6
CONTINUOUS
 10
11.3548740314
 20
10.4701832158
 11
11.1885766843
 21
10.4701832183
  0
LINE
  5
2AB
100
AcDbEntity
  8
0
100
AcDbLine
 62
7
  6
CONTINUOUS
 10
10.9060543319
 20
10.4701832227
 11
10.7397626249
 21
10.4701832252
  0
LINE
  5
2AC
100
AcDbEntity
  8
0
100
AcDbLine
 62
9
  6
CONTINUOUS
 10
15.0473183383
 20
8.7379714977
 11
14.0343183383
 21
9.3228273204
  0
LINE
  5
2AD
100
AcDbEntity
  8
0
100
AcDbLine
 62
9
  6
CONTINUOUS
 10
14.4718083581
 20
10.2399539851
 11
14.4718083581
 21
9.5754123011
  0
LINE
  5
2AE
100
AcDbEntity
  8
0
100
AcDbLine
 62
7
  6
CONTINUOUS
 10
14.5473183383
 20
9.6190080085
 11
14.5473183383
 21
10.1963582777
  0
LINE
  5
2AF
100
AcDbEntity
  8
0
100
AcDbLine
 62
9
  6
CONTINUOUS
 10
18.4035681996
 20
9.9076831431
 11
18.2648181996
 21
9.754424125
  0
LINE
  5
2B0
100
AcDbEntity
  8
0
100
AcDbLine
 62
9
  6
CONTINUOUS
 10
18.2648181996
 20
9.746975672
 11
18.4035681996
 21
9.9002346901
  0
LINE
  5
2B1
100
AcDbEntity
  8
0
100
AcDbLine
 62
9
  6
CONTINUOUS
 10
14.4718083581
 20
9.5754123011
 11
15.0473183383
 21
9.2431414591
  0
LINE
  5
2B2
100
AcDbEntity
  8
0
100
AcDbLine
 62
7
  6
CONTINUOUS
 10
15.0473183383
 20
9.3303328739
 11
14.5473183383
 21
9.6190080085
  0
LINE
  5
2B3
100
AcDbEntity
  8
0
100
AcDbLine
 62
7
  6
CONTINUOUS
 10
15.0473183383
 20
11.0951831431
 11
15.0473183383
 21
11.0773947885
  0
LINE
  5
2B4
100
AcDbEntity
  8
0
100
AcDbLine
 62
7
  6
CONTINUOUS
 10
15.0473183383
 20
10.5722248271
 11
15.0473183383
 21
10.4850334123
  0
LINE
  5
2B5
100
AcDbEntity
  8
0
100
AcDbLine
 62
7
  6
CONTINUOUS
 10
15.0473183383
 20
8.7201831431
 11
15.0473183383
 21
8.7379714977
  0
LINE
  5
2B6
100
AcDbEntity
  8
0
100
AcDbLine
 62
7
  6
CONTINUOUS
 10
15.0473183383
 20
9.2431414591
 11
15.0473183383
 21
9.3303328739
  0
LINE
  5
2B7
100
AcDbEntity
  8
0
100
AcDbLine
 62
7
  6
CONTINUOUS
 10
18.0575907076
 20
9.6750310147
 11
18.0775183383
 21
9.7026474297
  0
LINE
  5
2B8
100
AcDbEntity
  8
0
100
AcDbLine
 62
7
  6
CONTINUOUS
 10
18.0575907076
 20
9.7234028018
 11
18.0375907076
 21
9.6957739286
  0
LINE
  5
2B9
100
AcDbEntity
  8
0
100
AcDbLine
 62
7
  6
CONTINUOUS
 10
15.7153183383
 20
9.7854348842
 11
15.7336184748
 21
9.7771805893
  0
LINE
  5
2BA
100
AcDbEntity
  8
0
100
AcDbLine
 62
7
  6
CONTINUOUS
 10
16.0757235053
 20
9.3139331431
 11
16.0603183383
 21
9.3228273204
  0
LINE
  5
2BB
100
AcDbEntity
  8
0
100
AcDbLine
 62
7
  6
CONTINUOUS
 10
15.6228283185
 20
9.5754123011
 11
15.5473183383
 21
9.6190080085
  0
LINE
  5
2BC
100
AcDbEntity
  8
0
100
AcDbLine
 62
7
  6
CONTINUOUS
 10
14.0189131713
 20
10.5014331431
 11
14.0343183383
 21
10.4925389658
  0
LINE
  5
2BD
100
AcDbEntity
  8
0
100
AcDbLine
 62
7
  6
CONTINUOUS
 10
14.4718083581
 20
10.2399539851
 11
14.5473183383
 21
10.1963582777
  0
LINE
  5
2BE
100
AcDbEntity
  8
0
100
AcDbLine
 62
7
  6
CONTINUOUS
 10
15.5473183383
 20
9.6190080085
 11
15.5473183383
 21
9.7251831431
  0
LINE
  5
2BF
100
AcDbEntity
  8
0
100
AcDbLine
 62
7
  6
CONTINUOUS
 10
15.5473183383
 20
10.0901831431
 11
15.5473183383
 21
10.1963582777
  0
LINE
  5
2C0
100
AcDbEntity
  8
0
100
AcDbLine
 62
9
  6
CONTINUOUS
 10
15.5653183383
 20
9.7251831431
 11
15.5653183383
 21
10.0901831431
  0
LINE
  5
2C1
100
AcDbEntity
  8
0
100
AcDbLine
 62
7
  6
CONTINUOUS
 10
15.6153183383
 20
10.1876829884
 11
15.6153183383
 21
9.6276832978
  0
LINE
  5
2C2
100
AcDbEntity
  8
0
100
AcDbLine
 62
9
  6
CONTINUOUS
 10
15.6228283185
 20
9.5754123011
 11
15.6228283185
 21
9.6019172483
  0
LINE
  5
2C3
100
AcDbEntity
  8
0
100
AcDbLine
 62
9
  6
CONTINUOUS
 10
15.6228283185
 20
10.2134490379
 11
15.6228283185
 21
10.2399539851
  0
LINE
  5
2C4
100
AcDbEntity
  8
0
100
AcDbLine
 62
7
  6
CONTINUOUS
 10
15.7153183383
 20
10.2028165477
 11
15.7153183383
 21
9.6125497385
  0
LINE
  5
2C5
100
AcDbEntity
  8
0
100
AcDbLine
 62
7
  6
CONTINUOUS
 10
15.7336184748
 20
10.2227441784
 11
15.7336184748
 21
9.5926221078
  0
LINE
  5
2C6
100
AcDbEntity
  8
0
100
AcDbLine
 62
7
  6
CONTINUOUS
 10
15.0473183383
 20
10.4850334123
 11
15.5473183383
 21
10.1963582777
  0
LINE
  5
2C7
100
AcDbEntity
  8
0
100
AcDbLine
 62
9
  6
CONTINUOUS
 10
15.6228283185
 20
10.2399539851
 11
15.0473183383
 21
10.5722248271
  0
LINE
  5
2C8
100
AcDbEntity
  8
0
100
AcDbLine
 62
7
  6
CONTINUOUS
 10
15.7153183383
 20
9.6125497385
 11
15.7336184748
 21
9.5926221078
  0
LINE
  5
2C9
100
AcDbEntity
  8
0
100
AcDbLine
 62
9
  6
CONTINUOUS
 10
16.0603183383
 20
10.4925389658
 11
16.0603183383
 21
10.250612277
  0
LINE
  5
2CA
100
AcDbEntity
  8
0
100
AcDbLine
 62
9
  6
CONTINUOUS
 10
16.0603183383
 20
9.5647540092
 11
16.0603183383
 21
9.3228273204
  0
LINE
  5
2CB
100
AcDbEntity
  8
0
100
AcDbLine
 62
9
  6
CONTINUOUS
 10
15.0473183383
 20
11.0773947885
 11
16.0603183383
 21
10.4925389658
  0
LINE
  5
2CC
100
AcDbEntity
  8
0
100
AcDbLine
 62
9
  6
CONTINUOUS
 10
18.4035681996
 20
9.9002346901
 11
18.2648181996
 21
9.5302346901
  0
LINE
  5
2CD
100
AcDbEntity
  8
0
100
AcDbLine
 62
7
  6
CONTINUOUS
 10
18.2648181996
 20
9.5271494399
 11
18.4035681996
 21
9.8971494398
  0
LINE
  5
2CE
100
AcDbEntity
  8
0
100
AcDbLine
 62
7
  6
CONTINUOUS
 10
18.0375907076
 20
9.6957739286
 11
18.0575907076
 21
9.6750310147
  0
LINE
  5
2CF
100
AcDbEntity
  8
0
100
AcDbLine
 62
7
  6
CONTINUOUS
 10
18.0575907076
 20
9.7234028018
 11
18.0775183383
 21
9.7026474297
  0
LINE
  5
2D0
100
AcDbEntity
  8
0
100
AcDbLine
 62
7
  6
CONTINUOUS
 10
18.0575907076
 20
9.4144192569
 11
18.0575907076
 21
9.6750310147
  0
LINE
  5
2D1
100
AcDbEntity
  8
0
100
AcDbLine
 62
7
  6
CONTINUOUS
 10
18.0575907076
 20
9.7234028018
 11
18.0575907076
 21
10.0919634844
  0
LINE
  5
2D2
100
AcDbEntity
  8
0
100
AcDbLine
 62
7
  6
CONTINUOUS
 10
18.0575907076
 20
10.1403352715
 11
18.0575907076
 21
10.4009470293
  0
LINE
  5
2D3
100
AcDbEntity
  8
0
100
AcDbLine
 62
7
  6
CONTINUOUS
 10
18.0775183383
 20
9.4126831431
 11
18.0775183383
 21
10.4026831431
  0
LINE
  5
2D4
100
AcDbEntity
  8
0
100
AcDbLine
 62
9
  6
CONTINUOUS
 10
18.1475183383
 20
9.4176831431
 11
18.1475183383
 21
10.3976777334
  0
LINE
  5
2D5
100
AcDbEntity
  8
0
100
AcDbLine
 62
7
  6
CONTINUOUS
 10
18.1775183383
 20
9.4476831431
 11
18.1775183383
 21
10.3676780646
  0
LINE
  5
2D6
100
AcDbEntity
  8
0
100
AcDbLine
 62
9
  6
CONTINUOUS
 10
18.2367283242
 20
9.5076831431
 11
18.2367283242
 21
10.3076831431
  0
LINE
  5
2D7
100
AcDbEntity
  8
0
100
AcDbLine
 62
7
  6
CONTINUOUS
 10
18.0375907076
 20
10.4192772428
 11
18.0575907076
 21
10.4009470293
  0
LINE
  5
2D8
100
AcDbEntity
  8
0
100
AcDbLine
 62
7
  6
CONTINUOUS
 10
18.0575907076
 20
10.4209832796
 11
18.0775183383
 21
10.4026831431
  0
LINE
  5
2D9
100
AcDbEntity
  8
0
100
AcDbLine
 62
9
  6
CONTINUOUS
 10
18.2648181996
 20
10.0609421612
 11
18.4035681996
 21
9.9076831431
  0
LINE
  5
2DA
100
AcDbEntity
  8
0
100
AcDbLine
 62
9
  6
CONTINUOUS
 10
18.4035681996
 20
9.9151315961
 11
18.2648181996
 21
10.0683906142
  0
LINE
  5
2DB
100
AcDbEntity
  8
0
100
AcDbLine
 62
9
  6
CONTINUOUS
 10
18.2648181996
 20
10.2851315961
 11
18.2648181996
 21
10.0683906142
  0
LINE
  5
2DC
100
AcDbEntity
  8
0
100
AcDbLine
 62
9
  6
CONTINUOUS
 10
18.2648181996
 20
10.0609421612
 11
18.2648181996
 21
9.754424125
  0
LINE
  5
2DD
100
AcDbEntity
  8
0
100
AcDbLine
 62
9
  6
CONTINUOUS
 10
18.2648181996
 20
9.746975672
 11
18.2648181996
 21
9.5302346901
  0
LINE
  5
2DE
100
AcDbEntity
  8
0
100
AcDbLine
 62
7
  6
CONTINUOUS
 10
18.0575907076
 20
10.0919634844
 11
18.0375907076
 21
10.1195923576
  0
LINE
  5
2DF
100
AcDbEntity
  8
0
100
AcDbLine
 62
7
  6
CONTINUOUS
 10
18.0575907076
 20
10.1403352715
 11
18.0775183383
 21
10.1127188565
  0
LINE
  5
2E0
100
AcDbEntity
  8
0
100
AcDbLine
 62
9
  6
CONTINUOUS
 10
18.2648181996
 20
10.2851315961
 11
18.4035681996
 21
9.9151315961
  0
LINE
  5
2E1
100
AcDbEntity
  8
0
100
AcDbLine
 62
7
  6
CONTINUOUS
 10
18.4035681996
 20
9.9182168463
 11
18.2648181996
 21
10.2882168463
  0
ARC
  5
2E2
100
AcDbEntity
  8
0
100
AcDbCircle
 62
7
  6
CONTINUOUS
 10
-19.6076293942
 20
-2.7311388301
 40
32.2838271775
100
AcDbArc
 50
22.7569485866
 51
23.020498076
  0
ARC
  5
2E3
100
AcDbEntity
  8
0
100
AcDbCircle
 62
7
  6
CONTINUOUS
 10
-18.9378963404
 20
-2.45015493
 40
31.5575389488
100
AcDbArc
 50
22.5148946164
 51
22.6974717622
  0
ARC
  5
2E4
100
AcDbEntity
  8
0
100
AcDbCircle
 62
7
  6
CONTINUOUS
 10
-18.5155700287
 20
-2.2749622835
 40
31.1003169435
100
AcDbArc
 50
22.3328674948
 51
22.5146721447
  0
ARC
  5
2E5
100
AcDbEntity
  8
0
100
AcDbCircle
 62
9
  6
CONTINUOUS
 10
-498.4800366691
 20
4.7433717764
 40
509.1658978726
100
AcDbArc
 50
0.0941604015
 51
0.4451973013
  0
ARC
  5
2E6
100
AcDbEntity
  8
0
100
AcDbCircle
 62
9
  6
CONTINUOUS
 10
-405.0300780879
 20
4.970462096
 40
415.7338229978
100
AcDbArc
 50
0.0844032038
 51
0.5142763256
  0
ARC
  5
2E7
100
AcDbEntity
  8
0
100
AcDbCircle
 62
9
  6
CONTINUOUS
 10
-70.2256770183
 20
5.1782857557
 40
80.7152084297
100
AcDbArc
 50
0.2130146313
 51
2.4078923557
  0
ARC
  5
2E8
100
AcDbEntity
  8
0
100
AcDbCircle
 62
9
  6
CONTINUOUS
 10
-58.6673692568
 20
5.7566173933
 40
69.1569001082
100
AcDbArc
 50
359.5994351762
 51
359.766550039
  0
ARC
  5
2E9
100
AcDbEntity
  8
0
100
AcDbCircle
 62
9
  6
CONTINUOUS
 10
-10.2594020421
 20
5.4279771813
 40
20.7478200358
100
AcDbArc
 50
359.0527250755
 51
359.567456375
  0
ARC
  5
2EA
100
AcDbEntity
  8
0
100
AcDbCircle
 62
9
  6
CONTINUOUS
 10
-1.6903687501
 20
5.1400357814
 40
13.0736716722
100
AcDbArc
 50
356.9356598502
 51
357.0894268944
  0
ARC
  5
2EB
100
AcDbEntity
  8
0
100
AcDbCircle
 62
9
  6
CONTINUOUS
 10
6.6655483205
 20
4.3814361177
 40
4.9622674895
100
AcDbArc
 50
0.2101742916
 51
0.4075433968
  0
ARC
  5
2EC
100
AcDbEntity
  8
0
100
AcDbCircle
 62
9
  6
CONTINUOUS
 10
7.5665156011
 20
5.6681103837
 40
4.8562315124
100
AcDbArc
 50
57.2454529085
 51
57.5466491914
  0
ARC
  5
2ED
100
AcDbEntity
  8
0
100
AcDbCircle
 62
9
  6
CONTINUOUS
 10
6.7943396123
 20
4.3824302676
 40
4.8334722983
100
AcDbArc
 50
0.5147648896
 51
0.6282854115
  0
ARC
  5
2EE
100
AcDbEntity
  8
0
100
AcDbCircle
 62
9
  6
CONTINUOUS
 10
6.8476526601
 20
4.3830223247
 40
4.7801559636
100
AcDbArc
 50
0.6281964611
 51
1.0682642865
  0
ARC
  5
2EF
100
AcDbEntity
  8
0
100
AcDbCircle
 62
9
  6
CONTINUOUS
 10
7.1687003668
 20
4.389240056
 40
4.4590481423
100
AcDbArc
 50
1.0652941656
 51
1.5590052527
  0
ARC
  5
2F0
100
AcDbEntity
  8
0
100
AcDbCircle
 62
7
  6
CONTINUOUS
 10
6.4293183383
 20
9.6276831431
 40
0.05
100
AcDbArc
 50
180.0
 51
360.0
  0
ARC
  5
2F1
100
AcDbEntity
  8
0
100
AcDbCircle
 62
7
  6
CONTINUOUS
 10
6.4293183383
 20
10.1876831431
 40
0.05
100
AcDbArc
 50
0.0
 51
180.0
  0
ARC
  5
2F2
100
AcDbEntity
  8
0
100
AcDbCircle
 62
7
  6
CONTINUOUS
 10
6.5293183383
 20
9.6751831431
 40
0.05
100
AcDbArc
 50
90.0
 51
180.0
  0
ARC
  5
2F3
100
AcDbEntity
  8
0
100
AcDbCircle
 62
7
  6
CONTINUOUS
 10
6.5293183383
 20
10.1401831431
 40
0.05
100
AcDbArc
 50
180.0
 51
270.0
  0
ARC
  5
2F4
100
AcDbEntity
  8
0
100
AcDbCircle
 62
7
  6
CONTINUOUS
 10
3.9471183383
 20
10.3676831431
 40
0.03
100
AcDbArc
 50
90.0
 51
180.0
  0
ARC
  5
2F5
100
AcDbEntity
  8
0
100
AcDbCircle
 62
7
  6
CONTINUOUS
 10
3.9471183383
 20
9.4476831431
 40
0.03
100
AcDbArc
 50
180.0
 51
270.0
  0
ARC
  5
2F6
100
AcDbEntity
  8
0
100
AcDbCircle
 62
7
  6
CONTINUOUS
 10
3.8579083523
 20
10.2776831431
 40
0.03
100
AcDbArc
 50
90.0000000066
 51
159.4439547804
  0
ARC
  5
2F7
100
AcDbEntity
  8
0
100
AcDbCircle
 62
7
  6
CONTINUOUS
 10
3.8579083523
 20
9.5376831431
 40
0.03
100
AcDbArc
 50
200.5560452196
 51
269.9999999934
  0
ARC
  5
2F8
100
AcDbEntity
  8
0
100
AcDbCircle
 62
7
  6
CONTINUOUS
 10
3.7191587664
 20
9.9076766269
 40
0.0299981003
100
AcDbArc
 50
194.8092822798
 51
200.5441141907
  0
ARC
  5
2F9
100
AcDbEntity
  8
0
100
AcDbCircle
 62
7
  6
CONTINUOUS
 10
3.7191319383
 20
9.9076832202
 40
0.0299738013
100
AcDbArc
 50
165.1632099237
 51
194.8345747351
  0
ARC
  5
2FA
100
AcDbEntity
  8
0
100
AcDbCircle
 62
7
  6
CONTINUOUS
 10
3.7190908616
 20
9.9077109703
 40
0.0299270358
100
AcDbArc
 50
159.4486077493
 51
165.1944291288
  0
ARC
  5
2FB
100
AcDbEntity
  8
0
100
AcDbCircle
 62
9
  6
CONTINUOUS
 10
6.8156651489
 20
8.295984437
 40
3.6572552886
100
AcDbArc
 50
25.9824180369
 51
26.1912500858
  0
ARC
  5
2FC
100
AcDbEntity
  8
0
100
AcDbCircle
 62
9
  6
CONTINUOUS
 10
6.8979905684
 20
8.3357363651
 40
3.5658356513
100
AcDbArc
 50
23.6014406343
 51
25.9877617479
  0
ARC
  5
2FD
100
AcDbEntity
  8
0
100
AcDbCircle
 62
9
  6
CONTINUOUS
 10
7.023685409
 20
8.3784655192
 40
3.4381275882
100
AcDbArc
 50
23.8490231591
 51
26.4247404024
  0
ARC
  5
2FE
100
AcDbEntity
  8
0
100
AcDbCircle
 62
7
  6
CONTINUOUS
 10
7.2515570496
 20
8.4840122571
 40
3.1824219982
100
AcDbArc
 50
16.6804893257
 51
23.0262157853
  0
ARC
  5
2FF
100
AcDbEntity
  8
0
100
AcDbCircle
 62
9
  6
CONTINUOUS
 10
7.4310340405
 20
8.5522068528
 40
2.9953074413
100
AcDbArc
 50
23.2251726322
 51
23.792394198
  0
ARC
  5
300
100
AcDbEntity
  8
0
100
AcDbCircle
 62
7
  6
CONTINUOUS
 10
7.4600130943
 20
8.5502331857
 40
2.9637322291
100
AcDbArc
 50
15.568392351
 51
16.610886663
  0
ARC
  5
301
100
AcDbEntity
  8
0
100
AcDbCircle
 62
7
  6
CONTINUOUS
 10
7.6346986847
 20
8.5960797861
 40
2.7831523487
100
AcDbArc
 50
7.7085638194
 51
15.6243688938
  0
ARC
  5
302
100
AcDbEntity
  8
0
100
AcDbCircle
 62
7
  6
CONTINUOUS
 10
7.6574103471
 20
8.5999246116
 40
2.7601303105
100
AcDbArc
 50
6.943974143
 51
7.6927113366
  0
ARC
  5
303
100
AcDbEntity
  8
0
100
AcDbCircle
 62
9
  6
CONTINUOUS
 10
8.7144603155
 20
8.7001453225
 40
2.0961625833
100
AcDbArc
 50
18.2258695251
 51
19.3601503561
  0
ARC
  5
304
100
AcDbEntity
  8
0
100
AcDbCircle
 62
9
  6
CONTINUOUS
 10
9.1717706649
 20
8.1074354413
 40
1.992305048
100
AcDbArc
 50
40.261462956
 51
41.2390278642
  0
ARC
  5
305
100
AcDbEntity
  8
0
100
AcDbCircle
 62
9
  6
CONTINUOUS
 10
9.3128303176
 20
7.9487325342
 40
1.9791003451
100
AcDbArc
 50
45.26177804
 51
46.0767840081
  0
ARC
  5
306
100
AcDbEntity
  8
0
100
AcDbCircle
 62
9
  6
CONTINUOUS
 10
9.4316300491
 20
8.9744001225
 40
1.316281339
100
AcDbArc
 50
17.6829190211
 51
19.8227515111
  0
ARC
  5
307
100
AcDbEntity
  8
0
100
AcDbCircle
 62
9
  6
CONTINUOUS
 10
9.4660205355
 20
8.9496471236
 40
1.3044973275
100
AcDbArc
 50
19.9583992494
 51
20.3273890817
  0
ARC
  5
308
100
AcDbEntity
  8
0
100
AcDbCircle
 62
7
  6
CONTINUOUS
 10
7.0473183383
 20
9.9076831431
 40
1.1875
100
AcDbArc
 50
197.3034049797
 51
162.689654444
  0
CIRCLE
  5
309
100
AcDbEntity
  8
0
100
AcDbCircle
 62
7
  6
CONTINUOUS
 10
7.0473183383
 20
9.9076831431
 40
0.49
  0
ARC
  5
30A
100
AcDbEntity
  8
0
100
AcDbCircle
 62
7
  6
CONTINUOUS
 10
41.6003727351
 20
-2.6881210249
 40
32.1732255568
100
AcDbArc
 50
156.9790489553
 51
157.2435152111
  0
ARC
  5
30B
100
AcDbEntity
  8
0
100
AcDbCircle
 62
7
  6
CONTINUOUS
 10
40.9618661831
 20
-2.4207299901
 40
31.480990836
100
AcDbArc
 50
157.3021616114
 51
157.4855241787
  0
ARC
  5
30C
100
AcDbEntity
  8
0
100
AcDbCircle
 62
7
  6
CONTINUOUS
 10
40.559808795
 20
-2.2541720555
 40
31.0457992915
100
AcDbArc
 50
157.4853558926
 51
157.6525407368
  0
ARC
  5
30D
100
AcDbEntity
  8
0
100
AcDbCircle
 62
9
  6
CONTINUOUS
 10
92.3144862717
 20
5.1784245713
 40
80.7093808925
100
AcDbArc
 50
177.5926928698
 51
179.7870678613
  0
ARC
  5
30E
100
AcDbEntity
  8
0
100
AcDbCircle
 62
9
  6
CONTINUOUS
 10
27.5124690805
 20
5.3183503575
 40
16.8058888834
100
AcDbArc
 50
182.8747269577
 51
183.0407934126
  0
ARC
  5
30F
100
AcDbEntity
  8
0
100
AcDbCircle
 62
9
  6
CONTINUOUS
 10
14.5281160614
 20
5.6680902345
 40
4.8562424813
100
AcDbArc
 50
122.4532323027
 51
122.7548066134
  0
ARC
  5
310
100
AcDbEntity
  8
0
100
AcDbCircle
 62
7
  6
CONTINUOUS
 10
12.6231421194
 20
4.3736116034
 40
2.1563293448
100
AcDbArc
 50
179.3957817895
 51
179.8350507312
  0
ARC
  5
311
100
AcDbEntity
  8
0
100
AcDbCircle
 62
7
  6
CONTINUOUS
 10
11.0267933767
 20
7.4117522363
 40
1.3362578958
100
AcDbArc
 50
105.4640909989
 51
106.2140965855
  0
ARC
  5
312
100
AcDbEntity
  8
0
100
AcDbCircle
 62
7
  6
CONTINUOUS
 10
11.0721375936
 20
7.4268763472
 40
1.320537988
100
AcDbArc
 50
73.7816060909
 51
74.5405375759
  0
ARC
  5
313
100
AcDbEntity
  8
0
100
AcDbCircle
 62
7
  6
CONTINUOUS
 10
11.1130106488
 20
7.565952693
 40
1.175580054
100
AcDbArc
 50
71.4735486898
 51
73.8012058116
  0
ARC
  5
314
100
AcDbEntity
  8
0
100
AcDbCircle
 62
9
  6
CONTINUOUS
 10
13.5139790486
 20
8.6548140977
 40
2.2374320022
100
AcDbArc
 50
160.6810518267
 51
161.7432786025
  0
ARC
  5
315
100
AcDbEntity
  8
0
100
AcDbCircle
 62
9
  6
CONTINUOUS
 10
12.9326981718
 20
8.0989465352
 40
2.0052930944
100
AcDbArc
 50
138.7638901483
 51
139.7350508039
  0
ARC
  5
316
100
AcDbEntity
  8
0
100
AcDbCircle
 62
9
  6
CONTINUOUS
 10
12.7818018485
 20
7.9487189855
 40
1.9791067455
100
AcDbArc
 50
133.9228616977
 51
134.7378560223
  0
ARC
  5
317
100
AcDbEntity
  8
0
100
AcDbCircle
 62
9
  6
CONTINUOUS
 10
12.6630163277
 20
8.9743973843
 40
1.3162913929
100
AcDbArc
 50
160.1772874755
 51
162.3171151204
  0
ARC
  5
318
100
AcDbEntity
  8
0
100
AcDbCircle
 62
9
  6
CONTINUOUS
 10
12.6083089071
 20
8.9570930001
 40
1.2828683606
100
AcDbArc
 50
159.6694156377
 51
160.0449069004
  0
ARC
  5
319
100
AcDbEntity
  8
0
100
AcDbCircle
 62
7
  6
CONTINUOUS
 10
10.9690577212
 20
7.6061451832
 40
1.1334734822
100
AcDbArc
 50
106.155512754
 51
108.5673247623
  0
ARC
  5
31A
100
AcDbEntity
  8
0
100
AcDbCircle
 62
7
  6
CONTINUOUS
 10
11.0448339394
 20
10.7856984875
 40
1.4407706604
100
AcDbArc
 50
278.0763796442
 51
283.5823550598
  0
ARC
  5
31B
100
AcDbEntity
  8
0
100
AcDbCircle
 62
7
  6
CONTINUOUS
 10
11.0494143635
 20
10.7836682195
 40
1.4387059691
100
AcDbArc
 50
256.4136912357
 51
261.9275597502
  0
ARC
  5
31C
100
AcDbEntity
  8
0
100
AcDbCircle
 62
7
  6
CONTINUOUS
 10
11.0473183383
 20
9.9076831431
 40
1.24
100
AcDbArc
 50
301.2470791648
 51
238.7242589608
  0
CIRCLE
  5
31D
100
AcDbEntity
  8
0
100
AcDbCircle
 62
7
  6
CONTINUOUS
 10
11.0473183383
 20
9.9076831431
 40
0.58
  0
ARC
  5
31E
100
AcDbEntity
  8
0
100
AcDbCircle
 62
9
  6
CONTINUOUS
 10
11.7745280332
 20
9.2367989417
 40
0.418550686
100
AcDbArc
 50
159.3614321089
 51
164.8964208531
  0
ARC
  5
31F
100
AcDbEntity
  8
0
100
AcDbCircle
 62
9
  6
CONTINUOUS
 10
10.3224226615
 20
9.2375573334
 40
0.4161169371
100
AcDbArc
 50
15.0859111252
 51
20.6624997197
  0
ARC
  5
320
100
AcDbEntity
  8
0
100
AcDbCircle
 62
9
  6
CONTINUOUS
 10
11.6681356082
 20
9.8810684913
 40
0.2816841504
100
AcDbArc
 50
336.129859199
 51
336.4654093752
  0
ARC
  5
321
100
AcDbEntity
  8
0
100
AcDbCircle
 62
7
  6
CONTINUOUS
 10
11.3548867986
 20
10.4404073437
 40
0.0297754487
100
AcDbArc
 50
29.9754333855
 51
90.0245671186
  0
ARC
  5
322
100
AcDbEntity
  8
0
100
AcDbCircle
 62
7
  6
CONTINUOUS
 10
11.6624552908
 20
9.9076831428
 40
0.0297754229
100
AcDbArc
 50
329.9754096131
 51
30.02458989
  0
ARC
  5
323
100
AcDbEntity
  8
0
100
AcDbCircle
 62
7
  6
CONTINUOUS
 10
10.4321812618
 20
9.9076831337
 40
0.0297753182
100
AcDbArc
 50
149.9752976501
 51
210.0246695174
  0
ARC
  5
324
100
AcDbEntity
  8
0
100
AcDbCircle
 62
7
  6
CONTINUOUS
 10
10.7397497782
 20
10.4404075165
 40
0.0297752848
100
AcDbArc
 50
89.9752797829
 51
150.0247197049
  0
ARC
  5
325
100
AcDbEntity
  8
0
100
AcDbCircle
 62
9
  6
CONTINUOUS
 10
15.2789777673
 20
8.2959803128
 40
3.65726271
100
AcDbArc
 50
153.808733192
 51
154.0175597804
  0
ARC
  5
326
100
AcDbEntity
  8
0
100
AcDbCircle
 62
9
  6
CONTINUOUS
 10
15.1669674537
 20
8.3494465746
 40
3.5331504172
100
AcDbArc
 50
154.001193601
 51
156.4096988827
  0
ARC
  5
327
100
AcDbEntity
  8
0
100
AcDbCircle
 62
9
  6
CONTINUOUS
 10
15.0497446555
 20
8.3884164961
 40
3.4147082903
100
AcDbArc
 50
153.5664319184
 51
156.1599183815
  0
ARC
  5
328
100
AcDbEntity
  8
0
100
AcDbCircle
 62
7
  6
CONTINUOUS
 10
14.8311519838
 20
8.4885543487
 40
3.1696681635
100
AcDbArc
 50
156.9637491376
 51
163.7212410618
  0
ARC
  5
329
100
AcDbEntity
  8
0
100
AcDbCircle
 62
9
  6
CONTINUOUS
 10
14.7626636113
 20
8.511962813
 40
3.1021825603
100
AcDbArc
 50
156.26510883
 51
156.8137596389
  0
ARC
  5
32A
100
AcDbEntity
  8
0
100
AcDbCircle
 62
7
  6
CONTINUOUS
 10
14.6103671026
 20
8.5571473429
 40
2.9385100075
100
AcDbArc
 50
163.7983498182
 51
164.6723504053
  0
ARC
  5
32B
100
AcDbEntity
  8
0
100
AcDbCircle
 62
7
  6
CONTINUOUS
 10
15.6653183383
 20
9.6276831431
 40
0.05
100
AcDbArc
 50
180.0
 51
360.0
  0
ARC
  5
32C
100
AcDbEntity
  8
0
100
AcDbCircle
 62
7
  6
CONTINUOUS
 10
15.5653183383
 20
9.6751831431
 40
0.05
100
AcDbArc
 50
0.0
 51
90.0
  0
ARC
  5
32D
100
AcDbEntity
  8
0
100
AcDbCircle
 62
7
  6
CONTINUOUS
 10
15.0473183383
 20
9.9076831431
 40
1.1875
100
AcDbArc
 50
17.3034049797
 51
342.689654444
  0
CIRCLE
  5
32E
100
AcDbEntity
  8
0
100
AcDbCircle
 62
7
  6
CONTINUOUS
 10
15.0473183383
 20
9.9076831431
 40
0.49
  0
ARC
  5
32F
100
AcDbEntity
  8
0
100
AcDbCircle
 62
7
  6
CONTINUOUS
 10
15.6653183383
 20
10.1876831431
 40
0.05
100
AcDbArc
 50
0.0
 51
180.0
  0
ARC
  5
330
100
AcDbEntity
  8
0
100
AcDbCircle
 62
7
  6
CONTINUOUS
 10
15.5653183383
 20
10.1401831431
 40
0.05
100
AcDbArc
 50
270.0
 51
360.0
  0
ARC
  5
331
100
AcDbEntity
  8
0
100
AcDbCircle
 62
7
  6
CONTINUOUS
 10
18.1475183383
 20
9.4476831431
 40
0.03
100
AcDbArc
 50
270.0
 51
360.0
  0
ARC
  5
332
100
AcDbEntity
  8
0
100
AcDbCircle
 62
7
  6
CONTINUOUS
 10
18.2367283242
 20
9.5376831431
 40
0.03
100
AcDbArc
 50
270.0000000066
 51
339.4439547804
  0
ARC
  5
333
100
AcDbEntity
  8
0
100
AcDbCircle
 62
7
  6
CONTINUOUS
 10
18.3755047382
 20
9.9076830661
 40
0.0299738013
100
AcDbArc
 50
345.1632098876
 51
14.834574644
  0
ARC
  5
334
100
AcDbEntity
  8
0
100
AcDbCircle
 62
7
  6
CONTINUOUS
 10
18.375545815
 20
9.9076553159
 40
0.0299270358
100
AcDbArc
 50
339.4486077493
 51
345.1944291289
  0
ARC
  5
335
100
AcDbEntity
  8
0
100
AcDbCircle
 62
7
  6
CONTINUOUS
 10
18.1475183383
 20
10.3676831431
 40
0.03
100
AcDbArc
 50
0.0
 51
90.0
  0
ARC
  5
336
100
AcDbEntity
  8
0
100
AcDbCircle
 62
7
  6
CONTINUOUS
 10
18.2367283242
 20
10.2776831431
 40
0.03
100
AcDbArc
 50
20.5560452196
 51
89.9999999934
  0
ARC
  5
337
100
AcDbEntity
  8
0
100
AcDbCircle
 62
7
  6
CONTINUOUS
 10
18.3754779102
 20
9.9076896593
 40
0.0299981003
100
AcDbArc
 50
14.8092822797
 51
20.5441141907
  0
ARC
  5
338
100
AcDbEntity
  8
0
100
AcDbCircle
 62
9
  6
CONTINUOUS
 10
517.5522491702
 20
4.7575991906
 40
506.1434544664
100
AcDbArc
 50
179.55375454
 51
179.9068878078
  0
ARC
  5
339
100
AcDbEntity
  8
0
100
AcDbCircle
 62
9
  6
CONTINUOUS
 10
426.5823580124
 20
4.972939957
 40
415.191461047
100
AcDbArc
 50
179.4853938664
 51
179.9158284836
  0
SPLINE
  5
33A
100
AcDbEntity
  8
0
100
AcDbSpline
 62
9
  6
CONTINUOUS
 70
0
 71
3
 72
11
 73
7
 74
0
 42
0.0000001
 43
0.0000001
 44
0.0000000001
 40
0.0
 40
0.0
 40
0.0
 40
0.0
 40
0.2337615973
 40
0.4744195616
 40
0.728133547
 40
1.0
 40
1.0
 40
1.0
 40
1.0
 10
3.691068477
 20
9.9182168463
 30
0.0
 10
3.6909826108
 20
9.9179878699
 30
0.0
 10
3.6908520143
 20
9.9175055454
 30
0.0
 10
3.6907897055
 20
9.9167426002
 30
0.0
 10
3.6908587448
 20
9.9159407181
 30
0.0
 10
3.6909861521
 20
9.9154038306
 30
0.0
 10
3.691068477
 20
9.9151315961
 30
0.0
  0
SPLINE
  5
33B
100
AcDbEntity
  8
0
100
AcDbSpline
 62
9
  6
CONTINUOUS
 70
0
 71
3
 72
9
 73
5
 74
0
 42
0.0000001
 43
0.0000001
 44
0.0000000001
 40
0.0
 40
0.0
 40
0.0
 40
0.0
 40
0.5045542052
 40
1.0
 40
1.0
 40
1.0
 40
1.0
 10
3.829818477
 20
10.0609421612
 30
0.0
 10
3.8296490403
 20
10.0621863745
 30
0.0
 10
3.8294753079
 20
10.0646775097
 30
0.0
 10
3.8296459858
 20
10.06716971
 30
0.0
 10
3.829818477
 20
10.0683906142
 30
0.0
  0
SPLINE
  5
33C
100
AcDbEntity
  8
0
100
AcDbSpline
 62
9
  6
CONTINUOUS
 70
0
 71
3
 72
15
 73
11
 74
0
 42
0.0000001
 43
0.0000001
 44
0.0000000001
 40
0.0
 40
0.0
 40
0.0
 40
0.0
 40
0.1063650046
 40
0.2184010488
 40
0.3365712131
 40
0.4607487968
 40
0.590317618
 40
0.7242540367
 40
0.8613887863
 40
1.0
 40
1.0
 40
1.0
 40
1.0
 10
3.829818477
 20
10.0683906142
 30
0.0
 10
3.8303621244
 20
10.0694157255
 30
0.0
 10
3.8316867432
 20
10.0714150317
 30
0.0
 10
3.8342219899
 20
10.0740920899
 30
0.0
 10
3.8372925834
 20
10.0764642876
 30
0.0
 10
3.8408276932
 20
10.0784795405
 30
0.0
 10
3.8447476753
 20
10.0800949343
 30
0.0
 10
3.8489657738
 20
10.0812759399
 30
0.0
 10
3.8533856111
 20
10.0819939815
 30
0.0
 10
3.8563962277
 20
10.0821553646
 30
0.0
 10
3.8579083523
 20
10.0821553646
 30
0.0
  0
SPLINE
  5
33D
100
AcDbEntity
  8
0
100
AcDbSpline
 62
9
  6
CONTINUOUS
 70
0
 71
3
 72
14
 73
10
 74
0
 42
0.0000001
 43
0.0000001
 44
0.0000000001
 40
0.0
 40
0.0
 40
0.0
 40
0.0
 40
0.138542227
 40
0.2756665943
 40
0.5387886954
 40
0.6630557163
 40
0.7813260762
 40
0.8935529431
 40
1.0
 40
1.0
 40
1.0
 40
1.0
 10
3.8579083523
 20
10.2988963465
 30
0.0
 10
3.8563976874
 20
10.2988963465
 30
0.0
 10
3.8533885647
 20
10.2987349904
 30
0.0
 10
3.847583073
 20
10.2977929673
 30
0.0
 10
3.8421018216
 20
10.2959448376
 30
0.0
 10
3.8372986764
 20
10.2932094886
 30
0.0
 10
3.834225
 20
10.2908365367
 30
0.0
 10
3.8316888553
 20
10.2881572762
 30
0.0
 10
3.8303622892
 20
10.2861570183
 30
0.0
 10
3.829818477
 20
10.2851315961
 30
0.0
  0
SPLINE
  5
33E
100
AcDbEntity
  8
0
100
AcDbSpline
 62
9
  6
CONTINUOUS
 70
0
 71
3
 72
11
 73
7
 74
0
 42
0.0000001
 43
0.0000001
 44
0.0000000001
 40
0.0
 40
0.0
 40
0.0
 40
0.0
 40
0.2718775796
 40
0.525603703
 40
0.7662474692
 40
1.0
 40
1.0
 40
1.0
 40
1.0
 10
3.829818477
 20
10.2851315961
 30
0.0
 10
3.8297361488
 20
10.2854038417
 30
0.0
 10
3.8296087432
 20
10.2859407552
 30
0.0
 10
3.8295397073
 20
10.2867426465
 30
0.0
 10
3.8296020116
 20
10.2875055812
 30
0.0
 10
3.8297326142
 20
10.2879878788
 30
0.0
 10
3.829818477
 20
10.2882168463
 30
0.0
  0
SPLINE
  5
33F
100
AcDbEntity
  8
0
100
AcDbSpline
 62
9
  6
CONTINUOUS
 70
0
 71
3
 72
14
 73
10
 74
0
 42
0.0000001
 43
0.0000001
 44
0.0000000001
 40
0.0
 40
0.0
 40
0.0
 40
0.0
 40
0.138542227
 40
0.2756665943
 40
0.5387886954
 40
0.6630557163
 40
0.7813260762
 40
0.8935529431
 40
1.0
 40
1.0
 40
1.0
 40
1.0
 10
3.8579083523
 20
9.7332109216
 30
0.0
 10
3.8563976874
 20
9.7332109216
 30
0.0
 10
3.8533885647
 20
9.7333722777
 30
0.0
 10
3.847583073
 20
9.7343143008
 30
0.0
 10
3.8421018216
 20
9.7361624305
 30
0.0
 10
3.8372986764
 20
9.7388977795
 30
0.0
 10
3.834225
 20
9.7412707315
 30
0.0
 10
3.8316888553
 20
9.7439499919
 30
0.0
 10
3.8303622892
 20
9.7459502498
 30
0.0
 10
3.829818477
 20
9.746975672
 30
0.0
  0
SPLINE
  5
340
100
AcDbEntity
  8
0
100
AcDbSpline
 62
9
  6
CONTINUOUS
 70
0
 71
3
 72
9
 73
5
 74
0
 42
0.0000001
 43
0.0000001
 44
0.0000000001
 40
0.0
 40
0.0
 40
0.0
 40
0.0
 40
0.495445792
 40
1.0
 40
1.0
 40
1.0
 40
1.0
 10
3.829818477
 20
9.746975672
 30
0.0
 10
3.8296459858
 20
9.7481965762
 30
0.0
 10
3.8294753079
 20
9.7506887765
 30
0.0
 10
3.8296490403
 20
9.7531799117
 30
0.0
 10
3.829818477
 20
9.754424125
 30
0.0
  0
SPLINE
  5
341
100
AcDbEntity
  8
0
100
AcDbSpline
 62
9
  6
CONTINUOUS
 70
0
 71
3
 72
11
 73
7
 74
0
 42
0.0000001
 43
0.0000001
 44
0.0000000001
 40
0.0
 40
0.0
 40
0.0
 40
0.0
 40
0.2718775796
 40
0.525603703
 40
0.7662474692
 40
1.0
 40
1.0
 40
1.0
 40
1.0
 10
3.691068477
 20
9.9002346901
 30
0.0
 10
3.6909861488
 20
9.8999624445
 30
0.0
 10
3.6908587432
 20
9.899425531
 30
0.0
 10
3.6907897073
 20
9.8986236397
 30
0.0
 10
3.6908520116
 20
9.897860705
 30
0.0
 10
3.6909826142
 20
9.8973784074
 30
0.0
 10
3.691068477
 20
9.8971494399
 30
0.0
  0
SPLINE
  5
342
100
AcDbEntity
  8
0
100
AcDbSpline
 62
9
  6
CONTINUOUS
 70
0
 71
3
 72
9
 73
5
 74
0
 42
0.0000001
 43
0.0000001
 44
0.0000000001
 40
0.0
 40
0.0
 40
0.0
 40
0.0
 40
0.5045781686
 40
1.0
 40
1.0
 40
1.0
 40
1.0
 10
3.691068477
 20
9.9076831431
 30
0.0
 10
3.6908990322
 20
9.9064388707
 30
0.0
 10
3.6907253067
 20
9.9039477338
 30
0.0
 10
3.6908959942
 20
9.9014555353
 30
0.0
 10
3.691068477
 20
9.9002346901
 30
0.0
  0
SPLINE
  5
343
100
AcDbEntity
  8
0
100
AcDbSpline
 62
9
  6
CONTINUOUS
 70
0
 71
3
 72
11
 73
7
 74
0
 42
0.0000001
 43
0.0000001
 44
0.0000000001
 40
0.0
 40
0.0
 40
0.0
 40
0.0
 40
0.2337525308
 40
0.474396297
 40
0.7281224204
 40
1.0
 40
1.0
 40
1.0
 40
1.0
 10
3.829818477
 20
9.5271494399
 30
0.0
 10
3.8297326142
 20
9.5273784074
 30
0.0
 10
3.8296020116
 20
9.527860705
 30
0.0
 10
3.8295397073
 20
9.5286236397
 30
0.0
 10
3.8296087432
 20
9.529425531
 30
0.0
 10
3.8297361488
 20
9.5299624445
 30
0.0
 10
3.829818477
 20
9.5302346901
 30
0.0
  0
SPLINE
  5
344
100
AcDbEntity
  8
0
100
AcDbSpline
 62
9
  6
CONTINUOUS
 70
0
 71
3
 72
15
 73
11
 74
0
 42
0.0000001
 43
0.0000001
 44
0.0000000001
 40
0.0
 40
0.0
 40
0.0
 40
0.0
 40
0.1063650046
 40
0.2184010488
 40
0.3365712131
 40
0.4607487968
 40
0.590317618
 40
0.7242540367
 40
0.8613887863
 40
1.0
 40
1.0
 40
1.0
 40
1.0
 10
3.829818477
 20
9.5302346901
 30
0.0
 10
3.8303621244
 20
9.5292095788
 30
0.0
 10
3.8316867432
 20
9.5272102726
 30
0.0
 10
3.8342219899
 20
9.5245332143
 30
0.0
 10
3.8372925834
 20
9.5221610167
 30
0.0
 10
3.8408276932
 20
9.5201457638
 30
0.0
 10
3.8447476753
 20
9.5185303699
 30
0.0
 10
3.8489657738
 20
9.5173493644
 30
0.0
 10
3.8533856111
 20
9.5166313228
 30
0.0
 10
3.8563962277
 20
9.5164699397
 30
0.0
 10
3.8579083523
 20
9.5164699397
 30
0.0
  0
SPLINE
  5
345
100
AcDbEntity
  8
0
100
AcDbSpline
 62
9
  6
CONTINUOUS
 70
0
 71
3
 72
9
 73
5
 74
0
 42
0.0000001
 43
0.0000001
 44
0.0000000001
 40
0.0
 40
0.0
 40
0.0
 40
0.0
 40
0.4954457948
 40
1.0
 40
1.0
 40
1.0
 40
1.0
 10
3.691068477
 20
9.9151315961
 30
0.0
 10
3.6908959858
 20
9.9139106919
 30
0.0
 10
3.6907253079
 20
9.9114184916
 30
0.0
 10
3.6908990403
 20
9.9089273564
 30
0.0
 10
3.691068477
 20
9.9076831431
 30
0.0
  0
SPLINE
  5
346
100
AcDbEntity
  8
0
100
AcDbSpline
 62
9
  6
CONTINUOUS
 70
0
 71
3
 72
11
 73
7
 74
0
 42
0.0000001
 43
0.0000001
 44
0.0000000001
 40
0.0
 40
0.0
 40
0.0
 40
0.0
 40
0.2337615973
 40
0.4744195616
 40
0.728133547
 40
1.0
 40
1.0
 40
1.0
 40
1.0
 10
18.4035681996
 20
9.8971494398
 30
0.0
 10
18.4036540657
 20
9.8973784163
 30
0.0
 10
18.4037846622
 20
9.8978607408
 30
0.0
 10
18.4038469711
 20
9.898623686
 30
0.0
 10
18.4037779318
 20
9.8994255681
 30
0.0
 10
18.4036505244
 20
9.8999624556
 30
0.0
 10
18.4035681996
 20
9.9002346901
 30
0.0
  0
SPLINE
  5
347
100
AcDbEntity
  8
0
100
AcDbSpline
 62
9
  6
CONTINUOUS
 70
0
 71
3
 72
9
 73
5
 74
0
 42
0.0000001
 43
0.0000001
 44
0.0000000001
 40
0.0
 40
0.0
 40
0.0
 40
0.0
 40
0.5045542052
 40
1.0
 40
1.0
 40
1.0
 40
1.0
 10
18.2648181996
 20
9.754424125
 30
0.0
 10
18.2649876363
 20
9.7531799117
 30
0.0
 10
18.2651613687
 20
9.7506887765
 30
0.0
 10
18.2649906907
 20
9.7481965762
 30
0.0
 10
18.2648181996
 20
9.746975672
 30
0.0
  0
SPLINE
  5
348
100
AcDbEntity
  8
0
100
AcDbSpline
 62
9
  6
CONTINUOUS
 70
0
 71
3
 72
15
 73
11
 74
0
 42
0.0000001
 43
0.0000001
 44
0.0000000001
 40
0.0
 40
0.0
 40
0.0
 40
0.0
 40
0.1063650046
 40
0.2184010488
 40
0.3365712131
 40
0.4607487968
 40
0.590317618
 40
0.7242540367
 40
0.8613887863
 40
1.0
 40
1.0
 40
1.0
 40
1.0
 10
18.2648181996
 20
9.746975672
 30
0.0
 10
18.2642745522
 20
9.7459505607
 30
0.0
 10
18.2629499333
 20
9.7439512545
 30
0.0
 10
18.2604146866
 20
9.7412741963
 30
0.0
 10
18.2573440931
 20
9.7389019986
 30
0.0
 10
18.2538089834
 20
9.7368867457
 30
0.0
 10
18.2498890013
 20
9.7352713518
 30
0.0
 10
18.2456709027
 20
9.7340903463
 30
0.0
 10
18.2412510655
 20
9.7333723047
 30
0.0
 10
18.2382404488
 20
9.7332109216
 30
0.0
 10
18.2367283242
 20
9.7332109216
 30
0.0
  0
SPLINE
  5
349
100
AcDbEntity
  8
0
100
AcDbSpline
 62
9
  6
CONTINUOUS
 70
0
 71
3
 72
14
 73
10
 74
0
 42
0.0000001
 43
0.0000001
 44
0.0000000001
 40
0.0
 40
0.0
 40
0.0
 40
0.0
 40
0.138542227
 40
0.2756665943
 40
0.5387886954
 40
0.6630557163
 40
0.7813260762
 40
0.8935529431
 40
1.0
 40
1.0
 40
1.0
 40
1.0
 10
18.2367283242
 20
9.5164699397
 30
0.0
 10
18.2382389892
 20
9.5164699397
 30
0.0
 10
18.2412481119
 20
9.5166312958
 30
0.0
 10
18.2470536036
 20
9.5175733189
 30
0.0
 10
18.252534855
 20
9.5194214486
 30
0.0
 10
18.2573380002
 20
9.5221567976
 30
0.0
 10
18.2604116765
 20
9.5245297495
 30
0.0
 10
18.2629478212
 20
9.52720901
 30
0.0
 10
18.2642743873
 20
9.5292092679
 30
0.0
 10
18.2648181996
 20
9.5302346901
 30
0.0
  0
SPLINE
  5
34A
100
AcDbEntity
  8
0
100
AcDbSpline
 62
9
  6
CONTINUOUS
 70
0
 71
3
 72
11
 73
7
 74
0
 42
0.0000001
 43
0.0000001
 44
0.0000000001
 40
0.0
 40
0.0
 40
0.0
 40
0.0
 40
0.2718775796
 40
0.525603703
 40
0.7662474692
 40
1.0
 40
1.0
 40
1.0
 40
1.0
 10
18.2648181996
 20
9.5302346901
 30
0.0
 10
18.2649005278
 20
9.5299624445
 30
0.0
 10
18.2650279334
 20
9.529425531
 30
0.0
 10
18.2650969693
 20
9.5286236397
 30
0.0
 10
18.2650346649
 20
9.527860705
 30
0.0
 10
18.2649040624
 20
9.5273784074
 30
0.0
 10
18.2648181996
 20
9.5271494398
 30
0.0
  0
SPLINE
  5
34B
100
AcDbEntity
  8
0
100
AcDbSpline
 62
9
  6
CONTINUOUS
 70
0
 71
3
 72
14
 73
10
 74
0
 42
0.0000001
 43
0.0000001
 44
0.0000000001
 40
0.0
 40
0.0
 40
0.0
 40
0.0
 40
0.138542227
 40
0.2756665943
 40
0.5387886954
 40
0.6630557163
 40
0.7813260762
 40
0.8935529431
 40
1.0
 40
1.0
 40
1.0
 40
1.0
 10
18.2367283242
 20
10.0821553646
 30
0.0
 10
18.2382389892
 20
10.0821553646
 30
0.0
 10
18.2412481119
 20
10.0819940085
 30
0.0
 10
18.2470536036
 20
10.0810519854
 30
0.0
 10
18.252534855
 20
10.0792038557
 30
0.0
 10
18.2573380002
 20
10.0764685067
 30
0.0
 10
18.2604116765
 20
10.0740955547
 30
0.0
 10
18.2629478212
 20
10.0714162943
 30
0.0
 10
18.2642743873
 20
10.0694160364
 30
0.0
 10
18.2648181996
 20
10.0683906142
 30
0.0
  0
SPLINE
  5
34C
100
AcDbEntity
  8
0
100
AcDbSpline
 62
9
  6
CONTINUOUS
 70
0
 71
3
 72
9
 73
5
 74
0
 42
0.0000001
 43
0.0000001
 44
0.0000000001
 40
0.0
 40
0.0
 40
0.0
 40
0.0
 40
0.495445792
 40
1.0
 40
1.0
 40
1.0
 40
1.0
 10
18.2648181996
 20
10.0683906142
 30
0.0
 10
18.2649906907
 20
10.06716971
 30
0.0
 10
18.2651613687
 20
10.0646775097
 30
0.0
 10
18.2649876363
 20
10.0621863745
 30
0.0
 10
18.2648181996
 20
10.0609421612
 30
0.0
  0
SPLINE
  5
34D
100
AcDbEntity
  8
0
100
AcDbSpline
 62
9
  6
CONTINUOUS
 70
0
 71
3
 72
11
 73
7
 74
0
 42
0.0000001
 43
0.0000001
 44
0.0000000001
 40
0.0
 40
0.0
 40
0.0
 40
0.0
 40
0.2718775796
 40
0.525603703
 40
0.7662474692
 40
1.0
 40
1.0
 40
1.0
 40
1.0
 10
18.4035681996
 20
9.9151315961
 30
0.0
 10
18.4036505278
 20
9.9154038417
 30
0.0
 10
18.4037779334
 20
9.9159407552
 30
0.0
 10
18.4038469693
 20
9.9167426465
 30
0.0
 10
18.4037846649
 20
9.9175055812
 30
0.0
 10
18.4036540624
 20
9.9179878788
 30
0.0
 10
18.4035681996
 20
9.9182168463
 30
0.0
  0
SPLINE
  5
34E
100
AcDbEntity
  8
0
100
AcDbSpline
 62
9
  6
CONTINUOUS
 70
0
 71
3
 72
9
 73
5
 74
0
 42
0.0000001
 43
0.0000001
 44
0.0000000001
 40
0.0
 40
0.0
 40
0.0
 40
0.0
 40
0.5045781686
 40
1.0
 40
1.0
 40
1.0
 40
1.0
 10
18.4035681996
 20
9.9076831431
 30
0.0
 10
18.4037376443
 20
9.9089274155
 30
0.0
 10
18.4039113698
 20
9.9114185524
 30
0.0
 10
18.4037406824
 20
9.9139107509
 30
0.0
 10
18.4035681996
 20
9.9151315961
 30
0.0
  0
SPLINE
  5
34F
100
AcDbEntity
  8
0
100
AcDbSpline
 62
9
  6
CONTINUOUS
 70
0
 71
3
 72
11
 73
7
 74
0
 42
0.0000001
 43
0.0000001
 44
0.0000000001
 40
0.0
 40
0.0
 40
0.0
 40
0.0
 40
0.2337525308
 40
0.474396297
 40
0.7281224204
 40
1.0
 40
1.0
 40
1.0
 40
1.0
 10
18.2648181996
 20
10.2882168463
 30
0.0
 10
18.2649040624
 20
10.2879878788
 30
0.0
 10
18.2650346649
 20
10.2875055812
 30
0.0
 10
18.2650969693
 20
10.2867426465
 30
0.0
 10
18.2650279334
 20
10.2859407552
 30
0.0
 10
18.2649005278
 20
10.2854038417
 30
0.0
 10
18.2648181996
 20
10.2851315961
 30
0.0
  0
SPLINE
  5
350
100
AcDbEntity
  8
0
100
AcDbSpline
 62
9
  6
CONTINUOUS
 70
0
 71
3
 72
15
 73
11
 74
0
 42
0.0000001
 43
0.0000001
 44
0.0000000001
 40
0.0
 40
0.0
 40
0.0
 40
0.0
 40
0.1063650046
 40
0.2184010488
 40
0.3365712131
 40
0.4607487968
 40
0.590317618
 40
0.7242540367
 40
0.8613887863
 40
1.0
 40
1.0
 40
1.0
 40
1.0
 10
18.2648181996
 20
10.2851315961
 30
0.0
 10
18.2642745522
 20
10.2861567074
 30
0.0
 10
18.2629499333
 20
10.2881560136
 30
0.0
 10
18.2604146866
 20
10.2908330718
 30
0.0
 10
18.2573440931
 20
10.2932052695
 30
0.0
 10
18.2538089834
 20
10.2952205224
 30
0.0
 10
18.2498890013
 20
10.2968359163
 30
0.0
 10
18.2456709027
 20
10.2980169218
 30
0.0
 10
18.2412510655
 20
10.2987349634
 30
0.0
 10
18.2382404488
 20
10.2988963465
 30
0.0
 10
18.2367283242
 20
10.2988963465
 30
0.0
  0
SPLINE
  5
351
100
AcDbEntity
  8
0
100
AcDbSpline
 62
9
  6
CONTINUOUS
 70
0
 71
3
 72
9
 73
5
 74
0
 42
0.0000001
 43
0.0000001
 44
0.0000000001
 40
0.0
 40
0.0
 40
0.0
 40
0.0
 40
0.4954457948
 40
1.0
 40
1.0
 40
1.0
 40
1.0
 10
18.4035681996
 20
9.9002346901
 30
0.0
 10
18.4037406907
 20
9.9014555943
 30
0.0
 10
18.4039113687
 20
9.9039477946
 30
0.0
 10
18.4037376363
 20
9.9064389298
 30
0.0
 10
18.4035681996
 20
9.9076831431
 30
0.0
  0
LINE
  5
352
100
AcDbEntity
  8
0
100
AcDbLine
 62
7
  6
CONTINUOUS
 10
8.0603183383
 20
10.4925389658
 11
7.6228283185
 21
10.2399539851
  0
LINE
  5
353
100
AcDbEntity
  8
0
100
AcDbLine
 62
7
  6
CONTINUOUS
 10
8.0603183383
 20
9.3228273204
 11
7.6228283185
 21
9.5754123011
  0
LINE
  5
354
100
AcDbEntity
  8
0
100
AcDbLine
 62
7
  6
CONTINUOUS
 10
7.0473183383
 20
8.7379714977
 11
7.0473183383
 21
9.2431414591
  0
LINE
  5
355
100
AcDbEntity
  8
0
100
AcDbLine
 62
7
  6
CONTINUOUS
 10
6.0343183383
 20
9.3228273204
 11
6.4718083581
 21
9.5754123011
  0
LINE
  5
356
100
AcDbEntity
  8
0
100
AcDbLine
 62
7
  6
CONTINUOUS
 10
6.0343183383
 20
10.4925389658
 11
6.4718083581
 21
10.2399539851
  0
LINE
  5
357
100
AcDbEntity
  8
0
100
AcDbLine
 62
7
  6
CONTINUOUS
 10
7.0473183383
 20
11.0773947885
 11
7.0473183383
 21
10.5722248271
  0
LINE
  5
358
100
AcDbEntity
  8
0
100
AcDbLine
 62
7
  6
CONTINUOUS
 10
16.0603183383
 20
10.4925389658
 11
15.6228283185
 21
10.2399539851
  0
LINE
  5
359
100
AcDbEntity
  8
0
100
AcDbLine
 62
7
  6
CONTINUOUS
 10
16.0603183383
 20
9.3228273204
 11
15.6228283185
 21
9.5754123011
  0
LINE
  5
35A
100
AcDbEntity
  8
0
100
AcDbLine
 62
7
  6
CONTINUOUS
 10
15.0473183383
 20
8.7379714977
 11
15.0473183383
 21
9.2431414591
  0
LINE
  5
35B
100
AcDbEntity
  8
0
100
AcDbLine
 62
7
  6
CONTINUOUS
 10
14.0343183383
 20
9.3228273204
 11
14.4718083581
 21
9.5754123011
  0
LINE
  5
35C
100
AcDbEntity
  8
0
100
AcDbLine
 62
7
  6
CONTINUOUS
 10
14.0343183383
 20
10.4925389658
 11
14.4718083581
 21
10.2399539851
  0
LINE
  5
35D
100
AcDbEntity
  8
0
100
AcDbLine
 62
7
  6
CONTINUOUS
 10
15.0473183383
 20
11.0773947885
 11
15.0473183383
 21
10.5722248271
  0
SPLINE
  5
35E
100
AcDbEntity
  8
0
100
AcDbSpline
 62
7
  6
CONTINUOUS
 70
0
 71
3
 72
15
 73
11
 74
0
 42
0.0000001
 43
0.0000001
 44
0.0000000001
 40
0.0
 40
0.0
 40
0.0
 40
0.0
 40
0.1245945846
 40
0.2492727263
 40
0.374047977
 40
0.498945752
 40
0.6239808501
 40
0.7491618017
 40
0.8744984009
 40
1.0
 40
1.0
 40
1.0
 40
1.0
 10
11.676688317
 20
8.5709032249
 30
0.0
 10
11.6765317845
 20
8.6029607245
 30
0.0
 10
11.6772203451
 20
8.6671070238
 30
0.0
 10
11.681370475
 20
8.7632757731
 30
0.0
 10
11.6887512902
 20
8.8593313561
 30
0.0
 10
11.6994847254
 20
8.9551633532
 30
0.0
 10
11.7135783357
 20
9.0506644288
 30
0.0
 10
11.7310196712
 20
9.1457265186
 30
0.0
 10
11.7518147727
 20
9.2402332729
 30
0.0
 10
11.7678444751
 20
9.3027659101
 30
0.0
 10
11.7763799923
 20
9.3339086468
 30
0.0
  0
SPLINE
  5
35F
100
AcDbEntity
  8
0
100
AcDbSpline
 62
7
  6
CONTINUOUS
 70
0
 71
3
 72
22
 73
18
 74
0
 42
0.0000001
 43
0.0000001
 44
0.0000000001
 40
0.0
 40
0.0
 40
0.0
 40
0.0
 40
0.1439395455
 40
0.2906205413
 40
0.3648126291
 40
0.4390408701
 40
0.5127841812
 40
0.5855236568
 40
0.6563047713
 40
0.7236333445
 40
0.7553880279
 40
0.7855430923
 40
0.8408686409
 40
0.8896806417
 40
0.9324605965
 40
0.9694587028
 40
1.0
 40
1.0
 40
1.0
 40
1.0
 10
10.4888256726
 20
5.4748218783
 30
0.0
 10
10.4885723206
 20
5.4230641949
 30
0.0
 10
10.4881577155
 20
5.3185626575
 30
0.0
 10
10.4870355693
 20
5.187385662
 30
0.0
 10
10.485462902
 20
5.0812834098
 30
0.0
 10
10.4839879102
 20
5.0014104953
 30
0.0
 10
10.4823089059
 20
4.9220641025
 30
0.0
 10
10.4804530747
 20
4.8439615115
 30
0.0
 10
10.4784386771
 20
4.7681702625
 30
0.0
 10
10.4766219314
 20
4.7071167094
 30
0.0
 10
10.4751127861
 20
4.6606692117
 30
0.0
 10
10.4736647667
 20
4.6185381734
 30
0.0
 10
10.4719135934
 20
4.5702804958
 30
0.0
 10
10.4700021439
 20
4.5174859594
 30
0.0
 10
10.4684876689
 20
4.4712716708
 30
0.0
 10
10.4674565542
 20
4.43161567
 30
0.0
 10
10.4670471041
 20
4.4073325167
 30
0.0
 10
10.4669326757
 20
4.3963509625
 30
0.0
  0
SPLINE
  5
360
100
AcDbEntity
  8
0
100
AcDbSpline
 62
7
  6
CONTINUOUS
 70
0
 71
3
 72
19
 73
15
 74
0
 42
0.0000001
 43
0.0000001
 44
0.0000000001
 40
0.0
 40
0.0
 40
0.0
 40
0.0
 40
0.1244859994
 40
0.1869131305
 40
0.2494230134
 40
0.3120034618
 40
0.3746471161
 40
0.5
 40
0.6253528838
 40
0.6879965382
 40
0.7505769866
 40
0.8130868695
 40
0.8755140006
 40
1.0
 40
1.0
 40
1.0
 40
1.0
 10
10.757068338
 20
3.8922852767
 30
0.0
 10
10.7790293449
 20
3.8800381118
 30
0.0
 10
10.8132386673
 20
3.8637481598
 30
0.0
 10
10.8605932945
 20
3.8464838911
 30
0.0
 10
10.8969539667
 20
3.8357769793
 30
0.0
 10
10.9339624175
 20
3.8273894394
 30
0.0
 10
10.9839701905
 20
3.8193867903
 30
0.0
 10
11.0473183381
 20
3.815390226
 30
0.0
 10
11.1106664858
 20
3.8193867903
 30
0.0
 10
11.1606742588
 20
3.8273894393
 30
0.0
 10
11.1976827096
 20
3.8357769792
 30
0.0
 10
11.2340433818
 20
3.846483891
 30
0.0
 10
11.281398009
 20
3.8637481597
 30
0.0
 10
11.3156073314
 20
3.8800381117
 30
0.0
 10
11.3375683383
 20
3.8922852766
 30
0.0
  0
SPLINE
  5
361
100
AcDbEntity
  8
0
100
AcDbSpline
 62
7
  6
CONTINUOUS
 70
0
 71
3
 72
19
 73
15
 74
0
 42
0.0000001
 43
0.0000001
 44
0.0000000001
 40
0.0
 40
0.0
 40
0.0
 40
0.0
 40
0.126691649
 40
0.1898699891
 40
0.2529070632
 40
0.3158026905
 40
0.3785648735
 40
0.4412020345
 40
0.5037154138
 40
0.6282993055
 40
0.6904466898
 40
0.7524955823
 40
0.8763223931
 40
1.0
 40
1.0
 40
1.0
 40
1.0
 10
11.3375683383
 20
3.8922852533
 30
0.0
 10
11.3594452818
 20
3.9044855314
 30
0.0
 10
11.3911085326
 20
3.9249054053
 30
0.0
 10
11.430344213
 20
3.9559417294
 30
0.0
 10
11.4581298009
 20
3.9810040487
 30
0.0
 10
11.4841595412
 20
4.0077682321
 30
0.0
 10
11.5083011655
 20
4.0361443218
 30
0.0
 10
11.530455976
 20
4.0660056699
 30
0.0
 10
11.5571996323
 20
4.107544013
 30
0.0
 10
11.5797084244
 20
4.1515806734
 30
0.0
 10
11.5975517529
 20
4.1974504606
 30
0.0
 10
11.6121889682
 20
4.2442890175
 30
0.0
 10
11.6244994736
 20
4.3044358527
 30
0.0
 10
11.6278183412
 20
4.3534300513
 30
0.0
 10
11.6278183383
 20
4.3778830296
 30
0.0
  0
SPLINE
  5
362
100
AcDbEntity
  8
0
100
AcDbSpline
 62
7
  6
CONTINUOUS
 70
0
 71
3
 72
19
 73
15
 74
0
 42
0.0000001
 43
0.0000001
 44
0.0000000001
 40
0.0
 40
0.0
 40
0.0
 40
0.0
 40
0.1236776069
 40
0.2475044177
 40
0.3095533102
 40
0.3717006945
 40
0.4962845862
 40
0.5587979655
 40
0.6214351265
 40
0.6841973095
 40
0.7470929368
 40
0.8101300109
 40
0.873308351
 40
1.0
 40
1.0
 40
1.0
 40
1.0
 10
10.4668183383
 20
4.3778830331
 30
0.0
 10
10.4668183352
 20
4.3534300548
 30
0.0
 10
10.4701372026
 20
4.3044358558
 30
0.0
 10
10.4824477077
 20
4.2442890202
 30
0.0
 10
10.4970849228
 20
4.197450463
 30
0.0
 10
10.5149282512
 20
4.1515806754
 30
0.0
 10
10.5374370433
 20
4.1075440147
 30
0.0
 10
10.5641806996
 20
4.0660056713
 30
0.0
 10
10.5863355101
 20
4.036144323
 30
0.0
 10
10.6104771345
 20
4.007768233
 30
0.0
 10
10.6365068749
 20
3.9810040495
 30
0.0
 10
10.6642924628
 20
3.95594173
 30
0.0
 10
10.7035281434
 20
3.9249054057
 30
0.0
 10
10.7351913944
 20
3.9044855316
 30
0.0
 10
10.757068338
 20
3.8922852534
 30
0.0
  0
SPLINE
  5
363
100
AcDbEntity
  8
0
100
AcDbSpline
 62
7
  6
CONTINUOUS
 70
0
 71
3
 72
24
 73
20
 74
0
 42
0.0000001
 43
0.0000001
 44
0.0000000001
 40
0.0
 40
0.0
 40
0.0
 40
0.0
 40
0.0260164886
 40
0.0603267171
 40
0.1012558633
 40
0.1483310876
 40
0.1741255882
 40
0.2015846889
 40
0.2618758054
 40
0.3286165249
 40
0.3999007849
 40
0.4738987959
 40
0.549276803
 40
0.6252419841
 40
0.7013008372
 40
0.7770428558
 40
0.8521733462
 40
0.9264277007
 40
1.0
 40
1.0
 40
1.0
 40
1.0
 10
11.6278183228
 20
4.3784694966
 30
0.0
 10
11.6278178123
 20
4.3879798276
 30
0.0
 10
11.6277780015
 20
4.4100323271
 30
0.0
 10
11.6274642513
 20
4.4470454473
 30
0.0
 10
11.62672128
 20
4.4917520175
 30
0.0
 10
11.6255794296
 20
4.5333366319
 30
0.0
 10
11.6242434086
 20
4.5699876266
 30
0.0
 10
11.622589653
 20
4.6114609801
 30
0.0
 10
11.6202478531
 20
4.6678866215
 30
0.0
 10
11.6175485957
 20
4.7403311485
 30
0.0
 10
11.6150849548
 20
4.8177974662
 30
0.0
 10
11.6129894686
 20
4.8984329903
 30
0.0
 10
11.6111898074
 20
4.9807870101
 30
0.0
 10
11.6096682827
 20
5.0639001001
 30
0.0
 10
11.6084269078
 20
5.1471509156
 30
0.0
 10
11.6074644592
 20
5.230100262
 30
0.0
 10
11.606739571
 20
5.3123922923
 30
0.0
 10
11.6061819023
 20
5.3938924733
 30
0.0
 10
11.6059426032
 20
5.447930021
 30
0.0
 10
11.6058114358
 20
5.4748240656
 30
0.0
  0
SPLINE
  5
364
100
AcDbEntity
  8
0
100
AcDbSpline
 62
7
  6
CONTINUOUS
 70
0
 71
3
 72
10
 73
6
 74
0
 42
0.0000001
 43
0.0000001
 44
0.0000000001
 40
0.0
 40
0.0
 40
0.0
 40
0.0
 40
0.2503103083
 40
0.5003977326
 40
1.0
 40
1.0
 40
1.0
 40
1.0
 10
10.3972946748
 20
8.9336208835
 30
0.0
 10
10.4009618389
 20
8.9035107432
 30
0.0
 10
10.4072972032
 20
8.8431902366
 30
0.0
 10
10.4160070019
 20
8.7223095449
 30
0.0
 10
10.4182444207
 20
8.6314143979
 30
0.0
 10
10.4179482151
 20
8.5708732595
 30
0.0
  0
LINE
  5
365
100
AcDbEntity
  8
0
100
AcDbLine
 62
7
  6
CONTINUOUS
 10
10.1630331113
 20
9.7569815732
 11
10.1744975843
 21
9.7296145632
  0
LINE
  5
366
100
AcDbEntity
  8
0
100
AcDbLine
 62
7
  6
CONTINUOUS
 10
10.1744975843
 20
9.7296145632
 11
10.1756726992
 21
9.7268053756
  0
LINE
  5
367
100
AcDbEntity
  8
0
100
AcDbLine
 62
9
  6
CONTINUOUS
 10
10.1675254886
 20
9.7588717745
 11
10.1791260488
 21
9.7315020348
  0
LINE
  5
368
100
AcDbEntity
  8
0
100
AcDbLine
 62
9
  6
CONTINUOUS
 10
10.1791260488
 20
9.7315020348
 11
10.1803157607
 21
9.7286934019
  0
LINE
  5
369
100
AcDbEntity
  8
0
100
AcDbLine
 62
9
  6
CONTINUOUS
 10
10.1803157607
 20
9.7286934019
 11
10.1838831816
 21
9.7202696529
  0
LINE
  5
36A
100
AcDbEntity
  8
0
100
AcDbLine
 62
9
  6
CONTINUOUS
 10
10.168245218
 20
9.7685967779
 11
10.1702387171
 21
9.7640749275
  0
SPLINE
  5
36B
100
AcDbEntity
  8
0
100
AcDbSpline
 62
9
  6
CONTINUOUS
 70
0
 71
3
 72
13
 73
9
 74
0
 42
0.0000001
 43
0.0000001
 44
0.0000000001
 40
0.0
 40
0.0
 40
0.0
 40
0.0
 40
0.3420225303
 40
0.6164866676
 40
0.7301501538
 40
0.8299240264
 40
0.9184928113
 40
1.0
 40
1.0
 40
1.0
 40
1.0
 10
10.1702387171
 20
9.7640749275
 30
0.0
 10
10.1697402703
 20
9.7635836655
 30
0.0
 10
10.1688811652
 20
9.7626568802
 30
0.0
 10
10.1680242732
 20
9.7614204699
 30
0.0
 10
10.1676134616
 20
9.7605073312
 30
0.0
 10
10.1674492223
 20
9.7599082214
 30
0.0
 10
10.1674124578
 20
9.7593527493
 30
0.0
 10
10.1674798186
 20
9.7590059632
 30
0.0
 10
10.1675355014
 20
9.7588487527
 30
0.0
  0
SPLINE
  5
36C
100
AcDbEntity
  8
0
100
AcDbSpline
 62
7
  6
CONTINUOUS
 70
0
 71
3
 72
26
 73
22
 74
0
 42
0.0000001
 43
0.0000001
 44
0.0000000001
 40
0.0
 40
0.0
 40
0.0
 40
0.0
 40
0.080704111
 40
0.1206071128
 40
0.1602870351
 40
0.2386985744
 40
0.2771586318
 40
0.3149279805
 40
0.3519252877
 40
0.3880814468
 40
0.4233258922
 40
0.4576072312
 40
0.5235062369
 40
0.5864105406
 40
0.6468602099
 40
0.7049033487
 40
0.7604989595
 40
0.8135883452
 40
0.8640924834
 40
0.911943675
 40
1.0
 40
1.0
 40
1.0
 40
1.0
 10
10.5974364172
 20
8.6768249582
 30
0.0
 10
10.5919483429
 20
8.6753803537
 30
0.0
 10
10.5838060642
 20
8.6729819186
 30
0.0
 10
10.5731631657
 20
8.6692660006
 30
0.0
 10
10.5628081899
 20
8.6652341867
 30
0.0
 10
10.5527374424
 20
8.6607760259
 30
0.0
 10
10.5429062826
 20
8.6561292819
 30
0.0
 10
10.5357414557
 20
8.6526563825
 30
0.0
 10
10.5287491048
 20
8.6491999347
 30
0.0
 10
10.5219343859
 20
8.6457850832
 30
0.0
 10
10.5153008484
 20
8.6424350918
 30
0.0
 10
10.5068016427
 20
8.6381398692
 30
0.0
 10
10.4965938539
 20
8.6329128763
 30
0.0
 10
10.4849015808
 20
8.6265513493
 30
0.0
 10
10.473961863
 20
8.6199837169
 30
0.0
 10
10.4637423512
 20
8.6132372738
 30
0.0
 10
10.4542561461
 20
8.6063404007
 30
0.0
 10
10.4455172667
 20
8.5993385155
 30
0.0
 10
10.4375355833
 20
8.5922805311
 30
0.0
 10
10.4281669027
 20
8.5831098712
 30
0.0
 10
10.4218867253
 20
8.5758602171
 30
0.0
 10
10.4182001705
 20
8.5708852393
 30
0.0
  0
SPLINE
  5
36D
100
AcDbEntity
  8
0
100
AcDbSpline
 62
7
  6
CONTINUOUS
 70
0
 71
3
 72
11
 73
7
 74
0
 42
0.0000001
 43
0.0000001
 44
0.0000000001
 40
0.0
 40
0.0
 40
0.0
 40
0.0
 40
0.2620051195
 40
0.5161201599
 40
0.7621794192
 40
1.0
 40
1.0
 40
1.0
 40
1.0
 10
10.1025912911
 20
9.908507176
 30
0.0
 10
10.10783834
 20
9.9098396751
 30
0.0
 10
10.1181925987
 20
9.9123939633
 30
0.0
 10
10.1335445218
 20
9.9159086399
 30
0.0
 10
10.1484680759
 20
9.9190440643
 30
0.0
 10
10.1582912054
 20
9.9209108376
 30
0.0
 10
10.163129432
 20
9.9217698662
 30
0.0
  0
SPLINE
  5
36E
100
AcDbEntity
  8
0
100
AcDbSpline
 62
7
  6
CONTINUOUS
 70
0
 71
3
 72
29
 73
25
 74
0
 42
0.0000001
 43
0.0000001
 44
0.0000000001
 40
0.0
 40
0.0
 40
0.0
 40
0.0
 40
0.1085942528
 40
0.2187993277
 40
0.3306097838
 40
0.3871320812
 40
0.4440831527
 40
0.5014943827
 40
0.559426459
 40
0.6180030623
 40
0.6476142119
 40
0.6775173089
 40
0.7078239646
 40
0.7387417521
 40
0.7707061144
 40
0.8048180212
 40
0.823645758
 40
0.8450214972
 40
0.8713822535
 40
0.9022368218
 40
0.9305714212
 40
0.9555549713
 40
0.9784737555
 40
1.0
 40
1.0
 40
1.0
 40
1.0
 10
10.1631472976
 20
9.9217704514
 30
0.0
 10
10.1608841094
 20
9.9213685374
 30
0.0
 10
10.1563330507
 20
9.9205074023
 30
0.0
 10
10.1494921563
 20
9.9190290443
 30
0.0
 10
10.1437714059
 20
9.9175967583
 30
0.0
 10
10.1391844265
 20
9.9162919961
 30
0.0
 10
10.1357310039
 20
9.9152147368
 30
0.0
 10
10.1322834785
 20
9.9140231527
 30
0.0
 10
10.1288513339
 20
9.912689009
 30
0.0
 10
10.1260254662
 20
9.9114268896
 30
0.0
 10
10.1237981527
 20
9.9102911427
 30
0.0
 10
10.1221419341
 20
9.9093560789
 30
0.0
 10
10.120514246
 20
9.9083190413
 30
0.0
 10
10.1189271259
 20
9.9071437842
 30
0.0
 10
10.1174012948
 20
9.9057647962
 30
0.0
 10
10.1162521949
 20
9.9043658334
 30
0.0
 10
10.1154964425
 20
9.9029797595
 30
0.0
 10
10.1150569707
 20
9.9016290725
 30
0.0
 10
10.1149968486
 20
9.899935894
 30
0.0
 10
10.1155742655
 20
9.8981807092
 30
0.0
 10
10.1165761093
 20
9.8966920179
 30
0.0
 10
10.1176893275
 20
9.8955180977
 30
0.0
 10
10.1188072645
 20
9.8945609238
 30
0.0
 10
10.1195738305
 20
9.8940141244
 30
0.0
 10
10.1199504228
 20
9.8937576314
 30
0.0
  0
SPLINE
  5
36F
100
AcDbEntity
  8
0
100
AcDbSpline
 62
9
  6
CONTINUOUS
 70
0
 71
3
 72
9
 73
5
 74
0
 42
0.0000001
 43
0.0000001
 44
0.0000000001
 40
0.0
 40
0.0
 40
0.0
 40
0.0
 40
0.4876147378
 40
1.0
 40
1.0
 40
1.0
 40
1.0
 10
10.6857198289
 20
9.374219316
 30
0.0
 10
10.664538104
 20
9.3946234051
 30
0.0
 10
10.6201915367
 20
9.4355328958
 30
0.0
 10
10.5743396339
 20
9.474740555
 30
0.0
 10
10.5505217323
 20
9.4944335539
 30
0.0
  0
SPLINE
  5
370
100
AcDbEntity
  8
0
100
AcDbSpline
 62
9
  6
CONTINUOUS
 70
0
 71
3
 72
11
 73
7
 74
0
 42
0.0000001
 43
0.0000001
 44
0.0000000001
 40
0.0
 40
0.0
 40
0.0
 40
0.0
 40
0.2336385184
 40
0.4783245607
 40
0.7338562104
 40
1.0
 40
1.0
 40
1.0
 40
1.0
 10
10.5505217323
 20
9.4944335539
 30
0.0
 10
10.5242553669
 20
9.5161509795
 30
0.0
 10
10.4696648635
 20
9.5596329544
 30
0.0
 10
10.3838143497
 20
9.6236085615
 30
0.0
 10
10.2922459455
 20
9.6877641448
 30
0.0
 10
10.2287655766
 20
9.729749488
 30
0.0
 10
10.1961267078
 20
9.7507724706
 30
0.0
  0
LINE
  5
371
100
AcDbEntity
  8
0
100
AcDbLine
 62
9
  6
CONTINUOUS
 10
10.1961267078
 20
9.7507724706
 11
10.1939370036
 21
9.7521820378
  0
LINE
  5
372
100
AcDbEntity
  8
0
100
AcDbLine
 62
9
  6
CONTINUOUS
 10
10.1724313778
 20
9.7659375478
 11
10.1682452181
 21
9.7685967779
  0
SPLINE
  5
373
100
AcDbEntity
  8
0
100
AcDbSpline
 62
9
  6
CONTINUOUS
 70
0
 71
3
 72
12
 73
8
 74
0
 42
0.0000001
 43
0.0000001
 44
0.0000000001
 40
0.0
 40
0.0
 40
0.0
 40
0.0
 40
0.234256966
 40
0.4814313252
 40
0.6092142554
 40
0.7389401041
 40
1.0
 40
1.0
 40
1.0
 40
1.0
 10
10.6921003356
 20
9.3950244866
 30
0.0
 10
10.6931162741
 20
9.3935367339
 30
0.0
 10
10.6956120646
 20
9.3907454163
 30
0.0
 10
10.6994889181
 20
9.3880395233
 30
0.0
 10
10.7030130512
 20
9.3863954657
 30
0.0
 10
10.706790976
 20
9.3851020437
 30
0.0
 10
10.7097723616
 20
9.384557788
 30
0.0
 10
10.711772952
 20
9.3843894032
 30
0.0
  0
SPLINE
  5
374
100
AcDbEntity
  8
0
100
AcDbSpline
 62
9
  6
CONTINUOUS
 70
0
 71
3
 72
10
 73
6
 74
0
 42
0.0000001
 43
0.0000001
 44
0.0000000001
 40
0.0
 40
0.0
 40
0.0
 40
0.0
 40
0.2629176473
 40
0.5210000549
 40
1.0
 40
1.0
 40
1.0
 40
1.0
 10
10.7241988188
 20
9.3458588792
 30
0.0
 10
10.7223078409
 20
9.346053747
 30
0.0
 10
10.7185841087
 20
9.346783652
 30
0.0
 10
10.7118388459
 20
9.3494525523
 30
0.0
 10
10.7075399832
 20
9.3529734941
 30
0.0
 10
10.7054633254
 20
9.3557451841
 30
0.0
  0
SPLINE
  5
375
100
AcDbEntity
  8
0
100
AcDbSpline
 62
9
  6
CONTINUOUS
 70
0
 71
3
 72
11
 73
7
 74
0
 42
0.0000001
 43
0.0000001
 44
0.0000000001
 40
0.0
 40
0.0
 40
0.0
 40
0.0
 40
0.2634489646
 40
0.5178954131
 40
0.7631090152
 40
1.0
 40
1.0
 40
1.0
 40
1.0
 10
10.7245155258
 20
9.3446951029
 30
0.0
 10
10.7226245137
 20
9.344893415
 30
0.0
 10
10.7189332684
 20
9.3456270162
 30
0.0
 10
10.7137980278
 20
9.347707225
 30
0.0
 10
10.7093300667
 20
9.3506531495
 30
0.0
 10
10.7068845733
 20
9.3531804293
 30
0.0
 10
10.7058571759
 20
9.3545470125
 30
0.0
  0
SPLINE
  5
376
100
AcDbEntity
  8
0
100
AcDbSpline
 62
9
  6
CONTINUOUS
 70
0
 71
3
 72
24
 73
20
 74
0
 42
0.0000001
 43
0.0000001
 44
0.0000000001
 40
0.0
 40
0.0
 40
0.0
 40
0.0
 40
0.0390425471
 40
0.0592564824
 40
0.0804687297
 40
0.1031023287
 40
0.1275356916
 40
0.1540503373
 40
0.182554187
 40
0.2128326109
 40
0.2445569252
 40
0.2773735424
 40
0.3109591965
 40
0.3794386588
 40
0.448839803
 40
0.5878874706
 40
0.7263381029
 40
0.8637627147
 40
1.0
 40
1.0
 40
1.0
 40
1.0
 10
11.3701211436
 20
9.344695065
 30
0.0
 10
11.3679300285
 20
9.336565135
 30
0.0
 10
11.3648779619
 20
9.3241469169
 30
0.0
 10
11.3615441377
 20
9.3071132021
 30
0.0
 10
11.3593500221
 20
9.293470521
 30
0.0
 10
11.3575051846
 20
9.2788582572
 30
0.0
 10
11.3560956467
 20
9.2630484206
 30
0.0
 10
11.355205499
 20
9.2459331947
 30
0.0
 10
11.3548624543
 20
9.2275378247
 30
0.0
 10
11.3551086233
 20
9.2080177383
 30
0.0
 10
11.3559054439
 20
9.1875822136
 30
0.0
 10
11.3572188466
 20
9.1664592249
 30
0.0
 10
11.3595505425
 20
9.1374627108
 30
0.0
 10
11.3632919521
 20
9.1006698786
 30
0.0
 10
11.3703794589
 20
9.041367413
 30
0.0
 10
11.3802002819
 20
8.967201463
 30
0.0
 10
11.3921487272
 20
8.8785142307
 30
0.0
 10
11.4025675206
 20
8.7902604851
 30
0.0
 10
11.4071197136
 20
8.7313392719
 30
0.0
 10
11.4076298073
 20
8.7019624009
 30
0.0
  0
SPLINE
  5
377
100
AcDbEntity
  8
0
100
AcDbSpline
 62
7
  6
CONTINUOUS
 70
0
 71
3
 72
13
 73
9
 74
0
 42
0.0000001
 43
0.0000001
 44
0.0000000001
 40
0.0
 40
0.0
 40
0.0
 40
0.0
 40
0.2490189926
 40
0.3743986793
 40
0.4999999106
 40
0.6256011614
 40
0.7509809112
 40
1.0
 40
1.0
 40
1.0
 40
1.0
 10
11.4076288915
 20
8.7019624276
 30
0.0
 10
11.3478593211
 20
8.7047596701
 30
0.0
 10
11.2579349305
 20
8.7077416962
 30
0.0
 10
11.137808
 20
8.7096798169
 30
0.0
 10
11.0473211655
 20
8.7101689686
 30
0.0
 10
10.9568343141
 20
8.7096800322
 30
0.0
 10
10.8367073435
 20
8.707741205
 30
0.0
 10
10.7467829633
 20
8.704758578
 30
0.0
 10
10.6870133037
 20
8.7019627475
 30
0.0
  0
SPLINE
  5
378
100
AcDbEntity
  8
0
100
AcDbSpline
 62
9
  6
CONTINUOUS
 70
0
 71
3
 72
24
 73
20
 74
0
 42
0.0000001
 43
0.0000001
 44
0.0000000001
 40
0.0
 40
0.0
 40
0.0
 40
0.0
 40
0.1362294822
 40
0.273646106
 40
0.4120885738
 40
0.5511277224
 40
0.6205219867
 40
0.6890039808
 40
0.7225976302
 40
0.7554234176
 40
0.7871548635
 40
0.8174397422
 40
0.8459505777
 40
0.8724700893
 40
0.8969040262
 40
0.9195360706
 40
0.9407469897
 40
0.9609598237
 40
1.0
 40
1.0
 40
1.0
 40
1.0
 10
10.6870061767
 20
8.7019625302
 30
0.0
 10
10.6875161893
 20
8.7313377303
 30
0.0
 10
10.6920680255
 20
8.790255573
 30
0.0
 10
10.7024860554
 20
8.8785042393
 30
0.0
 10
10.7144333547
 20
8.9671862874
 30
0.0
 10
10.7242547805
 20
9.0413470679
 30
0.0
 10
10.7313400076
 20
9.1006470424
 30
0.0
 10
10.7350819761
 20
9.1374405854
 30
0.0
 10
10.737417748
 20
9.1664410354
 30
0.0
 10
10.7387335116
 20
9.1875691539
 30
0.0
 10
10.7395291095
 20
9.2080096698
 30
0.0
 10
10.7397734107
 20
9.2275342078
 30
0.0
 10
10.7394311909
 20
9.2459335222
 30
0.0
 10
10.7385423174
 20
9.2630515218
 30
0.0
 10
10.7371317037
 20
9.2788621371
 30
0.0
 10
10.7352852196
 20
9.2934736881
 30
0.0
 10
10.7330910816
 20
9.3071154837
 30
0.0
 10
10.7297580393
 20
9.3241483073
 30
0.0
 10
10.7267058535
 20
9.3365657383
 30
0.0
 10
10.724514884
 20
9.3446951813
 30
0.0
  0
SPLINE
  5
379
100
AcDbEntity
  8
0
100
AcDbSpline
 62
9
  6
CONTINUOUS
 70
0
 71
3
 72
15
 73
11
 74
0
 42
0.0000001
 43
0.0000001
 44
0.0000000001
 40
0.0
 40
0.0
 40
0.0
 40
0.0
 40
0.1256020017
 40
0.2506906998
 40
0.3754331345
 40
0.4999999997
 40
0.6245668649
 40
0.7493092997
 40
0.874397998
 40
1.0
 40
1.0
 40
1.0
 40
1.0
 10
10.7241986809
 20
9.3458493184
 30
0.0
 10
10.7507015822
 20
9.339173052
 30
0.0
 10
10.8040194043
 20
9.3274550862
 30
0.0
 10
10.8847831505
 20
9.3148402037
 30
0.0
 10
10.9659504069
 20
9.3072514621
 30
0.0
 10
11.0473183612
 20
9.3047139685
 30
0.0
 10
11.1286863154
 20
9.3072514649
 30
0.0
 10
11.2098535715
 20
9.3148402093
 30
0.0
 10
11.2906173175
 20
9.3274550945
 30
0.0
 10
11.3439351392
 20
9.3391730622
 30
0.0
 10
11.3704380404
 20
9.3458493295
 30
0.0
  0
SPLINE
  5
37A
100
AcDbEntity
  8
0
100
AcDbSpline
 62
9
  6
CONTINUOUS
 70
0
 71
3
 72
11
 73
7
 74
0
 42
0.0000001
 43
0.0000001
 44
0.0000000001
 40
0.0
 40
0.0
 40
0.0
 40
0.0
 40
0.2634790623
 40
0.5179350947
 40
0.7631352414
 40
1.0
 40
1.0
 40
1.0
 40
1.0
 10
11.3704360158
 20
9.3458586961
 30
0.0
 10
11.3723359956
 20
9.3460543804
 30
0.0
 10
11.376045175
 20
9.3467859583
 30
0.0
 10
11.3812049908
 20
9.3488721588
 30
0.0
 10
11.3856923648
 20
9.3518319084
 30
0.0
 10
11.3881458034
 20
9.3543732899
 30
0.0
 10
11.3891752003
 20
9.3557476119
 30
0.0
  0
SPLINE
  5
37B
100
AcDbEntity
  8
0
100
AcDbSpline
 62
9
  6
CONTINUOUS
 70
0
 71
3
 72
10
 73
6
 74
0
 42
0.0000001
 43
0.0000001
 44
0.0000000001
 40
0.0
 40
0.0
 40
0.0
 40
0.0
 40
0.2618654312
 40
0.5195952594
 40
1.0
 40
1.0
 40
1.0
 40
1.0
 10
11.3701211345
 20
9.3446950311
 30
0.0
 10
11.3719962869
 20
9.3448916785
 30
0.0
 10
11.3756932847
 20
9.3456201476
 30
0.0
 10
11.3824100676
 20
9.348277067
 30
0.0
 10
11.3867009395
 20
9.3517821614
 30
0.0
 10
11.3887794838
 20
9.3545469029
 30
0.0
  0
SPLINE
  5
37C
100
AcDbEntity
  8
0
100
AcDbSpline
 62
7
  6
CONTINUOUS
 70
0
 71
3
 72
13
 73
9
 74
0
 42
0.0000001
 43
0.0000001
 44
0.0000000001
 40
0.0
 40
0.0
 40
0.0
 40
0.0
 40
0.216943618
 40
0.3355646916
 40
0.4598096904
 40
0.5891244841
 40
0.7228993265
 40
1.0
 40
1.0
 40
1.0
 40
1.0
 10
11.4241356312
 20
8.6996379285
 30
0.0
 10
11.4229646955
 20
8.6999323102
 30
0.0
 10
11.4211453032
 20
8.7003577711
 30
0.0
 10
11.4186288119
 20
8.7008249882
 30
0.0
 10
11.4165803516
 20
8.7011340471
 30
0.0
 10
11.4144413039
 20
8.7014025753
 30
0.0
 10
11.4114522977
 20
8.7017247503
 30
0.0
 10
11.4091706813
 20
8.7018991516
 30
0.0
 10
11.4076298076
 20
8.7019623828
 30
0.0
  0
SPLINE
  5
37D
100
AcDbEntity
  8
0
100
AcDbSpline
 62
9
  6
CONTINUOUS
 70
0
 71
3
 72
33
 73
29
 74
0
 42
0.0000001
 43
0.0000001
 44
0.0000000001
 40
0.0
 40
0.0
 40
0.0
 40
0.0
 40
0.066388906
 40
0.1331420612
 40
0.1666517039
 40
0.2002508885
 40
0.2677206845
 40
0.3355484725
 40
0.4037267529
 40
0.472235634
 40
0.541014354
 40
0.609914838
 40
0.6785961356
 40
0.7126142634
 40
0.7461428699
 40
0.7788515857
 40
0.8103086221
 40
0.8400121272
 40
0.8676270388
 40
0.8930702907
 40
0.9166211636
 40
0.9386999786
 40
0.9493274651
 40
0.9597333387
 40
0.9699500929
 40
0.9800250581
 40
0.9900498125
 40
1.0
 40
1.0
 40
1.0
 40
1.0
 10
11.4241356136
 20
8.6996363292
 30
0.0
 10
11.4242164976
 20
8.7142549428
 30
0.0
 10
11.4232638569
 20
8.7435772641
 30
0.0
 10
11.4206090454
 20
8.7801811714
 30
0.0
 10
11.4178897305
 20
8.8095326528
 30
0.0
 10
11.4148429529
 20
8.8390102655
 30
0.0
 10
11.4105151742
 20
8.8759502421
 30
0.0
 10
11.4047981522
 20
8.9203898749
 30
0.0
 10
11.3987229349
 20
8.9650126545
 30
0.0
 10
11.3924648387
 20
9.0098213111
 30
0.0
 10
11.3862052762
 20
9.0547904548
 30
0.0
 10
11.3801603174
 20
9.0998272988
 30
0.0
 10
11.3755299767
 20
9.1373307798
 30
0.0
 10
11.372347035
 20
9.1671596744
 30
0.0
 10
11.3703489594
 20
9.1891466362
 30
0.0
 10
11.3688971858
 20
9.2106124956
 30
0.0
 10
11.36814867
 20
9.2312733217
 30
0.0
 10
11.3682227064
 20
9.2508278586
 30
0.0
 10
11.3691954378
 20
9.2690355466
 30
0.0
 10
11.3711072604
 20
9.2858067287
 30
0.0
 10
11.3737919645
 20
9.3012332438
 30
0.0
 10
11.3765528815
 20
9.3133144182
 30
0.0
 10
11.3789571424
 20
9.3224986214
 30
0.0
 10
11.3808169574
 20
9.3291241461
 30
0.0
 10
11.3827368882
 20
9.3356055369
 30
0.0
 10
11.3847045123
 20
9.3419847943
 30
0.0
 10
11.3867218961
 20
9.3482868925
 30
0.0
 10
11.3881087805
 20
9.3524610916
 30
0.0
 10
11.3887794957
 20
9.354546939
 30
0.0
  0
SPLINE
  5
37E
100
AcDbEntity
  8
0
100
AcDbSpline
 62
9
  6
CONTINUOUS
 70
0
 71
3
 72
28
 73
24
 74
0
 42
0.0000001
 43
0.0000001
 44
0.0000000001
 40
0.0
 40
0.0
 40
0.0
 40
0.0
 40
0.0314421111
 40
0.064568477
 40
0.135151024
 40
0.2102741
 40
0.2884278577
 40
0.368080296
 40
0.4476730809
 40
0.5256629629
 40
0.6005945243
 40
0.6709702011
 40
0.7038987956
 40
0.7350179543
 40
0.7914003377
 40
0.8168649946
 40
0.8406850353
 40
0.8630212181
 40
0.8841349344
 40
0.9043082172
 40
0.9238162548
 40
0.9618408417
 40
1.0
 40
1.0
 40
1.0
 40
1.0
 10
11.4409630539
 20
8.6948618213
 30
0.0
 10
11.4406553353
 20
8.7020349863
 30
0.0
 10
11.4398514202
 20
8.7167584393
 30
0.0
 10
11.4376044698
 20
8.7475392942
 30
0.0
 10
11.4337186818
 20
8.7881947414
 30
0.0
 10
11.4278948309
 20
8.8389813511
 30
0.0
 10
11.4212174826
 20
8.8917503477
 30
0.0
 10
11.4140989675
 20
8.9454906837
 30
0.0
 10
11.4069547758
 20
8.999189816
 30
0.0
 10
11.4001980859
 20
9.0518529696
 30
0.0
 10
11.3942290919
 20
9.1024931109
 30
0.0
 10
11.3901502653
 20
9.1429919815
 30
0.0
 10
11.3877324502
 20
9.1735936608
 30
0.0
 10
11.3860640766
 20
9.2010436688
 30
0.0
 10
11.385355266
 20
9.2268442054
 30
0.0
 10
11.3857972824
 20
9.2509727082
 30
0.0
 10
11.386643463
 20
9.2673088652
 30
0.0
 10
11.3880125873
 20
9.2826125098
 30
0.0
 10
11.3898658256
 20
9.2970257279
 30
0.0
 10
11.392162558
 20
9.3107202183
 30
0.0
 10
11.3957288679
 20
9.3281055486
 30
0.0
 10
11.4011617488
 20
9.3492840255
 30
0.0
 10
11.4062702232
 20
9.3659168935
 30
0.0
 10
11.408916712
 20
9.3742188667
 30
0.0
  0
SPLINE
  5
37F
100
AcDbEntity
  8
0
100
AcDbSpline
 62
9
  6
CONTINUOUS
 70
0
 71
3
 72
9
 73
5
 74
0
 42
0.0000001
 43
0.0000001
 44
0.0000000001
 40
0.0
 40
0.0
 40
0.0
 40
0.0
 40
0.4876144654
 40
1.0
 40
1.0
 40
1.0
 40
1.0
 10
11.408916712
 20
9.3742188667
 30
0.0
 10
11.4300983779
 20
9.3946226465
 30
0.0
 10
11.4744448234
 20
9.4355315403
 30
0.0
 10
11.520296558
 20
9.4747386358
 30
0.0
 10
11.5441143754
 20
9.4944313655
 30
0.0
  0
SPLINE
  5
380
100
AcDbEntity
  8
0
100
AcDbSpline
 62
9
  6
CONTINUOUS
 70
0
 71
3
 72
11
 73
7
 74
0
 42
0.0000001
 43
0.0000001
 44
0.0000000001
 40
0.0
 40
0.0
 40
0.0
 40
0.0
 40
0.2336360511
 40
0.4783213265
 40
0.7338538291
 40
1.0
 40
1.0
 40
1.0
 40
1.0
 10
11.5441143754
 20
9.4944313655
 30
0.0
 10
11.5703847672
 20
9.5161519001
 30
0.0
 10
11.6249839498
 20
9.5596401211
 30
0.0
 10
11.7108486176
 20
9.6236247805
 30
0.0
 10
11.8024328539
 20
9.6877895239
 30
0.0
 10
11.8659244522
 20
9.7297807855
 30
0.0
 10
11.8985691936
 20
9.7508067449
 30
0.0
  0
LINE
  5
381
100
AcDbEntity
  8
0
100
AcDbLine
 62
9
  6
CONTINUOUS
 10
11.8985691936
 20
9.7508067449
 11
11.9006702255
 21
9.7521592123
  0
LINE
  5
382
100
AcDbEntity
  8
0
100
AcDbLine
 62
9
  6
CONTINUOUS
 10
11.9222028744
 20
9.7659320443
 11
11.9263890384
 21
9.7685912652
  0
LINE
  5
383
100
AcDbEntity
  8
0
100
AcDbLine
 62
9
  6
CONTINUOUS
 10
11.9243955359
 20
9.7640693846
 11
11.9257258955
 21
9.7670807531
  0
SPLINE
  5
384
100
AcDbEntity
  8
0
100
AcDbSpline
 62
9
  6
CONTINUOUS
 70
0
 71
3
 72
13
 73
9
 74
0
 42
0.0000001
 43
0.0000001
 44
0.0000000001
 40
0.0
 40
0.0
 40
0.0
 40
0.0
 40
0.3415244181
 40
0.6159602564
 40
0.7297503985
 40
0.8297030298
 40
0.9184377945
 40
1.0
 40
1.0
 40
1.0
 40
1.0
 10
11.9263890384
 20
9.7685912652
 30
0.0
 10
11.9268829091
 20
9.7681026128
 30
0.0
 10
11.927734646
 20
9.7671805114
 30
0.0
 10
11.92858487
 20
9.7659513482
 30
0.0
 10
11.9289942822
 20
9.7650434233
 30
0.0
 10
11.9291593665
 20
9.7644473783
 30
0.0
 10
11.929198829
 20
9.763894642
 30
0.0
 10
11.929134687
 20
9.7635489824
 30
0.0
 10
11.9290807732
 20
9.763392065
 30
0.0
  0
LINE
  5
385
100
AcDbEntity
  8
0
100
AcDbLine
 62
7
  6
CONTINUOUS
 10
11.9913605027
 20
9.8982073152
 11
11.9893585705
 21
9.8937853293
  0
LINE
  5
386
100
AcDbEntity
  8
0
100
AcDbLine
 62
9
  6
CONTINUOUS
 10
10.1702387176
 20
9.764074926
 11
10.1717799741
 21
9.7605852686
  0
LINE
  5
387
100
AcDbEntity
  8
0
100
AcDbLine
 62
9
  6
CONTINUOUS
 10
10.1836082787
 20
9.7333934306
 11
10.1848074834
 21
9.7305949996
  0
SPLINE
  5
388
100
AcDbEntity
  8
0
100
AcDbSpline
 62
9
  6
CONTINUOUS
 70
0
 71
3
 72
17
 73
13
 74
0
 42
0.0000001
 43
0.0000001
 44
0.0000000001
 40
0.0
 40
0.0
 40
0.0
 40
0.0
 40
0.1250110748
 40
0.1875039964
 40
0.2499692254
 40
0.3748402997
 40
0.4997234147
 40
0.6246584306
 40
0.7496669279
 40
0.812205909
 40
0.8747615969
 40
1.0
 40
1.0
 40
1.0
 40
1.0
 10
10.1848074834
 20
9.7305949996
 30
0.0
 10
10.2043424875
 20
9.6849448258
 30
0.0
 10
10.2319514549
 20
9.6157330812
 30
0.0
 10
10.2653987408
 20
9.5222414971
 30
0.0
 10
10.296528435
 20
9.4280094056
 30
0.0
 10
10.3309107055
 20
9.3087921108
 30
0.0
 10
10.3642981168
 20
9.1636835113
 30
0.0
 10
10.3897472916
 20
9.0169196552
 30
0.0
 10
10.4042747323
 20
8.8935911722
 30
0.0
 10
10.412069678
 20
8.7945474126
 30
0.0
 10
10.417379649
 20
8.6952494379
 30
0.0
 10
10.4185934113
 20
8.6206283327
 30
0.0
 10
10.418200167
 20
8.5708852395
 30
0.0
  0
LINE
  5
389
100
AcDbEntity
  8
0
100
AcDbLine
 62
7
  6
CONTINUOUS
 10
10.418200167
 20
8.5708852395
 11
10.4178526951
 21
8.5702904999
  0
LINE
  5
38A
100
AcDbEntity
  8
0
100
AcDbLine
 62
7
  6
CONTINUOUS
 10
10.4178526951
 20
8.5702904999
 11
10.4176780051
 21
8.5694661801
  0
LINE
  5
38B
100
AcDbEntity
  8
0
100
AcDbLine
 62
9
  6
CONTINUOUS
 10
10.4182641077
 20
8.5693964154
 11
10.4182014262
 21
8.5708856731
  0
SPLINE
  5
38C
100
AcDbEntity
  8
0
100
AcDbSpline
 62
7
  6
CONTINUOUS
 70
0
 71
3
 72
14
 73
10
 74
0
 42
0.0000001
 43
0.0000001
 44
0.0000000001
 40
0.0
 40
0.0
 40
0.0
 40
0.0
 40
0.1219366974
 40
0.2422182613
 40
0.363155447
 40
0.4863881173
 40
0.6124161939
 40
0.7414676127
 40
1.0
 40
1.0
 40
1.0
 40
1.0
 10
10.5973818258
 20
8.6768372718
 30
0.0
 10
10.5978178772
 20
8.6769979847
 30
0.0
 10
10.5987049653
 20
8.6772605091
 30
0.0
 10
10.6000552978
 20
8.6775630314
 30
0.0
 10
10.60140767
 20
8.6778824067
 30
0.0
 10
10.6027558052
 20
8.678302055
 30
0.0
 10
10.6041056281
 20
8.6788123173
 30
0.0
 10
10.6058858847
 20
8.6796255957
 30
0.0
 10
10.6072100903
 20
8.6802915547
 30
0.0
 10
10.6081385071
 20
8.6806215468
 30
0.0
  0
SPLINE
  5
38D
100
AcDbEntity
  8
0
100
AcDbSpline
 62
7
  6
CONTINUOUS
 70
0
 71
3
 72
11
 73
7
 74
0
 42
0.0000001
 43
0.0000001
 44
0.0000000001
 40
0.0
 40
0.0
 40
0.0
 40
0.0
 40
0.2822903487
 40
0.5479002534
 40
0.7896094776
 40
1.0
 40
1.0
 40
1.0
 40
1.0
 10
10.7032937119
 20
5.5828846632
 30
0.0
 10
10.7015693788
 20
5.5827637096
 30
0.0
 10
10.6982209413
 20
5.5825516346
 30
0.0
 10
10.6934116626
 20
5.5820211059
 30
0.0
 10
10.6890881506
 20
5.5812048723
 30
0.0
 10
10.6864128144
 20
5.5804873757
 30
0.0
 10
10.6851736345
 20
5.5801350249
 30
0.0
  0
SPLINE
  5
38E
100
AcDbEntity
  8
0
100
AcDbSpline
 62
7
  6
CONTINUOUS
 70
0
 71
3
 72
13
 73
9
 74
0
 42
0.0000001
 43
0.0000001
 44
0.0000000001
 40
0.0
 40
0.0
 40
0.0
 40
0.0
 40
0.2770954678
 40
0.4108830063
 40
0.5402004155
 40
0.6644413185
 40
0.7830590757
 40
1.0
 40
1.0
 40
1.0
 40
1.0
 10
10.6870133032
 20
8.7019627488
 30
0.0
 10
10.6854717111
 20
8.7019033014
 30
0.0
 10
10.6831891024
 20
8.7017271237
 30
0.0
 10
10.6801992133
 20
8.7014022222
 30
0.0
 10
10.6780592655
 20
8.7011337012
 30
0.0
 10
10.6760099323
 20
8.7008252514
 30
0.0
 10
10.6734924303
 20
8.7003583137
 30
0.0
 10
10.6716724265
 20
8.6999324214
 30
0.0
 10
10.6705010524
 20
8.69963793
 30
0.0
  0
SPLINE
  5
38F
100
AcDbEntity
  8
0
100
AcDbSpline
 62
9
  6
CONTINUOUS
 70
0
 71
3
 72
31
 73
27
 74
0
 42
0.0000001
 43
0.0000001
 44
0.0000000001
 40
0.0
 40
0.0
 40
0.0
 40
0.0
 40
0.0402706395
 40
0.0613172871
 40
0.0833985313
 40
0.1069350296
 40
0.1323763935
 40
0.1599863551
 40
0.1896715965
 40
0.2210874874
 40
0.2537858372
 40
0.2873254273
 40
0.321341947
 40
0.3556196522
 40
0.3900253003
 40
0.4589280914
 40
0.527708076
 40
0.5962187419
 40
0.6643989653
 40
0.7322297611
 40
0.799704204
 40
0.8668189867
 40
0.900246493
 40
0.9335920855
 40
0.9668454276
 40
1.0
 40
1.0
 40
1.0
 40
1.0
 10
10.7058571758
 20
9.3545470128
 30
0.0
 10
10.7086348987
 20
9.3461256212
 30
0.0
 10
10.7127428809
 20
9.3332587938
 30
0.0
 10
10.7175822735
 20
9.3155395537
 30
0.0
 10
10.7208496135
 20
9.3012223946
 30
0.0
 10
10.7235255615
 20
9.2857972527
 30
0.0
 10
10.7254356478
 20
9.2690308822
 30
0.0
 10
10.7264270828
 20
9.2508293905
 30
0.0
 10
10.7264836915
 20
9.2312884643
 30
0.0
 10
10.7257345283
 20
9.2106432443
 30
0.0
 10
10.7242963146
 20
9.1891852006
 30
0.0
 10
10.7223011582
 20
9.1671979087
 30
0.0
 10
10.7199134655
 20
9.1449007629
 30
0.0
 10
10.717259518
 20
9.1224420226
 30
0.0
 10
10.7134763863
 20
9.0923822172
 30
0.0
 10
10.7084372372
 20
9.0548240894
 30
0.0
 10
10.7021737128
 20
9.0098540337
 30
0.0
 10
10.6959168573
 20
8.9650436523
 30
0.0
 10
10.6898448781
 20
8.9204186319
 30
0.0
 10
10.6841206977
 20
8.8759771841
 30
0.0
 10
10.6789452763
 20
8.8317041898
 30
0.0
 10
10.6752891828
 20
8.7948841663
 30
0.0
 10
10.6729695146
 20
8.7654922571
 30
0.0
 10
10.6715793701
 20
8.7435089174
 30
0.0
 10
10.6706633377
 20
8.7215600953
 30
0.0
 10
10.6704692221
 20
8.7069352199
 30
0.0
 10
10.6705010714
 20
8.6996345902
 30
0.0
  0
SPLINE
  5
390
100
AcDbEntity
  8
0
100
AcDbSpline
 62
9
  6
CONTINUOUS
 70
0
 71
3
 72
28
 73
24
 74
0
 42
0.0000001
 43
0.0000001
 44
0.0000000001
 40
0.0
 40
0.0
 40
0.0
 40
0.0
 40
0.031442
 40
0.0645682684
 40
0.1351506598
 40
0.2102736289
 40
0.288427324
 40
0.368079739
 40
0.447672535
 40
0.5256624555
 40
0.6005940766
 40
0.6709698324
 40
0.703898473
 40
0.735017681
 40
0.7914001545
 40
0.8168648487
 40
0.8406849219
 40
0.8630211318
 40
0.8841348695
 40
0.9043081691
 40
0.9238162196
 40
0.9618408257
 40
1.0
 40
1.0
 40
1.0
 40
1.0
 10
10.6536736116
 20
8.6948604956
 30
0.0
 10
10.65398132
 20
8.7020336536
 30
0.0
 10
10.654785217
 20
8.716757097
 30
0.0
 10
10.6570321378
 20
8.7475379483
 30
0.0
 10
10.6609179012
 20
8.7881934183
 30
0.0
 10
10.6667417369
 20
8.838980084
 30
0.0
 10
10.6734190826
 20
8.891749171
 30
0.0
 10
10.6805376054
 20
8.9454896259
 30
0.0
 10
10.6876818127
 20
8.9991888991
 30
0.0
 10
10.6944385232
 20
9.0518522095
 30
0.0
 10
10.7004075404
 20
9.1024925176
 30
0.0
 10
10.7044863868
 20
9.1429915311
 30
0.0
 10
10.7069042174
 20
9.1735933263
 30
0.0
 10
10.7085726051
 20
9.201043445
 30
0.0
 10
10.7092814267
 20
9.2268440864
 30
0.0
 10
10.7088394151
 20
9.2509726864
 30
0.0
 10
10.7079932356
 20
9.2673089066
 30
0.0
 10
10.7066241093
 20
9.2826126083
 30
0.0
 10
10.7047708661
 20
9.2970258776
 30
0.0
 10
10.7024741259
 20
9.3107204138
 30
0.0
 10
10.6989078025
 20
9.3281057981
 30
0.0
 10
10.6934748986
 20
9.3492843372
 30
0.0
 10
10.6883664007
 20
9.3659172521
 30
0.0
 10
10.6857198996
 20
9.3742192481
 30
0.0
  0
LINE
  5
391
100
AcDbEntity
  8
0
100
AcDbLine
 62
7
  6
CONTINUOUS
 10
11.4865423163
 20
8.6806110112
 11
11.4978868302
 21
8.6767167292
  0
SPLINE
  5
392
100
AcDbEntity
  8
0
100
AcDbSpline
 62
7
  6
CONTINUOUS
 70
0
 71
3
 72
15
 73
11
 74
0
 42
0.0000001
 43
0.0000001
 44
0.0000000001
 40
0.0
 40
0.0
 40
0.0
 40
0.0
 40
0.1631880786
 40
0.3154392284
 40
0.4565922079
 40
0.5865995174
 40
0.7055246235
 40
0.8136413236
 40
0.911512354
 40
1.0
 40
1.0
 40
1.0
 40
1.0
 10
11.4978860978
 20
8.6766886112
 30
0.0
 10
11.5086792307
 20
8.672913004
 30
0.0
 10
11.5294165813
 20
8.6652465759
 30
0.0
 10
11.5589450854
 20
8.6529063016
 30
0.0
 10
11.5857491297
 20
8.64015767
 30
0.0
 10
11.6097496001
 20
8.6270429466
 30
0.0
 10
11.6308733396
 20
8.6135971872
 30
0.0
 10
11.6490595913
 20
8.5998510266
 30
0.0
 10
11.664261791
 20
8.5858473061
 30
0.0
 10
11.6727770862
 20
8.5758867749
 30
0.0
 10
11.676434525
 20
8.5708801417
 30
0.0
  0
LINE
  5
393
100
AcDbEntity
  8
0
100
AcDbLine
 62
9
  6
CONTINUOUS
 10
11.6764358655
 20
8.5709132031
 11
11.6763758014
 21
8.5694862029
  0
LINE
  5
394
100
AcDbEntity
  8
0
100
AcDbLine
 62
9
  6
CONTINUOUS
 10
11.6763758014
 20
8.5694862029
 11
11.676332907
 21
8.5684667502
  0
LINE
  5
395
100
AcDbEntity
  8
0
100
AcDbLine
 62
7
  6
CONTINUOUS
 10
11.6764358708
 20
8.5709133322
 11
11.676777664
 21
8.5703123833
  0
LINE
  5
396
100
AcDbEntity
  8
0
100
AcDbLine
 62
7
  6
CONTINUOUS
 10
11.676777664
 20
8.5703123833
 11
11.6769586589
 21
8.5694652014
  0
SPLINE
  5
397
100
AcDbEntity
  8
0
100
AcDbSpline
 62
9
  6
CONTINUOUS
 70
0
 71
3
 72
20
 73
16
 74
0
 42
0.0000001
 43
0.0000001
 44
0.0000000001
 40
0.0
 40
0.0
 40
0.0
 40
0.0
 40
0.125234656
 40
0.1878004828
 40
0.2503451327
 40
0.3128652057
 40
0.3753606855
 40
0.4378350044
 40
0.5002930471
 40
0.5627407121
 40
0.6251840971
 40
0.7500623178
 40
0.8749817539
 40
0.9374837503
 40
1.0
 40
1.0
 40
1.0
 40
1.0
 10
11.676436388
 20
8.5709122316
 30
0.0
 10
11.6760553264
 20
8.620658462
 30
0.0
 10
11.6772741638
 20
8.6952885048
 30
0.0
 10
11.6825699479
 20
8.7946005052
 30
0.0
 10
11.6884118121
 20
8.8689135444
 30
0.0
 10
11.6961754275
 20
8.9430220888
 30
0.0
 10
11.7059118655
 20
9.0168697273
 30
0.0
 10
11.7176333061
 20
9.0904035144
 30
0.0
 10
11.7313428258
 20
9.1635734591
 30
0.0
 10
11.7470520775
 20
9.2363283105
 30
0.0
 10
11.7706351099
 20
9.3327126421
 30
0.0
 10
11.8049646433
 20
9.4519660202
 30
0.0
 10
11.8454504819
 20
9.5692878518
 30
0.0
 10
11.881176014
 20
9.6619290342
 30
0.0
 10
11.9001391675
 20
9.7078340539
 30
0.0
 10
11.909895328
 20
9.7306710773
 30
0.0
  0
LINE
  5
398
100
AcDbEntity
  8
0
100
AcDbLine
 62
9
  6
CONTINUOUS
 10
11.909895328
 20
9.7306710773
 11
11.9110445899
 21
9.7333577508
  0
LINE
  5
399
100
AcDbEntity
  8
0
100
AcDbLine
 62
9
  6
CONTINUOUS
 10
11.9228709386
 20
9.760607764
 11
11.9243955359
 21
9.7640693834
  0
SPLINE
  5
39A
100
AcDbEntity
  8
0
100
AcDbSpline
 62
9
  6
CONTINUOUS
 70
0
 71
3
 72
11
 73
7
 74
0
 42
0.0000001
 43
0.0000001
 44
0.0000000001
 40
0.0
 40
0.0
 40
0.0
 40
0.0
 40
0.3468405151
 40
0.4943906914
 40
0.6251790179
 40
1.0
 40
1.0
 40
1.0
 40
1.0
 10
11.9243955359
 20
9.7640693834
 30
0.0
 10
11.9248959062
 20
9.7635762275
 30
0.0
 10
11.9255773997
 20
9.762840323
 30
0.0
 10
11.9263251942
 20
9.7618099369
 30
0.0
 10
11.9269935657
 20
9.7606912176
 30
0.0
 10
11.9273522429
 20
9.7595588847
 30
0.0
 10
11.9270987684
 20
9.7588432231
 30
0.0
  0
LINE
  5
39B
100
AcDbEntity
  8
0
100
AcDbLine
 62
9
  6
CONTINUOUS
 10
11.9271088156
 20
9.7588663208
 11
11.9154935412
 21
9.7314618401
  0
LINE
  5
39C
100
AcDbEntity
  8
0
100
AcDbLine
 62
9
  6
CONTINUOUS
 10
11.9154935412
 20
9.7314618401
 11
11.914352002
 21
9.7287669337
  0
LINE
  5
39D
100
AcDbEntity
  8
0
100
AcDbLine
 62
9
  6
CONTINUOUS
 10
11.914352002
 20
9.7287669337
 11
11.9093056511
 21
9.7168501872
  0
SPLINE
  5
39E
100
AcDbEntity
  8
0
100
AcDbSpline
 62
9
  6
CONTINUOUS
 70
0
 71
3
 72
11
 73
7
 74
0
 42
0.0000001
 43
0.0000001
 44
0.0000000001
 40
0.0
 40
0.0
 40
0.0
 40
0.0
 40
0.4799107334
 40
0.6081244233
 40
0.7382519354
 40
1.0
 40
1.0
 40
1.0
 40
1.0
 10
11.4025295759
 20
9.3950089848
 30
0.0
 10
11.4004523413
 20
9.3919651014
 30
0.0
 10
11.3967368159
 20
9.3887512202
 30
0.0
 10
11.3916042229
 20
9.3863489436
 30
0.0
 10
11.387821875
 20
9.3850443577
 30
0.0
 10
11.384838814
 20
9.3844927666
 30
0.0
 10
11.3828364223
 20
9.3843191702
 30
0.0
  0
LINE
  5
39F
100
AcDbEntity
  8
0
100
AcDbLine
 62
9
  6
CONTINUOUS
 10
11.3828364745
 20
9.3843191741
 11
11.3831876042
 21
9.3852259704
  0
SPLINE
  5
3A0
100
AcDbEntity
  8
0
100
AcDbSpline
 62
7
  6
CONTINUOUS
 70
0
 71
3
 72
11
 73
7
 74
0
 42
0.0000001
 43
0.0000001
 44
0.0000000001
 40
0.0
 40
0.0
 40
0.0
 40
0.0
 40
0.2711466854
 40
0.5281944774
 40
0.7711032302
 40
1.0
 40
1.0
 40
1.0
 40
1.0
 10
11.9746564092
 20
9.8937373002
 30
0.0
 10
11.9203438662
 20
9.8567344535
 30
0.0
 10
11.8162926148
 20
9.7820302048
 30
0.0
 10
11.670694111
 20
9.6646790589
 30
0.0
 10
11.5402019493
 20
9.5454262431
 30
0.0
 10
11.4612886907
 20
9.4624878542
 30
0.0
 10
11.4247201498
 20
9.4207663652
 30
0.0
  0
SPLINE
  5
3A1
100
AcDbEntity
  8
0
100
AcDbSpline
 62
9
  6
CONTINUOUS
 70
0
 71
3
 72
30
 73
26
 74
0
 42
0.0000001
 43
0.0000001
 44
0.0000000001
 40
0.0
 40
0.0
 40
0.0
 40
0.0
 40
0.0737200253
 40
0.148059006
 40
0.2233291412
 40
0.2994050846
 40
0.3757983089
 40
0.4519480454
 40
0.5272660456
 40
0.60098435
 40
0.6718545899
 40
0.7056449989
 40
0.7380493794
 40
0.7688918708
 40
0.7980847135
 40
0.8255805907
 40
0.8514063634
 40
0.8756202547
 40
0.8983297309
 40
0.9196198566
 40
0.9394389798
 40
0.9576718354
 40
0.9740857979
 40
0.9883686972
 40
1.0
 40
1.0
 40
1.0
 40
1.0
 10
10.6851854188
 20
5.5801433014
 30
0.0
 10
10.6851553211
 20
5.5386127496
 30
0.0
 10
10.6850511983
 20
5.4552030147
 30
0.0
 10
10.685278842
 20
5.3293890532
 30
0.0
 10
10.6863972843
 20
5.2022516774
 30
0.0
 10
10.6886601383
 20
5.0739717145
 30
0.0
 10
10.6920937151
 20
4.9452221757
 30
0.0
 10
10.6965992597
 20
4.8169331818
 30
0.0
 10
10.7020708441
 20
4.6901901096
 30
0.0
 10
10.708481177
 20
4.5664687247
 30
0.0
 10
10.7147608297
 20
4.4661719035
 30
0.0
 10
10.7202798324
 20
4.389152753
 30
0.0
 10
10.7244469787
 20
4.3346451931
 30
0.0
 10
10.7285957053
 20
4.2827342463
 30
0.0
 10
10.7326465218
 20
4.2335897028
 30
0.0
 10
10.7365303737
 20
4.1872672959
 30
0.0
 10
10.7401037661
 20
4.1437335016
 30
0.0
 10
10.743219676
 20
4.1028683522
 30
0.0
 10
10.7460449208
 20
4.0645439262
 30
0.0
 10
10.7487565377
 20
4.0286937078
 30
0.0
 10
10.751270121
 20
3.995357631
 30
0.0
 10
10.753483933
 20
3.9647538817
 30
0.0
 10
10.7552544793
 20
3.9372452289
 30
0.0
 10
10.7564134808
 20
3.9134266666
 30
0.0
 10
10.7569069877
 20
3.8988354345
 30
0.0
 10
10.7570690059
 20
3.8922848825
 30
0.0
  0
LINE
  5
3A2
100
AcDbEntity
  8
0
100
AcDbLine
 62
9
  6
CONTINUOUS
 10
10.4668183383
 20
4.3778830363
 11
10.4668193454
 21
4.3793417374
  0
LINE
  5
3A3
100
AcDbEntity
  8
0
100
AcDbLine
 62
9
  6
CONTINUOUS
 10
10.4668193454
 20
4.3793417374
 11
10.4672106606
 21
4.4147278168
  0
LINE
  5
3A4
100
AcDbEntity
  8
0
100
AcDbLine
 62
9
  6
CONTINUOUS
 10
10.4672106606
 20
4.4147278168
 11
10.4672680317
 21
4.4178364165
  0
SPLINE
  5
3A5
100
AcDbEntity
  8
0
100
AcDbSpline
 62
9
  6
CONTINUOUS
 70
0
 71
3
 72
17
 73
13
 74
0
 42
0.0000001
 43
0.0000001
 44
0.0000000001
 40
0.0
 40
0.0
 40
0.0
 40
0.0
 40
0.0746341285
 40
0.1654526991
 40
0.2171000536
 40
0.2731860434
 40
0.3338499322
 40
0.3990185266
 40
0.5399785504
 40
0.6899704078
 40
0.844062674
 40
1.0
 40
1.0
 40
1.0
 40
1.0
 10
10.4672680317
 20
4.4178364165
 30
0.0
 10
10.467578635
 20
4.4342463837
 30
0.0
 10
10.4685146025
 20
4.4706201431
 30
0.0
 10
10.4701426547
 20
4.5183353581
 30
0.0
 10
10.4717280202
 20
4.5619704152
 30
0.0
 10
10.4730845446
 20
4.59897806
 30
0.0
 10
10.4745029818
 20
4.6389588986
 30
0.0
 10
10.4764602103
 20
4.6975970385
 30
0.0
 10
10.4788043578
 20
4.7758772364
 30
0.0
 10
10.4813216935
 20
4.8737154321
 30
0.0
 10
10.4835838566
 20
4.9748543203
 30
0.0
 10
10.484877054
 20
5.0430213389
 30
0.0
 10
10.4854546716
 20
5.077308892
 30
0.0
  0
LINE
  5
3A6
100
AcDbEntity
  8
0
100
AcDbLine
 62
9
  6
CONTINUOUS
 10
10.4854546716
 20
5.077308892
 11
10.4855824301
 21
5.0849677229
  0
LINE
  5
3A7
100
AcDbEntity
  8
0
100
AcDbLine
 62
9
  6
CONTINUOUS
 10
10.4878267658
 20
5.2713469352
 11
10.4878407837
 21
5.2731333378
  0
LINE
  5
3A8
100
AcDbEntity
  8
0
100
AcDbLine
 62
9
  6
CONTINUOUS
 10
10.4889568046
 20
5.4748404265
 11
10.4889653785
 21
5.4765517921
  0
LINE
  5
3A9
100
AcDbEntity
  8
0
100
AcDbLine
 62
9
  6
CONTINUOUS
 10
10.4889653785
 20
5.4765517921
 11
10.4889745313
 21
5.4783697877
  0
SPLINE
  5
3AA
100
AcDbEntity
  8
0
100
AcDbSpline
 62
7
  6
CONTINUOUS
 70
0
 71
3
 72
15
 73
11
 74
0
 42
0.0000001
 43
0.0000001
 44
0.0000000001
 40
0.0
 40
0.0
 40
0.0
 40
0.0
 40
0.0905056437
 40
0.1903496182
 40
0.3000328293
 40
0.4198280212
 40
0.5498113557
 40
0.6899513954
 40
0.8400965175
 40
1.0
 40
1.0
 40
1.0
 40
1.0
 10
10.4889745313
 20
5.4783697877
 30
0.0
 10
10.4936108133
 20
5.4832459103
 30
0.0
 10
10.5040026685
 20
5.4928998153
 30
0.0
 10
10.5217534435
 20
5.5064486881
 30
0.0
 10
10.5423564785
 20
5.5197156709
 30
0.0
 10
10.5657530237
 20
5.5326619427
 30
0.0
 10
10.591875845
 20
5.5452567872
 30
0.0
 10
10.6206499379
 20
5.5574585279
 30
0.0
 10
10.651987605
 20
5.5692319804
 30
0.0
 10
10.6738511461
 20
5.5765479219
 30
0.0
 10
10.6851823447
 20
5.580142345
 30
0.0
  0
SPLINE
  5
3AB
100
AcDbEntity
  8
0
100
AcDbSpline
 62
9
  6
CONTINUOUS
 70
0
 71
3
 72
25
 73
21
 74
0
 42
0.0000001
 43
0.0000001
 44
0.0000000001
 40
0.0
 40
0.0
 40
0.0
 40
0.0
 40
0.0142003102
 40
0.0301798595
 40
0.0477323263
 40
0.0666927298
 40
0.0869679527
 40
0.1084724918
 40
0.1548693911
 40
0.205333896
 40
0.2594527237
 40
0.3778655665
 40
0.4422903317
 40
0.5104138549
 40
0.5823736916
 40
0.6582678678
 40
0.7381037953
 40
0.8218057361
 40
0.9091896863
 40
1.0
 40
1.0
 40
1.0
 40
1.0
 10
10.7570683331
 20
3.8922852795
 30
0.0
 10
10.7571473828
 20
3.8948179394
 30
0.0
 10
10.7572549358
 20
3.9002024773
 30
0.0
 10
10.7573086583
 20
3.908719752
 30
0.0
 10
10.7572846183
 20
3.9180865249
 30
0.0
 10
10.7571904508
 20
3.9282193909
 30
0.0
 10
10.7570071292
 20
3.9390563939
 30
0.0
 10
10.7566101347
 20
3.9547857419
 30
0.0
 10
10.7558313351
 20
3.9758931201
 30
0.0
 10
10.7546012591
 20
4.0028059448
 30
0.0
 10
10.7526109826
 20
4.0425474285
 30
0.0
 10
10.7505462205
 20
4.0847794752
 30
0.0
 10
10.7480777359
 20
4.1294929271
 30
0.0
 10
10.7458851026
 20
4.165919384
 30
0.0
 10
10.7434546818
 20
4.2043815584
 30
0.0
 10
10.7408849212
 20
4.2449290365
 30
0.0
 10
10.7382264419
 20
4.2875703453
 30
0.0
 10
10.7355296341
 20
4.3322634055
 30
0.0
 10
10.7328357296
 20
4.3789183307
 30
0.0
 10
10.7311022377
 20
4.4106679612
 30
0.0
 10
10.7302425604
 20
4.4268492684
 30
0.0
  0
SPLINE
  5
3AC
100
AcDbEntity
  8
0
100
AcDbSpline
 62
9
  6
CONTINUOUS
 70
0
 71
3
 72
14
 73
10
 74
0
 42
0.0000001
 43
0.0000001
 44
0.0000000001
 40
0.0
 40
0.0
 40
0.0
 40
0.0
 40
0.1197595769
 40
0.2439855069
 40
0.4981520647
 40
0.6255803321
 40
0.7517959346
 40
0.8764745451
 40
1.0
 40
1.0
 40
1.0
 40
1.0
 10
10.7277291232
 20
4.475494658
 30
0.0
 10
10.7255105274
 20
4.5196619298
 30
0.0
 10
10.7213444878
 20
4.6096617282
 30
0.0
 10
10.714044415
 20
4.7934673226
 30
0.0
 10
10.7084927262
 20
4.9801745286
 30
0.0
 10
10.7051526586
 20
5.1676628547
 30
0.0
 10
10.7037493344
 20
5.3073581322
 30
0.0
 10
10.7032307833
 20
5.445617641
 30
0.0
 10
10.7032506147
 20
5.5372706684
 30
0.0
 10
10.7032746518
 20
5.5828842257
 30
0.0
  0
SPLINE
  5
3AD
100
AcDbEntity
  8
0
100
AcDbSpline
 62
9
  6
CONTINUOUS
 70
0
 71
3
 72
11
 73
7
 74
0
 42
0.0000001
 43
0.0000001
 44
0.0000000001
 40
0.0
 40
0.0
 40
0.0
 40
0.0
 40
0.2491256097
 40
0.5000000001
 40
0.7508743904
 40
1.0
 40
1.0
 40
1.0
 40
1.0
 10
10.7032746518
 20
5.5828842257
 30
0.0
 10
10.7603744352
 20
5.5854649326
 30
0.0
 10
10.8750385742
 20
5.5893226771
 30
0.0
 10
11.0473183416
 20
5.591245378
 30
0.0
 10
11.2195981091
 20
5.5893226769
 30
0.0
 10
11.334262248
 20
5.5854649324
 30
0.0
 10
11.3913620314
 20
5.5828842254
 30
0.0
  0
SPLINE
  5
3AE
100
AcDbEntity
  8
0
100
AcDbSpline
 62
9
  6
CONTINUOUS
 70
0
 71
3
 72
25
 73
21
 74
0
 42
0.0000001
 43
0.0000001
 44
0.0000000001
 40
0.0
 40
0.0
 40
0.0
 40
0.0
 40
0.0145772671
 40
0.0315168785
 40
0.0709527528
 40
0.1160880698
 40
0.1655025275
 40
0.2182552972
 40
0.2735941431
 40
0.3900560781
 40
0.4516066295
 40
0.5163855046
 40
0.5852131141
 40
0.6587229406
 40
0.6973483719
 40
0.7372411001
 40
0.7783667683
 40
0.8206819978
 40
0.9085344557
 40
1.0
 40
1.0
 40
1.0
 40
1.0
 10
11.3375683621
 20
3.8922843566
 30
0.0
 10
11.3375031058
 20
3.8948901668
 30
0.0
 10
11.3374461371
 20
3.9005261278
 30
0.0
 10
11.337526664
 20
3.9132134956
 30
0.0
 10
11.3379486741
 20
3.9313612641
 30
0.0
 10
11.3387836257
 20
3.9553054595
 30
0.0
 10
11.3399085556
 20
3.9816215013
 30
0.0
 10
11.3412677214
 20
4.0097531468
 30
0.0
 10
11.3433439084
 20
4.0498528593
 30
0.0
 10
11.3454804898
 20
4.0915249358
 30
0.0
 10
11.3479810603
 20
4.1348676241
 30
0.0
 10
11.350076611
 20
4.1697015448
 30
0.0
 10
11.3522812922
 20
4.2066713136
 30
0.0
 10
11.3540648838
 20
4.2389810536
 30
0.0
 10
11.355467696
 20
4.2661296656
 30
0.0
 10
11.3565287099
 20
4.2874974007
 30
0.0
 10
11.3576142181
 20
4.309524513
 30
0.0
 10
11.3591506489
 20
4.3401156997
 30
0.0
 10
11.3612282331
 20
4.3796925308
 30
0.0
 10
11.3630133592
 20
4.411707487
 30
0.0
 10
11.363901395
 20
4.4280387287
 30
0.0
  0
LINE
  5
3AF
100
AcDbEntity
  8
0
100
AcDbLine
 62
9
  6
CONTINUOUS
 10
11.363901395
 20
4.4280387287
 11
11.3646093313
 21
4.4411521808
  0
SPLINE
  5
3B0
100
AcDbEntity
  8
0
100
AcDbSpline
 62
9
  6
CONTINUOUS
 70
0
 71
3
 72
21
 73
17
 74
0
 42
0.0000001
 43
0.0000001
 44
0.0000000001
 40
0.0
 40
0.0
 40
0.0
 40
0.0
 40
0.0593500426
 40
0.1200018231
 40
0.1816649485
 40
0.2441092248
 40
0.3071366066
 40
0.3705719031
 40
0.4342579723
 40
0.498041497
 40
0.5617664425
 40
0.6253122558
 40
0.7515593706
 40
0.8764296407
 40
0.9383331102
 40
1.0
 40
1.0
 40
1.0
 40
1.0
 10
11.3664379377
 20
4.4761908382
 30
0.0
 10
11.3675501889
 20
4.4980648431
 30
0.0
 10
11.3696842678
 20
4.5422985309
 30
0.0
 10
11.3726147126
 20
4.6092753526
 30
0.0
 10
11.3754393437
 20
4.6773995467
 30
0.0
 10
11.3781083353
 20
4.7464074152
 30
0.0
 10
11.3805748981
 20
4.8160772544
 30
0.0
 10
11.3828012349
 20
4.8862137045
 30
0.0
 10
11.3847730693
 20
4.9566369236
 30
0.0
 10
11.3864797799
 20
5.027174011
 30
0.0
 10
11.3878941041
 20
5.0976658179
 30
0.0
 10
11.3893989972
 20
5.191210971
 30
0.0
 10
11.3906554673
 20
5.3073269147
 30
0.0
 10
11.3912280431
 20
5.4228417956
 30
0.0
 10
11.3913609939
 20
5.5145251175
 30
0.0
 10
11.3913602221
 20
5.5601269566
 30
0.0
 10
11.3913620311
 20
5.5828842197
 30
0.0
  0
SPLINE
  5
3B1
100
AcDbEntity
  8
0
100
AcDbSpline
 62
7
  6
CONTINUOUS
 70
0
 71
3
 72
12
 73
8
 74
0
 42
0.0000001
 43
0.0000001
 44
0.0000000001
 40
0.0
 40
0.0
 40
0.0
 40
0.0
 40
0.2822563237
 40
0.5478070095
 40
0.672038609
 40
0.7896128626
 40
1.0
 40
1.0
 40
1.0
 40
1.0
 10
11.3913620311
 20
5.5828842197
 30
0.0
 10
11.3930834618
 20
5.5827659374
 30
0.0
 10
11.3964251134
 20
5.5825453598
 30
0.0
 10
11.4005114865
 20
5.5820939593
 30
0.0
 10
11.4035711233
 20
5.5815804898
 30
0.0
 10
11.4062756957
 20
5.5810043654
 30
0.0
 10
11.4082117171
 20
5.5804800532
 30
0.0
 10
11.4094518941
 20
5.5801392983
 30
0.0
  0
SPLINE
  5
3B2
100
AcDbEntity
  8
0
100
AcDbSpline
 62
9
  6
CONTINUOUS
 70
0
 71
3
 72
32
 73
28
 74
0
 42
0.0000001
 43
0.0000001
 44
0.0000000001
 40
0.0
 40
0.0
 40
0.0
 40
0.0
 40
0.0056102439
 40
0.0121885446
 40
0.0276230777
 40
0.0451892752
 40
0.0643300932
 40
0.0846590941
 40
0.1059156321
 40
0.1279824087
 40
0.1511891391
 40
0.1759531257
 40
0.2025938789
 40
0.2313355328
 40
0.2621082709
 40
0.2947176904
 40
0.3287759773
 40
0.3638861128
 40
0.3998038583
 40
0.473371944
 40
0.5485247633
 40
0.6245358355
 40
0.7007862153
 40
0.7766875593
 40
0.851916338
 40
0.9263385444
 40
1.0
 40
1.0
 40
1.0
 40
1.0
 10
11.337568385
 20
3.8922852792
 30
0.0
 10
11.3376468988
 20
3.8954448464
 30
0.0
 10
11.3378759608
 20
3.9023076991
 30
0.0
 10
11.3385467515
 20
3.9178548691
 30
0.0
 10
11.3397422365
 20
3.940120263
 30
0.0
 10
11.3415508801
 20
3.9694387233
 30
0.0
 10
11.3437167321
 20
4.0014971513
 30
0.0
 10
11.3461666132
 20
4.0356197324
 30
0.0
 10
11.3489019098
 20
4.0713740726
 30
0.0
 10
11.3519548861
 20
4.1087295455
 30
0.0
 10
11.3554101039
 20
4.1480340715
 30
0.0
 10
11.3593528874
 20
4.1898812239
 30
0.0
 10
11.3633747585
 20
4.234853143
 30
0.0
 10
11.3670861325
 20
4.2832476218
 30
0.0
 10
11.370794991
 20
4.3350129475
 30
0.0
 10
11.3747447121
 20
4.3897639747
 30
0.0
 10
11.3786867287
 20
4.4469653138
 30
0.0
 10
11.382380435
 20
4.5060508775
 30
0.0
 10
11.3870332916
 20
4.5873765946
 30
0.0
 10
11.3922898836
 20
4.6912614038
 30
0.0
 10
11.3977771731
 20
4.8177469088
 30
0.0
 10
11.4022059424
 20
4.945786431
 30
0.0
 10
11.4054875203
 20
5.0742823142
 30
0.0
 10
11.4076346317
 20
5.2023608541
 30
0.0
 10
11.4089485669
 20
5.3294201433
 30
0.0
 10
11.4095185856
 20
5.4552230674
 30
0.0
 10
11.4094824838
 20
5.5386464491
 30
0.0
 10
11.4094518908
 20
5.5801437729
 30
0.0
  0
SPLINE
  5
3B3
100
AcDbEntity
  8
0
100
AcDbSpline
 62
7
  6
CONTINUOUS
 70
0
 71
3
 72
15
 73
11
 74
0
 42
0.0000001
 43
0.0000001
 44
0.0000000001
 40
0.0
 40
0.0
 40
0.0
 40
0.0
 40
0.1599034096
 40
0.3100484765
 40
0.4501884807
 40
0.5801718012
 40
0.6999670021
 40
0.8096502458
 40
0.9094942769
 40
1.0
 40
1.0
 40
1.0
 40
1.0
 10
11.4094543236
 20
5.5801430006
 30
0.0
 10
11.420785521
 20
5.5765485711
 30
0.0
 10
11.4426490599
 20
5.5692326158
 30
0.0
 10
11.4739867234
 20
5.5574591397
 30
0.0
 10
11.5027608142
 20
5.5452573728
 30
0.0
 10
11.528883635
 20
5.5326625
 30
0.0
 10
11.5522801817
 20
5.519716198
 30
0.0
 10
11.5728832199
 20
5.5064491836
 30
0.0
 10
11.5906340001
 20
5.4929002782
 30
0.0
 10
11.6010258589
 20
5.4832463514
 30
0.0
 10
11.6056621432
 20
5.4783702181
 30
0.0
  0
LINE
  5
3B4
100
AcDbEntity
  8
0
100
AcDbLine
 62
9
  6
CONTINUOUS
 10
11.6278183383
 20
4.3778831431
 11
11.62781828
 21
4.3789867212
  0
LINE
  5
3B5
100
AcDbEntity
  8
0
100
AcDbLine
 62
9
  6
CONTINUOUS
 10
11.62781828
 20
4.3789867212
 11
11.6278131194
 21
4.3870091257
  0
LINE
  5
3B6
100
AcDbEntity
  8
0
100
AcDbLine
 62
9
  6
CONTINUOUS
 10
11.6278131194
 20
4.3870091257
 11
11.6277952647
 21
4.3957199981
  0
LINE
  5
3B7
100
AcDbEntity
  8
0
100
AcDbLine
 62
9
  6
CONTINUOUS
 10
11.6277952647
 20
4.3957199981
 11
11.627782424
 21
4.3996388322
  0
LINE
  5
3B8
100
AcDbEntity
  8
0
100
AcDbLine
 62
9
  6
CONTINUOUS
 10
11.627690279
 20
4.4167323003
 11
11.6276358621
 21
4.4236839296
  0
LINE
  5
3B9
100
AcDbEntity
  8
0
100
AcDbLine
 62
9
  6
CONTINUOUS
 10
11.6276358621
 20
4.4236839296
 11
11.6276168368
 21
4.4258552525
  0
SPLINE
  5
3BA
100
AcDbEntity
  8
0
100
AcDbSpline
 62
9
  6
CONTINUOUS
 70
0
 71
3
 72
21
 73
17
 74
0
 42
0.0000001
 43
0.0000001
 44
0.0000000001
 40
0.0
 40
0.0
 40
0.0
 40
0.0
 40
0.0435138582
 40
0.0915923759
 40
0.1447387452
 40
0.2026438723
 40
0.2643538679
 40
0.3287474544
 40
0.4619497586
 40
0.5975575931
 40
0.6655086611
 40
0.7332841669
 40
0.8007345218
 40
0.8677154764
 40
0.9340977639
 40
1.0
 40
1.0
 40
1.0
 40
1.0
 10
11.6260979341
 20
4.5105547804
 30
0.0
 10
11.6257152971
 20
4.5245401682
 30
0.0
 10
11.6247615384
 20
4.5539741027
 30
0.0
 10
11.6228818167
 20
4.6004728212
 30
0.0
 10
11.6207586037
 20
4.6515923594
 30
0.0
 10
11.6185921518
 20
4.7070966773
 30
0.0
 10
11.6165335064
 20
4.7662237248
 30
0.0
 10
11.6140120845
 20
4.849558172
 30
0.0
 10
11.61146446
 20
4.9566608767
 30
0.0
 10
11.6094918402
 20
5.064919188
 30
0.0
 10
11.6082558968
 20
5.1521502529
 30
0.0
 10
11.6074927994
 20
5.2174715119
 30
0.0
 10
11.6068645354
 20
5.2824822554
 30
0.0
 10
11.6063513755
 20
5.3470460558
 30
0.0
 10
11.6059769929
 20
5.4111130457
 30
0.0
 10
11.6057861101
 20
5.4536448775
 30
0.0
 10
11.605679955
 20
5.4748335676
 30
0.0
  0
LINE
  5
3BB
100
AcDbEntity
  8
0
100
AcDbLine
 62
9
  6
CONTINUOUS
 10
11.605679955
 20
5.4748335676
 11
11.6056714793
 21
5.4765210062
  0
LINE
  5
3BC
100
AcDbEntity
  8
0
100
AcDbLine
 62
9
  6
CONTINUOUS
 10
11.6056714793
 20
5.4765210062
 11
11.6056621633
 21
5.4783654633
  0
LINE
  5
3BD
100
AcDbEntity
  8
0
100
AcDbLine
 62
9
  6
CONTINUOUS
 10
11.6882354766
 20
9.9225820961
 11
11.9315079725
 21
9.9217698941
  0
SPLINE
  5
3BE
100
AcDbEntity
  8
0
100
AcDbSpline
 62
7
  6
CONTINUOUS
 70
0
 71
3
 72
11
 73
7
 74
0
 42
0.0000001
 43
0.0000001
 44
0.0000000001
 40
0.0
 40
0.0
 40
0.0
 40
0.0
 40
0.2407470197
 40
0.4746013298
 40
0.7201143709
 40
1.0
 40
1.0
 40
1.0
 40
1.0
 10
11.9972212581
 20
9.9101827911
 30
0.0
 10
11.9969315463
 20
9.9098216559
 30
0.0
 10
11.9962802616
 20
9.9091664331
 30
0.0
 10
11.9950466762
 20
9.9084894004
 30
0.0
 10
11.9935831647
 20
9.9082349774
 30
0.0
 10
11.9925670499
 20
9.9083746959
 30
0.0
 10
11.9920453607
 20
9.9085071801
 30
0.0
  0
SPLINE
  5
3BF
100
AcDbEntity
  8
0
100
AcDbSpline
 62
7
  6
CONTINUOUS
 70
0
 71
3
 72
11
 73
7
 74
0
 42
0.0000001
 43
0.0000001
 44
0.0000000001
 40
0.0
 40
0.0
 40
0.0
 40
0.0
 40
0.2620254828
 40
0.5160933544
 40
0.7621309596
 40
1.0
 40
1.0
 40
1.0
 40
1.0
 10
11.9920453607
 20
9.9085071801
 30
0.0
 10
11.9867979744
 20
9.9098397663
 30
0.0
 10
11.97644527
 20
9.9123974953
 30
0.0
 10
11.9610930946
 20
9.9159059101
 30
0.0
 10
11.9461694125
 20
9.9190372285
 30
0.0
 10
11.9363471134
 20
9.9209106623
 30
0.0
 10
11.9315079725
 20
9.9217698941
 30
0.0
  0
SPLINE
  5
3C0
100
AcDbEntity
  8
0
100
AcDbSpline
 62
9
  6
CONTINUOUS
 70
0
 71
3
 72
23
 73
19
 74
0
 42
0.0000001
 43
0.0000001
 44
0.0000000001
 40
0.0
 40
0.0
 40
0.0
 40
0.0
 40
0.1880231258
 40
0.3599053368
 40
0.51434312
 40
0.6505532786
 40
0.7116028562
 40
0.7678236641
 40
0.8191221812
 40
0.8654532844
 40
0.8867625439
 40
0.9068388966
 40
0.9256860868
 40
0.9433002778
 40
0.9596211498
 40
0.9745640131
 40
0.9880475257
 40
1.0
 40
1.0
 40
1.0
 40
1.0
 10
11.6784619212
 20
10.9750433343
 30
0.0
 10
11.6596246598
 20
10.9425671877
 30
0.0
 10
11.6238421142
 20
10.8802434504
 30
0.0
 10
11.57305552
 20
10.7909769918
 30
0.0
 10
11.5271797486
 20
10.7108198276
 30
0.0
 10
11.4922296306
 20
10.6499087384
 30
0.0
 10
11.4670320269
 20
10.6060125097
 30
0.0
 10
11.4502634736
 20
10.5768274876
 30
0.0
 10
11.434935631
 20
10.5502042192
 30
0.0
 10
11.4230822009
 20
10.5296244077
 30
0.0
 10
11.4143874451
 20
10.5144198896
 30
0.0
 10
11.4084516436
 20
10.5039595887
 30
0.0
 10
11.402924696
 20
10.494115683
 30
0.0
 10
11.3978307106
 20
10.4848890141
 30
0.0
 10
11.3931292076
 20
10.4763363192
 30
0.0
 10
11.3887704805
 20
10.4685362865
 30
0.0
 10
11.3847113518
 20
10.4615693259
 30
0.0
 10
11.38200913
 20
10.4572663193
 30
0.0
 10
11.380679781
 20
10.455284187
 30
0.0
  0
LINE
  5
3C1
100
AcDbEntity
  8
0
100
AcDbLine
 62
9
  6
CONTINUOUS
 10
10.7397604055
 20
10.470183372
 11
10.4385255291
 21
10.9879544685
  0
LINE
  5
3C2
100
AcDbEntity
  8
0
100
AcDbLine
 62
9
  6
CONTINUOUS
 10
11.6561110415
 20
10.9879542343
 11
11.3548762836
 21
10.4701833435
  0
SPLINE
  5
3C3
100
AcDbEntity
  8
0
100
AcDbSpline
 62
9
  6
CONTINUOUS
 70
0
 71
3
 72
23
 73
19
 74
0
 42
0.0000001
 43
0.0000001
 44
0.0000000001
 40
0.0
 40
0.0
 40
0.0
 40
0.0
 40
0.0119542989
 40
0.0254383591
 40
0.040380891
 40
0.0567010738
 40
0.0743147698
 40
0.0931617727
 40
0.1132381355
 40
0.134547589
 40
0.1808795848
 40
0.2321796434
 40
0.2884025656
 40
0.3494543722
 40
0.4856675082
 40
0.6401048447
 40
0.8119829065
 40
1.0
 40
1.0
 40
1.0
 40
1.0
 10
10.7139569057
 20
10.4552842046
 30
0.0
 10
10.7126282268
 20
10.45726719
 30
0.0
 10
10.7099267837
 20
10.4615711393
 30
0.0
 10
10.7058676466
 20
10.4685384484
 30
0.0
 10
10.7015083858
 20
10.4763379476
 30
0.0
 10
10.6968061191
 20
10.4848897437
 30
0.0
 10
10.6917116048
 20
10.4941156616
 30
0.0
 10
10.6861843206
 20
10.5039590677
 30
0.0
 10
10.6802482303
 20
10.5144190415
 30
0.0
 10
10.6715531885
 20
10.5296234046
 30
0.0
 10
10.6596996575
 20
10.5502034325
 30
0.0
 10
10.6443721714
 20
10.5768275269
 30
0.0
 10
10.6276044049
 20
10.606013888
 30
0.0
 10
10.6024080045
 20
10.6499117888
 30
0.0
 10
10.5674583679
 20
10.7108232731
 30
0.0
 10
10.5215794617
 20
10.7909769819
 30
0.0
 10
10.4707850874
 20
10.8802351462
 30
0.0
 10
10.4349956188
 20
10.9425515691
 30
0.0
 10
10.4161546975
 20
10.9750236765
 30
0.0
  0
SPLINE
  5
3C4
100
AcDbEntity
  8
0
100
AcDbSpline
 62
7
  6
CONTINUOUS
 70
0
 71
3
 72
11
 73
7
 74
0
 42
0.0000001
 43
0.0000001
 44
0.0000000001
 40
0.0
 40
0.0
 40
0.0
 40
0.0
 40
0.2798837239
 40
0.5253906786
 40
0.7592473311
 40
1.0
 40
1.0
 40
1.0
 40
1.0
 10
10.1025912911
 20
9.908507176
 30
0.0
 10
10.1020695111
 20
9.9083746689
 30
0.0
 10
10.1010532179
 20
9.9082349314
 30
0.0
 10
10.0995894704
 20
9.9084895741
 30
0.0
 10
10.0983557597
 20
9.9091669037
 30
0.0
 10
10.0977043871
 20
9.909822282
 30
0.0
 10
10.0974146159
 20
9.9101834907
 30
0.0
  0
LINE
  5
3C5
100
AcDbEntity
  8
0
100
AcDbLine
 62
9
  6
CONTINUOUS
 10
11.6065208128
 20
5.4765200371
 11
11.6064077382
 21
5.4771936332
  0
LINE
  5
3C6
100
AcDbEntity
  8
0
100
AcDbLine
 62
9
  6
CONTINUOUS
 10
11.6064077382
 20
5.4771936332
 11
11.6056627389
 21
5.4783648602
  0
SPLINE
  5
3C7
100
AcDbEntity
  8
0
100
AcDbSpline
 62
7
  6
CONTINUOUS
 70
0
 71
3
 72
12
 73
8
 74
0
 42
0.0000001
 43
0.0000001
 44
0.0000000001
 40
0.0
 40
0.0
 40
0.0
 40
0.0
 40
0.2507473289
 40
0.500509159
 40
0.6253060489
 40
0.7503349669
 40
1.0
 40
1.0
 40
1.0
 40
1.0
 10
10.0974146159
 20
9.9101834907
 30
0.0
 10
10.0967719716
 20
9.9109845557
 30
0.0
 10
10.095473316
 20
9.9125710932
 30
0.0
 10
10.0937863142
 20
9.9144984815
 30
0.0
 10
10.0924164485
 20
9.9160184516
 30
0.0
 10
10.0910488686
 20
9.9175397286
 30
0.0
 10
10.0900112134
 20
9.9186713744
 30
0.0
 10
10.08929193
 20
9.9193981776
 30
0.0
  0
SPLINE
  5
3C8
100
AcDbEntity
  8
0
100
AcDbSpline
 62
7
  6
CONTINUOUS
 70
0
 71
3
 72
15
 73
11
 74
0
 42
0.0000001
 43
0.0000001
 44
0.0000000001
 40
0.0
 40
0.0
 40
0.0
 40
0.0
 40
0.1098996512
 40
0.2242084498
 40
0.3428196951
 40
0.465684595
 40
0.5928429452
 40
0.7243351425
 40
0.8600977538
 40
1.0
 40
1.0
 40
1.0
 40
1.0
 10
10.08929193
 20
9.9193981776
 30
0.0
 10
10.0789655151
 20
9.9195530775
 30
0.0
 10
10.0578979853
 20
9.9198421808
 30
0.0
 10
10.0256845594
 20
9.9202273866
 30
0.0
 10
9.9922525322
 20
9.9206000408
 30
0.0
 10
9.9576126185
 20
9.9209453473
 30
0.0
 10
9.9217611237
 20
9.9211725182
 30
0.0
 10
9.8846967983
 20
9.9211929744
 30
0.0
 10
9.8464354515
 20
9.9209970645
 30
0.0
 10
9.8205316038
 20
9.9207438037
 30
0.0
 10
9.8073855062
 20
9.920589418
 30
0.0
  0
SPLINE
  5
3C9
100
AcDbEntity
  8
0
100
AcDbSpline
 62
7
  6
CONTINUOUS
 70
0
 71
3
 72
11
 73
7
 74
0
 42
0.0000001
 43
0.0000001
 44
0.0000000001
 40
0.0
 40
0.0
 40
0.0
 40
0.0
 40
0.2499753941
 40
0.5001384402
 40
0.7501496007
 40
1.0
 40
1.0
 40
1.0
 40
1.0
 10
11.4052871641
 20
9.4027033364
 30
0.0
 10
11.4040831522
 20
9.400617924
 30
0.0
 10
11.4013097345
 20
9.3966435339
 30
0.0
 10
11.3961506537
 20
9.391524033
 30
0.0
 10
11.3900793121
 20
9.3875170409
 30
0.0
 10
11.3855269307
 20
9.3857911043
 30
0.0
 10
11.383187401
 20
9.3852259558
 30
0.0
  0
LINE
  5
3CA
100
AcDbEntity
  8
0
100
AcDbLine
 62
9
  6
CONTINUOUS
 10
10.4064011938
 20
9.8927842008
 11
10.1199802826
 21
9.8937364551
  0
LINE
  5
3CB
100
AcDbEntity
  8
0
100
AcDbLine
 62
9
  6
CONTINUOUS
 10
10.4881052736
 20
5.47654631
 11
10.4882194583
 21
5.4771728035
  0
LINE
  5
3CC
100
AcDbEntity
  8
0
100
AcDbLine
 62
9
  6
CONTINUOUS
 10
10.4882194583
 20
5.4771728035
 11
10.4889751325
 21
5.4783701654
  0
SPLINE
  5
3CD
100
AcDbEntity
  8
0
100
AcDbSpline
 62
7
  6
CONTINUOUS
 70
0
 71
3
 72
11
 73
7
 74
0
 42
0.0000001
 43
0.0000001
 44
0.0000000001
 40
0.0
 40
0.0
 40
0.0
 40
0.0
 40
0.2288967695
 40
0.4718055222
 40
0.7288533143
 40
1.0
 40
1.0
 40
1.0
 40
1.0
 10
10.6699165272
 20
9.4207663643
 30
0.0
 10
10.6333479858
 20
9.4624878537
 30
0.0
 10
10.5544347264
 20
9.5454262433
 30
0.0
 10
10.4239425631
 20
9.6646790599
 30
0.0
 10
10.2783440574
 20
9.7820302068
 30
0.0
 10
10.1742928046
 20
9.8567344561
 30
0.0
 10
10.1199802608
 20
9.8937373031
 30
0.0
  0
LINE
  5
3CE
100
AcDbEntity
  8
0
100
AcDbLine
 62
9
  6
CONTINUOUS
 10
10.711449337
 20
9.3852259501
 11
10.7117733569
 21
9.3843893652
  0
SPLINE
  5
3CF
100
AcDbEntity
  8
0
100
AcDbSpline
 62
7
  6
CONTINUOUS
 70
0
 71
3
 72
29
 73
25
 74
0
 42
0.0000001
 43
0.0000001
 44
0.0000000001
 40
0.0
 40
0.0
 40
0.0
 40
0.0
 40
0.0215257
 40
0.0444446295
 40
0.0694282748
 40
0.0977630719
 40
0.1286175583
 40
0.1549779878
 40
0.1763536197
 40
0.1951813038
 40
0.2292931869
 40
0.2612575313
 40
0.292175299
 40
0.3224819377
 40
0.3523850189
 40
0.3819961548
 40
0.4405727397
 40
0.4985048119
 40
0.5559160545
 40
0.6128671568
 40
0.6693895044
 40
0.7812001227
 40
0.8914054483
 40
1.0
 40
1.0
 40
1.0
 40
1.0
 10
11.9746864267
 20
9.8937577508
 30
0.0
 10
11.9750630041
 20
9.8940142341
 30
0.0
 10
11.9758295916
 20
9.8945609684
 30
0.0
 10
11.9769474744
 20
9.895518168
 30
0.0
 10
11.9780606834
 20
9.8966920787
 30
0.0
 10
11.9790624797
 20
9.8981807751
 30
0.0
 10
11.979639913
 20
9.8999359252
 30
0.0
 10
11.9795797364
 20
9.9016290728
 30
0.0
 10
11.9791402477
 20
9.9029797192
 30
0.0
 10
11.9783845139
 20
9.9043657738
 30
0.0
 10
11.9772354325
 20
9.9057647177
 30
0.0
 10
11.97570963
 20
9.9071436932
 30
0.0
 10
11.9741225366
 20
9.9083189394
 30
0.0
 10
11.9724948771
 20
9.9093559708
 30
0.0
 10
11.9708386865
 20
9.9102910296
 30
0.0
 10
11.9686114102
 20
9.9114267723
 30
0.0
 10
11.9657855885
 20
9.9126888896
 30
0.0
 10
11.9623534984
 20
9.9140230346
 30
0.0
 10
11.9589060263
 20
9.9152146234
 30
0.0
 10
11.9554526556
 20
9.9162918902
 30
0.0
 10
11.950865742
 20
9.9175966654
 30
0.0
 10
11.9451450702
 20
9.9190289759
 30
0.0
 10
11.938304263
 20
9.9205073563
 30
0.0
 10
11.9337532657
 20
9.9213685388
 30
0.0
 10
11.9314901055
 20
9.9217704681
 30
0.0
  0
SPLINE
  5
3D0
100
AcDbEntity
  8
0
100
AcDbSpline
 62
7
  6
CONTINUOUS
 70
0
 71
3
 72
16
 73
12
 74
0
 42
0.0000001
 43
0.0000001
 44
0.0000000001
 40
0.0
 40
0.0
 40
0.0
 40
0.0
 40
0.1805250521
 40
0.389655037
 40
0.6478002407
 40
0.7246345396
 40
0.8085541764
 40
0.8534653589
 40
0.9010331445
 40
0.9500910917
 40
1.0
 40
1.0
 40
1.0
 40
1.0
 10
12.0075920426
 20
9.9215237055
 30
0.0
 10
12.0063503434
 20
9.9203368966
 30
0.0
 10
12.0037918471
 20
9.9176456366
 30
0.0
 10
11.9999512402
 20
9.9128159452
 30
0.0
 10
11.9970819348
 20
9.9084984613
 30
0.0
 10
11.9950368161
 20
9.9050773381
 30
0.0
 10
11.9940726362
 20
9.9033742814
 30
0.0
 10
11.9932662051
 20
9.9019022753
 30
0.0
 10
11.9926410658
 20
9.9007093903
 30
0.0
 10
11.9920041316
 20
9.8994692088
 30
0.0
 10
11.9915686698
 20
9.8986341281
 30
0.0
 10
11.9913605027
 20
9.8982073152
 30
0.0
  0
SPLINE
  5
3D1
100
AcDbEntity
  8
0
100
AcDbSpline
 62
7
  6
CONTINUOUS
 70
0
 71
3
 72
9
 73
5
 74
0
 42
0.0000001
 43
0.0000001
 44
0.0000000001
 40
0.0
 40
0.0
 40
0.0
 40
0.0
 40
0.2512489578
 40
1.0
 40
1.0
 40
1.0
 40
1.0
 10
11.9972212581
 20
9.9101827911
 30
0.0
 10
11.9980265657
 20
9.9111866162
 30
0.0
 10
12.0012934645
 20
9.9151318901
 30
0.0
 10
12.0048132789
 20
9.9188692571
 30
0.0
 10
12.0075857617
 20
9.9215191764
 30
0.0
  0
LINE
  5
3D2
100
AcDbEntity
  8
0
100
AcDbLine
 62
9
  6
CONTINUOUS
 10
12.0075857617
 20
9.9215191764
 11
12.2872511717
 21
9.9205892912
  0
LINE
  5
3D3
100
AcDbEntity
  8
0
100
AcDbLine
 62
7
  6
CONTINUOUS
 10
11.9189947267
 20
9.7268788933
 11
11.9201222605
 21
9.729574331
  0
LINE
  5
3D4
100
AcDbEntity
  8
0
100
AcDbLine
 62
7
  6
CONTINUOUS
 10
11.9201222605
 20
9.729574331
 11
11.9316012224
 21
9.7569759876
  0
SPLINE
  5
3D5
100
AcDbEntity
  8
0
100
AcDbSpline
 62
7
  6
CONTINUOUS
 70
0
 71
3
 72
11
 73
7
 74
0
 42
0.0000001
 43
0.0000001
 44
0.0000000001
 40
0.0
 40
0.0
 40
0.0
 40
0.0
 40
0.2498642753
 40
0.4998922911
 40
0.7500341995
 40
1.0
 40
1.0
 40
1.0
 40
1.0
 10
10.7114492791
 20
9.3852259551
 30
0.0
 10
10.7091096185
 20
9.3857911355
 30
0.0
 10
10.704557261
 20
9.3875179224
 30
0.0
 10
10.6984854187
 20
9.3915241745
 30
0.0
 10
10.6933263048
 20
9.3966435996
 30
0.0
 10
10.6905534731
 20
9.4006180161
 30
0.0
 10
10.6893495057
 20
9.4027033486
 30
0.0
  0
LINE
  5
3D6
100
AcDbEntity
  8
0
100
AcDbLine
 62
9
  6
CONTINUOUS
 10
10.1052780813
 20
9.8937853823
 11
9.8073855061
 21
9.8947768757
  0
SPLINE
  5
3D7
100
AcDbEntity
  8
0
100
AcDbSpline
 62
7
  6
CONTINUOUS
 70
0
 71
3
 72
18
 73
14
 74
0
 42
0.0000001
 43
0.0000001
 44
0.0000000001
 40
0.0
 40
0.0
 40
0.0
 40
0.0
 40
0.0473773425
 40
0.0934716092
 40
0.1392121211
 40
0.1829568425
 40
0.2649354175
 40
0.34097358
 40
0.5999920249
 40
0.7104700446
 40
0.8121207455
 40
0.9069951309
 40
1.0
 40
1.0
 40
1.0
 40
1.0
 10
10.103276367
 20
9.8982068786
 30
0.0
 10
10.1031002174
 20
9.8985680496
 30
0.0
 10
10.102738176
 20
9.8992734558
 30
0.0
 10
10.1021931433
 20
9.9003208385
 30
0.0
 10
10.1016661201
 20
9.9013429281
 30
0.0
 10
10.1009792589
 20
9.902624848
 30
0.0
 10
10.1001463707
 20
9.9041199128
 30
0.0
 10
10.0983710777
 20
9.907179235
 30
0.0
 10
10.0963360947
 20
9.9103684457
 30
0.0
 10
10.0940001129
 20
9.9136111319
 30
0.0
 10
10.0924093817
 20
9.9156739389
 30
0.0
 10
10.0908205002
 20
9.9175461537
 30
0.0
 10
10.0897984407
 20
9.9187701653
 30
0.0
 10
10.0892593825
 20
9.9193460768
 30
0.0
  0
SPLINE
  5
3D8
100
AcDbEntity
  8
0
100
AcDbSpline
 62
9
  6
CONTINUOUS
 70
0
 71
3
 72
11
 73
7
 74
0
 42
0.0000001
 43
0.0000001
 44
0.0000000001
 40
0.0
 40
0.0
 40
0.0
 40
0.0
 40
0.3425886814
 40
0.4896706644
 40
0.6207561781
 40
1.0
 40
1.0
 40
1.0
 40
1.0
 10
10.1682452184
 20
9.7685967784
 30
0.0
 10
10.1677547855
 20
9.7681115257
 30
0.0
 10
10.1670849375
 20
9.7673858929
 30
0.0
 10
10.1663455124
 20
9.7663697365
 30
0.0
 10
10.1656735352
 20
9.7652519477
 30
0.0
 10
10.1653053284
 20
9.7641199012
 30
0.0
 10
10.1655534877
 20
9.7633976005
 30
0.0
  0
LINE
  5
3D9
100
AcDbEntity
  8
0
100
AcDbLine
 62
7
  6
CONTINUOUS
 10
10.1052781008
 20
9.8937853417
 11
10.103276367
 21
9.8982068786
  0
ENDSEC
  0
SECTION
  2
OBJECTS
  0
DICTIONARY
  5
C
100
AcDbDictionary
280
0
281
1
  3
ACAD_GROUP
350
D
  3
ACAD_MLINESTYLE
350
17
  3
ACAD_LAYOUT
350
1A
  3
ACAD_PLOTSETTINGS
350
19
  3
ACAD_PLOTSTYLENAME
350
E
  0
DICTIONARY
  5
D
102
{ACAD_REACTORS
330
C
102
}
100
AcDbDictionary
280
0
281
1
  0
ACDBDICTIONARYWDFLT
  5
E
102
{ACAD_REACTORS
330
C
102
}
100
AcDbDictionary
281
1
  3
Normal
350
F
100
AcDbDictionaryWithDefault
340
F
  0
DICTIONARY
  5
17
102
{ACAD_REACTORS
330
C
102
}
100
AcDbDictionary
280
0
281
1
  3
Standard
350
18
  0
DICTIONARY
  5
19
102
{ACAD_REACTORS
330
C
102
}
100
AcDbDictionary
281
1
  0
DICTIONARY
  5
1A
102
{ACAD_REACTORS
330
C
102
}
100
AcDbDictionary
281
1
  3
Model
350
3DA
  3
Layout1
350
3DB
  0
ACDBPLACEHOLDER
  5
F
102
{ACAD_REACTORS
330
E
102
}
  0
MLINESTYLE
  5
18
102
{ACAD_REACTORS
330
17
102
}
100
AcDbMlineStyle
  2
STANDARD
 70
0
  3

 62
256
 51
90.0
 52
90.0
 71
2
 49
0.5
 62
256
  6
BYLAYER
 49
-0.5
 62
256
  6
BYLAYER
  0
LAYOUT
  5
3DA
102
{ACAD_REACTORS
330
1A
102
}
100
AcDbPlotSettings
  1

  2
none_device
  4
ANSI_C_(22.00_x_17.00_Inches)
  6

 40
0.0
 41
0.0
 42
0.0
 43
0.0
 44
558.8
 45
431.8
 46
0.0
 47
0.0
 48
0.0
 49
0.0
140
0.0
141
0.0
142
1.0
143
1.0
 70
1024
 72
0
 73
0
 74
0
  7

 75
0
147
1.0
148
0.0
149
0.0
100
AcDbLayout
  1
Model
 70
0
 71
0
 10
0.0
 20
0.0
 11
22.0
 21
17.0
 12
0.0
 22
0.0
 32
0.0
 14
0.0
 24
0.0
 34
0.0
 15
0.0
 25
0.0
 35
0.0
146
0.0
 13
0.0
 23
0.0
 33
0.0
 16
1.0
 26
0.0
 36
0.0
 17
0.0
 27
1.0
 37
0.0
 76
0
330
202
345
0
346
0
  0
LAYOUT
  5
3DB
102
{ACAD_REACTORS
330
1A
102
}
100
AcDbPlotSettings
  1

  2
none_device
  4
ANSI_C_(22.00_x_17.00_Inches)
  6

 40
0.0
 41
0.0
 42
0.0
 43
0.0
 44
558.8
 45
431.8
 46
0.0
 47
0.0
 48
0.0
 49
0.0
140
0.0
141
0.0
142
1.0
143
1.0
 70
0
 72
0
 73
0
 74
0
  7

 75
0
147
1.0
148
0.0
149
0.0
100
AcDbLayout
  1
Layout1
 70
0
 71
1
 10
0.0
 20
0.0
 11
22.0
 21
17.0
 12
0.0
 22
0.0
 32
0.0
 14
0.0
 24
0.0
 34
0.0
 15
0.0
 25
0.0
 35
0.0
146
0.0
 13
0.0
 23
0.0
 33
0.0
 16
1.0
 26
0.0
 36
0.0
 17
0.0
 27
1.0
 37
0.0
 76
0
330
203
345
0
346
0
  0
ENDSEC
  0
EOF
