999
DXF file: 1233_front.dxf
999
Pro/ENGINEER 2018400 by Parametric Technology Corporation
  0
SECTION
  2
HEADER
  9
$ACADVER
  1
AC1027
  9
$DWGCODEPAGE
  3
ANSI_1252
  9
$EXTMAX
 10
11.0
 20
8.5
 30
0.0
  9
$EXTMIN
 10
0.0
 20
0.0
 30
0.0
  9
$LIMMIN
 10
0.0
 20
0.0
  9
$LIMMAX
 10
11.0
 20
8.5
  9
$VIEWCTR
 10
5.5
 20
4.25
  9
$VIEWSIZE
 40
8.5
  9
$CLAYER
  8
0
  9
$LTSCALE
 40
0.605
  9
$CELTYPE
  6
BYLAYER
  9
$DIMSCALE
 40
1.0
  9
$DIMASZ
 40
0.1
  9
$DIMEXO
 40
0.0625
  9
$DIMDLI
 40
0.418
  9
$DIMEXE
 40
0.125
  9
$DIMCEN
 40
0.099
  9
$DIMLFAC
 40
1.0
  9
$DIMBLK
  1
_FILLED
  9
$DIMALT
 70
1
  9
$DIMALTD
 70
2
  9
$DIMALTTD
 70
2
  9
$DIMALTF
 40
25.4
  9
$DIMTXT
 40
0.08
  9
$DIMTOL
 70
1
  9
$DIMLIM
 70
0
  9
$DIMTFAC
 40
1.0
  9
$DIMTP
 40
0.001
  9
$DIMTM
 40
0.001
  9
$DIMGAP
 40
0.09
  9
$DIMDSEP
 70
46
  9
$AUNITS
 70
0
  9
$PDMODE
 70
3
  9
$PDSIZE
 40
0.3125
  9
$HANDSEED
  5
448
  9
$TILEMODE
 70
1
  9
$MEASUREMENT
 70
0
  9
$INSUNITS
 70
1
  0
ENDSEC
  0
SECTION
  2
CLASSES
  0
CLASS
  1
ACDBDICTIONARYWDFLT
  2
AcDbDictionaryWithDefault
  3
AutoCAD 2000
 90
0
 91
1
280
0
281
0
  0
CLASS
  1
ACDBPLACEHOLDER
  2
AcDbPlaceHolder
  3
AutoCAD 2000
 90
0
 91
1
280
0
281
0
  0
CLASS
  1
LAYOUT
  2
AcDbLayout
  3
AutoCAD 2000
 90
0
 91
0
280
0
281
0
  0
ENDSEC
  0
SECTION
  2
TABLES
  0
TABLE
  2
VPORT
  5
8
100
AcDbSymbolTable
 70
2
  0
VPORT
  5
1F4
100
AcDbSymbolTableRecord
100
AcDbViewportTableRecord
  2
*ACTIVE
 70
0
 10
0.0
 20
0.0
 11
1.0
 21
1.0
 12
5.5
 22
4.25
 13
0.0
 23
0.0
 14
1.0
 24
1.0
 15
0.0
 25
0.0
 16
0.0
 26
0.0
 36
1.0
 17
0.0
 27
0.0
 37
0.0
 40
8.5
 41
1.2941176471
 42
50.0
 43
0.0
 44
0.0
 50
0.0
 51
0.0
 71
0
 72
100
 73
1
 74
1
 75
0
 76
0
 77
0
 78
0
  0
ENDTAB
  0
TABLE
  2
LTYPE
  5
5
100
AcDbSymbolTable
 70
6
  0
LTYPE
  5
14
100
AcDbSymbolTableRecord
100
AcDbLinetypeTableRecord
  2
BYBLOCK
 70
0
  3

 72
65
 73
0
 40
0.0
  0
LTYPE
  5
15
100
AcDbSymbolTableRecord
100
AcDbLinetypeTableRecord
  2
BYLAYER
 70
0
  3

 72
65
 73
0
 40
0.0
  0
LTYPE
  5
16
100
AcDbSymbolTableRecord
100
AcDbLinetypeTableRecord
  2
CONTINUOUS
 70
64
  3
Solid line
 72
65
 73
0
 40
0.0
  0
LTYPE
  5
1F5
100
AcDbSymbolTableRecord
100
AcDbLinetypeTableRecord
  2
CENTER
 70
64
  3
____ _ ____ _ ____ _ ____ _ ____ _ ____ _ ____
 72
65
 73
4
 40
0.6
 49
0.375
 74
0
 49
-0.075
 74
0
 49
0.075
 74
0
 49
-0.075
 74
0
  0
LTYPE
  5
1F6
100
AcDbSymbolTableRecord
100
AcDbLinetypeTableRecord
  2
HIDDEN
 70
64
  3
- - - - - - - - - - - - - - - - - - - -
 72
65
 73
2
 40
0.2
 49
0.1
 74
0
 49
-0.1
 74
0
  0
LTYPE
  5
1F7
100
AcDbSymbolTableRecord
100
AcDbLinetypeTableRecord
  2
PHANTOM
 70
64
  3
_____ _ _ _____ _ _ _____ _ _ _____
 72
65
 73
6
 40
0.8
 49
0.45
 74
0
 49
-0.05
 74
0
 49
0.1
 74
0
 49
-0.05
 74
0
 49
0.1
 74
0
 49
-0.05
 74
0
  0
LTYPE
  5
1F8
100
AcDbSymbolTableRecord
100
AcDbLinetypeTableRecord
  2
DOT
 70
64
  3
. . . . . . . . . . . . . . . . . . . .
 72
65
 73
2
 40
0.2
 49
0.1
 74
0
 49
-0.1
 74
0
  0
LTYPE
  5
1F9
100
AcDbSymbolTableRecord
100
AcDbLinetypeTableRecord
  2
DASHED
 70
64
  3
- - - - - - - - - - - - - - - - - - - -
 72
65
 73
2
 40
0.2
 49
0.1
 74
0
 49
-0.1
 74
0
  0
ENDTAB
  0
TABLE
  2
LAYER
  5
2
100
AcDbSymbolTable
 70
36
  0
LAYER
  5
10
100
AcDbSymbolTableRecord
100
AcDbLayerTableRecord
  2
0
 70
0
 62
7
  6
CONTINUOUS
370
-3
390
F
  0
LAYER
  5
1FA
100
AcDbSymbolTableRecord
100
AcDbLayerTableRecord
  2
DEFAULT_1
 70
0
 62
7
  6
CENTER
370
-3
390
F
  0
LAYER
  5
1FB
100
AcDbSymbolTableRecord
100
AcDbLayerTableRecord
  2
DEFAULT_2
 70
0
 62
8
  6
HIDDEN
370
-3
390
F
  0
LAYER
  5
1FC
100
AcDbSymbolTableRecord
100
AcDbLayerTableRecord
  2
DEFAULT_3
 70
0
 62
7
  6
PHANTOM
370
-3
390
F
  0
LAYER
  5
1FD
100
AcDbSymbolTableRecord
100
AcDbLayerTableRecord
  2
DEFAULT_COORDINATE_SYSTEM
 70
0
 62
7
  6
CONTINUOUS
370
-3
390
F
  0
LAYER
  5
1FE
100
AcDbSymbolTableRecord
100
AcDbLayerTableRecord
  2
DEFAULT_DATUM_AXES
 70
0
 62
7
  6
CONTINUOUS
370
-3
390
F
  0
LAYER
  5
1FF
100
AcDbSymbolTableRecord
100
AcDbLayerTableRecord
  2
DEFAULT_DATUM_PLANES
 70
0
 62
7
  6
CONTINUOUS
370
-3
390
F
  0
ENDTAB
  0
TABLE
  2
STYLE
  5
3
100
AcDbSymbolTable
 70
1
  0
STYLE
  5
11
100
AcDbSymbolTableRecord
100
AcDbTextStyleTableRecord
  2
STANDARD
 70
0
 40
0.0
 41
0.8
 50
0.0
 71
0
 42
0.2
  3
txt
  4

  0
STYLE
  5
200
100
AcDbSymbolTableRecord
100
AcDbTextStyleTableRecord
  2
TEXTSTYLE_1
 70
0
 40
0.0
 41
0.8
 50
0.0
 71
0
 42
0.2
  3
gdt
  4

  0
ENDTAB
  0
TABLE
  2
VIEW
  5
6
100
AcDbSymbolTable
 70
0
  0
ENDTAB
  0
TABLE
  2
UCS
  5
7
100
AcDbSymbolTable
 70
0
  0
ENDTAB
  0
TABLE
  2
APPID
  5
9
100
AcDbSymbolTable
 70
1
  0
APPID
  5
201
100
AcDbSymbolTableRecord
100
AcDbRegAppTableRecord
  2
ACAD
 70
0
  0
ENDTAB
  0
TABLE
  2
BLOCK_RECORD
  5
1
100
AcDbSymbolTable
 70
0
  0
BLOCK_RECORD
  5
202
100
AcDbSymbolTableRecord
100
AcDbBlockTableRecord
  2
*Model_Space
  0
BLOCK_RECORD
  5
203
100
AcDbSymbolTableRecord
100
AcDbBlockTableRecord
  2
*Paper_Space
  0
BLOCK_RECORD
  5
204
100
AcDbSymbolTableRecord
100
AcDbBlockTableRecord
  2
_FILLED
  0
ENDTAB
  0
TABLE
  2
DIMSTYLE
  5
A
100
AcDbSymbolTable
 70
1
100
AcDbDimStyleTable
 71
0
  0
DIMSTYLE
105
205
100
AcDbSymbolTableRecord
100
AcDbDimStyleTableRecord
  2
STANDARD
 70
0
  3

  4

 40
1.0
 41
0.1
 42
0.0625
 43
0.38
 44
0.125
 45
0.0
 46
0.0
 47
0.001
 48
0.001
140
0.08
141
0.09
142
0.0
143
25.4
144
1.0
145
0.0
146
1.0
147
0.09
 71
1.0
 72
0.0
 73
1
 74
1
 75
0
 76
0
 77
0
 78
4
 79
1
170
1
171
2
172
0
173
0
174
0
175
0
176
0
177
0
178
0
270
2
179
3
271
3
272
3
273
2
274
2
275
0
280
0
281
0
282
0
283
1
284
4
285
0
286
0
287
3
288
0
340
11
278
46
341
204
342
204
343
204
344
204
  0
ENDTAB
  0
ENDSEC
  0
SECTION
  2
BLOCKS
  0
BLOCK
  5
20
100
AcDbEntity
  8
0
100
AcDbBlockBegin
  2
*Model_Space
 70
0
 10
0.0
 20
0.0
 30
0.0
  3
*Model_Space
  1

  0
ENDBLK
  5
21
100
AcDbEntity
  8
0
100
AcDbBlockEnd
  0
BLOCK
  5
1C
100
AcDbEntity
  8
0
100
AcDbBlockBegin
  2
*Paper_Space
 70
0
 10
0.0
 20
0.0
 30
0.0
  3
*Paper_Space
  1

  0
ENDBLK
  5
1D
100
AcDbEntity
  8
0
100
AcDbBlockEnd
  0
BLOCK
  5
206
100
AcDbEntity
  8
0
100
AcDbBlockBegin
  2
_FILLED
 70
64
 10
0.0
 20
0.0
  3
_FILLED
  1

  0
SOLID
  5
207
100
AcDbEntity
  8
0
  6
BYBLOCK
 62
0
100
AcDbTrace
 10
0.0
 20
0.0
 11
-1.0
 21
0.2
 12
-1.0
 22
-0.2
 13
-1.0
 23
-0.2
  0
ENDBLK
  5
208
100
AcDbEntity
  8
0
  6
BYBLOCK
 62
0
100
AcDbBlockEnd
  0
ENDSEC
  0
SECTION
  2
ENTITIES
  0
MTEXT
  5
209
100
AcDbEntity
  8
0
100
AcDbMText
 62
2
  6
CONTINUOUS
  7
STANDARD
 71
3
 72
1
 10
5.4077639752
 20
1.4598184296
 30
0.0
 11
1.0
 21
0.0
 31
0.0
 73
2
 44
0.9
  1
SCALE  .500
 40
0.08
 41
0.704
  0
LINE
  5
20A
100
AcDbEntity
  8
0
100
AcDbLine
 62
7
  6
CONTINUOUS
 10
0.0
 20
0.0
 11
0.0
 21
8.5
  0
LINE
  5
20B
100
AcDbEntity
  8
0
100
AcDbLine
 62
7
  6
CONTINUOUS
 10
0.0
 20
0.0
 11
11.0
 21
0.0
  0
LINE
  5
20C
100
AcDbEntity
  8
0
100
AcDbLine
 62
7
  6
CONTINUOUS
 10
0.0
 20
8.5
 11
11.0
 21
8.5
  0
LINE
  5
20D
100
AcDbEntity
  8
0
100
AcDbLine
 62
7
  6
CONTINUOUS
 10
11.0
 20
0.0
 11
11.0
 21
8.5
  0
LINE
  5
20E
100
AcDbEntity
  8
0
100
AcDbLine
 62
7
  6
CONTINUOUS
 10
4.3485248447
 20
2.7769457588
 11
5.4985248447
 21
2.7769457588
  0
LINE
  5
20F
100
AcDbEntity
  8
0
100
AcDbLine
 62
7
  6
CONTINUOUS
 10
5.4926248447
 20
2.8919457588
 11
5.4905041429
 21
2.8919457588
  0
LINE
  5
210
100
AcDbEntity
  8
0
100
AcDbLine
 62
7
  6
CONTINUOUS
 10
5.249522894
 20
2.8919457588
 11
5.1645060937
 21
2.8919457588
  0
LINE
  5
211
100
AcDbEntity
  8
0
100
AcDbLine
 62
7
  6
CONTINUOUS
 10
4.3544248447
 20
2.8919457588
 11
4.3565455465
 21
2.8919457588
  0
LINE
  5
212
100
AcDbEntity
  8
0
100
AcDbLine
 62
7
  6
CONTINUOUS
 10
4.5975267955
 20
2.8919457588
 11
4.6825435958
 21
2.8919457588
  0
LINE
  5
213
100
AcDbEntity
  8
0
100
AcDbLine
 62
7
  6
CONTINUOUS
 10
4.8071987805
 20
6.4614846369
 11
4.8175702374
 21
6.4676440291
  0
LINE
  5
214
100
AcDbEntity
  8
0
100
AcDbLine
 62
7
  6
CONTINUOUS
 10
4.821006988
 20
6.4649838368
 11
4.8313846741
 21
6.4711384074
  0
LINE
  5
215
100
AcDbEntity
  8
0
100
AcDbLine
 62
7
  6
CONTINUOUS
 10
4.9272490712
 20
6.2736405954
 11
5.1122490712
 21
6.3289434616
  0
LINE
  5
216
100
AcDbEntity
  8
0
100
AcDbLine
 62
7
  6
CONTINUOUS
 10
4.9287916963
 20
6.2700518174
 11
5.1137916963
 21
6.3253546835
  0
LINE
  5
217
100
AcDbEntity
  8
0
100
AcDbLine
 62
7
  6
CONTINUOUS
 10
4.8071987805
 20
6.4614846369
 11
4.6768929016
 21
6.3359179237
  0
LINE
  5
218
100
AcDbEntity
  8
0
100
AcDbLine
 62
7
  6
CONTINUOUS
 10
4.9182579931
 20
6.2700518174
 11
4.7332579931
 21
6.1776696265
  0
LINE
  5
219
100
AcDbEntity
  8
0
100
AcDbLine
 62
7
  6
CONTINUOUS
 10
4.9198006182
 20
6.2664630393
 11
4.7348006182
 21
6.1740808484
  0
LINE
  5
21A
100
AcDbEntity
  8
0
100
AcDbLine
 62
7
  6
CONTINUOUS
 10
4.821006988
 20
6.4649838368
 11
4.7873039701
 21
6.4325065823
  0
LINE
  5
21B
100
AcDbEntity
  8
0
100
AcDbLine
 62
7
  6
CONTINUOUS
 10
4.7202049287
 20
6.3678479027
 11
4.6760248447
 21
6.3252746283
  0
LINE
  5
21C
100
AcDbEntity
  8
0
100
AcDbLine
 62
7
  6
CONTINUOUS
 10
4.8364869702
 20
6.4368316428
 11
4.7281164792
 21
6.3324025375
  0
LINE
  5
21D
100
AcDbEntity
  8
0
100
AcDbLine
 62
7
  6
CONTINUOUS
 10
4.8431711092
 20
6.4333725669
 11
4.7348006182
 21
6.3289434616
  0
LWPOLYLINE
  5
21E
100
AcDbEntity
  8
0
100
AcDbPolyline
 62
7
  6
CONTINUOUS
 90
91
 70
0
 10
5.4748914979
 20
2.9288019218
 10
5.4655645446
 20
2.9333129683
 10
5.4555448934
 20
2.9384036364
 10
5.4456688692
 20
2.9436772311
 10
5.4359331477
 20
2.9491333782
 10
5.4263482544
 20
2.9547647124
 10
5.4169375977
 20
2.9605553572
 10
5.4077040133
 20
2.9665006873
 10
5.3986505734
 20
2.9725962173
 10
5.3897995476
 20
2.9788241338
 10
5.3811531831
 20
2.985179202
 10
5.3727138149
 20
2.9916562923
 10
5.3645021652
 20
2.9982356459
 10
5.3565195838
 20
3.0049113636
 10
5.3487676095
 20
3.0116775467
 10
5.341265138
 20
3.0185123419
 10
5.3340121649
 20
3.0254092534
 10
5.3270093176
 20
3.0323613624
 10
5.3202736719
 20
3.0393441418
 10
5.3138038868
 20
3.0463501307
 10
5.3075988155
 20
3.0533716319
 10
5.3016728523
 20
3.0603817734
 10
5.29603205
 20
3.0673605155
 10
5.2906631919
 20
3.0743107869
 10
5.2855514319
 20
3.0812398734
 10
5.2807085623
 20
3.088118982
 10
5.2761153853
 20
3.0949617113
 10
5.2717167123
 20
3.1018430465
 10
5.2675138265
 20
3.1087594751
 10
5.2635090527
 20
3.1157067788
 10
5.259660073
 20
3.1227655361
 10
5.2559679861
 20
3.1299480522
 10
5.2524411974
 20
3.1372430222
 10
5.249057436
 20
3.1447006527
 10
5.2458170608
 20
3.1523260398
 10
5.2427225586
 20
3.1601116198
 10
5.2397605025
 20
3.1680911304
 10
5.2369295518
 20
3.1762715031
 10
5.2342344814
 20
3.1846403929
 10
5.2316729121
 20
3.1932042256
 10
5.2292416845
 20
3.2019699672
 10
5.226942412
 20
3.2109247862
 10
5.2247773792
 20
3.2200452837
 10
5.2227421792
 20
3.2293281517
 10
5.2208317621
 20
3.2387694524
 10
5.2190432003
 20
3.2483456896
 10
5.2173675907
 20
3.2580545477
 10
5.2157952501
 20
3.2678944651
 10
5.2143205813
 20
3.2778412641
 10
5.2129362668
 20
3.2878829184
 10
5.2116332586
 20
3.2980171741
 10
5.2104075513
 20
3.3082345191
 10
5.2092605008
 20
3.3185313286
 10
5.2081934448
 20
3.3289082798
 10
5.2072075708
 20
3.3393658022
 10
5.2063030777
 20
3.3499036861
 10
5.2054798656
 20
3.3605210927
 10
5.2047377007
 20
3.3712180616
 10
5.2040764421
 20
3.3819940614
 10
5.2034960352
 20
3.3928484733
 10
5.2029963563
 20
3.4037811476
 10
5.2025772442
 20
3.4147914153
 10
5.2022383522
 20
3.4258787068
 10
5.2019791797
 20
3.4370430087
 10
5.2017991737
 20
3.4482837892
 10
5.2016977041
 20
3.4596005017
 10
5.2016740348
 20
3.4709931758
 10
5.2017273467
 20
3.4824613777
 10
5.2018567407
 20
3.4940046514
 10
5.2020612443
 20
3.5056230197
 10
5.2023397638
 20
3.5173158778
 10
5.2026911082
 20
3.52908315
 10
5.2031140401
 20
3.540925705
 10
5.2036071671
 20
3.5528423178
 10
5.2041690714
 20
3.5648335946
 10
5.204798419
 20
3.5769032364
 10
5.2054936134
 20
3.5890508844
 10
5.2062529783
 20
3.601276587
 10
5.2070750321
 20
3.6135846668
 10
5.2079579334
 20
3.6259750443
 10
5.2088997235
 20
3.6384477074
 10
5.2098986916
 20
3.6510071204
 10
5.2109526945
 20
3.6636532827
 10
5.2120594649
 20
3.6763861934
 10
5.2132170667
 20
3.6892104562
 10
5.2144231084
 20
3.7021263518
 10
5.2156750627
 20
3.7151341673
 10
5.2169707084
 20
3.7282386475
 10
5.218307253
 20
3.7414399694
 10
5.2196816846
 20
3.7547385093
 10
5.2210911977
 20
3.7681392396
  0
LINE
  5
21F
100
AcDbEntity
  8
0
100
AcDbLine
 62
7
  6
CONTINUOUS
 10
4.6760248447
 20
6.3252746283
 11
4.6668747765
 21
6.3126116602
  0
LINE
  5
220
100
AcDbEntity
  8
0
100
AcDbLine
 62
7
  6
CONTINUOUS
 10
4.6768929016
 20
6.3359179237
 11
4.6677277948
 21
6.3232512883
  0
LINE
  5
221
100
AcDbEntity
  8
0
100
AcDbLine
 62
7
  6
CONTINUOUS
 10
4.3725303214
 20
2.9280134693
 11
4.3721581908
 21
2.9288019172
  0
LINE
  5
222
100
AcDbEntity
  8
0
100
AcDbLine
 62
7
  6
CONTINUOUS
 10
5.1710248447
 20
6.1276959709
 11
5.180174913
 21
6.1350335114
  0
LINE
  5
223
100
AcDbEntity
  8
0
100
AcDbLine
 62
7
  6
CONTINUOUS
 10
5.0038785803
 20
6.0696517431
 11
5.1122490712
 21
6.1740808484
  0
LINE
  5
224
100
AcDbEntity
  8
0
100
AcDbLine
 62
7
  6
CONTINUOUS
 10
5.0107609555
 20
6.0592663304
 11
5.1191314464
 21
6.1636954357
  0
LINE
  5
225
100
AcDbEntity
  8
0
100
AcDbLine
 62
7
  6
CONTINUOUS
 10
5.0107609555
 20
6.0513547402
 11
5.1191314464
 21
6.1557838455
  0
LINE
  5
226
100
AcDbEntity
  8
0
100
AcDbLine
 62
7
  6
CONTINUOUS
 10
5.0260427014
 20
5.9879867625
 11
5.1710248447
 21
6.1276959709
  0
LINE
  5
227
100
AcDbEntity
  8
0
100
AcDbLine
 62
7
  6
CONTINUOUS
 10
5.0398509089
 20
5.9861605347
 11
5.1701567878
 21
6.1117272479
  0
LINE
  5
228
100
AcDbEntity
  8
0
100
AcDbLine
 62
7
  6
CONTINUOUS
 10
5.1701567878
 20
6.1117272479
 11
5.1793218946
 21
6.1190491158
  0
LWPOLYLINE
  5
229
100
AcDbEntity
  8
0
100
AcDbPolyline
 62
7
  6
CONTINUOUS
 90
25
 70
0
 10
4.6947809334
 20
5.6049696679
 10
4.6945203224
 20
5.6048332646
 10
4.6935133712
 20
5.6042715427
 10
4.6925371002
 20
5.6036710669
 10
4.6915927356
 20
5.6030331809
 10
4.6906816574
 20
5.6023593728
 10
4.6898052991
 20
5.6016512311
 10
4.6889650688
 20
5.600910502
 10
4.6881620546
 20
5.6001387282
 10
4.6873971539
 20
5.5993373757
 10
4.68667169
 20
5.5985084034
 10
4.6859866514
 20
5.5976536417
 10
4.6853425007
 20
5.596774278
 10
4.6847404502
 20
5.5958726597
 10
4.6841812616
 20
5.5949507152
 10
4.6836648272
 20
5.5940089542
 10
4.6831920695
 20
5.5930496853
 10
4.6827637244
 20
5.5920751803
 10
4.6823796103
 20
5.5910857914
 10
4.6820404739
 20
5.590083967
 10
4.6817467718
 20
5.5890721451
 10
4.6814982978
 20
5.588050434
 10
4.6812953939
 20
5.5870204908
 10
4.6811384877
 20
5.5859856588
 10
4.6811197928
 20
5.585837242
  0
LINE
  5
22A
100
AcDbEntity
  8
0
100
AcDbLine
 62
7
  6
CONTINUOUS
 10
5.0554798303
 20
3.7317584175
 11
4.7915698587
 21
3.7317584175
  0
LINE
  5
22B
100
AcDbEntity
  8
0
100
AcDbLine
 62
7
  6
CONTINUOUS
 10
5.0398509089
 20
5.9861605347
 11
5.029479452
 21
5.9746563749
  0
LINE
  5
22C
100
AcDbEntity
  8
0
100
AcDbLine
 62
7
  6
CONTINUOUS
 10
5.0260427014
 20
5.9879867625
 11
5.0156650153
 21
5.9765067642
  0
LINE
  5
22D
100
AcDbEntity
  8
0
100
AcDbLine
 62
7
  6
CONTINUOUS
 10
5.0810553624
 20
5.8504171855
 11
4.9887761216
 21
5.7614940989
  0
LINE
  5
22E
100
AcDbEntity
  8
0
100
AcDbLine
 62
7
  6
CONTINUOUS
 10
5.0697748447
 20
5.8391126224
 11
4.9841035782
 21
5.7565571811
  0
LINE
  5
22F
100
AcDbEntity
  8
0
100
AcDbLine
 62
7
  6
CONTINUOUS
 10
4.9235248447
 20
6.275127116
 11
5.0001543538
 21
6.4348590875
  0
LINE
  5
230
100
AcDbEntity
  8
0
100
AcDbLine
 62
7
  6
CONTINUOUS
 10
4.9272490712
 20
6.2736405954
 11
5.0038785803
 21
6.4333725669
  0
LINE
  5
231
100
AcDbEntity
  8
0
100
AcDbLine
 62
7
  6
CONTINUOUS
 10
4.5330077598
 20
5.224155119
 11
4.5242866825
 21
5.2126957742
  0
LWPOLYLINE
  5
232
100
AcDbEntity
  8
0
100
AcDbPolyline
 62
7
  6
CONTINUOUS
 90
27
 70
0
 10
4.7411641902
 20
5.5006688291
 10
4.7369055765
 20
5.4954886999
 10
4.7311607932
 20
5.4882634036
 10
4.7255471688
 20
5.4809220622
 10
4.7200704835
 20
5.4734715368
 10
4.7147427149
 20
5.4659283906
 10
4.7095652781
 20
5.4582956087
 10
4.7045393907
 20
5.4505758083
 10
4.6996748962
 20
5.4427855686
 10
4.6949718934
 20
5.4349271045
 10
4.6904318236
 20
5.4270046646
 10
4.686064624
 20
5.4190383308
 10
4.6818698056
 20
5.4110307427
 10
4.6778479319
 20
5.4029861668
 10
4.6740074126
 20
5.3949254833
 10
4.6703455226
 20
5.3868481367
 10
4.6668605334
 20
5.3787553443
 10
4.6635594303
 20
5.3706700288
 10
4.6604382478
 20
5.3625907297
 10
4.6574947002
 20
5.3545196675
 10
4.6547354821
 20
5.3464858593
 10
4.6521570529
 20
5.3384924447
 10
4.6497544329
 20
5.3305374592
 10
4.6475297424
 20
5.3226433451
 10
4.6454801317
 20
5.3148186639
 10
4.643598994
 20
5.3070572493
 10
4.6420527056
 20
5.3001557706
  0
LINE
  5
233
100
AcDbEntity
  8
0
100
AcDbLine
 62
7
  6
CONTINUOUS
 10
4.7411642949
 20
5.5006689547
 11
4.7411681642
 21
5.5006735818
  0
LINE
  5
234
100
AcDbEntity
  8
0
100
AcDbLine
 62
7
  6
CONTINUOUS
 10
4.9198006182
 20
6.2664630393
 11
4.8431711092
 21
6.0696517431
  0
LINE
  5
235
100
AcDbEntity
  8
0
100
AcDbLine
 62
7
  6
CONTINUOUS
 10
4.9235248447
 20
6.2649765187
 11
4.8468953357
 21
6.0681652226
  0
LINE
  5
236
100
AcDbEntity
  8
0
100
AcDbLine
 62
7
  6
CONTINUOUS
 10
4.6200385615
 20
3.822791455
 11
4.6230475925
 21
3.7952543749
  0
LWPOLYLINE
  5
237
100
AcDbEntity
  8
0
100
AcDbPolyline
 62
7
  6
CONTINUOUS
 90
92
 70
0
 10
4.6230475925
 20
3.7952543749
 10
4.6259576503
 20
3.768147285
 10
4.6273671615
 20
3.7547466706
 10
4.6287415927
 20
3.7414482463
 10
4.6300781404
 20
3.72824704
 10
4.631373794
 20
3.7151426747
 10
4.6326257604
 20
3.7021349727
 10
4.6338318183
 20
3.6892191891
 10
4.6349894397
 20
3.6763950363
 10
4.6360962326
 20
3.6636622331
 10
4.6371502605
 20
3.6510161766
 10
4.6381492562
 20
3.638456868
 10
4.6390910765
 20
3.6259843077
 10
4.6399740109
 20
3.6135940315
 10
4.6407961008
 20
3.6012860517
 10
4.6415555049
 20
3.589060448
 10
4.6422507417
 20
3.5769128978
 10
4.6428801346
 20
3.564843353
 10
4.6434420872
 20
3.5528521717
 10
4.6439352656
 20
3.5409356516
 10
4.644358252
 20
3.5290931869
 10
4.6447096537
 20
3.5173260024
 10
4.6449882335
 20
3.5056332285
 10
4.6451928002
 20
3.4940149398
 10
4.6453222602
 20
3.4824717426
 10
4.6453756409
 20
3.4710036146
 10
4.6453520431
 20
3.459611012
 10
4.6452506477
 20
3.4482943679
 10
4.6450707185
 20
3.4370536542
 10
4.6448116252
 20
3.4258894176
 10
4.6444728147
 20
3.4148021901
 10
4.6440537862
 20
3.4037919859
 10
4.6435541938
 20
3.3928593751
 10
4.6429738763
 20
3.3820050255
 10
4.64231271
 20
3.3712290868
 10
4.6415706403
 20
3.3605321764
 10
4.6407475244
 20
3.3499148272
 10
4.6398431277
 20
3.3393770037
 10
4.6388573495
 20
3.3289195483
 10
4.637790393
 20
3.3185426734
 10
4.6366434519
 20
3.3082459396
 10
4.6354178663
 20
3.2980286592
 10
4.6341149842
 20
3.2878944466
 10
4.632730777
 20
3.2778528234
 10
4.6312562187
 20
3.2679060473
 10
4.6296840154
 20
3.2580661494
 10
4.6280085656
 20
3.2483572895
 10
4.6262201763
 20
3.2387810241
 10
4.6243099378
 20
3.2293396695
 10
4.6222749224
 20
3.2200567285
 10
4.6201100799
 20
3.2109361373
 10
4.6178110028
 20
3.2019812026
 10
4.6153799746
 20
3.1932153255
 10
4.6128186021
 20
3.1846513278
 10
4.6101237271
 20
3.1762822519
 10
4.6072929775
 20
3.1681016992
 10
4.6043311239
 20
3.1601220126
 10
4.6012368302
 20
3.1523362691
 10
4.5979966875
 20
3.1447107628
 10
4.5946131908
 20
3.1372530527
 10
4.5910866885
 20
3.1299580224
 10
4.5873948976
 20
3.1227754881
 10
4.5835462483
 20
3.1157167856
 10
4.5795418433
 20
3.1087695852
 10
4.5753393376
 20
3.1018532532
 10
4.5709410521
 20
3.0949720106
 10
4.5663482672
 20
3.0881293668
 10
4.5615057574
 20
3.0812502801
 10
4.5563943143
 20
3.0743211422
 10
4.5510257332
 20
3.0673707591
 10
4.5453851411
 20
3.0603918199
 10
4.5394592981
 20
3.0533813788
 10
4.5332542692
 20
3.0463595031
 10
4.5267844787
 20
3.0393531071
 10
4.520048785
 20
3.0323698977
 10
4.5130458374
 20
3.0254173306
 10
4.5057927288
 20
3.0185199531
 10
4.498290093
 20
3.0116846925
 10
4.4905379175
 20
3.0049180384
 10
4.4825550916
 20
2.9982418403
 10
4.4743431517
 20
2.9916619995
 10
4.465903448
 20
2.9851844163
 10
4.4572566931
 20
2.9788288451
 10
4.4484052183
 20
2.9726004184
 10
4.4393512724
 20
2.9665043729
 10
4.4301171156
 20
2.960558519
 10
4.4207058157
 20
2.9547673468
 10
4.4111202095
 20
2.9491354839
 10
4.4013836966
 20
2.9436788038
 10
4.3915067954
 20
2.9384046777
 10
4.3814861843
 20
2.9333134852
 10
4.3721581882
 20
2.9288019227
  0
LINE
  5
238
100
AcDbEntity
  8
0
100
AcDbLine
 62
7
  6
CONTINUOUS
 10
4.5166431741
 20
4.7207966212
 11
4.5207399331
 21
4.6816971845
  0
LWPOLYLINE
  5
239
100
AcDbEntity
  8
0
100
AcDbPolyline
 62
7
  6
CONTINUOUS
 90
10
 70
0
 10
4.4759244681
 20
5.1488014778
 10
4.4790568902
 20
5.110435085
 10
4.4825006794
 20
5.0698276129
 10
4.4861945977
 20
5.0278355827
 10
4.4901449097
 20
4.9844603237
 10
4.4943569401
 20
4.9397026786
 10
4.4988349746
 20
4.893563025
 10
4.5035820368
 20
4.8460421005
 10
4.5085997126
 20
4.797140833
 10
4.5166431741
 20
4.7207966212
  0
LINE
  5
23A
100
AcDbEntity
  8
0
100
AcDbLine
 62
7
  6
CONTINUOUS
 10
4.3485248447
 20
2.7769457588
 11
4.3550062365
 21
2.903224715
  0
LINE
  5
23B
100
AcDbEntity
  8
0
100
AcDbLine
 62
7
  6
CONTINUOUS
 10
4.6677277948
 20
6.3232512883
 11
4.6668747765
 21
6.3126116602
  0
LINE
  5
23C
100
AcDbEntity
  8
0
100
AcDbLine
 62
7
  6
CONTINUOUS
 10
4.6760248447
 20
6.3252746283
 11
4.6768929016
 21
6.3359179237
  0
LINE
  5
23D
100
AcDbEntity
  8
0
100
AcDbLine
 62
7
  6
CONTINUOUS
 10
4.54936555
 20
4.4309665881
 11
4.5873632982
 21
4.1085708366
  0
LINE
  5
23E
100
AcDbEntity
  8
0
100
AcDbLine
 62
7
  6
CONTINUOUS
 10
4.5873632982
 20
4.1085708366
 11
4.5930226581
 21
4.0602364961
  0
LINE
  5
23F
100
AcDbEntity
  8
0
100
AcDbLine
 62
7
  6
CONTINUOUS
 10
4.5930226581
 20
4.0602364961
 11
4.5984912953
 21
4.0132006026
  0
LINE
  5
240
100
AcDbEntity
  8
0
100
AcDbLine
 62
7
  6
CONTINUOUS
 10
4.5424010778
 20
4.4909687321
 11
4.54936555
 21
4.4309665881
  0
LINE
  5
241
100
AcDbEntity
  8
0
100
AcDbLine
 62
7
  6
CONTINUOUS
 10
4.5984912953
 20
4.0132006026
 11
4.6037712787
 21
3.9673882326
  0
LINE
  5
242
100
AcDbEntity
  8
0
100
AcDbLine
 62
7
  6
CONTINUOUS
 10
4.531756671
 20
4.583753229
 11
4.5424010778
 21
4.4909687321
  0
LINE
  5
243
100
AcDbEntity
  8
0
100
AcDbLine
 62
7
  6
CONTINUOUS
 10
4.6037712787
 20
3.9673882326
 11
4.6088642669
 21
3.9227425669
  0
LINE
  5
244
100
AcDbEntity
  8
0
100
AcDbLine
 62
7
  6
CONTINUOUS
 10
4.5273623681
 20
4.6224712156
 11
4.531756671
 21
4.583753229
  0
LINE
  5
245
100
AcDbEntity
  8
0
100
AcDbLine
 62
7
  6
CONTINUOUS
 10
4.6088642669
 20
3.9227425669
 11
4.6121575626
 21
3.8935987897
  0
LINE
  5
246
100
AcDbEntity
  8
0
100
AcDbLine
 62
7
  6
CONTINUOUS
 10
4.6121575626
 20
3.8935987897
 11
4.6153706034
 21
3.8649308943
  0
LWPOLYLINE
  5
247
100
AcDbEntity
  8
0
100
AcDbPolyline
 62
7
  6
CONTINUOUS
 90
3
 70
0
 10
4.5207399334
 20
4.6816971741
 10
4.5228942613
 20
4.6622944232
 10
4.5273623681
 20
4.6224712156
  0
LWPOLYLINE
  5
248
100
AcDbEntity
  8
0
100
AcDbPolyline
 62
7
  6
CONTINUOUS
 90
3
 70
0
 10
4.6153706034
 20
3.8649308943
 10
4.6185031014
 20
3.8367235555
 10
4.6200385615
 20
3.822791455
  0
LWPOLYLINE
  5
249
100
AcDbEntity
  8
0
100
AcDbPolyline
 62
7
  6
CONTINUOUS
 90
21
 70
0
 10
4.633288762
 20
5.0531551646
 10
4.6333640365
 20
5.0516287218
 10
4.633552013
 20
5.0496450757
 10
4.6338436347
 20
5.0476549984
 10
4.6342411946
 20
5.045657771
 10
4.6347455705
 20
5.0436600431
 10
4.6353544129
 20
5.0416752795
 10
4.6360669395
 20
5.0397064228
 10
4.6368829197
 20
5.0377545125
 10
4.6377980862
 20
5.0358287613
 10
4.6388103972
 20
5.0339310855
 10
4.6399191383
 20
5.0320608301
 10
4.6411206875
 20
5.0302220323
 10
4.6424130807
 20
5.0284152911
 10
4.643795925
 20
5.0266391096
 10
4.6452677636
 20
5.0248936354
 10
4.6468275149
 20
5.0231785408
 10
4.648475452
 20
5.0214921771
 10
4.6502125537
 20
5.0198325824
 10
4.6520395168
 20
5.0181984512
 10
4.6528527706
 20
5.0175034529
  0
LINE
  5
24A
100
AcDbEntity
  8
0
100
AcDbLine
 62
7
  6
CONTINUOUS
 10
4.608244808
 20
4.752360558
 11
4.6087362528
 21
4.7368043925
  0
LINE
  5
24B
100
AcDbEntity
  8
0
100
AcDbLine
 62
7
  6
CONTINUOUS
 10
4.6080331392
 20
4.7604279222
 11
4.608244808
 21
4.752360558
  0
LINE
  5
24C
100
AcDbEntity
  8
0
100
AcDbLine
 62
7
  6
CONTINUOUS
 10
4.6078863058
 20
4.7672887938
 11
4.6080331392
 21
4.7604279222
  0
LINE
  5
24D
100
AcDbEntity
  8
0
100
AcDbLine
 62
7
  6
CONTINUOUS
 10
4.6077827479
 20
4.77351215
 11
4.6078863058
 21
4.7672887938
  0
LINE
  5
24E
100
AcDbEntity
  8
0
100
AcDbLine
 62
7
  6
CONTINUOUS
 10
4.633288762
 20
5.0531551646
 11
4.6332805949
 21
5.0537267285
  0
LINE
  5
24F
100
AcDbEntity
  8
0
100
AcDbLine
 62
7
  6
CONTINUOUS
 10
4.6077186093
 20
4.7788119015
 11
4.6077827479
 21
4.77351215
  0
LINE
  5
250
100
AcDbEntity
  8
0
100
AcDbLine
 62
7
  6
CONTINUOUS
 10
4.607676529
 20
4.7843923082
 11
4.6077186093
 21
4.7788119015
  0
LINE
  5
251
100
AcDbEntity
  8
0
100
AcDbLine
 62
7
  6
CONTINUOUS
 10
4.6076620151
 20
4.7902582037
 11
4.607676529
 21
4.7843923082
  0
LINE
  5
252
100
AcDbEntity
  8
0
100
AcDbLine
 62
7
  6
CONTINUOUS
 10
4.6668747765
 20
6.3126116602
 11
4.6668747765
 21
6.1350335114
  0
LINE
  5
253
100
AcDbEntity
  8
0
100
AcDbLine
 62
7
  6
CONTINUOUS
 10
4.6760248447
 20
6.3252746283
 11
4.6760248447
 21
6.1276959709
  0
LINE
  5
254
100
AcDbEntity
  8
0
100
AcDbLine
 62
7
  6
CONTINUOUS
 10
4.6785248447
 20
6.2358386428
 11
4.6785248447
 21
6.2264852996
  0
LINE
  5
255
100
AcDbEntity
  8
0
100
AcDbLine
 62
7
  6
CONTINUOUS
 10
4.6076729378
 20
4.7948504703
 11
4.6076620151
 21
4.7902582037
  0
LINE
  5
256
100
AcDbEntity
  8
0
100
AcDbLine
 62
7
  6
CONTINUOUS
 10
4.6077058059
 20
4.7996124677
 11
4.6076729378
 21
4.7948504703
  0
LINE
  5
257
100
AcDbEntity
  8
0
100
AcDbLine
 62
7
  6
CONTINUOUS
 10
4.6077638801
 20
4.8045486162
 11
4.6077058059
 21
4.7996124677
  0
LINE
  5
258
100
AcDbEntity
  8
0
100
AcDbLine
 62
7
  6
CONTINUOUS
 10
4.6078507603
 20
4.8096634242
 11
4.6077638801
 21
4.8045486162
  0
LINE
  5
259
100
AcDbEntity
  8
0
100
AcDbLine
 62
7
  6
CONTINUOUS
 10
4.607970412
 20
4.8149613575
 11
4.6078507603
 21
4.8096634242
  0
LINE
  5
25A
100
AcDbEntity
  8
0
100
AcDbLine
 62
7
  6
CONTINUOUS
 10
4.6081271579
 20
4.8204457921
 11
4.607970412
 21
4.8149613575
  0
LINE
  5
25B
100
AcDbEntity
  8
0
100
AcDbLine
 62
7
  6
CONTINUOUS
 10
4.6082545662
 20
4.8242072104
 11
4.6081271579
 21
4.8204457921
  0
LINE
  5
25C
100
AcDbEntity
  8
0
100
AcDbLine
 62
7
  6
CONTINUOUS
 10
4.6084019824
 20
4.8280526169
 11
4.6082545662
 21
4.8242072104
  0
LINE
  5
25D
100
AcDbEntity
  8
0
100
AcDbLine
 62
7
  6
CONTINUOUS
 10
4.6085709138
 20
4.8319818389
 11
4.6084019824
 21
4.8280526169
  0
LINE
  5
25E
100
AcDbEntity
  8
0
100
AcDbLine
 62
7
  6
CONTINUOUS
 10
4.6087631765
 20
4.8359996003
 11
4.6085709138
 21
4.8319818389
  0
LINE
  5
25F
100
AcDbEntity
  8
0
100
AcDbLine
 62
7
  6
CONTINUOUS
 10
4.6089805689
 20
4.8401073531
 11
4.6087631765
 21
4.8359996003
  0
LINE
  5
260
100
AcDbEntity
  8
0
100
AcDbLine
 62
7
  6
CONTINUOUS
 10
4.6092251513
 20
4.8443091556
 11
4.6089805689
 21
4.8401073531
  0
LINE
  5
261
100
AcDbEntity
  8
0
100
AcDbLine
 62
7
  6
CONTINUOUS
 10
4.6094991306
 20
4.8486088073
 11
4.6092251513
 21
4.8443091556
  0
LINE
  5
262
100
AcDbEntity
  8
0
100
AcDbLine
 62
7
  6
CONTINUOUS
 10
4.6098046534
 20
4.8530069831
 11
4.6094991306
 21
4.8486088073
  0
LINE
  5
263
100
AcDbEntity
  8
0
100
AcDbLine
 62
7
  6
CONTINUOUS
 10
4.6101441404
 20
4.8575066371
 11
4.6098046534
 21
4.8530069831
  0
LINE
  5
264
100
AcDbEntity
  8
0
100
AcDbLine
 62
7
  6
CONTINUOUS
 10
4.6105201058
 20
4.8621100476
 11
4.6101441404
 21
4.8575066371
  0
LINE
  5
265
100
AcDbEntity
  8
0
100
AcDbLine
 62
7
  6
CONTINUOUS
 10
4.6326724213
 20
5.0532067587
 11
4.6332973589
 21
5.0604114819
  0
LINE
  5
266
100
AcDbEntity
  8
0
100
AcDbLine
 62
7
  6
CONTINUOUS
 10
4.6109349034
 20
4.8668162952
 11
4.6105201058
 21
4.8621100476
  0
LINE
  5
267
100
AcDbEntity
  8
0
100
AcDbLine
 62
7
  6
CONTINUOUS
 10
4.6113911115
 20
4.8716263274
 11
4.6109349034
 21
4.8668162952
  0
LINE
  5
268
100
AcDbEntity
  8
0
100
AcDbLine
 62
7
  6
CONTINUOUS
 10
4.611891286
 20
4.8765401567
 11
4.6113911115
 21
4.8716263274
  0
LINE
  5
269
100
AcDbEntity
  8
0
100
AcDbLine
 62
7
  6
CONTINUOUS
 10
4.612353359
 20
4.8808023394
 11
4.611891286
 21
4.8765401567
  0
LWPOLYLINE
  5
26A
100
AcDbEntity
  8
0
100
AcDbPolyline
 62
7
  6
CONTINUOUS
 90
30
 70
0
 10
4.6811196823
 20
5.5858372556
 10
4.6794777352
 20
5.5733335134
 10
4.6774897092
 20
5.5599963904
 10
4.6752717583
 20
5.5467583695
 10
4.6728286389
 20
5.5336339741
 10
4.6701615576
 20
5.5206175292
 10
4.6672663685
 20
5.5076835326
 10
4.6641441494
 20
5.4948361065
 10
4.6607962947
 20
5.482080011
 10
4.6572172575
 20
5.4693907876
 10
4.6534089165
 20
5.4567721022
 10
4.6493732347
 20
5.4442278832
 10
4.6451025253
 20
5.4317346202
 10
4.640597258
 20
5.4192967126
 10
4.6358578659
 20
5.4069184571
 10
4.6308736497
 20
5.3945773139
 10
4.6256442487
 20
5.3822789141
 10
4.620170011
 20
5.3700266634
 10
4.6144383354
 20
5.3577960808
 10
4.6084490327
 20
5.3455923784
 10
4.6022016597
 20
5.3334201062
 10
4.5956802748
 20
5.3212554764
 10
4.5888832393
 20
5.3091043918
 10
4.5818093389
 20
5.2969731231
 10
4.5744409699
 20
5.2848392419
 10
4.5667766447
 20
5.2727083796
 10
4.5588150422
 20
5.2605861137
 10
4.5505365261
 20
5.2484514052
 10
4.5419326449
 20
5.2363023453
 10
4.5330077598
 20
5.224155119
  0
LINE
  5
26B
100
AcDbEntity
  8
0
100
AcDbLine
 62
7
  6
CONTINUOUS
 10
5.0810553624
 20
5.8504171855
 11
5.1793218946
 21
6.1190491158
  0
LINE
  5
26C
100
AcDbEntity
  8
0
100
AcDbLine
 62
7
  6
CONTINUOUS
 10
5.1520703964
 20
5.6045856515
 11
5.1522687505
 21
5.6049696612
  0
LINE
  5
26D
100
AcDbEntity
  8
0
100
AcDbLine
 62
7
  6
CONTINUOUS
 10
4.6760248447
 20
6.1276959709
 11
4.6768929016
 21
6.1117272479
  0
LINE
  5
26E
100
AcDbEntity
  8
0
100
AcDbLine
 62
7
  6
CONTINUOUS
 10
4.6677277948
 20
6.1190491158
 11
4.6668747765
 21
6.1350335114
  0
LINE
  5
26F
100
AcDbEntity
  8
0
100
AcDbLine
 62
7
  6
CONTINUOUS
 10
4.7235248447
 20
6.3216013372
 11
4.7235248447
 21
6.1660046899
  0
LINE
  5
270
100
AcDbEntity
  8
0
100
AcDbLine
 62
7
  6
CONTINUOUS
 10
4.727918243
 20
6.1636954357
 11
4.727918243
 21
6.1557838455
  0
LINE
  5
271
100
AcDbEntity
  8
0
100
AcDbLine
 62
7
  6
CONTINUOUS
 10
4.7332579931
 20
6.3253546835
 11
4.7332579931
 21
6.1776696265
  0
LINE
  5
272
100
AcDbEntity
  8
0
100
AcDbLine
 62
7
  6
CONTINUOUS
 10
4.7772748447
 20
5.8395469352
 11
4.7772748447
 21
5.8391126224
  0
LINE
  5
273
100
AcDbEntity
  8
0
100
AcDbLine
 62
7
  6
CONTINUOUS
 10
4.7396205237
 20
4.5282708274
 11
4.7395952318
 21
4.526936707
  0
LINE
  5
274
100
AcDbEntity
  8
0
100
AcDbLine
 62
7
  6
CONTINUOUS
 10
4.9887761216
 20
5.7614940989
 11
5.029479452
 21
5.9746563749
  0
LWPOLYLINE
  5
275
100
AcDbEntity
  8
0
100
AcDbPolyline
 62
7
  6
CONTINUOUS
 90
21
 70
0
 10
5.1929996327
 20
5.016479414
 10
5.194972599
 20
5.0181668024
 10
5.1967992102
 20
5.0198003818
 10
5.1985359995
 20
5.0214587814
 10
5.2001837237
 20
5.0231433252
 10
5.2017434878
 20
5.0248560765
 10
5.2032155799
 20
5.0265986865
 10
5.2045989484
 20
5.0283715093
 10
5.2058922619
 20
5.0301745705
 10
5.2070951335
 20
5.032009405
 10
5.2082055981
 20
5.0338754538
 10
5.2092201089
 20
5.0357688888
 10
5.2101379404
 20
5.0376904528
 10
5.2109570008
 20
5.0396382673
 10
5.2116729946
 20
5.0416032749
 10
5.2122856388
 20
5.0435845229
 10
5.2127940692
 20
5.0455790941
 10
5.2131958415
 20
5.0475735663
 10
5.2134917542
 20
5.0495612942
 10
5.2136840364
 20
5.0515429902
 10
5.2137608837
 20
5.0530152412
  0
LINE
  5
276
100
AcDbEntity
  8
0
100
AcDbLine
 62
7
  6
CONTINUOUS
 10
5.1941725324
 20
5.017482868
 11
5.194167133
 21
5.0174783128
  0
LWPOLYLINE
  5
277
100
AcDbEntity
  8
0
100
AcDbPolyline
 62
7
  6
CONTINUOUS
 90
43
 70
0
 10
4.6964463418
 20
4.9513292303
 10
4.697814652
 20
4.9471486953
 10
4.6985266243
 20
4.9451882381
 10
4.6993391127
 20
4.9432900474
 10
4.700241355
 20
4.9414608276
 10
4.7012287565
 20
4.9396941256
 10
4.7023065881
 20
4.9379711624
 10
4.7034720105
 20
4.9362912588
 10
4.7047223661
 20
4.934653714
 10
4.7060701803
 20
4.9330405162
 10
4.7075170063
 20
4.9314507253
 10
4.7090642862
 20
4.9298838181
 10
4.7107311262
 20
4.9283235144
 10
4.712525849
 20
4.9267672296
 10
4.7144520735
 20
4.9252169762
 10
4.7165275209
 20
4.9236642542
 10
4.7187719106
 20
4.9221017971
 10
4.7211849551
 20
4.9205372874
 10
4.7237537268
 20
4.9189842907
 10
4.7264863644
 20
4.9174417065
 10
4.7293888647
 20
4.9159100624
 10
4.7324376505
 20
4.9144041826
 10
4.7356349102
 20
4.9129238337
 10
4.7389841312
 20
4.9114683562
 10
4.7424545141
 20
4.910050978
 10
4.7460438888
 20
4.9086712302
 10
4.7497510733
 20
4.9073283062
 10
4.753537754
 20
4.9060339366
 10
4.7573874853
 20
4.9047904198
 10
4.7613046996
 20
4.9035931697
 10
4.7652771726
 20
4.9024431157
 10
4.7692887439
 20
4.9013419504
 10
4.7733428211
 20
4.9002858891
 10
4.7774570348
 20
4.8992683166
 10
4.7816269702
 20
4.8982888733
 10
4.7858484381
 20
4.8973471327
 10
4.790142124
 20
4.8964375348
 10
4.7945052312
 20
4.8955602033
 10
4.7989348478
 20
4.8947152848
 10
4.8034540211
 20
4.8938983385
 10
4.8080698643
 20
4.8931085723
 10
4.8127720337
 20
4.8923482476
 10
4.8168290324
 20
4.8917265455
  0
LINE
  5
278
100
AcDbEntity
  8
0
100
AcDbLine
 62
7
  6
CONTINUOUS
 10
4.6976540514
 20
4.9476454266
 11
4.6976545621
 21
4.9476438055
  0
LINE
  5
279
100
AcDbEntity
  8
0
100
AcDbLine
 62
7
  6
CONTINUOUS
 10
4.7214971909
 20
5.9562025536
 11
4.7374384645
 21
5.7282317198
  0
LINE
  5
27A
100
AcDbEntity
  8
0
100
AcDbLine
 62
7
  6
CONTINUOUS
 10
4.836288734
 20
6.0592663304
 11
4.836288734
 21
6.0513547402
  0
LINE
  5
27B
100
AcDbEntity
  8
0
100
AcDbLine
 62
7
  6
CONTINUOUS
 10
4.8468953357
 20
6.0681652226
 11
4.8468953357
 21
6.0471211278
  0
LINE
  5
27C
100
AcDbEntity
  8
0
100
AcDbLine
 62
7
  6
CONTINUOUS
 10
4.8468953357
 20
6.4348590875
 11
4.8468953357
 21
6.4410304425
  0
LINE
  5
27D
100
AcDbEntity
  8
0
100
AcDbLine
 62
7
  6
CONTINUOUS
 10
4.8629461112
 20
5.7614940989
 11
4.8629461112
 21
5.7565571811
  0
LINE
  5
27E
100
AcDbEntity
  8
0
100
AcDbLine
 62
7
  6
CONTINUOUS
 10
4.9235248447
 20
5.5877576956
 11
4.9235248447
 21
5.6793404266
  0
LINE
  5
27F
100
AcDbEntity
  8
0
100
AcDbLine
 62
7
  6
CONTINUOUS
 10
4.5401485174
 20
4.5105538504
 11
4.5440986632
 21
4.5110072532
  0
LINE
  5
280
100
AcDbEntity
  8
0
100
AcDbLine
 62
7
  6
CONTINUOUS
 10
5.3029510655
 20
4.5110072487
 11
5.3069011933
 21
4.5105538481
  0
LINE
  5
281
100
AcDbEntity
  8
0
100
AcDbLine
 62
7
  6
CONTINUOUS
 10
4.9841035782
 20
5.7614940989
 11
4.9841035782
 21
5.7565571811
  0
LINE
  5
282
100
AcDbEntity
  8
0
100
AcDbLine
 62
7
  6
CONTINUOUS
 10
5.0001543538
 20
6.0681652226
 11
5.0001543538
 21
6.0471211278
  0
LINE
  5
283
100
AcDbEntity
  8
0
100
AcDbLine
 62
7
  6
CONTINUOUS
 10
5.0001543538
 20
6.4348590875
 11
5.0001543538
 21
6.4410304425
  0
LINE
  5
284
100
AcDbEntity
  8
0
100
AcDbLine
 62
7
  6
CONTINUOUS
 10
5.0107609555
 20
6.0592663304
 11
5.0107609555
 21
6.0513547402
  0
LINE
  5
285
100
AcDbEntity
  8
0
100
AcDbLine
 62
7
  6
CONTINUOUS
 10
5.0697748447
 20
5.8395469352
 11
5.0697748447
 21
5.8391126224
  0
LINE
  5
286
100
AcDbEntity
  8
0
100
AcDbLine
 62
7
  6
CONTINUOUS
 10
5.1255524986
 20
5.9562025536
 11
5.1096112249
 21
5.7282317198
  0
LINE
  5
287
100
AcDbEntity
  8
0
100
AcDbLine
 62
7
  6
CONTINUOUS
 10
5.1493951498
 20
4.947643877
 11
5.1493965506
 21
4.9476483246
  0
LWPOLYLINE
  5
288
100
AcDbEntity
  8
0
100
AcDbPolyline
 62
7
  6
CONTINUOUS
 90
26
 70
0
 10
5.1493951518
 20
4.9476438834
 10
5.1506175846
 20
4.951371002
 10
5.1521532863
 20
4.9556809321
 10
5.1537697764
 20
4.9598554693
 10
5.155459367
 20
4.9638948152
 10
5.1572133246
 20
4.9677966028
 10
5.1590214847
 20
4.9715560006
 10
5.1608754242
 20
4.9751725244
 10
5.1627672801
 20
4.9786467646
 10
5.1646873897
 20
4.9819761669
 10
5.1666278926
 20
4.9851616538
 10
5.1685810685
 20
4.9882042858
 10
5.1705373048
 20
4.9911023265
 10
5.1724891381
 20
4.9938574942
 10
5.1744293726
 20
4.9964717559
 10
5.1763487714
 20
4.9989443892
 10
5.1782400179
 20
5.0012773465
 10
5.180096985
 20
5.0034738959
 10
5.1819124505
 20
5.0055358344
 10
5.1836799853
 20
5.007465798
 10
5.1853942213
 20
5.009267393
 10
5.187050058
 20
5.0109442385
 10
5.1886416176
 20
5.0124989626
 10
5.1901649226
 20
5.0139358552
 10
5.1916185529
 20
5.0152611903
 10
5.1929996327
 20
5.016479414
  0
LWPOLYLINE
  5
289
100
AcDbEntity
  8
0
100
AcDbPolyline
 62
7
  6
CONTINUOUS
 90
27
 70
0
 10
4.6528531133
 20
5.0175031389
 10
4.6531309717
 20
5.0172681408
 10
4.6544380729
 20
5.0161411644
 10
4.6558200407
 20
5.0149109602
 10
4.6572723297
 20
5.0135749691
 10
4.658792071
 20
5.0121288925
 10
4.6603777655
 20
5.0105666946
 10
4.6620255102
 20
5.0088842149
 10
4.6637295617
 20
5.0070789165
 10
4.6654848712
 20
5.005147362
 10
4.6672861732
 20
5.0030860899
 10
4.6691272294
 20
5.0008925266
 10
4.6710010268
 20
4.9985649205
 10
4.6729015883
 20
4.9961001149
 10
4.6748217976
 20
4.9934962199
 10
4.6767527092
 20
4.9907539061
 10
4.678687315
 20
4.9878712708
 10
4.6806183492
 20
4.9848466508
 10
4.6825364975
 20
4.981681688
 10
4.6844342433
 20
4.9783753474
 10
4.6863039277
 20
4.9749267373
 10
4.6881361683
 20
4.9713383006
 10
4.6899233014
 20
4.9676094582
 10
4.6916571188
 20
4.9637406766
 10
4.6933277388
 20
4.9597366054
 10
4.6949266498
 20
4.9555995215
 10
4.6964463418
 20
4.9513292303
  0
LINE
  5
28A
100
AcDbEntity
  8
0
100
AcDbLine
 62
7
  6
CONTINUOUS
 10
5.1074535905
 20
4.5269363648
 11
5.1074291657
 21
4.5282708274
  0
LINE
  5
28B
100
AcDbEntity
  8
0
100
AcDbLine
 62
7
  6
CONTINUOUS
 10
5.1137916963
 20
6.1776696265
 11
5.1137916963
 21
6.3253546835
  0
LINE
  5
28C
100
AcDbEntity
  8
0
100
AcDbLine
 62
7
  6
CONTINUOUS
 10
5.1191314464
 20
6.1636954357
 11
5.1191314464
 21
6.1557838455
  0
LINE
  5
28D
100
AcDbEntity
  8
0
100
AcDbLine
 62
7
  6
CONTINUOUS
 10
5.1235248447
 20
6.1660046899
 11
5.1235248447
 21
6.3216013372
  0
LINE
  5
28E
100
AcDbEntity
  8
0
100
AcDbLine
 62
7
  6
CONTINUOUS
 10
5.1685248447
 20
6.2358386428
 11
5.1685248447
 21
6.2264852996
  0
LINE
  5
28F
100
AcDbEntity
  8
0
100
AcDbLine
 62
7
  6
CONTINUOUS
 10
5.1710248447
 20
6.1276959709
 11
5.1710248447
 21
6.3252746283
  0
LINE
  5
290
100
AcDbEntity
  8
0
100
AcDbLine
 62
7
  6
CONTINUOUS
 10
5.180174913
 20
6.1350335114
 11
5.180174913
 21
6.3126116602
  0
LINE
  5
291
100
AcDbEntity
  8
0
100
AcDbLine
 62
7
  6
CONTINUOUS
 10
5.1793218946
 20
6.1190491158
 11
5.180174913
 21
6.1350335114
  0
LINE
  5
292
100
AcDbEntity
  8
0
100
AcDbLine
 62
7
  6
CONTINUOUS
 10
5.1710248447
 20
6.1276959709
 11
5.1701567878
 21
6.1117272479
  0
LWPOLYLINE
  5
293
100
AcDbEntity
  8
0
100
AcDbPolyline
 62
7
  6
CONTINUOUS
 90
43
 70
0
 10
5.0302209526
 20
4.8917265946
 10
5.0342113504
 20
4.8923378771
 10
5.0389138175
 20
4.893097675
 10
5.0435308681
 20
4.8938870036
 10
5.0480514635
 20
4.8947035221
 10
5.0524822603
 20
4.8955480021
 10
5.0568467342
 20
4.8964249534
 10
5.0611423532
 20
4.897334307
 10
5.0653662406
 20
4.8982759443
 10
5.0695390183
 20
4.8992554116
 10
5.0736564632
 20
4.9002731162
 10
5.0777141443
 20
4.9013294441
 10
5.0817296096
 20
4.9024310216
 10
5.0857063071
 20
4.9035816589
 10
5.0896279795
 20
4.90477966
 10
5.0934821784
 20
4.9060240543
 10
5.0972733838
 20
4.907319444
 10
5.100985103
 20
4.9086635207
 10
5.1045786951
 20
4.9100444641
 10
5.108052976
 20
4.911463078
 10
5.1114058253
 20
4.912919818
 10
5.1146061726
 20
4.9144013547
 10
5.117657515
 20
4.9159083559
 10
5.1205621264
 20
4.9174410375
 10
5.123296233
 20
4.9189844301
 10
5.1258657272
 20
4.9205379008
 10
5.1282789867
 20
4.9221026251
 10
5.1305233818
 20
4.923665153
 10
5.1325986038
 20
4.9252177603
 10
5.1345244167
 20
4.9267677213
 10
5.1363188255
 20
4.9283237468
 10
5.1379855512
 20
4.9298839264
 10
5.1395327865
 20
4.931450773
 10
5.1409795665
 20
4.9330405268
 10
5.1423272881
 20
4.934653676
 10
5.1435775709
 20
4.9362911916
 10
5.1447429863
 20
4.9379711251
 10
5.1458208466
 20
4.9396941474
 10
5.1468082963
 20
4.9414609286
 10
5.1477106324
 20
4.9432903222
 10
5.1485232785
 20
4.9451888019
 10
5.149235459
 20
4.9471496366
 10
5.1493965821
 20
4.9476484801
  0
LINE
  5
294
100
AcDbEntity
  8
0
100
AcDbLine
 62
7
  6
CONTINUOUS
 10
4.5137892116
 20
4.7477896129
 11
4.5177491586
 21
4.7482109408
  0
LWPOLYLINE
  5
295
100
AcDbEntity
  8
0
100
AcDbPolyline
 62
7
  6
CONTINUOUS
 90
22
 70
0
 10
4.9235248255
 20
4.8843125452
 10
4.9279654428
 20
4.8843246503
 10
4.9333143584
 20
4.8843712246
 10
4.9386622102
 20
4.8844527319
 10
4.9440050606
 20
4.8845691399
 10
4.9493394515
 20
4.8847204296
 10
4.9546624104
 20
4.884906612
 10
4.9599702956
 20
4.885127693
 10
4.9652593911
 20
4.8853836591
 10
4.9705271269
 20
4.8856744538
 10
4.975771128
 20
4.8860000182
 10
4.9809879548
 20
4.8863602362
 10
4.9861736406
 20
4.8867549409
 10
4.9913248417
 20
4.8871839957
 10
4.9964390929
 20
4.8876473403
 10
5.0015137719
 20
4.8881449113
 10
5.0065454974
 20
4.8886764854
 10
5.0115309332
 20
4.8892417824
 10
5.0164673594
 20
4.8898406103
 10
5.0213515463
 20
4.8904727426
 10
5.0261797146
 20
4.8911378937
 10
5.0302208243
 20
4.8917266359
  0
LINE
  5
296
100
AcDbEntity
  8
0
100
AcDbLine
 62
7
  6
CONTINUOUS
 10
5.3293005307
 20
4.7482109408
 11
5.3332604778
 21
4.7477896129
  0
LWPOLYLINE
  5
297
100
AcDbEntity
  8
0
100
AcDbPolyline
 62
7
  6
CONTINUOUS
 90
22
 70
0
 10
4.8168290446
 20
4.891726567
 10
4.8208004901
 20
4.8911477067
 10
4.8256246847
 20
4.8904825083
 10
4.8305052421
 20
4.8898502569
 10
4.835438345
 20
4.8892512376
 10
4.8404208001
 20
4.888685667
 10
4.8454499999
 20
4.8881537211
 10
4.8505226084
 20
4.8876556792
 10
4.8556351158
 20
4.887191816
 10
4.8607849383
 20
4.886762213
 10
4.8659696509
 20
4.8863669288
 10
4.8711858791
 20
4.8860061045
 10
4.8764296533
 20
4.8856799087
 10
4.8816975663
 20
4.8853884572
 10
4.886987212
 20
4.8851318125
 10
4.8922960401
 20
4.8849100525
 10
4.897620521
 20
4.8847232168
 10
4.9029570087
 20
4.8845713007
 10
4.9083024206
 20
4.8844542959
 10
4.9136532536
 20
4.8843722205
 10
4.9190055921
 20
4.884325105
 10
4.9235248255
 20
4.8843125658
  0
LINE
  5
298
100
AcDbEntity
  8
0
100
AcDbLine
 62
7
  6
CONTINUOUS
 10
4.6949792869
 20
5.6045856574
 11
4.6947809334
 21
5.6049696679
  0
LINE
  5
299
100
AcDbEntity
  8
0
100
AcDbLine
 62
7
  6
CONTINUOUS
 10
4.7659943271
 20
5.8504171855
 11
4.6677277948
 21
6.1190491158
  0
LINE
  5
29A
100
AcDbEntity
  8
0
100
AcDbLine
 62
7
  6
CONTINUOUS
 10
4.8582735678
 20
5.7614940989
 11
4.8175702374
 21
5.9746563749
  0
LINE
  5
29B
100
AcDbEntity
  8
0
100
AcDbLine
 62
7
  6
CONTINUOUS
 10
5.2063026725
 20
5.2867852442
 11
5.2060866574
 21
5.2887783396
  0
LINE
  5
29C
100
AcDbEntity
  8
0
100
AcDbLine
 62
7
  6
CONTINUOUS
 10
5.2065260509
 20
5.2846299968
 11
5.2063026725
 21
5.2867852442
  0
LWPOLYLINE
  5
29D
100
AcDbEntity
  8
0
100
AcDbPolyline
 62
7
  6
CONTINUOUS
 90
4
 70
0
 10
5.2359539698
 20
4.8685517615
 10
5.235650388
 20
4.8717096219
 10
5.2353273686
 20
4.8749179132
 10
5.2348592155
 20
4.8793273903
  0
LINE
  5
29E
100
AcDbEntity
  8
0
100
AcDbLine
 62
7
  6
CONTINUOUS
 10
5.2068762693
 20
5.2810632603
 11
5.2065260509
 21
5.2846299968
  0
LINE
  5
29F
100
AcDbEntity
  8
0
100
AcDbLine
 62
7
  6
CONTINUOUS
 10
5.2169639202
 20
5.0224009842
 11
5.2137706741
 21
5.0556549192
  0
LINE
  5
2A0
100
AcDbEntity
  8
0
100
AcDbLine
 62
7
  6
CONTINUOUS
 10
5.2072470546
 20
5.2770466684
 11
5.2068762693
 21
5.2810632603
  0
LINE
  5
2A1
100
AcDbEntity
  8
0
100
AcDbLine
 62
7
  6
CONTINUOUS
 10
5.236506303
 20
4.8623838013
 11
5.2359539698
 21
4.8685517615
  0
LINE
  5
2A2
100
AcDbEntity
  8
0
100
AcDbLine
 62
7
  6
CONTINUOUS
 10
5.2076415883
 20
5.2725121986
 11
5.2072470546
 21
5.2770466684
  0
LINE
  5
2A3
100
AcDbEntity
  8
0
100
AcDbLine
 62
7
  6
CONTINUOUS
 10
5.1710248447
 20
6.3252746283
 11
5.1701567878
 21
6.3359179237
  0
LINE
  5
2A4
100
AcDbEntity
  8
0
100
AcDbLine
 62
7
  6
CONTINUOUS
 10
5.2080617921
 20
5.2673857069
 11
5.2076415883
 21
5.2725121986
  0
LINE
  5
2A5
100
AcDbEntity
  8
0
100
AcDbLine
 62
7
  6
CONTINUOUS
 10
5.1793218946
 20
6.3232512883
 11
5.180174913
 21
6.3126116602
  0
LINE
  5
2A6
100
AcDbEntity
  8
0
100
AcDbLine
 62
7
  6
CONTINUOUS
 10
5.2369908532
 20
4.8564095861
 11
5.236506303
 21
4.8623838013
  0
LINE
  5
2A7
100
AcDbEntity
  8
0
100
AcDbLine
 62
7
  6
CONTINUOUS
 10
5.2085086424
 20
5.2615869207
 11
5.2080617921
 21
5.2673857069
  0
LINE
  5
2A8
100
AcDbEntity
  8
0
100
AcDbLine
 62
7
  6
CONTINUOUS
 10
5.2374138411
 20
4.8506229892
 11
5.2369908532
 21
4.8564095861
  0
LINE
  5
2A9
100
AcDbEntity
  8
0
100
AcDbLine
 62
7
  6
CONTINUOUS
 10
5.2089825487
 20
5.2550241635
 11
5.2085086424
 21
5.2615869207
  0
LINE
  5
2AA
100
AcDbEntity
  8
0
100
AcDbLine
 62
7
  6
CONTINUOUS
 10
5.209480126
 20
5.2476223223
 11
5.2089825487
 21
5.2550241635
  0
LINE
  5
2AB
100
AcDbEntity
  8
0
100
AcDbLine
 62
7
  6
CONTINUOUS
 10
5.237780716
 20
4.8450231102
 11
5.2374138411
 21
4.8506229892
  0
LINE
  5
2AC
100
AcDbEntity
  8
0
100
AcDbLine
 62
7
  6
CONTINUOUS
 10
5.209994746
 20
5.2393121777
 11
5.209480126
 21
5.2476223223
  0
LINE
  5
2AD
100
AcDbEntity
  8
0
100
AcDbLine
 62
7
  6
CONTINUOUS
 10
5.2380971316
 20
4.8395998713
 11
5.237780716
 21
4.8450231102
  0
LINE
  5
2AE
100
AcDbEntity
  8
0
100
AcDbLine
 62
7
  6
CONTINUOUS
 10
5.2105176796
 20
5.2300280333
 11
5.209994746
 21
5.2393121777
  0
LINE
  5
2AF
100
AcDbEntity
  8
0
100
AcDbLine
 62
7
  6
CONTINUOUS
 10
5.2383679948
 20
4.8343473304
 11
5.2380971316
 21
4.8395998713
  0
LINE
  5
2B0
100
AcDbEntity
  8
0
100
AcDbLine
 62
7
  6
CONTINUOUS
 10
5.2110381454
 20
5.2197231736
 11
5.2105176796
 21
5.2300280333
  0
LINE
  5
2B1
100
AcDbEntity
  8
0
100
AcDbLine
 62
7
  6
CONTINUOUS
 10
5.2385975667
 20
4.8292651597
 11
5.2383679948
 21
4.8343473304
  0
LINE
  5
2B2
100
AcDbEntity
  8
0
100
AcDbLine
 62
7
  6
CONTINUOUS
 10
5.2115418156
 20
5.2083776294
 11
5.2110381454
 21
5.2197231736
  0
LINE
  5
2B3
100
AcDbEntity
  8
0
100
AcDbLine
 62
7
  6
CONTINUOUS
 10
5.2118596979
 20
5.2002374192
 11
5.2115418156
 21
5.2083776294
  0
LINE
  5
2B4
100
AcDbEntity
  8
0
100
AcDbLine
 62
7
  6
CONTINUOUS
 10
5.238789949
 20
4.8243503506
 11
5.2385975667
 21
4.8292651597
  0
LINE
  5
2B5
100
AcDbEntity
  8
0
100
AcDbLine
 62
7
  6
CONTINUOUS
 10
5.2121569425
 20
5.1916418764
 11
5.2118596979
 21
5.2002374192
  0
LINE
  5
2B6
100
AcDbEntity
  8
0
100
AcDbLine
 62
7
  6
CONTINUOUS
 10
5.238948988
 20
4.8195981151
 11
5.238789949
 21
4.8243503506
  0
LINE
  5
2B7
100
AcDbEntity
  8
0
100
AcDbLine
 62
7
  6
CONTINUOUS
 10
5.2124294064
 20
5.1825968672
 11
5.2121569425
 21
5.1916418764
  0
LINE
  5
2B8
100
AcDbEntity
  8
0
100
AcDbLine
 62
7
  6
CONTINUOUS
 10
5.2390780946
 20
4.8150077018
 11
5.238948988
 21
4.8195981151
  0
LINE
  5
2B9
100
AcDbEntity
  8
0
100
AcDbLine
 62
7
  6
CONTINUOUS
 10
5.2126738349
 20
5.1731123228
 11
5.2124294064
 21
5.1825968672
  0
LINE
  5
2BA
100
AcDbEntity
  8
0
100
AcDbLine
 62
7
  6
CONTINUOUS
 10
5.2391805357
 20
4.810574221
 11
5.2390780946
 21
4.8150077018
  0
LINE
  5
2BB
100
AcDbEntity
  8
0
100
AcDbLine
 62
7
  6
CONTINUOUS
 10
5.2129895623
 20
5.1580571692
 11
5.2126738349
 21
5.1731123228
  0
LINE
  5
2BC
100
AcDbEntity
  8
0
100
AcDbLine
 62
7
  6
CONTINUOUS
 10
5.2392592844
 20
4.806292746
 11
5.2391805357
 21
4.810574221
  0
LINE
  5
2BD
100
AcDbEntity
  8
0
100
AcDbLine
 62
7
  6
CONTINUOUS
 10
5.213247521
 20
5.1419903927
 11
5.2129895623
 21
5.1580571692
  0
LINE
  5
2BE
100
AcDbEntity
  8
0
100
AcDbLine
 62
7
  6
CONTINUOUS
 10
5.2393387584
 20
4.8001502144
 11
5.2392592844
 21
4.806292746
  0
LINE
  5
2BF
100
AcDbEntity
  8
0
100
AcDbLine
 62
7
  6
CONTINUOUS
 10
5.2134500418
 20
5.1248912031
 11
5.213247521
 21
5.1419903927
  0
LINE
  5
2C0
100
AcDbEntity
  8
0
100
AcDbLine
 62
7
  6
CONTINUOUS
 10
5.2135999566
 20
5.106737369
 11
5.2134500418
 21
5.1248912031
  0
LINE
  5
2C1
100
AcDbEntity
  8
0
100
AcDbLine
 62
7
  6
CONTINUOUS
 10
5.2393790041
 20
4.7943290342
 11
5.2393387584
 21
4.8001502144
  0
LINE
  5
2C2
100
AcDbEntity
  8
0
100
AcDbLine
 62
7
  6
CONTINUOUS
 10
5.2137242662
 20
5.0808212701
 11
5.2135999566
 21
5.106737369
  0
LINE
  5
2C3
100
AcDbEntity
  8
0
100
AcDbLine
 62
7
  6
CONTINUOUS
 10
5.2137723026
 20
5.0537141345
 11
5.2137242662
 21
5.0808212701
  0
LINE
  5
2C4
100
AcDbEntity
  8
0
100
AcDbLine
 62
7
  6
CONTINUOUS
 10
5.2393870129
 20
4.788813404
 11
5.2393790041
 21
4.7943290342
  0
LINE
  5
2C5
100
AcDbEntity
  8
0
100
AcDbLine
 62
7
  6
CONTINUOUS
 10
5.2393687457
 20
4.7835854222
 11
5.2393870129
 21
4.788813404
  0
LINE
  5
2C6
100
AcDbEntity
  8
0
100
AcDbLine
 62
7
  6
CONTINUOUS
 10
5.2393121273
 20
4.7770344319
 11
5.2393687457
 21
4.7835854222
  0
LINE
  5
2C7
100
AcDbEntity
  8
0
100
AcDbLine
 62
7
  6
CONTINUOUS
 10
5.2392275897
 20
4.7709317282
 11
5.2393121273
 21
4.7770344319
  0
LINE
  5
2C8
100
AcDbEntity
  8
0
100
AcDbLine
 62
7
  6
CONTINUOUS
 10
5.239095366
 20
4.7639197931
 11
5.2392275897
 21
4.7709317282
  0
LINE
  5
2C9
100
AcDbEntity
  8
0
100
AcDbLine
 62
7
  6
CONTINUOUS
 10
5.2389163562
 20
4.7564227412
 11
5.239095366
 21
4.7639197931
  0
LWPOLYLINE
  5
2CA
100
AcDbEntity
  8
0
100
AcDbPolyline
 62
7
  6
CONTINUOUS
 90
4
 70
0
 10
5.2137608239
 20
5.0530133939
 10
5.2137676036
 20
5.0532615919
 10
5.2137717781
 20
5.0535551922
 10
5.2137722977
 20
5.0537150706
  0
LINE
  5
2CB
100
AcDbEntity
  8
0
100
AcDbLine
 62
7
  6
CONTINUOUS
 10
5.2386485082
 20
4.7471314478
 11
5.2389163562
 21
4.7564227412
  0
LINE
  5
2CC
100
AcDbEntity
  8
0
100
AcDbLine
 62
7
  6
CONTINUOUS
 10
5.2383128449
 20
4.7367852243
 11
5.2386485082
 21
4.7471314478
  0
LINE
  5
2CD
100
AcDbEntity
  8
0
100
AcDbLine
 62
7
  6
CONTINUOUS
 10
5.2137608837
 20
5.0530152412
 11
5.2137608222
 21
5.053013394
  0
LWPOLYLINE
  5
2CE
100
AcDbEntity
  8
0
100
AcDbPolyline
 62
7
  6
CONTINUOUS
 90
9
 70
0
 10
5.3384499769
 20
4.7971408329
 10
5.3434676527
 20
4.8460421004
 10
5.3482147149
 20
4.8935630249
 10
5.3526927493
 20
4.9397026786
 10
5.3569047797
 20
4.9844603236
 10
5.3608550918
 20
5.0278355825
 10
5.36454901
 20
5.0698276128
 10
5.3679927992
 20
5.110435085
 10
5.3711252213
 20
5.1488014778
  0
LINE
  5
2CF
100
AcDbEntity
  8
0
100
AcDbLine
 62
7
  6
CONTINUOUS
 10
5.3263097085
 20
4.6816967334
 11
5.3384499769
 21
4.7971408329
  0
LINE
  5
2D0
100
AcDbEntity
  8
0
100
AcDbLine
 62
7
  6
CONTINUOUS
 10
5.2210911977
 20
3.7681392396
 11
5.2240012568
 21
3.7952465684
  0
LINE
  5
2D1
100
AcDbEntity
  8
0
100
AcDbLine
 62
7
  6
CONTINUOUS
 10
5.2240012568
 20
3.7952465684
 11
5.2270102801
 21
3.8227839014
  0
LINE
  5
2D2
100
AcDbEntity
  8
0
100
AcDbLine
 62
7
  6
CONTINUOUS
 10
5.2270102801
 20
3.8227839014
 11
5.2301018524
 21
3.8507628821
  0
LINE
  5
2D3
100
AcDbEntity
  8
0
100
AcDbLine
 62
7
  6
CONTINUOUS
 10
5.2301018524
 20
3.8507628821
 11
5.2332746748
 21
3.8791982288
  0
LINE
  5
2D4
100
AcDbEntity
  8
0
100
AcDbLine
 62
7
  6
CONTINUOUS
 10
5.3219116781
 20
4.6422310056
 11
5.3263097075
 21
4.6816967231
  0
LINE
  5
2D5
100
AcDbEntity
  8
0
100
AcDbLine
 62
7
  6
CONTINUOUS
 10
5.2332746748
 20
3.8791982288
 11
5.2365280459
 21
3.9081044304
  0
LINE
  5
2D6
100
AcDbEntity
  8
0
100
AcDbLine
 62
7
  6
CONTINUOUS
 10
5.3174782105
 20
4.6029595487
 11
5.3219116781
 21
4.6422310056
  0
LINE
  5
2D7
100
AcDbEntity
  8
0
100
AcDbLine
 62
7
  6
CONTINUOUS
 10
5.2365280459
 20
3.9081044304
 11
5.2415595743
 21
3.9523745976
  0
LINE
  5
2D8
100
AcDbEntity
  8
0
100
AcDbLine
 62
7
  6
CONTINUOUS
 10
5.3088769263
 20
4.5277391366
 11
5.3174782105
 21
4.6029595487
  0
LINE
  5
2D9
100
AcDbEntity
  8
0
100
AcDbLine
 62
7
  6
CONTINUOUS
 10
5.2415595743
 20
3.9523745976
 11
5.2467769418
 21
3.9977921068
  0
LINE
  5
2DA
100
AcDbEntity
  8
0
100
AcDbLine
 62
7
  6
CONTINUOUS
 10
5.302309787
 20
4.4707467563
 11
5.3088769263
 21
4.5277391366
  0
LINE
  5
2DB
100
AcDbEntity
  8
0
100
AcDbLine
 62
7
  6
CONTINUOUS
 10
5.2467769418
 20
3.9977921068
 11
5.2521827021
 21
4.0444144027
  0
LINE
  5
2DC
100
AcDbEntity
  8
0
100
AcDbLine
 62
7
  6
CONTINUOUS
 10
5.2953990101
 20
4.4114057822
 11
5.302309787
 21
4.4707467563
  0
LINE
  5
2DD
100
AcDbEntity
  8
0
100
AcDbLine
 62
7
  6
CONTINUOUS
 10
5.2521827021
 20
4.0444144027
 11
5.2577782527
 21
4.0923070105
  0
LINE
  5
2DE
100
AcDbEntity
  8
0
100
AcDbLine
 62
7
  6
CONTINUOUS
 10
5.2577782527
 20
4.0923070105
 11
5.2655387711
 21
4.1582893989
  0
LINE
  5
2DF
100
AcDbEntity
  8
0
100
AcDbLine
 62
7
  6
CONTINUOUS
 10
5.2820986606
 20
4.2983773211
 11
5.2953990101
 21
4.4114057822
  0
LINE
  5
2E0
100
AcDbEntity
  8
0
100
AcDbLine
 62
7
  6
CONTINUOUS
 10
5.2655387711
 20
4.1582893989
 11
5.2820986606
 21
4.2983773211
  0
LINE
  5
2E1
100
AcDbEntity
  8
0
100
AcDbLine
 62
7
  6
CONTINUOUS
 10
5.2342217891
 20
4.8840807287
 11
5.2344002356
 21
4.8828890352
  0
LWPOLYLINE
  5
2E2
100
AcDbEntity
  8
0
100
AcDbPolyline
 62
7
  6
CONTINUOUS
 90
14
 70
0
 10
5.2050859328
 20
5.2967776249
 10
5.2049893418
 20
5.2974355212
 10
5.2048926185
 20
5.2980734107
 10
5.2047951181
 20
5.2986952416
 10
5.204696803
 20
5.299300805
 10
5.2045972725
 20
5.2998920672
 10
5.2044951561
 20
5.3004761926
 10
5.2043902836
 20
5.3010527443
 10
5.2042820323
 20
5.3016235411
 10
5.2041679425
 20
5.302199098
 10
5.2040476567
 20
5.3027780446
 10
5.2039199467
 20
5.3033628942
 10
5.2037801406
 20
5.3039699967
 10
5.2037385239
 20
5.3041443786
  0
LWPOLYLINE
  5
2E3
100
AcDbEntity
  8
0
100
AcDbPolyline
 62
7
  6
CONTINUOUS
 90
24
 70
0
 10
5.1659298964
 20
5.5858372427
 10
5.1657677454
 20
5.5869425195
 10
5.1655681253
 20
5.5879737665
 10
5.1653228655
 20
5.5889968337
 10
5.1650323037
 20
5.5900100713
 10
5.1646962385
 20
5.5910134035
 10
5.1643151221
 20
5.5920043807
 10
5.1638896999
 20
5.592980548
 10
5.1634197828
 20
5.5939415831
 10
5.1629061001
 20
5.5948852038
 10
5.1623495748
 20
5.5958090981
 10
5.161750081
 20
5.596712775
 10
5.1611083743
 20
5.5975943069
 10
5.1604256665
 20
5.5984513261
 10
5.1597024146
 20
5.5992826476
 10
5.1589396024
 20
5.6000864335
 10
5.1581385551
 20
5.6008607121
 10
5.1573001746
 20
5.6016040082
 10
5.1564255521
 20
5.6023147693
 10
5.1555160956
 20
5.6029912459
 10
5.1545732371
 20
5.6036318422
 10
5.153598362
 20
5.6042350684
 10
5.1525927051
 20
5.6047995706
 10
5.1522687549
 20
5.6049696699
  0
LINE
  5
2E4
100
AcDbEntity
  8
0
100
AcDbLine
 62
7
  6
CONTINUOUS
 10
5.2342281546
 20
4.8840762419
 11
5.2344002356
 21
4.8828890352
  0
LWPOLYLINE
  5
2E5
100
AcDbEntity
  8
0
100
AcDbPolyline
 62
7
  6
CONTINUOUS
 90
5
 70
0
 10
5.2343668404
 20
4.8832706294
 10
5.2293237316
 20
4.9186940246
 10
5.2247972494
 20
4.9533243848
 10
5.2206927276
 20
4.987762384
 10
5.2169639202
 20
5.0224009842
  0
LINE
  5
2E6
100
AcDbEntity
  8
0
100
AcDbLine
 62
7
  6
CONTINUOUS
 10
5.2052794157
 20
5.2953973974
 11
5.2050859328
 21
5.2967776249
  0
LINE
  5
2E7
100
AcDbEntity
  8
0
100
AcDbLine
 62
7
  6
CONTINUOUS
 10
5.205474928
 20
5.2939193435
 11
5.2052794157
 21
5.2953973974
  0
LINE
  5
2E8
100
AcDbEntity
  8
0
100
AcDbLine
 62
7
  6
CONTINUOUS
 10
5.2056738096
 20
5.292331955
 11
5.205474928
 21
5.2939193435
  0
LINE
  5
2E9
100
AcDbEntity
  8
0
100
AcDbLine
 62
7
  6
CONTINUOUS
 10
5.2058773019
 20
5.290622965
 11
5.2056738096
 21
5.292331955
  0
LINE
  5
2EA
100
AcDbEntity
  8
0
100
AcDbLine
 62
7
  6
CONTINUOUS
 10
5.2060866574
 20
5.2887783396
 11
5.2058773019
 21
5.290622965
  0
LWPOLYLINE
  5
2EB
100
AcDbEntity
  8
0
100
AcDbPolyline
 62
7
  6
CONTINUOUS
 90
5
 70
0
 10
5.2348592244
 20
4.8793273105
 10
5.2348123653
 20
4.8797496365
 10
5.2346730127
 20
4.8809391619
 10
5.2345245066
 20
4.8821127681
 10
5.2343668404
 20
4.8832706294
  0
LINE
  5
2EC
100
AcDbEntity
  8
0
100
AcDbLine
 62
7
  6
CONTINUOUS
 10
5.4920434529
 20
2.903224715
 11
5.4985248447
 21
2.7769457588
  0
LINE
  5
2ED
100
AcDbEntity
  8
0
100
AcDbLine
 62
7
  6
CONTINUOUS
 10
4.47991021
 20
5.1491205902
 11
4.6337271028
 21
5.1491150432
  0
LINE
  5
2EE
100
AcDbEntity
  8
0
100
AcDbLine
 62
7
  6
CONTINUOUS
 10
5.2133236441
 20
5.1491189623
 11
5.3671394806
 21
5.1491205935
  0
LWPOLYLINE
  5
2EF
100
AcDbEntity
  8
0
100
AcDbPolyline
 62
7
  6
CONTINUOUS
 90
35
 70
0
 10
5.2037437798
 20
5.3041181942
 10
5.2026188582
 20
5.3086972069
 10
5.2012241075
 20
5.3141127134
 10
5.1997853476
 20
5.3194348843
 10
5.1983017221
 20
5.3246781626
 10
5.1967636971
 20
5.3298829539
 10
5.1951719168
 20
5.3350505781
 10
5.1935273327
 20
5.3401810231
 10
5.1918181428
 20
5.3453117033
 10
5.1900435613
 20
5.3504432451
 10
5.1882030422
 20
5.3555753902
 10
5.1862826093
 20
5.3607433078
 10
5.1842795847
 20
5.365948425
 10
5.1821925064
 20
5.3711887685
 10
5.1800068465
 20
5.376493604
 10
5.177718113
 20
5.3818649926
 10
5.1753240296
 20
5.3872994543
 10
5.1728113675
 20
5.3928172816
 10
5.1701755212
 20
5.3984177907
 10
5.1674121228
 20
5.4040994645
 10
5.1645064731
 20
5.4098807551
 10
5.1614528833
 20
5.4157601222
 10
5.1582462759
 20
5.421734282
 10
5.1548710705
 20
5.4278181904
 10
5.1513197909
 20
5.4340101132
 10
5.1475869732
 20
5.4403042004
 10
5.1436584047
 20
5.4467083356
 10
5.1395252228
 20
5.4532199492
 10
5.1351811486
 20
5.4598316893
 10
5.1306146979
 20
5.4665433834
 10
5.1258173313
 20
5.4733493753
 10
5.1207808105
 20
5.4802428728
 10
5.1154933274
 20
5.4872210647
 10
5.1099447344
 20
5.494277769
 10
5.1056103179
 20
5.4996121411
  0
LINE
  5
2F0
100
AcDbEntity
  8
0
100
AcDbLine
 62
7
  6
CONTINUOUS
 10
4.6337166606
 20
5.1491130607
 11
4.634269195
 21
5.1492224166
  0
LINE
  5
2F1
100
AcDbEntity
  8
0
100
AcDbLine
 62
7
  6
CONTINUOUS
 10
4.4759244698
 20
5.1488014779
 11
4.4799102446
 21
5.149120593
  0
LINE
  5
2F2
100
AcDbEntity
  8
0
100
AcDbLine
 62
7
  6
CONTINUOUS
 10
4.5058287504
 20
5.1811957588
 11
4.6350682971
 21
5.1811957588
  0
LINE
  5
2F3
100
AcDbEntity
  8
0
100
AcDbLine
 62
7
  6
CONTINUOUS
 10
5.2124669943
 20
5.1811957588
 11
5.341220939
 21
5.1811957588
  0
LINE
  5
2F4
100
AcDbEntity
  8
0
100
AcDbLine
 62
7
  6
CONTINUOUS
 10
4.5242866706
 20
5.2126957588
 11
4.6361341342
 21
5.2126957588
  0
LINE
  5
2F5
100
AcDbEntity
  8
0
100
AcDbLine
 62
7
  6
CONTINUOUS
 10
5.2113581192
 20
5.2126957588
 11
5.3227629789
 21
5.2126957588
  0
LINE
  5
2F6
100
AcDbEntity
  8
0
100
AcDbLine
 62
7
  6
CONTINUOUS
 10
5.3671394477
 20
5.1491205961
 11
5.3711252197
 21
5.1488014779
  0
LINE
  5
2F7
100
AcDbEntity
  8
0
100
AcDbLine
 62
7
  6
CONTINUOUS
 10
5.2131406956
 20
5.1491510193
 11
5.2133332751
 21
5.1491130295
  0
LINE
  5
2F8
100
AcDbEntity
  8
0
100
AcDbLine
 62
7
  6
CONTINUOUS
 10
4.9235248447
 20
6.2649765187
 11
5.0001543538
 21
6.0681652226
  0
LINE
  5
2F9
100
AcDbEntity
  8
0
100
AcDbLine
 62
7
  6
CONTINUOUS
 10
4.9272490712
 20
6.2664630393
 11
5.0038785803
 21
6.0696517431
  0
LINE
  5
2FA
100
AcDbEntity
  8
0
100
AcDbLine
 62
7
  6
CONTINUOUS
 10
4.8629461112
 20
5.7565571811
 11
4.7772748447
 21
5.8391126224
  0
LINE
  5
2FB
100
AcDbEntity
  8
0
100
AcDbLine
 62
7
  6
CONTINUOUS
 10
4.8582735678
 20
5.7614940989
 11
4.7659943271
 21
5.8504171855
  0
LWPOLYLINE
  5
2FC
100
AcDbEntity
  8
0
100
AcDbPolyline
 62
7
  6
CONTINUOUS
 90
20
 70
0
 10
5.1055797916
 20
5.4995861821
 10
5.1049924486
 20
5.5002768648
 10
5.1043279559
 20
5.5010103292
 10
5.1036171727
 20
5.5017457002
 10
5.1028595456
 20
5.502478822
 10
5.1020572067
 20
5.5032033614
 10
5.1012086428
 20
5.5039167229
 10
5.1003133895
 20
5.5046153473
 10
5.0993761602
 20
5.5052921324
 10
5.0983969333
 20
5.5059441613
 10
5.0973756194
 20
5.5065685808
 10
5.0963179158
 20
5.5071594327
 10
5.0952249543
 20
5.5077140822
 10
5.0940972383
 20
5.5082302873
 10
5.0929403941
 20
5.5087038001
 10
5.0917558826
 20
5.5091326904
 10
5.090545217
 20
5.5095150878
 10
5.0893147272
 20
5.5098479906
 10
5.0880679185
 20
5.5101298696
 10
5.0874231245
 20
5.5102542756
  0
LINE
  5
2FD
100
AcDbEntity
  8
0
100
AcDbLine
 62
7
  6
CONTINUOUS
 10
5.1056031782
 20
5.4996208039
 11
5.1056446876
 21
5.4995679
  0
LWPOLYLINE
  5
2FE
100
AcDbEntity
  8
0
100
AcDbPolyline
 62
7
  6
CONTINUOUS
 90
31
 70
0
 10
5.3227629722
 20
5.2126957676
 10
5.3140846416
 20
5.2240986639
 10
5.3051560713
 20
5.2362488874
 10
5.2965495257
 20
5.2483991305
 10
5.2882694622
 20
5.2605333711
 10
5.2803073368
 20
5.2726539121
 10
5.2726432559
 20
5.2847824362
 10
5.2652760066
 20
5.2969134361
 10
5.2582038065
 20
5.3090411823
 10
5.2514080949
 20
5.321187982
 10
5.2448876768
 20
5.3333476074
 10
5.2386411043
 20
5.3455141527
 10
5.2326522384
 20
5.3577121592
 10
5.2269207592
 20
5.3699372496
 10
5.2214466633
 20
5.3821842405
 10
5.2162172801
 20
5.3944781579
 10
5.2112325826
 20
5.4068155631
 10
5.2064921653
 20
5.4191906152
 10
5.2019854377
 20
5.4316259205
 10
5.1977129252
 20
5.4441173009
 10
5.1936752053
 20
5.4566604268
 10
5.1898647165
 20
5.4692787944
 10
5.1862835302
 20
5.4819685133
 10
5.1829335634
 20
5.4947260344
 10
5.1798089773
 20
5.5075757373
 10
5.1769111777
 20
5.5205127686
 10
5.174241329
 20
5.5335330198
 10
5.1717953493
 20
5.5466621259
 10
5.1695745426
 20
5.5599057884
 10
5.1675837854
 20
5.5732494034
 10
5.1659300045
 20
5.585837256
  0
LINE
  5
2FF
100
AcDbEntity
  8
0
100
AcDbLine
 62
7
  6
CONTINUOUS
 10
4.9198006182
 20
6.2736405954
 11
4.8431711092
 21
6.4333725669
  0
LINE
  5
300
100
AcDbEntity
  8
0
100
AcDbLine
 62
7
  6
CONTINUOUS
 10
4.9235248447
 20
6.275127116
 11
4.8468953357
 21
6.4348590875
  0
LWPOLYLINE
  5
301
100
AcDbEntity
  8
0
100
AcDbPolyline
 62
7
  6
CONTINUOUS
 90
20
 70
0
 10
4.7593719907
 20
5.5112680889
 10
4.7588061674
 20
5.5111622275
 10
4.7575642136
 20
5.5108906751
 10
4.7563380935
 20
5.5105685439
 10
4.7551311617
 20
5.5101972843
 10
4.7539493579
 20
5.5097796751
 10
4.7527942216
 20
5.5093175026
 10
4.7516672233
 20
5.5088126064
 10
4.7505736332
 20
5.5082689055
 10
4.7495140211
 20
5.5076885223
 10
4.7484895904
 20
5.5070739701
 10
4.7475057651
 20
5.5064307948
 10
4.7465625046
 20
5.5057616595
 10
4.7456599918
 20
5.5050694043
 10
4.7448029598
 20
5.5043608539
 10
4.7439910121
 20
5.5036393805
 10
4.7432228725
 20
5.5029075668
 10
4.7425009495
 20
5.5021717563
 10
4.7418248609
 20
5.5014360891
 10
4.7411713931
 20
5.5006775944
  0
LINE
  5
302
100
AcDbEntity
  8
0
100
AcDbLine
 62
7
  6
CONTINUOUS
 10
5.0874112931
 20
5.5103369415
 11
5.0874283202
 21
5.5103393785
  0
LWPOLYLINE
  5
303
100
AcDbEntity
  8
0
100
AcDbPolyline
 62
7
  6
CONTINUOUS
 90
25
 70
0
 10
5.0874280142
 20
5.5103345634
 10
5.0841514348
 20
5.5109291328
 10
5.0693137789
 20
5.513447068
 10
5.0543402796
 20
5.5157380476
 10
5.039213671
 20
5.5178011711
 10
5.0239705683
 20
5.5196276886
 10
5.0087028717
 20
5.5212052954
 10
4.9934353562
 20
5.5225322734
 10
4.9781664086
 20
5.5236094178
 10
4.9629498661
 20
5.5244341221
 10
4.947811922
 20
5.5250073881
 10
4.9327491152
 20
5.5253316161
 10
4.9177707005
 20
5.5254083743
 10
4.9028875792
 20
5.5252413112
 10
4.8881097458
 20
5.5248371266
 10
4.8734446476
 20
5.5242025317
 10
4.8589015459
 20
5.5233441149
 10
4.844490383
 20
5.5222684142
 10
4.83021918
 20
5.5209817377
 10
4.8160956954
 20
5.5194902252
 10
4.8021295236
 20
5.5178001216
 10
4.7883307906
 20
5.515917754
 10
4.7747078049
 20
5.5138492225
 10
4.7612672257
 20
5.5116003163
 10
4.7593728067
 20
5.511266494
  0
LINE
  5
304
100
AcDbEntity
  8
0
100
AcDbLine
 62
7
  6
CONTINUOUS
 10
5.0874283202
 20
5.5103393785
 11
5.0874377103
 21
5.5103375264
  0
LINE
  5
305
100
AcDbEntity
  8
0
100
AcDbLine
 62
7
  6
CONTINUOUS
 10
4.6768929016
 20
6.1117272479
 11
4.8071987805
 21
5.9861605347
  0
LINE
  5
306
100
AcDbEntity
  8
0
100
AcDbLine
 62
7
  6
CONTINUOUS
 10
4.6760248447
 20
6.1276959709
 11
4.821006988
 21
5.9879867625
  0
LINE
  5
307
100
AcDbEntity
  8
0
100
AcDbLine
 62
7
  6
CONTINUOUS
 10
4.821006988
 20
5.9879867625
 11
4.8313846741
 21
5.9765067642
  0
LINE
  5
308
100
AcDbEntity
  8
0
100
AcDbLine
 62
7
  6
CONTINUOUS
 10
4.8071987805
 20
5.9861605347
 11
4.8175702374
 21
5.9746563749
  0
LWPOLYLINE
  5
309
100
AcDbEntity
  8
0
100
AcDbPolyline
 62
7
  6
CONTINUOUS
 90
19
 70
0
 10
4.7985267491
 20
5.6376959831
 10
4.7937285902
 20
5.637087837
 10
4.788002881
 20
5.636249363
 10
4.7822799618
 20
5.6352881677
 10
4.7765710107
 20
5.6342062816
 10
4.7708699342
 20
5.633002841
 10
4.7651532583
 20
5.631672054
 10
4.759423825
 20
5.6302133298
 10
4.7536843332
 20
5.628626208
 10
4.7479116647
 20
5.6269022886
 10
4.7421089985
 20
5.6250401301
 10
4.7362793631
 20
5.6230384788
 10
4.7304003616
 20
5.6208865485
 10
4.7244755123
 20
5.6185820971
 10
4.7185083918
 20
5.6161232163
 10
4.7124777571
 20
5.6134970669
 10
4.7063794293
 20
5.610696978
 10
4.7002258981
 20
5.6077240318
 10
4.6947809376
 20
5.6049696599
  0
LINE
  5
30A
100
AcDbEntity
  8
0
100
AcDbLine
 62
7
  6
CONTINUOUS
 10
5.1639592399
 20
5.5855953432
 11
5.1659298964
 21
5.5858372427
  0
LINE
  5
30B
100
AcDbEntity
  8
0
100
AcDbLine
 62
7
  6
CONTINUOUS
 10
4.798524845
 20
5.6376957589
 11
5.0485248447
 21
5.6376957588
  0
LINE
  5
30C
100
AcDbEntity
  8
0
100
AcDbLine
 62
7
  6
CONTINUOUS
 10
4.6830903672
 20
5.5855953525
 11
4.6811196823
 21
5.5858372556
  0
LINE
  5
30D
100
AcDbEntity
  8
0
100
AcDbLine
 62
7
  6
CONTINUOUS
 10
5.0653445933
 20
5.6351812065
 11
5.0652756846
 21
5.6351929705
  0
LINE
  5
30E
100
AcDbEntity
  8
0
100
AcDbLine
 62
7
  6
CONTINUOUS
 10
5.0658923137
 20
5.6350812559
 11
5.0652758158
 21
5.6351936761
  0
LWPOLYLINE
  5
30F
100
AcDbEntity
  8
0
100
AcDbPolyline
 62
7
  6
CONTINUOUS
 90
19
 70
0
 10
5.1522687505
 20
5.6049696612
 10
5.146892672
 20
5.6076899148
 10
5.1407396026
 20
5.6106643017
 10
5.1346417763
 20
5.6134658223
 10
5.128611675
 20
5.6160933855
 10
5.1226451232
 20
5.6185536737
 10
5.1167208598
 20
5.6208595416
 10
5.1108424468
 20
5.623012889
 10
5.1050134113
 20
5.6250159634
 10
5.0992113373
 20
5.6268795676
 10
5.0934392528
 20
5.6286049499
 10
5.0877003297
 20
5.6301935425
 10
5.0819714244
 20
5.6316537627
 10
5.0762552454
 20
5.6329860784
 10
5.0705546178
 20
5.6341910634
 10
5.064846024
 20
5.6352745173
 10
5.0591233722
 20
5.6362373184
 10
5.0533979068
 20
5.6370774036
 10
5.048523223
 20
5.6376959498
  0
LINE
  5
310
100
AcDbEntity
  8
0
100
AcDbLine
 62
7
  6
CONTINUOUS
 10
4.6768929016
 20
6.1117272479
 11
4.6677277948
 21
6.1190491158
  0
LINE
  5
311
100
AcDbEntity
  8
0
100
AcDbLine
 62
7
  6
CONTINUOUS
 10
4.6760248447
 20
6.1276959709
 11
4.6668747765
 21
6.1350335114
  0
LINE
  5
312
100
AcDbEntity
  8
0
100
AcDbLine
 62
7
  6
CONTINUOUS
 10
4.727918243
 20
6.1557838455
 11
4.836288734
 21
6.0513547402
  0
LINE
  5
313
100
AcDbEntity
  8
0
100
AcDbLine
 62
7
  6
CONTINUOUS
 10
4.727918243
 20
6.1636954357
 11
4.836288734
 21
6.0592663304
  0
LINE
  5
314
100
AcDbEntity
  8
0
100
AcDbLine
 62
7
  6
CONTINUOUS
 10
4.7348006182
 20
6.1740808484
 11
4.8431711092
 21
6.0696517431
  0
LINE
  5
315
100
AcDbEntity
  8
0
100
AcDbLine
 62
7
  6
CONTINUOUS
 10
4.8162555313
 20
5.6793404262
 11
5.0307941582
 21
5.6793404262
  0
LINE
  5
316
100
AcDbEntity
  8
0
100
AcDbLine
 62
7
  6
CONTINUOUS
 10
5.0941191524
 20
5.7120631624
 11
4.7529305371
 21
5.7120631624
  0
LINE
  5
317
100
AcDbEntity
  8
0
100
AcDbLine
 62
7
  6
CONTINUOUS
 10
5.1096112249
 20
5.7282317198
 11
4.9920496457
 21
5.7282317198
  0
LINE
  5
318
100
AcDbEntity
  8
0
100
AcDbLine
 62
7
  6
CONTINUOUS
 10
4.8558821497
 20
5.7282317198
 11
4.7374384645
 21
5.7282317198
  0
LINE
  5
319
100
AcDbEntity
  8
0
100
AcDbLine
 62
7
  6
CONTINUOUS
 10
4.9841035782
 20
5.7565571811
 11
4.8629461112
 21
5.7565571811
  0
LINE
  5
31A
100
AcDbEntity
  8
0
100
AcDbLine
 62
7
  6
CONTINUOUS
 10
4.9887761216
 20
5.7614940989
 11
4.8582735678
 21
5.7614940989
  0
LINE
  5
31B
100
AcDbEntity
  8
0
100
AcDbLine
 62
7
  6
CONTINUOUS
 10
5.4748914952
 20
2.9288019161
 11
5.4745194557
 21
2.9280134168
  0
LINE
  5
31C
100
AcDbEntity
  8
0
100
AcDbLine
 62
7
  6
CONTINUOUS
 10
5.1701567878
 20
6.3359179237
 11
5.1793218946
 21
6.3232512883
  0
LINE
  5
31D
100
AcDbEntity
  8
0
100
AcDbLine
 62
7
  6
CONTINUOUS
 10
5.1710248447
 20
6.3252746283
 11
5.180174913
 21
6.3126116602
  0
LINE
  5
31E
100
AcDbEntity
  8
0
100
AcDbLine
 62
7
  6
CONTINUOUS
 10
4.8313846741
 20
5.9765067642
 11
4.8175702374
 21
5.9746563749
  0
LINE
  5
31F
100
AcDbEntity
  8
0
100
AcDbLine
 62
7
  6
CONTINUOUS
 10
4.821006988
 20
5.9879867625
 11
4.8071987805
 21
5.9861605347
  0
LINE
  5
320
100
AcDbEntity
  8
0
100
AcDbLine
 62
7
  6
CONTINUOUS
 10
5.1255524986
 20
5.9562025536
 11
5.1197520328
 21
5.9562025536
  0
LINE
  5
321
100
AcDbEntity
  8
0
100
AcDbLine
 62
7
  6
CONTINUOUS
 10
4.7272976566
 20
5.9562025536
 11
4.7214971909
 21
5.9562025536
  0
LINE
  5
322
100
AcDbEntity
  8
0
100
AcDbLine
 62
7
  6
CONTINUOUS
 10
4.8313846741
 20
5.9765067642
 11
5.0156650153
 21
5.9765067642
  0
LINE
  5
323
100
AcDbEntity
  8
0
100
AcDbLine
 62
7
  6
CONTINUOUS
 10
4.821006988
 20
5.9879867625
 11
5.0260427014
 21
5.9879867625
  0
LINE
  5
324
100
AcDbEntity
  8
0
100
AcDbLine
 62
7
  6
CONTINUOUS
 10
4.8468953357
 20
6.0471211278
 11
5.0001543538
 21
6.0471211278
  0
LINE
  5
325
100
AcDbEntity
  8
0
100
AcDbLine
 62
7
  6
CONTINUOUS
 10
4.8468953357
 20
6.055032718
 11
5.0001543538
 21
6.055032718
  0
LINE
  5
326
100
AcDbEntity
  8
0
100
AcDbLine
 62
7
  6
CONTINUOUS
 10
5.0260427014
 20
5.9879867625
 11
5.0398509089
 21
5.9861605347
  0
LINE
  5
327
100
AcDbEntity
  8
0
100
AcDbLine
 62
7
  6
CONTINUOUS
 10
5.0156650153
 20
5.9765067642
 11
5.029479452
 21
5.9746563749
  0
LINE
  5
328
100
AcDbEntity
  8
0
100
AcDbLine
 62
7
  6
CONTINUOUS
 10
5.1122490712
 20
6.3289434616
 11
5.0038785803
 21
6.4333725669
  0
LINE
  5
329
100
AcDbEntity
  8
0
100
AcDbLine
 62
7
  6
CONTINUOUS
 10
5.1189332102
 20
6.3324025375
 11
5.0105627193
 21
6.4368316428
  0
LINE
  5
32A
100
AcDbEntity
  8
0
100
AcDbLine
 62
7
  6
CONTINUOUS
 10
5.1710248447
 20
6.3252746283
 11
5.1268446363
 21
6.3678480226
  0
LINE
  5
32B
100
AcDbEntity
  8
0
100
AcDbLine
 62
7
  6
CONTINUOUS
 10
5.0597457993
 20
6.4325065053
 11
5.0260427014
 21
6.4649838368
  0
LINE
  5
32C
100
AcDbEntity
  8
0
100
AcDbLine
 62
7
  6
CONTINUOUS
 10
5.1701567878
 20
6.3359179237
 11
5.0398509089
 21
6.4614846369
  0
LINE
  5
32D
100
AcDbEntity
  8
0
100
AcDbLine
 62
7
  6
CONTINUOUS
 10
4.8468953357
 20
6.0681652226
 11
5.0001543538
 21
6.0681652226
  0
LINE
  5
32E
100
AcDbEntity
  8
0
100
AcDbLine
 62
7
  6
CONTINUOUS
 10
4.9272490712
 20
6.2664630393
 11
5.1122490712
 21
6.1740808484
  0
LINE
  5
32F
100
AcDbEntity
  8
0
100
AcDbLine
 62
7
  6
CONTINUOUS
 10
4.9287916963
 20
6.2700518174
 11
5.1137916963
 21
6.1776696265
  0
LINE
  5
330
100
AcDbEntity
  8
0
100
AcDbLine
 62
7
  6
CONTINUOUS
 10
4.9182579931
 20
6.2700518174
 11
4.7332579931
 21
6.3253546835
  0
LINE
  5
331
100
AcDbEntity
  8
0
100
AcDbLine
 62
7
  6
CONTINUOUS
 10
4.9198006182
 20
6.2736405954
 11
4.7348006182
 21
6.3289434616
  0
LINE
  5
332
100
AcDbEntity
  8
0
100
AcDbLine
 62
7
  6
CONTINUOUS
 10
5.0260427014
 20
6.4649838368
 11
5.0156650153
 21
6.4711384074
  0
LINE
  5
333
100
AcDbEntity
  8
0
100
AcDbLine
 62
7
  6
CONTINUOUS
 10
5.0398509089
 20
6.4614846369
 11
5.029479452
 21
6.4676440291
  0
LINE
  5
334
100
AcDbEntity
  8
0
100
AcDbLine
 62
7
  6
CONTINUOUS
 10
4.821006988
 20
6.4649838368
 11
4.8071987805
 21
6.4614846369
  0
LINE
  5
335
100
AcDbEntity
  8
0
100
AcDbLine
 62
7
  6
CONTINUOUS
 10
4.8313846741
 20
6.4711384074
 11
4.8175702374
 21
6.4676440291
  0
LINE
  5
336
100
AcDbEntity
  8
0
100
AcDbLine
 62
7
  6
CONTINUOUS
 10
5.0001543538
 20
6.4348590875
 11
4.8468953357
 21
6.4348590875
  0
LINE
  5
337
100
AcDbEntity
  8
0
100
AcDbLine
 62
7
  6
CONTINUOUS
 10
5.0001543538
 20
6.4410304425
 11
4.8468953357
 21
6.4410304425
  0
LINE
  5
338
100
AcDbEntity
  8
0
100
AcDbLine
 62
7
  6
CONTINUOUS
 10
5.0260427014
 20
6.4649838368
 11
4.9846515132
 21
6.4649838368
  0
LINE
  5
339
100
AcDbEntity
  8
0
100
AcDbLine
 62
7
  6
CONTINUOUS
 10
4.8623985978
 20
6.4649838368
 11
4.821006988
 21
6.4649838368
  0
LINE
  5
33A
100
AcDbEntity
  8
0
100
AcDbLine
 62
7
  6
CONTINUOUS
 10
5.0156650153
 20
6.4711384074
 11
4.9493857439
 21
6.4711384074
  0
LINE
  5
33B
100
AcDbEntity
  8
0
100
AcDbLine
 62
7
  6
CONTINUOUS
 10
4.8976642653
 20
6.4711384074
 11
4.8313846741
 21
6.4711384074
  0
LINE
  5
33C
100
AcDbEntity
  8
0
100
AcDbLine
 62
7
  6
CONTINUOUS
 10
5.0156650153
 20
6.4711384074
 11
5.029479452
 21
6.4676440291
  0
LINE
  5
33D
100
AcDbEntity
  8
0
100
AcDbLine
 62
7
  6
CONTINUOUS
 10
5.0260427014
 20
6.4649838368
 11
5.0398509089
 21
6.4614846369
  0
ARC
  5
33E
100
AcDbEntity
  8
0
100
AcDbCircle
 62
7
  6
CONTINUOUS
 10
3.6191792827
 20
3.8049338358
 40
1.4640132299
100
AcDbArc
 50
357.1350049132
 51
357.9431524804
  0
ARC
  5
33F
100
AcDbEntity
  8
0
100
AcDbCircle
 62
7
  6
CONTINUOUS
 10
3.6797385417
 20
3.8041234462
 40
1.377642925
100
AcDbArc
 50
356.9889733974
 51
357.8136786591
  0
ARC
  5
340
100
AcDbEntity
  8
0
100
AcDbCircle
 62
7
  6
CONTINUOUS
 10
4.4341080835
 20
3.5795644282
 40
0.7067709034
100
AcDbArc
 50
283.3688375337
 51
286.8743792983
  0
ARC
  5
341
100
AcDbEntity
  8
0
100
AcDbCircle
 62
7
  6
CONTINUOUS
 10
4.4561213145
 20
3.5280577292
 40
0.6281188658
100
AcDbArc
 50
283.5670268385
 51
287.1950635835
  0
ARC
  5
342
100
AcDbEntity
  8
0
100
AcDbCircle
 62
7
  6
CONTINUOUS
 10
4.7912204806
 20
4.8365515028
 40
0.445595624
100
AcDbArc
 50
5.5074691838
 51
5.9689837115
  0
ARC
  5
343
100
AcDbEntity
  8
0
100
AcDbCircle
 62
7
  6
CONTINUOUS
 10
4.7044589784
 20
4.8706140779
 40
0.0926673934
100
AcDbArc
 50
171.6382391935
 51
173.6878891681
  0
ARC
  5
344
100
AcDbEntity
  8
0
100
AcDbCircle
 62
7
  6
CONTINUOUS
 10
4.3849660991
 20
2.9016733809
 40
0.03
100
AcDbArc
 50
115.2729048909
 51
177.0357786625
  0
ARC
  5
345
100
AcDbEntity
  8
0
100
AcDbCircle
 62
7
  6
CONTINUOUS
 10
-17.0000442993
 20
7.1921352889
 40
22.4635689494
100
AcDbArc
 50
353.1451789284
 51
353.5841166006
  0
ARC
  5
346
100
AcDbEntity
  8
0
100
AcDbCircle
 62
7
  6
CONTINUOUS
 10
1.7317027047
 20
5.3087596355
 40
2.9122040742
100
AcDbArc
 50
351.6150808386
 51
354.9656829663
  0
ARC
  5
347
100
AcDbEntity
  8
0
100
AcDbCircle
 62
7
  6
CONTINUOUS
 10
3.3483858275
 20
5.6732729666
 40
1.4511143264
100
AcDbArc
 50
353.7888291561
 51
356.5492402866
  0
ARC
  5
348
100
AcDbEntity
  8
0
100
AcDbCircle
 62
7
  6
CONTINUOUS
 10
3.3946158058
 20
5.6736682989
 40
1.417888703
100
AcDbArc
 50
353.6974292797
 51
356.4522526806
  0
ARC
  5
349
100
AcDbEntity
  8
0
100
AcDbCircle
 62
7
  6
CONTINUOUS
 10
4.8979572058
 20
5.41537745
 40
0.5289968855
100
AcDbArc
 50
261.1922959535
 51
261.5019967027
  0
ARC
  5
34A
100
AcDbEntity
  8
0
100
AcDbCircle
 62
7
  6
CONTINUOUS
 10
4.9060684829
 20
6.2358398206
 40
0.2275436382
100
AcDbArc
 50
180.0002965768
 51
182.3542619104
  0
ARC
  5
34B
100
AcDbEntity
  8
0
100
AcDbCircle
 62
7
  6
CONTINUOUS
 10
4.9117304691
 20
6.2360071842
 40
0.1799292045
100
AcDbArc
 50
247.6021801103
 51
248.8791118055
  0
ARC
  5
34C
100
AcDbEntity
  8
0
100
AcDbCircle
 62
7
  6
CONTINUOUS
 10
4.8596089223
 20
6.4305155525
 40
0.1774497586
100
AcDbArc
 50
291.1119667486
 51
292.4067413355
  0
ARC
  5
34D
100
AcDbEntity
  8
0
100
AcDbCircle
 62
7
  6
CONTINUOUS
 10
4.7417002611
 20
5.6126957588
 40
0.1
100
AcDbArc
 50
41.7934055852
 51
83.5519233076
  0
ARC
  5
34E
100
AcDbEntity
  8
0
100
AcDbCircle
 62
7
  6
CONTINUOUS
 10
4.8710049362
 20
6.2927653417
 40
0.0620903683
100
AcDbArc
 50
334.9370821411
 51
338.5423154156
  0
ARC
  5
34F
100
AcDbEntity
  8
0
100
AcDbCircle
 62
7
  6
CONTINUOUS
 10
4.7910447532
 20
6.2003831508
 40
0.0620903682
100
AcDbArc
 50
201.4576845825
 51
205.0629178608
  0
ARC
  5
350
100
AcDbEntity
  8
0
100
AcDbCircle
 62
7
  6
CONTINUOUS
 10
4.6681454303
 20
5.1511969285
 40
0.0344812343
100
AcDbArc
 50
167.6074102386
 51
183.4614720496
  0
ARC
  5
351
100
AcDbEntity
  8
0
100
AcDbCircle
 62
7
  6
CONTINUOUS
 10
4.5058287741
 20
5.1511957588
 40
0.03
100
AcDbArc
 50
90.0000186686
 51
184.5776080493
  0
ARC
  5
352
100
AcDbEntity
  8
0
100
AcDbCircle
 62
7
  6
CONTINUOUS
 10
4.9154718903
 20
6.2495433262
 40
0.0268212672
100
AcDbArc
 50
63.9536176139
 51
72.5276743019
  0
ARC
  5
353
100
AcDbEntity
  8
0
100
AcDbCircle
 62
7
  6
CONTINUOUS
 10
4.85494829
 20
6.4092752977
 40
0.0268212672
100
AcDbArc
 50
107.4723256937
 51
116.0463823905
  0
ARC
  5
354
100
AcDbEntity
  8
0
100
AcDbCircle
 62
7
  6
CONTINUOUS
 10
4.8219085543
 20
5.5837954987
 40
0.0251301642
100
AcDbArc
 50
173.2440223667
 51
175.129021152
  0
ARC
  5
355
100
AcDbEntity
  8
0
100
AcDbCircle
 62
7
  6
CONTINUOUS
 10
4.7976167148
 20
5.6626792593
 40
0.0249999999
100
AcDbArc
 50
272.0817389687
 51
41.7934079728
  0
ARC
  5
356
100
AcDbEntity
  8
0
100
AcDbCircle
 62
7
  6
CONTINUOUS
 10
4.791341958
 20
5.6130277097
 40
0.0230062381
100
AcDbArc
 50
337.2215385598
 51
339.0935451982
  0
ARC
  5
357
100
AcDbEntity
  8
0
100
AcDbCircle
 62
7
  6
CONTINUOUS
 10
4.743942382
 20
5.9577720743
 40
0.0225
100
AcDbArc
 50
156.0534556054
 51
184.0
  0
ARC
  5
358
100
AcDbEntity
  8
0
100
AcDbCircle
 62
7
  6
CONTINUOUS
 10
4.7548958354
 20
5.7294524581
 40
0.0175
100
AcDbArc
 50
184.0
 51
263.5519233076
  0
ARC
  5
359
100
AcDbEntity
  8
0
100
AcDbCircle
 62
7
  6
CONTINUOUS
 10
4.7385248447
 20
6.3216013372
 40
0.015
100
AcDbArc
 50
133.9386107481
 51
179.999999997
  0
ARC
  5
35A
100
AcDbEntity
  8
0
100
AcDbCircle
 62
7
  6
CONTINUOUS
 10
4.8468953357
 20
6.4260304425
 40
0.015
100
AcDbArc
 50
90.0
 51
133.9390298768
  0
ARC
  5
35B
100
AcDbEntity
  8
0
100
AcDbCircle
 62
7
  6
CONTINUOUS
 10
6.2343253738
 20
3.8052229773
 40
1.4704745966
100
AcDbArc
 50
182.0590623973
 51
182.8636758789
  0
ARC
  5
35C
100
AcDbEntity
  8
0
100
AcDbCircle
 62
7
  6
CONTINUOUS
 10
6.1524584085
 20
3.8034527371
 40
1.3627754205
100
AcDbArc
 50
182.1819203404
 51
183.0156684266
  0
ARC
  5
35D
100
AcDbEntity
  8
0
100
AcDbCircle
 62
7
  6
CONTINUOUS
 10
5.4156568273
 20
3.5896030156
 40
0.7171653448
100
AcDbArc
 50
253.1508316877
 51
256.6055543904
  0
ARC
  5
35E
100
AcDbEntity
  8
0
100
AcDbCircle
 62
7
  6
CONTINUOUS
 10
5.3934884673
 20
3.5373619436
 40
0.6377640838
100
AcDbArc
 50
252.8323204285
 51
256.4054782638
  0
ARC
  5
35F
100
AcDbEntity
  8
0
100
AcDbCircle
 62
7
  6
CONTINUOUS
 10
5.1468557213
 20
4.8697901636
 40
0.0885190371
100
AcDbArc
 50
6.1850458769
 51
8.5095991666
  0
ARC
  5
360
100
AcDbEntity
  8
0
100
AcDbCircle
 62
7
  6
CONTINUOUS
 10
5.4620835905
 20
2.901673378
 40
0.03
100
AcDbArc
 50
2.9642240948
 51
64.727102808
  0
ARC
  5
361
100
AcDbEntity
  8
0
100
AcDbCircle
 62
7
  6
CONTINUOUS
 10
5.206544375
 20
4.8799755211
 40
0.0280078121
100
AcDbArc
 50
5.9704681525
 51
8.4256546788
  0
ARC
  5
362
100
AcDbEntity
  8
0
100
AcDbCircle
 62
7
  6
CONTINUOUS
 10
26.8383558432
 20
7.1911100103
 40
22.4547708861
100
AcDbArc
 50
186.4153577968
 51
186.8548848365
  0
ARC
  5
363
100
AcDbEntity
  8
0
100
AcDbCircle
 62
7
  6
CONTINUOUS
 10
6.4911438653
 20
5.6726502452
 40
1.4435704978
100
AcDbArc
 50
183.4440699878
 51
186.25164787
  0
ARC
  5
364
100
AcDbEntity
  8
0
100
AcDbCircle
 62
7
  6
CONTINUOUS
 10
6.4397554532
 20
5.672554607
 40
1.4051656923
100
AcDbArc
 50
183.5344133496
 51
186.3454446126
  0
ARC
  5
365
100
AcDbEntity
  8
0
100
AcDbCircle
 62
7
  6
CONTINUOUS
 10
4.9235253594
 20
5.5463300256
 40
1.0358546573
100
AcDbArc
 50
259.7721101262
 51
280.2277832806
  0
ARC
  5
366
100
AcDbEntity
  8
0
100
AcDbCircle
 62
7
  6
CONTINUOUS
 10
4.9487563432
 20
5.4175652818
 40
0.5312103703
100
AcDbArc
 50
278.4990180251
 51
278.8074210345
  0
ARC
  5
367
100
AcDbEntity
  8
0
100
AcDbCircle
 62
7
  6
CONTINUOUS
 10
4.9235248447
 20
5.1087237642
 40
0.3062
100
AcDbArc
 50
13.6907851686
 51
19.8500865201
  0
ARC
  5
368
100
AcDbEntity
  8
0
100
AcDbCircle
 62
7
  6
CONTINUOUS
 10
4.9235248447
 20
5.1087237642
 40
0.3062
100
AcDbArc
 50
160.1499134799
 51
166.3092148314
  0
ARC
  5
369
100
AcDbEntity
  8
0
100
AcDbCircle
 62
7
  6
CONTINUOUS
 10
5.0164361447
 20
5.3656190974
 40
0.2739630759
100
AcDbArc
 50
79.7309334505
 51
80.5243163553
  0
ARC
  5
36A
100
AcDbEntity
  8
0
100
AcDbCircle
 62
7
  6
CONTINUOUS
 10
5.0164729211
 20
5.3658381983
 40
0.2737409101
100
AcDbArc
 50
80.5243591197
 51
80.9579960684
  0
ARC
  5
36B
100
AcDbEntity
  8
0
100
AcDbCircle
 62
7
  6
CONTINUOUS
 10
5.0165100748
 20
5.3660726242
 40
0.2735035583
100
AcDbArc
 50
80.9579646341
 51
81.5825801194
  0
ARC
  5
36C
100
AcDbEntity
  8
0
100
AcDbCircle
 62
7
  6
CONTINUOUS
 10
5.0165572877
 20
5.3663916331
 40
0.2731810745
100
AcDbArc
 50
81.5825815003
 51
82.1708479595
  0
ARC
  5
36D
100
AcDbEntity
  8
0
100
AcDbCircle
 62
7
  6
CONTINUOUS
 10
5.0166302378
 20
5.3669287233
 40
0.2726390535
100
AcDbArc
 50
82.1706604708
 51
83.2818852975
  0
ARC
  5
36E
100
AcDbEntity
  8
0
100
AcDbCircle
 62
7
  6
CONTINUOUS
 10
4.9883599771
 20
6.432818478
 40
0.1799292019
100
AcDbArc
 50
247.602180101
 51
248.8791118148
  0
ARC
  5
36F
100
AcDbEntity
  8
0
100
AcDbCircle
 62
7
  6
CONTINUOUS
 10
4.9362384303
 20
6.2337042587
 40
0.1774497613
100
AcDbArc
 50
291.1119667582
 51
292.406741326
  0
ARC
  5
370
100
AcDbEntity
  8
0
100
AcDbCircle
 62
7
  6
CONTINUOUS
 10
4.9235311651
 20
5.9001523903
 40
0.1462584436
100
AcDbArc
 50
259.0559349585
 51
280.9442602536
  0
ARC
  5
371
100
AcDbEntity
  8
0
100
AcDbCircle
 62
7
  6
CONTINUOUS
 10
4.9264832243
 20
5.8946604134
 40
0.1399331263
100
AcDbArc
 50
309.1306245207
 51
318.7439181654
  0
ARC
  5
372
100
AcDbEntity
  8
0
100
AcDbCircle
 62
7
  6
CONTINUOUS
 10
4.9205664225
 20
5.8946603812
 40
0.139933074
100
AcDbArc
 50
221.2569985784
 51
230.8679856915
  0
ARC
  5
373
100
AcDbEntity
  8
0
100
AcDbCircle
 62
7
  6
CONTINUOUS
 10
5.1053494284
 20
5.6126957588
 40
0.1
100
AcDbArc
 50
96.4480766924
 51
138.2065944148
  0
ARC
  5
374
100
AcDbEntity
  8
0
100
AcDbCircle
 62
7
  6
CONTINUOUS
 10
4.9760447532
 20
6.2927653417
 40
0.0620903682
100
AcDbArc
 50
201.4576845829
 51
205.0629178605
  0
ARC
  5
375
100
AcDbEntity
  8
0
100
AcDbCircle
 62
7
  6
CONTINUOUS
 10
5.0560049363
 20
6.2003831508
 40
0.0620903682
100
AcDbArc
 50
334.9370821392
 51
338.5423154175
  0
ARC
  5
376
100
AcDbEntity
  8
0
100
AcDbCircle
 62
7
  6
CONTINUOUS
 10
5.1788039418
 20
5.1511954167
 40
0.0345820981
100
AcDbArc
 50
356.5576501513
 51
8.2459103516
  0
ARC
  5
377
100
AcDbEntity
  8
0
100
AcDbCircle
 62
7
  6
CONTINUOUS
 10
5.3412209153
 20
5.1511957588
 40
0.03
100
AcDbArc
 50
355.4223918879
 51
89.9999813241
  0
ARC
  5
378
100
AcDbEntity
  8
0
100
AcDbCircle
 62
7
  6
CONTINUOUS
 10
4.9921013992
 20
6.4092752972
 40
0.0268212677
100
AcDbArc
 50
63.9536176968
 51
72.5276742189
  0
ARC
  5
379
100
AcDbEntity
  8
0
100
AcDbCircle
 62
7
  6
CONTINUOUS
 10
4.9315777991
 20
6.2495433262
 40
0.0268212672
100
AcDbArc
 50
107.4723256946
 51
116.0463823896
  0
ARC
  5
37A
100
AcDbEntity
  8
0
100
AcDbCircle
 62
7
  6
CONTINUOUS
 10
5.0252290791
 20
5.5838044372
 40
0.0250417795
100
AcDbArc
 50
4.8667464555
 51
6.7593434447
  0
ARC
  5
37B
100
AcDbEntity
  8
0
100
AcDbCircle
 62
7
  6
CONTINUOUS
 10
5.0494329746
 20
5.6626792593
 40
0.0249999999
100
AcDbArc
 50
138.2065920272
 51
267.9182610313
  0
ARC
  5
37C
100
AcDbEntity
  8
0
100
AcDbCircle
 62
7
  6
CONTINUOUS
 10
5.1031073074
 20
5.9577720743
 40
0.0225
100
AcDbArc
 50
356.0
 51
23.9465443946
  0
ARC
  5
37D
100
AcDbEntity
  8
0
100
AcDbCircle
 62
7
  6
CONTINUOUS
 10
5.1951212187
 20
5.0537805813
 40
0.0186495284
100
AcDbArc
 50
354.618754004
 51
359.797783911
  0
ARC
  5
37E
100
AcDbEntity
  8
0
100
AcDbCircle
 62
7
  6
CONTINUOUS
 10
5.1951524909
 20
5.0537802744
 40
0.0186182554
100
AcDbArc
 50
359.7983886652
 51
0.0588869801
  0
ARC
  5
37F
100
AcDbEntity
  8
0
100
AcDbCircle
 62
7
  6
CONTINUOUS
 10
5.1951690121
 20
5.0536337178
 40
0.0186021363
100
AcDbArc
 50
356.7954891431
 51
358.0890240551
  0
ARC
  5
380
100
AcDbEntity
  8
0
100
AcDbCircle
 62
7
  6
CONTINUOUS
 10
5.0921538541
 20
5.7294524581
 40
0.0175
100
AcDbArc
 50
276.4480766924
 51
356.0
  0
ARC
  5
381
100
AcDbEntity
  8
0
100
AcDbCircle
 62
7
  6
CONTINUOUS
 10
5.0001543538
 20
6.4260304425
 40
0.015
100
AcDbArc
 50
46.0610872811
 51
90.0
  0
ARC
  5
382
100
AcDbEntity
  8
0
100
AcDbCircle
 62
7
  6
CONTINUOUS
 10
5.1085248447
 20
6.3216013372
 40
0.015
100
AcDbArc
 50
0.0000001562
 51
46.0613892522
  0
ARC
  5
383
100
AcDbEntity
  8
0
100
AcDbCircle
 62
7
  6
CONTINUOUS
 10
5.048172068
 20
5.6127783549
 40
0.0108973782
100
AcDbArc
 50
225.7729244211
 51
227.9926485767
  0
ARC
  5
384
100
AcDbEntity
  8
0
100
AcDbCircle
 62
7
  6
CONTINUOUS
 10
5.0290571663
 20
5.5854189563
 40
0.0082211196
100
AcDbArc
 50
3.5562824508
 51
5.8211424169
  0
ARC
  5
385
100
AcDbEntity
  8
0
100
AcDbCircle
 62
7
  6
CONTINUOUS
 10
5.2113910393
 20
5.05371308
 40
0.0023812632
100
AcDbArc
 50
0.039151436
 51
2.0782764189
  0
SPLINE
  5
386
100
AcDbEntity
  8
0
100
AcDbSpline
 62
7
  6
CONTINUOUS
 70
0
 71
3
 72
30
 73
26
 74
0
 42
0.0000001
 43
0.0000001
 44
0.0000000001
 40
0.0
 40
0.0
 40
0.0
 40
0.0
 40
0.1011132682
 40
0.1992456629
 40
0.2942962415
 40
0.3861208669
 40
0.4743564193
 40
0.5583851217
 40
0.6373406463
 40
0.7100194701
 40
0.7750461736
 40
0.8043075851
 40
0.8312627862
 40
0.878130531
 40
0.8981991335
 40
0.9162375997
 40
0.9323780006
 40
0.9467335648
 40
0.9594001208
 40
0.9704620961
 40
0.9799935707
 40
0.9880590008
 40
0.9947115764
 40
0.9975239302
 40
1.0
 40
1.0
 40
1.0
 40
1.0
 10
4.6332806329
 20
5.053739956
 30
0.0
 10
4.6332914877
 20
5.0620545493
 30
0.0
 10
4.6333437887
 20
5.0784386011
 30
0.0
 10
4.6335273688
 20
5.1026381349
 30
0.0
 10
4.6338229096
 20
5.1260727171
 30
0.0
 10
4.6342332802
 20
5.1486916243
 30
0.0
 10
4.6347475612
 20
5.1704018173
 30
0.0
 10
4.6353494749
 20
5.1910510976
 30
0.0
 10
4.6360270779
 20
5.2104180679
 30
0.0
 10
4.6367568449
 20
5.2282193795
 30
0.0
 10
4.637403825
 20
5.2419340172
 30
0.0
 10
4.6379262091
 20
5.2518902518
 30
0.0
 10
4.6384025704
 20
5.2603535487
 30
0.0
 10
4.638882705
 20
5.2680595027
 30
0.0
 10
4.6393748962
 20
5.2750297055
 30
0.0
 10
4.6397147372
 20
5.2794775689
 30
0.0
 10
4.640044392
 20
5.2834549753
 30
0.0
 10
4.640363368
 20
5.2869899271
 30
0.0
 10
4.6406712013
 20
5.290106482
 30
0.0
 10
4.6409673611
 20
5.2928254417
 30
0.0
 10
4.6412512724
 20
5.2951649935
 30
0.0
 10
4.6415222848
 20
5.2971406233
 30
0.0
 10
4.6417475225
 20
5.2985646343
 30
0.0
 10
4.6419237174
 20
5.2995306521
 30
0.0
 10
4.6420098293
 20
5.2999569531
 30
0.0
 10
4.6420527167
 20
5.3001559937
 30
0.0
  0
SPLINE
  5
387
100
AcDbEntity
  8
0
100
AcDbSpline
 62
7
  6
CONTINUOUS
 70
0
 71
3
 72
23
 73
19
 74
0
 42
0.0000001
 43
0.0000001
 44
0.0000000001
 40
0.0
 40
0.0
 40
0.0
 40
0.0
 40
0.061487646
 40
0.1230134527
 40
0.1846167198
 40
0.246331311
 40
0.3081875604
 40
0.3702101515
 40
0.4324172926
 40
0.4948200132
 40
0.557421801
 40
0.6202184803
 40
0.6831984437
 40
0.7463430863
 40
0.8096275938
 40
0.8730219728
 40
0.936491193
 40
1.0
 40
1.0
 40
1.0
 40
1.0
 10
4.6785248447
 20
6.2358386428
 30
0.0
 10
4.6785248447
 20
6.2435892372
 30
0.0
 10
4.6793150033
 20
6.259106801
 30
0.0
 10
4.6828587182
 20
6.2821451603
 30
0.0
 10
4.688725726
 20
6.3047359318
 30
0.0
 10
4.696858296
 20
6.3266569366
 30
0.0
 10
4.7071761377
 20
6.3476968636
 30
0.0
 10
4.7195778526
 20
6.3676525244
 30
0.0
 10
4.7339420693
 20
6.3863320191
 30
0.0
 10
4.7501286192
 20
6.4035563015
 30
0.0
 10
4.7679801243
 20
6.4191608752
 30
0.0
 10
4.787323719
 20
6.4329970983
 30
0.0
 10
4.8079726216
 20
6.4449335841
 30
0.0
 10
4.8297280524
 20
6.4548573473
 30
0.0
 10
4.8523808964
 20
6.4626745849
 30
0.0
 10
4.8757146964
 20
6.4683114321
 30
0.0
 10
4.8995033757
 20
6.4717150204
 30
0.0
 10
4.9155194805
 20
6.472473647
 30
0.0
 10
4.9235248447
 20
6.472473647
 30
0.0
  0
SPLINE
  5
388
100
AcDbEntity
  8
0
100
AcDbSpline
 62
7
  6
CONTINUOUS
 70
0
 71
3
 72
23
 73
19
 74
0
 42
0.0000001
 43
0.0000001
 44
0.0000000001
 40
0.0
 40
0.0
 40
0.0
 40
0.0
 40
0.0635088145
 40
0.1269780389
 40
0.1903724207
 40
0.2536569285
 40
0.3168015695
 40
0.3797815301
 40
0.4425782053
 40
0.5051799885
 40
0.5675827044
 40
0.6297898412
 40
0.6918124289
 40
0.7536686763
 40
0.8153832672
 40
0.8769865363
 40
0.9385123469
 40
1.0
 40
1.0
 40
1.0
 40
1.0
 10
4.9235248447
 20
6.472473647
 30
0.0
 10
4.9315302099
 20
6.472473647
 30
0.0
 10
4.9475463162
 20
6.4717150203
 30
0.0
 10
4.9713349973
 20
6.4683114312
 30
0.0
 10
4.994668798
 20
6.4626745835
 30
0.0
 10
5.0173216421
 20
6.4548573453
 30
0.0
 10
5.0390770722
 20
6.4449335818
 30
0.0
 10
5.0597259736
 20
6.4329970962
 30
0.0
 10
5.079069567
 20
6.4191608737
 30
0.0
 10
5.0969210706
 20
6.403556301
 30
0.0
 10
5.1131076195
 20
6.38633202
 30
0.0
 10
5.1274718353
 20
6.3676525266
 30
0.0
 10
5.1398735498
 20
6.347696867
 30
0.0
 10
5.1501913916
 20
6.3266569409
 30
0.0
 10
5.158323962
 20
6.3047359362
 30
0.0
 10
5.1641909704
 20
6.2821451642
 30
0.0
 10
5.167734686
 20
6.2591068033
 30
0.0
 10
5.1685248447
 20
6.2435892381
 30
0.0
 10
5.1685248447
 20
6.2358386428
 30
0.0
  0
SPLINE
  5
389
100
AcDbEntity
  8
0
100
AcDbSpline
 62
7
  6
CONTINUOUS
 70
0
 71
3
 72
16
 73
12
 74
0
 42
0.0000001
 43
0.0000001
 44
0.0000000001
 40
0.0
 40
0.0
 40
0.0
 40
0.0
 40
0.1505191927
 40
0.2984186854
 40
0.4412094101
 40
0.5764912917
 40
0.7019957514
 40
0.8156270287
 40
0.9155028367
 40
0.9597721667
 40
1.0
 40
1.0
 40
1.0
 40
1.0
 10
4.7915698587
 20
3.7317584175
 30
0.0
 10
4.7902719739
 20
3.7316936027
 30
0.0
 10
4.7876980479
 20
3.7315795379
 30
0.0
 10
4.7838908563
 20
3.7314543848
 30
0.0
 10
4.7802139419
 20
3.7313777675
 30
0.0
 10
4.7767296683
 20
3.7313508858
 30
0.0
 10
4.7734970831
 20
3.7313739693
 30
0.0
 10
4.7705709772
 20
3.7314464409
 30
0.0
 10
4.7683475972
 20
3.7315499878
 30
0.0
 10
4.766759603
 20
3.7316605376
 30
0.0
 10
4.7660328205
 20
3.7317241569
 30
0.0
 10
4.7656872089
 20
3.7317584175
 30
0.0
  0
SPLINE
  5
38A
100
AcDbEntity
  8
0
100
AcDbSpline
 62
7
  6
CONTINUOUS
 70
0
 71
3
 72
48
 73
44
 74
0
 42
0.0000001
 43
0.0000001
 44
0.0000000001
 40
0.0
 40
0.0
 40
0.0
 40
0.0
 40
0.1357430272
 40
0.2037196274
 40
0.27175681
 40
0.305789486
 40
0.3398234174
 40
0.3738511174
 40
0.4078628021
 40
0.4418473307
 40
0.4588252783
 40
0.4757912276
 40
0.4927433763
 40
0.5096798865
 40
0.5181417229
 40
0.5265989608
 40
0.5434970252
 40
0.5603675897
 40
0.5772040707
 40
0.5939959062
 40
0.6107295281
 40
0.6273902753
 40
0.6439595512
 40
0.6604178933
 40
0.6767421946
 40
0.6848466253
 40
0.6929075713
 40
0.7009213067
 40
0.7088843519
 40
0.7167937099
 40
0.724646509
 40
0.740171776
 40
0.7554502868
 40
0.770478154
 40
0.7997739783
 40
0.8280618333
 40
0.8553578779
 40
0.8816878868
 40
0.9070825891
 40
0.9315754355
 40
0.9552011192
 40
0.9779967398
 40
1.0
 40
1.0
 40
1.0
 40
1.0
 10
4.7915698587
 20
3.7317584175
 30
0.0
 10
4.7934894084
 20
3.6937804359
 30
0.0
 10
4.7960937629
 20
3.6367677273
 30
0.0
 10
4.7984134341
 20
3.5606728143
 30
0.0
 10
4.7992552287
 20
3.513042371
 30
0.0
 10
4.7994855018
 20
3.4749151709
 30
0.0
 10
4.7994171736
 20
3.4463146233
 30
0.0
 10
4.799088463
 20
3.4177217117
 30
0.0
 10
4.7984802939
 20
3.3891471728
 30
0.0
 10
4.7977243191
 20
3.3653543778
 30
0.0
 10
4.7969617265
 20
3.3463404062
 30
0.0
 10
4.7963091849
 20
3.3320974666
 30
0.0
 10
4.795573898
 20
3.3178701852
 30
0.0
 10
4.7948904717
 20
3.3060259224
 30
0.0
 10
4.7943003185
 20
3.2965601315
 30
0.0
 10
4.7936815873
 20
3.2871069609
 30
0.0
 10
4.7928505425
 20
3.2753071074
 30
0.0
 10
4.7917409809
 20
3.2611741244
 30
0.0
 10
4.7905015284
 20
3.2470817467
 30
0.0
 10
4.7891106035
 20
3.2330419694
 30
0.0
 10
4.7875439476
 20
3.2190701343
 30
0.0
 10
4.7857785638
 20
3.2051847381
 30
0.0
 10
4.7837927218
 20
3.1914068998
 30
0.0
 10
4.7815652286
 20
3.1777614286
 30
0.0
 10
4.77948747
 20
3.1664965236
 30
0.0
 10
4.7776839601
 20
3.1575752996
 30
0.0
 10
4.7762620073
 20
3.1509526251
 30
0.0
 10
4.7747650025
 20
3.1443871127
 30
0.0
 10
4.77318992
 20
3.1378835663
 30
0.0
 10
4.7715383283
 20
3.1314455531
 30
0.0
 10
4.7692460705
 20
3.12298566
 30
0.0
 10
4.7662024704
 20
3.1125916128
 30
0.0
 10
4.7622661589
 20
3.1003692287
 30
0.0
 10
4.7567331695
 20
3.0846143199
 30
0.0
 10
4.7492569319
 20
3.0656865241
 30
0.0
 10
4.739401757
 20
3.0440362178
 30
0.0
 10
4.7288421386
 20
3.02365198
 30
0.0
 10
4.7176631138
 20
3.004534225
 30
0.0
 10
4.705934298
 20
2.9866810551
 30
0.0
 10
4.6937133851
 20
2.9700928257
 30
0.0
 10
4.6810479116
 20
2.9547740003
 30
0.0
 10
4.6679786732
 20
2.940737082
 30
0.0
 10
4.65886164
 20
2.9320976639
 30
0.0
 10
4.6542454148
 20
2.9280130465
 30
0.0
  0
SPLINE
  5
38B
100
AcDbEntity
  8
0
100
AcDbSpline
 62
7
  6
CONTINUOUS
 70
0
 71
3
 72
11
 73
7
 74
0
 42
0.0000001
 43
0.0000001
 44
0.0000000001
 40
0.0
 40
0.0
 40
0.0
 40
0.0
 40
0.2610755814
 40
0.5146209692
 40
0.7607449486
 40
1.0
 40
1.0
 40
1.0
 40
1.0
 10
4.6542454177
 20
2.9280130361
 30
0.0
 10
4.6531831464
 20
2.9282707806
 30
0.0
 10
4.6510588526
 20
2.9286632555
 30
0.0
 10
4.647872475
 20
2.9288673805
 30
0.0
 10
4.6447763669
 20
2.9286748892
 30
0.0
 10
4.642775551
 20
2.9282777697
 30
0.0
 10
4.6418094352
 20
2.9280130256
 30
0.0
  0
SPLINE
  5
38C
100
AcDbEntity
  8
0
100
AcDbSpline
 62
7
  6
CONTINUOUS
 70
0
 71
3
 72
15
 73
11
 74
0
 42
0.0000001
 43
0.0000001
 44
0.0000000001
 40
0.0
 40
0.0
 40
0.0
 40
0.0
 40
0.1303794197
 40
0.2602412349
 40
0.3890617107
 40
0.5163323821
 40
0.6415480786
 40
0.7642128786
 40
0.8838522031
 40
1.0
 40
1.0
 40
1.0
 40
1.0
 10
4.9235248431
 20
4.9923938258
 30
0.0
 10
4.9190015318
 20
4.9923937838
 30
0.0
 10
4.9099726819
 20
4.9923168411
 30
0.0
 10
4.8964785442
 20
4.9919732562
 30
0.0
 10
4.8830999906
 20
4.99140262
 30
0.0
 10
4.8698943779
 20
4.9906072702
 30
0.0
 10
4.8569181171
 20
4.9895907893
 30
0.0
 10
4.8442265848
 20
4.9883574215
 30
0.0
 10
4.8318741062
 20
4.9869123993
 30
0.0
 10
4.8237697957
 20
4.9857947816
 30
0.0
 10
4.8197844584
 20
4.9851993827
 30
0.0
  0
SPLINE
  5
38D
100
AcDbEntity
  8
0
100
AcDbSpline
 62
7
  6
CONTINUOUS
 70
0
 71
3
 72
15
 73
11
 74
0
 42
0.0000001
 43
0.0000001
 44
0.0000000001
 40
0.0
 40
0.0
 40
0.0
 40
0.0
 40
0.1161475101
 40
0.2357877395
 40
0.358452406
 40
0.4836678108
 40
0.6109383762
 40
0.7397585867
 40
0.8696205874
 40
1.0
 40
1.0
 40
1.0
 40
1.0
 10
5.0272649692
 20
4.9851994218
 30
0.0
 10
5.0232796565
 20
4.9857948493
 30
0.0
 10
5.0151753453
 20
4.9869124766
 30
0.0
 10
5.0028228665
 20
4.9883573698
 30
0.0
 10
4.9901313554
 20
4.9895907899
 30
0.0
 10
4.9771551459
 20
4.9906072779
 30
0.0
 10
4.9639495905
 20
4.9914026384
 30
0.0
 10
4.9505710794
 20
4.9919733411
 30
0.0
 10
4.9370769758
 20
4.992316838
 30
0.0
 10
4.9280481429
 20
4.9923937721
 30
0.0
 10
4.9235248431
 20
4.9923938258
 30
0.0
  0
SPLINE
  5
38E
100
AcDbEntity
  8
0
100
AcDbSpline
 62
7
  6
CONTINUOUS
 70
0
 71
3
 72
15
 73
11
 74
0
 42
0.0000001
 43
0.0000001
 44
0.0000000001
 40
0.0
 40
0.0
 40
0.0
 40
0.0
 40
0.1513779701
 40
0.293413904
 40
0.4267543669
 40
0.5522247626
 40
0.6708673792
 40
0.7839764685
 40
0.8931003324
 40
1.0
 40
1.0
 40
1.0
 40
1.0
 10
4.6528531156
 20
5.0175031374
 30
0.0
 10
4.6518400126
 20
5.0183573788
 30
0.0
 10
4.649926693
 20
5.0200745447
 30
0.0
 10
4.6473318284
 20
5.0227671416
 30
0.0
 10
4.6451102484
 20
5.025489254
 30
0.0
 10
4.6432665188
 20
5.0282378796
 30
0.0
 10
4.6418055782
 20
5.0310101619
 30
0.0
 10
4.6407332831
 20
5.0338032819
 30
0.0
 10
4.6400560883
 20
5.036612358
 30
0.0
 10
4.6398713373
 20
5.0385019288
 30
0.0
 10
4.6398474731
 20
5.0394374373
 30
0.0
  0
SPLINE
  5
38F
100
AcDbEntity
  8
0
100
AcDbSpline
 62
7
  6
CONTINUOUS
 70
0
 71
3
 72
15
 73
11
 74
0
 42
0.0000001
 43
0.0000001
 44
0.0000000001
 40
0.0
 40
0.0
 40
0.0
 40
0.0
 40
0.1302120136
 40
0.2599102733
 40
0.3885926444
 40
0.5157804225
 40
0.640995213
 40
0.7637590088
 40
0.8835933143
 40
1.0
 40
1.0
 40
1.0
 40
1.0
 10
4.9235283457
 20
5.1296412295
 30
0.0
 10
4.9298441535
 20
5.1296434016
 30
0.0
 10
4.9424511715
 20
5.1295340812
 30
0.0
 10
4.9612938448
 20
5.1290359696
 30
0.0
 10
4.9799781281
 20
5.1282075524
 30
0.0
 10
4.9984274257
 20
5.1270564855
 30
0.0
 10
5.0165663115
 20
5.1255891051
 30
0.0
 10
5.0343190093
 20
5.1238105274
 30
0.0
 10
5.0516080569
 20
5.1217249913
 30
0.0
 10
5.0629528201
 20
5.1201053828
 30
0.0
 10
5.0685326162
 20
5.1192420278
 30
0.0
  0
SPLINE
  5
390
100
AcDbEntity
  8
0
100
AcDbSpline
 62
7
  6
CONTINUOUS
 70
0
 71
3
 72
15
 73
11
 74
0
 42
0.0000001
 43
0.0000001
 44
0.0000000001
 40
0.0
 40
0.0
 40
0.0
 40
0.0
 40
0.123517675
 40
0.2472213344
 40
0.3712752326
 40
0.4958016577
 40
0.6209002619
 40
0.7466317796
 40
0.8730056044
 40
1.0
 40
1.0
 40
1.0
 40
1.0
 10
5.4920434511
 20
2.9032247498
 30
0.0
 10
5.4919754252
 20
2.9045384485
 30
0.0
 10
5.4916518633
 20
2.9071619364
 30
0.0
 10
5.4906144628
 20
2.9109905318
 30
0.0
 10
5.4890444217
 20
2.9146456804
 30
0.0
 10
5.4869711577
 20
2.9180577824
 30
0.0
 10
5.4844338004
 20
2.9211632881
 30
0.0
 10
5.4814797606
 20
2.9239044842
 30
0.0
 10
5.4781650627
 20
2.9262300884
 30
0.0
 10
5.4757596747
 20
2.9274739036
 30
0.0
 10
5.4745194557
 20
2.9280134168
 30
0.0
  0
SPLINE
  5
391
100
AcDbEntity
  8
0
100
AcDbSpline
 62
7
  6
CONTINUOUS
 70
0
 71
3
 72
15
 73
11
 74
0
 42
0.0000001
 43
0.0000001
 44
0.0000000001
 40
0.0
 40
0.0
 40
0.0
 40
0.0
 40
0.1162698439
 40
0.2360187466
 40
0.3587444188
 40
0.4839621988
 40
0.6111865048
 40
0.7399304462
 40
0.8697058713
 40
1.0
 40
1.0
 40
1.0
 40
1.0
 10
4.7817276342
 20
5.1029304404
 30
0.0
 10
4.7871840049
 20
5.1037119614
 30
0.0
 10
4.7982777455
 20
5.1051766403
 30
0.0
 10
4.8151808011
 20
5.107064471
 30
0.0
 10
4.8325387135
 20
5.1086736099
 30
0.0
 10
4.8502758237
 20
5.1100000168
 30
0.0
 10
4.8683178187
 20
5.1110393715
 30
0.0
 10
4.8865905166
 20
5.1117865026
 30
0.0
 10
4.9050184553
 20
5.1122365044
 30
0.0
 10
4.9173479322
 20
5.1123365921
 30
0.0
 10
4.9235248431
 20
5.1123358823
 30
0.0
  0
SPLINE
  5
392
100
AcDbEntity
  8
0
100
AcDbSpline
 62
7
  6
CONTINUOUS
 70
0
 71
3
 72
23
 73
19
 74
0
 42
0.0000001
 43
0.0000001
 44
0.0000000001
 40
0.0
 40
0.0
 40
0.0
 40
0.0
 40
0.0577889827
 40
0.1157854239
 40
0.1741651577
 40
0.233107331
 40
0.2927504871
 40
0.3532038311
 40
0.4145379849
 40
0.4767845792
 40
0.5399366043
 40
0.6039502856
 40
0.668748096
 40
0.7342226778
 40
0.8002433369
 40
0.8666547944
 40
0.9333030741
 40
1.0
 40
1.0
 40
1.0
 40
1.0
 10
4.505828757
 20
5.1811957588
 30
0.0
 10
4.5049411119
 20
5.181195759
 30
0.0
 10
4.5031608549
 20
5.1810901318
 30
0.0
 10
4.5005218496
 20
5.1806170751
 30
0.0
 10
4.497938852
 20
5.1798341925
 30
0.0
 10
4.495439727
 20
5.1787503015
 30
0.0
 10
4.4930506226
 20
5.1773769189
 30
0.0
 10
4.4907966408
 20
5.1757288652
 30
0.0
 10
4.4887012944
 20
5.1738237046
 30
0.0
 10
4.4867863678
 20
5.1716816615
 30
0.0
 10
4.4850717143
 20
5.1693253476
 30
0.0
 10
4.4835750887
 20
5.1667795341
 30
0.0
 10
4.4823119867
 20
5.1640709166
 30
0.0
 10
4.481295444
 20
5.1612278365
 30
0.0
 10
4.4805360244
 20
5.1582800799
 30
0.0
 10
4.4800413996
 20
5.1552582639
 30
0.0
 10
4.4798169194
 20
5.1521943491
 30
0.0
 10
4.4798488024
 20
5.1501432202
 30
0.0
 10
4.47991021
 20
5.1491205902
 30
0.0
  0
SPLINE
  5
393
100
AcDbEntity
  8
0
100
AcDbSpline
 62
7
  6
CONTINUOUS
 70
0
 71
3
 72
15
 73
11
 74
0
 42
0.0000001
 43
0.0000001
 44
0.0000000001
 40
0.0
 40
0.0
 40
0.0
 40
0.0
 40
0.1303805337
 40
0.2602427399
 40
0.3890621199
 40
0.5163322329
 40
0.6415483146
 40
0.7642160705
 40
0.8838577357
 40
1.0
 40
1.0
 40
1.0
 40
1.0
 10
4.923524843
 20
5.0110561713
 30
0.0
 10
4.9185842326
 20
5.0110561298
 30
0.0
 10
4.9087224525
 20
5.0109730562
 30
0.0
 10
4.8939834601
 20
5.0106001755
 30
0.0
 10
4.879370749
 20
5.0099788756
 30
0.0
 10
4.8649469673
 20
5.0091109135
 30
0.0
 10
4.8507736426
 20
5.0079999319
 30
0.0
 10
4.8369113414
 20
5.0066507913
 30
0.0
 10
4.8234196833
 20
5.0050700983
 30
0.0
 10
4.8145680576
 20
5.0038483706
 30
0.0
 10
4.8102152937
 20
5.0031981003
 30
0.0
  0
LINE
  5
394
100
AcDbEntity
  8
0
100
AcDbLine
 62
7
  6
CONTINUOUS
 10
4.5241657863
 20
4.6820954962
 11
4.5177496512
 21
4.7482080495
  0
LINE
  5
395
100
AcDbEntity
  8
0
100
AcDbLine
 62
7
  6
CONTINUOUS
 10
5.3228496158
 20
4.6821106614
 11
5.3263097041
 21
4.6816967287
  0
SPLINE
  5
396
100
AcDbEntity
  8
0
100
AcDbSpline
 62
7
  6
CONTINUOUS
 70
0
 71
3
 72
11
 73
7
 74
0
 42
0.0000001
 43
0.0000001
 44
0.0000000001
 40
0.0
 40
0.0
 40
0.0
 40
0.0
 40
0.2566424129
 40
0.509698124
 40
0.7577792841
 40
1.0
 40
1.0
 40
1.0
 40
1.0
 10
5.1074535906
 20
4.5269363579
 30
0.0
 10
5.1091152339
 20
4.5272009746
 30
0.0
 10
5.1123822064
 20
4.5279689005
 30
0.0
 10
5.1170118898
 20
4.5298219034
 30
0.0
 10
5.1212197839
 20
4.5323189997
 30
0.0
 10
5.123696222
 20
4.5343959835
 30
0.0
 10
5.1248204318
 20
4.5355175871
 30
0.0
  0
SPLINE
  5
397
100
AcDbEntity
  8
0
100
AcDbSpline
 62
7
  6
CONTINUOUS
 70
0
 71
3
 72
11
 73
7
 74
0
 42
0.0000001
 43
0.0000001
 44
0.0000000001
 40
0.0
 40
0.0
 40
0.0
 40
0.0
 40
0.2566427994
 40
0.5096964122
 40
0.757776218
 40
1.0
 40
1.0
 40
1.0
 40
1.0
 10
4.7396205238
 20
4.5282708276
 30
0.0
 10
4.7379581482
 20
4.5285351748
 30
0.0
 10
4.7346897164
 20
4.5293028526
 30
0.0
 10
4.7300580614
 20
4.5311563653
 30
0.0
 10
4.7258486269
 20
4.533654787
 30
0.0
 10
4.7233715771
 20
4.5357331278
 30
0.0
 10
4.7222471934
 20
4.5368554918
 30
0.0
  0
SPLINE
  5
398
100
AcDbEntity
  8
0
100
AcDbSpline
 62
7
  6
CONTINUOUS
 70
0
 71
3
 72
15
 73
11
 74
0
 42
0.0000001
 43
0.0000001
 44
0.0000000001
 40
0.0
 40
0.0
 40
0.0
 40
0.0
 40
0.1302985253
 40
0.2600769083
 40
0.3888221357
 40
0.5160463515
 40
0.6412630167
 40
0.7639867017
 40
0.8837330013
 40
1.0
 40
1.0
 40
1.0
 40
1.0
 10
4.9235248431
 20
5.1123358823
 30
0.0
 10
4.9297012608
 20
5.1123343374
 30
0.0
 10
4.9420296467
 20
5.1122301107
 30
0.0
 10
4.9604557702
 20
5.1117747951
 30
0.0
 10
4.9787263528
 20
5.1110219099
 30
0.0
 10
4.9967659702
 20
5.1099769598
 30
0.0
 10
5.0145005252
 20
5.1086455369
 30
0.0
 10
5.0318557409
 20
5.1070317071
 30
0.0
 10
5.0487560227
 20
5.1051396458
 30
0.0
 10
5.0598478927
 20
5.1036725016
 30
0.0
 10
5.0653033312
 20
5.1028898398
 30
0.0
  0
LINE
  5
399
100
AcDbEntity
  8
0
100
AcDbLine
 62
7
  6
CONTINUOUS
 10
4.5241991129
 20
4.6821192548
 11
4.5207399381
 21
4.6816971685
  0
SPLINE
  5
39A
100
AcDbEntity
  8
0
100
AcDbSpline
 62
7
  6
CONTINUOUS
 70
0
 71
3
 72
15
 73
11
 74
0
 42
0.0000001
 43
0.0000001
 44
0.0000000001
 40
0.0
 40
0.0
 40
0.0
 40
0.0
 40
0.117571803
 40
0.2380680504
 40
0.36110629
 40
0.4862927086
 40
0.6132101886
 40
0.7414272918
 40
0.8705085804
 40
1.0
 40
1.0
 40
1.0
 40
1.0
 10
5.0653033312
 20
5.1028898398
 30
0.0
 10
5.0636181314
 20
5.099178557
 30
0.0
 10
5.0603598689
 20
5.0915928341
 30
0.0
 10
5.0558637484
 20
5.0799063228
 30
0.0
 10
5.0517141245
 20
5.0678128557
 30
0.0
 10
5.0479298124
 20
5.0553674886
 30
0.0
 10
5.0445279922
 20
5.0426263602
 30
0.0
 10
5.0415239556
 20
5.0296470321
 30
0.0
 10
5.0389314681
 20
5.0164885152
 30
0.0
 10
5.0374858234
 20
5.0076397819
 30
0.0
 10
5.0368340915
 20
5.0031981458
 30
0.0
  0
SPLINE
  5
39B
100
AcDbEntity
  8
0
100
AcDbSpline
 62
7
  6
CONTINUOUS
 70
0
 71
3
 72
15
 73
11
 74
0
 42
0.0000001
 43
0.0000001
 44
0.0000000001
 40
0.0
 40
0.0
 40
0.0
 40
0.0
 40
0.1161422522
 40
0.2357839569
 40
0.3584516961
 40
0.4836677758
 40
0.6109378858
 40
0.7397572481
 40
0.8696194694
 40
1.0
 40
1.0
 40
1.0
 40
1.0
 10
5.0368340915
 20
5.0031981458
 30
0.0
 10
5.0324813443
 20
5.0038484458
 30
0.0
 10
5.0236297416
 20
5.0050701809
 30
0.0
 10
5.0101381043
 20
5.0066507399
 30
0.0
 10
4.996275845
 20
5.0079999284
 30
0.0
 10
4.9821025587
 20
5.0091109105
 30
0.0
 10
4.9676788177
 20
5.009978881
 30
0.0
 10
4.9530661494
 20
5.0106002734
 30
0.0
 10
4.938327194
 20
5.0109730772
 30
0.0
 10
4.9284654401
 20
5.0110561218
 30
0.0
 10
4.923524843
 20
5.0110561713
 30
0.0
  0
SPLINE
  5
39C
100
AcDbEntity
  8
0
100
AcDbSpline
 62
7
  6
CONTINUOUS
 70
0
 71
3
 72
34
 73
30
 74
0
 42
0.0000001
 43
0.0000001
 44
0.0000000001
 40
0.0
 40
0.0
 40
0.0
 40
0.0
 40
0.0979673206
 40
0.1920878437
 40
0.2820551362
 40
0.367588012
 40
0.4484175253
 40
0.4869906087
 40
0.5242939326
 40
0.5602981346
 40
0.5949754359
 40
0.6283002522
 40
0.6602494495
 40
0.6908064024
 40
0.7199701546
 40
0.747746385
 40
0.7741477667
 40
0.7991926191
 40
0.8229049975
 40
0.8453163876
 40
0.8664671405
 40
0.8864083811
 40
0.9052047264
 40
0.9229373776
 40
0.9397071073
 40
0.9556374716
 40
0.9708773665
 40
0.9856001213
 40
1.0
 40
1.0
 40
1.0
 40
1.0
 10
5.0653037825
 20
5.1028908336
 30
0.0
 10
5.0705457779
 20
5.1020783029
 30
0.0
 10
5.0808068747
 20
5.10037207
 30
0.0
 10
5.0958096764
 20
5.0975076233
 30
0.0
 10
5.110076315
 20
5.0944016639
 30
0.0
 10
5.1235518842
 20
5.0910701989
 30
0.0
 10
5.1342387749
 20
5.0880746206
 30
0.0
 10
5.1423457209
 20
5.0855684086
 30
0.0
 10
5.148099388
 20
5.0836713685
 30
0.0
 10
5.1536149918
 20
5.0817295886
 30
0.0
 10
5.1588857609
 20
5.0797448699
 30
0.0
 10
5.1639050482
 20
5.0777194061
 30
0.0
 10
5.1686667422
 20
5.0756560556
 30
0.0
 10
5.173165495
 20
5.0735571309
 30
0.0
 10
5.1773971317
 20
5.0714249594
 30
0.0
 10
5.1813582767
 20
5.0692612779
 30
0.0
 10
5.1850466134
 20
5.0670690435
 30
0.0
 10
5.1884603511
 20
5.0648514962
 30
0.0
 10
5.1915975221
 20
5.0626112848
 30
0.0
 10
5.1944559252
 20
5.0603506365
 30
0.0
 10
5.1970334073
 20
5.0580718129
 30
0.0
 10
5.1993278391
 20
5.0557770688
 30
0.0
 10
5.201337008
 20
5.0534685389
 30
0.0
 10
5.2030586311
 20
5.0511482988
 30
0.0
 10
5.2044902483
 20
5.0488183276
 30
0.0
 10
5.2056289933
 20
5.0464805916
 30
0.0
 10
5.2064714915
 20
5.044137103
 30
0.0
 10
5.2070141632
 20
5.0417913417
 30
0.0
 10
5.2071748179
 20
5.0402175178
 30
0.0
 10
5.2072031442
 20
5.0394383284
 30
0.0
  0
SPLINE
  5
39D
100
AcDbEntity
  8
0
100
AcDbSpline
 62
7
  6
CONTINUOUS
 70
0
 71
3
 72
15
 73
11
 74
0
 42
0.0000001
 43
0.0000001
 44
0.0000000001
 40
0.0
 40
0.0
 40
0.0
 40
0.0
 40
0.1259581387
 40
0.2516258316
 40
0.3769996735
 40
0.5020930911
 40
0.6269186929
 40
0.7514941059
 40
0.8758475114
 40
1.0
 40
1.0
 40
1.0
 40
1.0
 10
5.2072031442
 20
5.0394383284
 30
0.0
 10
5.203874919
 20
5.0365241481
 30
0.0
 10
5.1974194706
 20
5.0304772787
 30
0.0
 10
5.188382382
 20
5.0207872135
 30
0.0
 10
5.1800416883
 20
5.0105298613
 30
0.0
 10
5.172435889
 20
4.9997526158
 30
0.0
 10
5.1655996343
 20
4.98850426
 30
0.0
 10
5.1595638698
 20
4.9768358499
 30
0.0
 10
5.1543566168
 20
4.9648012847
 30
0.0
 10
5.1514504639
 20
4.9565628462
 30
0.0
 10
5.1501436425
 20
4.9524029546
 30
0.0
  0
SPLINE
  5
39E
100
AcDbEntity
  8
0
100
AcDbSpline
 62
7
  6
CONTINUOUS
 70
0
 71
3
 72
33
 73
29
 74
0
 42
0.0000001
 43
0.0000001
 44
0.0000000001
 40
0.0
 40
0.0
 40
0.0
 40
0.0
 40
0.0147648699
 40
0.0297535664
 40
0.0451695281
 40
0.0611999092
 40
0.0780097468
 40
0.0957392995
 40
0.1145046118
 40
0.1343999672
 40
0.155499522
 40
0.1778614139
 40
0.2015297524
 40
0.2265374527
 40
0.2529068305
 40
0.2806513816
 40
0.3097779181
 40
0.340287025
 40
0.3721739618
 40
0.4054261727
 40
0.4400271937
 40
0.4759571288
 40
0.5517069611
 40
0.6324627302
 40
0.7179707242
 40
0.8079432005
 40
0.9020681125
 40
1.0
 40
1.0
 40
1.0
 40
1.0
 10
5.1501436425
 20
4.9524029546
 30
0.0
 10
5.1501435963
 20
4.953043947
 30
0.0
 10
5.1500610334
 20
4.9543370863
 30
0.0
 10
5.1496916438
 20
4.9562677172
 30
0.0
 10
5.1490774027
 20
4.9581925797
 30
0.0
 10
5.1482202155
 20
4.9601085101
 30
0.0
 10
5.147122082
 20
4.9620135263
 30
0.0
 10
5.1457849311
 20
4.9639058296
 30
0.0
 10
5.1442106882
 20
4.9657838539
 30
0.0
 10
5.1424011765
 20
4.9676459098
 30
0.0
 10
5.1403585245
 20
4.9694904969
 30
0.0
 10
5.1380848017
 20
4.9713158626
 30
0.0
 10
5.13558237
 20
4.9731204132
 30
0.0
 10
5.1328536827
 20
4.9749023827
 30
0.0
 10
5.1299015234
 20
4.9766601094
 30
0.0
 10
5.1267289186
 20
4.9783919378
 30
0.0
 10
5.1233390884
 20
4.9800961696
 30
0.0
 10
5.1197355368
 20
4.9817712968
 30
0.0
 10
5.1159220323
 20
4.9834156319
 30
0.0
 10
5.1119026322
 20
4.9850273356
 30
0.0
 10
5.1076816572
 20
4.9866044193
 30
0.0
 10
5.101684827
 20
4.9886955467
 30
0.0
 10
5.0937122539
 20
4.9911995759
 30
0.0
 10
5.0835807037
 20
4.9939888471
 30
0.0
 10
5.0727658517
 20
4.9966006498
 30
0.0
 10
5.0613135355
 20
4.9990239823
 30
0.0
 10
5.0492723453
 20
5.0012489516
 30
0.0
 10
5.0410389495
 20
5.0025697733
 30
0.0
 10
5.0368340915
 20
5.0031981458
 30
0.0
  0
SPLINE
  5
39F
100
AcDbEntity
  8
0
100
AcDbSpline
 62
7
  6
CONTINUOUS
 70
0
 71
3
 72
15
 73
11
 74
0
 42
0.0000001
 43
0.0000001
 44
0.0000000001
 40
0.0
 40
0.0
 40
0.0
 40
0.0
 40
0.1067163825
 40
0.2156319054
 40
0.3286326426
 40
0.4472693604
 40
0.5727872782
 40
0.7062249509
 40
0.8484161959
 40
1.0
 40
1.0
 40
1.0
 40
1.0
 10
5.2072062812
 20
5.0394410752
 30
0.0
 10
5.2071800242
 20
5.0385059974
 30
0.0
 10
5.206995053
 20
5.0366177213
 30
0.0
 10
5.2063208094
 20
5.0338084027
 30
0.0
 10
5.2052466626
 20
5.0310146222
 30
0.0
 10
5.2037818708
 20
5.0282403767
 30
0.0
 10
5.2019338347
 20
5.0254879348
 30
0.0
 10
5.1997070999
 20
5.0227606439
 30
0.0
 10
5.1971059453
 20
5.020061667
 30
0.0
 10
5.1951880901
 20
5.0183397355
 30
0.0
 10
5.1941725403
 20
5.0174828731
 30
0.0
  0
SPLINE
  5
3A0
100
AcDbEntity
  8
0
100
AcDbSpline
 62
7
  6
CONTINUOUS
 70
0
 71
3
 72
36
 73
32
 74
0
 42
0.0000001
 43
0.0000001
 44
0.0000000001
 40
0.0
 40
0.0
 40
0.0
 40
0.0
 40
0.0154565915
 40
0.0311111629
 40
0.0471557575
 40
0.0637659186
 40
0.0723347754
 40
0.0811010983
 40
0.0992838055
 40
0.1184287697
 40
0.13862683
 40
0.1599525372
 40
0.1824663849
 40
0.2062168549
 40
0.2312427148
 40
0.257574367
 40
0.285235346
 40
0.3142437093
 40
0.3446124032
 40
0.3763474621
 40
0.4094355157
 40
0.4438548604
 40
0.4795826834
 40
0.5165948645
 40
0.55486509
 40
0.594365189
 40
0.6350657007
 40
0.7199431813
 40
0.8092428186
 40
0.9026943692
 40
1.0
 40
1.0
 40
1.0
 40
1.0
 10
4.6332806329
 20
5.053739956
 30
0.0
 10
4.6333100205
 20
5.0545990568
 30
0.0
 10
4.633474361
 20
5.0563264021
 30
0.0
 10
4.6340316258
 20
5.0588947953
 30
0.0
 10
4.634896093
 20
5.0614442854
 30
0.0
 10
4.6358593198
 20
5.063529348
 30
0.0
 10
4.6367726776
 20
5.065182161
 30
0.0
 10
4.6378073879
 20
5.0668655145
 30
0.0
 10
4.6392946817
 20
5.0689574936
 30
0.0
 10
4.6413512275
 20
5.0714119282
 30
0.0
 10
4.6436983664
 20
5.0738393609
 30
0.0
 10
4.6463336587
 20
5.0762381155
 30
0.0
 10
4.6492548624
 20
5.0786066797
 30
0.0
 10
4.6524598943
 20
5.080943195
 30
0.0
 10
4.6559466631
 20
5.0832456961
 30
0.0
 10
4.6597131116
 20
5.0855119914
 30
0.0
 10
4.6637572191
 20
5.0877396085
 30
0.0
 10
4.66807679
 20
5.0899261069
 30
0.0
 10
4.6726692254
 20
5.0920692805
 30
0.0
 10
4.6775309146
 20
5.0941663667
 30
0.0
 10
4.6826560976
 20
5.0962161268
 30
0.0
 10
4.6880380975
 20
5.0982168707
 30
0.0
 10
4.6936699918
 20
5.1001671748
 30
0.0
 10
4.6995449235
 20
5.1020658975
 30
0.0
 10
4.705656136
 20
5.1039117151
 30
0.0
 10
4.7119969252
 20
5.1057031032
 30
0.0
 10
4.7208729599
 20
5.1080498329
 30
0.0
 10
4.732498428
 20
5.1108254349
 30
0.0
 10
4.747069655
 20
5.1138688911
 30
0.0
 10
4.7623951431
 20
5.1166550121
 30
0.0
 10
4.772876988
 20
5.1182985708
 30
0.0
 10
4.7782322524
 20
5.119077098
 30
0.0
  0
SPLINE
  5
3A1
100
AcDbEntity
  8
0
100
AcDbSpline
 62
7
  6
CONTINUOUS
 70
0
 71
3
 72
15
 73
11
 74
0
 42
0.0000001
 43
0.0000001
 44
0.0000000001
 40
0.0
 40
0.0
 40
0.0
 40
0.0
 40
0.1164121036
 40
0.2362560537
 40
0.3590257225
 40
0.4842452136
 40
0.6114334912
 40
0.7401122308
 40
0.869802039
 40
1.0
 40
1.0
 40
1.0
 40
1.0
 10
4.7785098608
 20
5.1191221362
 30
0.0
 10
4.7840900456
 20
5.1199903753
 30
0.0
 10
4.7954365189
 20
5.1216157654
 30
0.0
 10
4.8127275501
 20
5.1237153713
 30
0.0
 10
4.8304825046
 20
5.1255088637
 30
0.0
 10
4.8486235013
 20
5.1269914648
 30
0.0
 10
4.8670747422
 20
5.1281582411
 30
0.0
 10
4.8857606226
 20
5.129002743
 30
0.0
 10
4.9046044698
 20
5.1295180272
 30
0.0
 10
4.9172122468
 20
5.1296381898
 30
0.0
 10
4.9235283457
 20
5.1296412295
 30
0.0
  0
SPLINE
  5
3A2
100
AcDbEntity
  8
0
100
AcDbSpline
 62
7
  6
CONTINUOUS
 70
0
 71
3
 72
23
 73
19
 74
0
 42
0.0000001
 43
0.0000001
 44
0.0000000001
 40
0.0
 40
0.0
 40
0.0
 40
0.0
 40
0.057788941
 40
0.1157853693
 40
0.1741651141
 40
0.2331072884
 40
0.2927504482
 40
0.3532037956
 40
0.4145379527
 40
0.4767845502
 40
0.5399365786
 40
0.6039502633
 40
0.6687480772
 40
0.7342226623
 40
0.8002433258
 40
0.8666547858
 40
0.9333030707
 40
1.0
 40
1.0
 40
1.0
 40
1.0
 10
5.3412209327
 20
5.1811957588
 30
0.0
 10
5.342108577
 20
5.181195759
 30
0.0
 10
5.343888833
 20
5.1810901319
 30
0.0
 10
5.3465278373
 20
5.1806170752
 30
0.0
 10
5.3491108347
 20
5.179834193
 30
0.0
 10
5.3516099596
 20
5.178750302
 30
0.0
 10
5.353999064
 20
5.1773769197
 30
0.0
 10
5.3562530458
 20
5.1757288662
 30
0.0
 10
5.3583483921
 20
5.1738237058
 30
0.0
 10
5.3602633188
 20
5.171681663
 30
0.0
 10
5.3619779723
 20
5.1693253493
 30
0.0
 10
5.363474598
 20
5.166779536
 30
0.0
 10
5.3647377001
 20
5.1640709188
 30
0.0
 10
5.3657542428
 20
5.1612278389
 30
0.0
 10
5.3665136631
 20
5.1582800827
 30
0.0
 10
5.3670082874
 20
5.1552582667
 30
0.0
 10
5.3672327681
 20
5.1521943522
 30
0.0
 10
5.3672008881
 20
5.1501432234
 30
0.0
 10
5.3671394806
 20
5.1491205935
 30
0.0
  0
SPLINE
  5
3A3
100
AcDbEntity
  8
0
100
AcDbSpline
 62
7
  6
CONTINUOUS
 70
0
 71
3
 72
16
 73
12
 74
0
 42
0.0000001
 43
0.0000001
 44
0.0000000001
 40
0.0
 40
0.0
 40
0.0
 40
0.0
 40
0.1505531704
 40
0.2963400928
 40
0.4356148437
 40
0.5669040075
 40
0.6891413594
 40
0.8017946341
 40
0.8545893134
 40
0.9051244545
 40
1.0
 40
1.0
 40
1.0
 40
1.0
 10
5.2495228929
 20
2.8919457587
 30
0.0
 10
5.2497135013
 20
2.8932969508
 30
0.0
 10
5.2499851033
 20
2.8959725669
 30
0.0
 10
5.2500577296
 20
2.8999248277
 30
0.0
 10
5.2497896672
 20
2.9036945402
 30
0.0
 10
5.2491855309
 20
2.9072099379
 30
0.0
 10
5.2482562547
 20
2.9104041986
 30
0.0
 10
5.2472012756
 20
2.9127997142
 30
0.0
 10
5.2462019895
 20
2.9144858168
 30
0.0
 10
5.2451562917
 20
2.9159480149
 30
0.0
 10
5.2442412619
 20
2.9169130161
 30
0.0
 10
5.2435825423
 20
2.9174657894
 30
0.0
  0
SPLINE
  5
3A4
100
AcDbEntity
  8
0
100
AcDbSpline
 62
7
  6
CONTINUOUS
 70
0
 71
3
 72
15
 73
11
 74
0
 42
0.0000001
 43
0.0000001
 44
0.0000000001
 40
0.0
 40
0.0
 40
0.0
 40
0.0
 40
0.1237152639
 40
0.2477980369
 40
0.372292917
 40
0.4971999151
 40
0.6224928334
 40
0.7481159227
 40
0.8739824634
 40
1.0
 40
1.0
 40
1.0
 40
1.0
 10
5.4905036923
 20
2.8919457356
 30
0.0
 10
5.4904092494
 20
2.8933135961
 30
0.0
 10
5.4900243919
 20
2.896043806
 30
0.0
 10
5.4888746852
 20
2.9000199967
 30
0.0
 10
5.4871743431
 20
2.9038089325
 30
0.0
 10
5.4849566769
 20
2.9073356734
 30
0.0
 10
5.4822652573
 20
2.9105318453
 30
0.0
 10
5.479152382
 20
2.9133352209
 30
0.0
 10
5.4756797688
 20
2.9156910625
 30
0.0
 10
5.4731683162
 20
2.9169332586
 30
0.0
 10
5.4718771676
 20
2.9174657228
 30
0.0
  0
SPLINE
  5
3A5
100
AcDbEntity
  8
0
100
AcDbSpline
 62
7
  6
CONTINUOUS
 70
0
 71
3
 72
11
 73
7
 74
0
 42
0.0000001
 43
0.0000001
 44
0.0000000001
 40
0.0
 40
0.0
 40
0.0
 40
0.0
 40
0.2723582715
 40
0.5275501574
 40
0.7688463246
 40
1.0
 40
1.0
 40
1.0
 40
1.0
 10
5.492043451
 20
2.9032247514
 30
0.0
 10
5.4920972914
 20
2.9021854157
 30
0.0
 10
5.4921232927
 20
2.9001667942
 30
0.0
 10
5.4918861038
 20
2.8972336389
 30
0.0
 10
5.4913675992
 20
2.8944963058
 30
0.0
 10
5.4908231224
 20
2.89276943
 30
0.0
 10
5.4905041429
 20
2.8919457588
 30
0.0
  0
SPLINE
  5
3A6
100
AcDbEntity
  8
0
100
AcDbSpline
 62
7
  6
CONTINUOUS
 70
0
 71
3
 72
14
 73
10
 74
0
 42
0.0000001
 43
0.0000001
 44
0.0000000001
 40
0.0
 40
0.0
 40
0.0
 40
0.0
 40
0.1247999201
 40
0.2495361038
 40
0.3742790734
 40
0.4990946097
 40
0.6240311008
 40
0.7491319442
 40
1.0
 40
1.0
 40
1.0
 40
1.0
 10
5.2134303363
 20
5.049253616
 30
0.0
 10
5.2141244918
 20
5.0423624593
 30
0.0
 10
5.2155627911
 20
5.0285886921
 30
0.0
 10
5.217859538
 20
5.0079445315
 30
0.0
 10
5.2202841472
 20
4.9873141405
 30
0.0
 10
5.2228253606
 20
4.9666866054
 30
0.0
 10
5.2254852838
 20
4.9460539958
 30
0.0
 10
5.2291970678
 20
4.9185040326
 30
0.0
 10
5.2321623345
 20
4.8978500079
 30
0.0
 10
5.2342217891
 20
4.8840807287
 30
0.0
  0
SPLINE
  5
3A7
100
AcDbEntity
  8
0
100
AcDbSpline
 62
7
  6
CONTINUOUS
 70
0
 71
3
 72
15
 73
11
 74
0
 42
0.0000001
 43
0.0000001
 44
0.0000000001
 40
0.0
 40
0.0
 40
0.0
 40
0.0
 40
0.1259587835
 40
0.2516269163
 40
0.3770009951
 40
0.502094469
 40
0.6269199531
 40
0.7514950899
 40
0.8758480698
 40
1.0
 40
1.0
 40
1.0
 40
1.0
 10
4.6398474731
 20
5.0394374373
 30
0.0
 10
4.6431756387
 20
5.0365232348
 30
0.0
 10
4.6496309707
 20
5.0304763409
 30
0.0
 10
4.6586679043
 20
5.0207862852
 30
0.0
 10
4.6670084561
 20
5.0105289888
 30
0.0
 10
4.6746141284
 20
4.9997518396
 30
0.0
 10
4.6814502725
 20
4.988503615
 30
0.0
 10
4.6874859439
 20
4.9768353663
 30
0.0
 10
4.6926931224
 20
4.9648009881
 30
0.0
 10
4.6955992401
 20
4.9565626847
 30
0.0
 10
4.696906047
 20
4.9524028637
 30
0.0
  0
SPLINE
  5
3A8
100
AcDbEntity
  8
0
100
AcDbSpline
 62
7
  6
CONTINUOUS
 70
0
 71
3
 72
9
 73
5
 74
0
 42
0.0000001
 43
0.0000001
 44
0.0000000001
 40
0.0
 40
0.0
 40
0.0
 40
0.0
 40
0.4944449913
 40
1.0
 40
1.0
 40
1.0
 40
1.0
 10
4.696906047
 20
4.9524028637
 30
0.0
 10
4.6969061043
 20
4.9516068012
 30
0.0
 10
4.6970342225
 20
4.9499943583
 30
0.0
 10
4.6974095149
 20
4.9484217982
 30
0.0
 10
4.6976540357
 20
4.9476454453
 30
0.0
  0
SPLINE
  5
3A9
100
AcDbEntity
  8
0
100
AcDbSpline
 62
7
  6
CONTINUOUS
 70
0
 71
3
 72
34
 73
30
 74
0
 42
0.0000001
 43
0.0000001
 44
0.0000000001
 40
0.0
 40
0.0
 40
0.0
 40
0.0
 40
0.01440105
 40
0.0291256811
 40
0.0443680455
 40
0.0603010914
 40
0.0770733673
 40
0.0948082586
 40
0.1136064552
 40
0.1335491023
 40
0.1547007813
 40
0.1771125899
 40
0.20082493
 40
0.2258694526
 40
0.2522703251
 40
0.2800458165
 40
0.3092084995
 40
0.3397639012
 40
0.3717109939
 40
0.4050336244
 40
0.43970932
 40
0.4757124784
 40
0.5130147179
 40
0.5515863951
 40
0.6324133604
 40
0.7179447375
 40
0.8079112547
 40
0.9020317724
 40
1.0
 40
1.0
 40
1.0
 40
1.0
 10
4.6398504408
 20
5.0394348387
 30
0.0
 10
4.6398787545
 20
5.0402140944
 30
0.0
 10
4.6400393638
 20
5.0417880896
 30
0.0
 10
4.6405818182
 20
5.0441342054
 30
0.0
 10
4.6414238689
 20
5.0464782558
 30
0.0
 10
4.642561975
 20
5.048816768
 30
0.0
 10
4.6439928467
 20
5.0511476779
 30
0.0
 10
4.6457136496
 20
5.0534689823
 30
0.0
 10
4.6477219164
 20
5.0557787017
 30
0.0
 10
4.6500153664
 20
5.0580747596
 30
0.0
 10
4.6525917806
 20
5.060355029
 30
0.0
 10
4.655449023
 20
5.0626172751
 30
0.0
 10
4.6585850127
 20
5.0648591679
 30
0.0
 10
4.6619976404
 20
5.0670783641
 30
0.0
 10
4.6656849453
 20
5.0692721959
 30
0.0
 10
4.6696450771
 20
5.0714374997
 30
0.0
 10
4.6738756696
 20
5.0735713701
 30
0.0
 10
4.6783732853
 20
5.0756721578
 30
0.0
 10
4.683133725
 20
5.0777376439
 30
0.0
 10
4.6881518274
 20
5.0797652426
 30
0.0
 10
4.6934216769
 20
5.0817517205
 30
0.0
 10
4.6989365662
 20
5.0836949784
 30
0.0
 10
4.7046895374
 20
5.0855935737
 30
0.0
 10
4.7127954914
 20
5.0881021566
 30
0.0
 10
4.7234813225
 20
5.0911005724
 30
0.0
 10
4.7369559608
 20
5.0944349142
 30
0.0
 10
4.7512219311
 20
5.0975435851
 30
0.0
 10
4.7662243143
 20
5.1004105301
 30
0.0
 10
4.7764852651
 20
5.1021181473
 30
0.0
 10
4.7817272233
 20
5.1029313449
 30
0.0
  0
SPLINE
  5
3AA
100
AcDbEntity
  8
0
100
AcDbSpline
 62
7
  6
CONTINUOUS
 70
0
 71
3
 72
22
 73
18
 74
0
 42
0.0000001
 43
0.0000001
 44
0.0000000001
 40
0.0
 40
0.0
 40
0.0
 40
0.0
 40
0.0471537176
 40
0.0955112414
 40
0.1451792429
 40
0.1962899313
 40
0.2490008876
 40
0.3034942461
 40
0.3599752551
 40
0.4186702966
 40
0.4798244849
 40
0.5436989939
 40
0.6806762618
 40
0.7543979244
 40
0.8319907377
 40
0.9137567787
 40
1.0
 40
1.0
 40
1.0
 40
1.0
 10
4.6077357153
 20
4.8019448457
 30
0.0
 10
4.6073098058
 20
4.7996272494
 30
0.0
 10
4.6063535117
 20
4.7949494667
 30
0.0
 10
4.6045984032
 20
4.7879076114
 30
0.0
 10
4.6024684751
 20
4.7807628297
 30
0.0
 10
4.5999269811
 20
4.7735225706
 30
0.0
 10
4.5969371777
 20
4.7661941636
 30
0.0
 10
4.5934623962
 20
4.7587850515
 30
0.0
 10
4.5894660269
 20
4.7513026811
 30
0.0
 10
4.5849116071
 20
4.7437545746
 30
0.0
 10
4.5797625117
 20
4.7361479872
 30
0.0
 10
4.5718717317
 20
4.72569376
 30
0.0
 10
4.5627651724
 20
4.7153949082
 30
0.0
 10
4.5524952451
 20
4.7052866038
 30
0.0
 10
4.5438287522
 20
4.6974981222
 30
0.0
 10
4.5343504801
 20
4.6896953846
 30
0.0
 10
4.5276520155
 20
4.6846291499
 30
0.0
 10
4.5241658766
 20
4.682095103
 30
0.0
  0
SPLINE
  5
3AB
100
AcDbEntity
  8
0
100
AcDbSpline
 62
7
  6
CONTINUOUS
 70
0
 71
3
 72
15
 73
11
 74
0
 42
0.0000001
 43
0.0000001
 44
0.0000000001
 40
0.0
 40
0.0
 40
0.0
 40
0.0
 40
0.1175641475
 40
0.2380557894
 40
0.3610920585
 40
0.4862787174
 40
0.6131982014
 40
0.741418614
 40
0.8705040569
 40
1.0
 40
1.0
 40
1.0
 40
1.0
 10
4.7817272233
 20
5.1029313449
 30
0.0
 10
4.783413508
 20
5.0992188878
 30
0.0
 10
4.7866738952
 20
5.0916306071
 30
0.0
 10
4.7911729707
 20
5.0799398895
 30
0.0
 10
4.795325379
 20
5.0678416939
 30
0.0
 10
4.799112259
 20
5.0553911471
 30
0.0
 10
4.8025163903
 20
5.0426444626
 30
0.0
 10
4.8055224454
 20
5.0296592797
 30
0.0
 10
4.8081166289
 20
5.0164946909
 30
0.0
 10
4.809563173
 20
5.0076418231
 30
0.0
 10
4.8102152937
 20
5.0031981003
 30
0.0
  0
SPLINE
  5
3AC
100
AcDbEntity
  8
0
100
AcDbSpline
 62
7
  6
CONTINUOUS
 70
0
 71
3
 72
33
 73
29
 74
0
 42
0.0000001
 43
0.0000001
 44
0.0000000001
 40
0.0
 40
0.0
 40
0.0
 40
0.0
 40
0.0979319216
 40
0.1920568908
 40
0.2820293762
 40
0.3675374016
 40
0.4482931662
 40
0.5240429982
 40
0.5599729352
 40
0.5945739534
 40
0.6278261545
 40
0.6597130683
 40
0.6902221501
 40
0.7193486712
 40
0.7470932145
 40
0.773462591
 40
0.7984702858
 40
0.8221386106
 40
0.8445004607
 40
0.8655999454
 40
0.8854952704
 40
0.9042606689
 40
0.9219903162
 40
0.938800039
 40
0.9548301463
 40
0.9702460119
 40
0.9852349113
 40
1.0
 40
1.0
 40
1.0
 40
1.0
 10
4.8102152937
 20
5.0031981003
 30
0.0
 10
4.8060104449
 20
5.0025697021
 30
0.0
 10
4.7977770722
 20
5.0012488031
 30
0.0
 10
4.7857358729
 20
4.9990239698
 30
0.0
 10
4.7742835784
 20
4.9966005981
 30
0.0
 10
4.7634687531
 20
4.9939887591
 30
0.0
 10
4.7533372078
 20
4.9911995291
 30
0.0
 10
4.7453646541
 20
4.9886954817
 30
0.0
 10
4.7393678383
 20
4.9866043445
 30
0.0
 10
4.7351468735
 20
4.985027256
 30
0.0
 10
4.7311274822
 20
4.9834155532
 30
0.0
 10
4.727313986
 20
4.9817712221
 30
0.0
 10
4.7237104426
 20
4.9800960988
 30
0.0
 10
4.7203206211
 20
4.9783918681
 30
0.0
 10
4.7171480265
 20
4.9766600352
 30
0.0
 10
4.7141958785
 20
4.9749023015
 30
0.0
 10
4.7114672034
 20
4.9731203245
 30
0.0
 10
4.7089647832
 20
4.9713157711
 30
0.0
 10
4.7066910692
 20
4.969490411
 30
0.0
 10
4.7046484193
 20
4.9676458376
 30
0.0
 10
4.7028389116
 20
4.9657837838
 30
0.0
 10
4.7012646908
 20
4.9639057366
 30
0.0
 10
4.699927568
 20
4.9620134153
 30
0.0
 10
4.6988294433
 20
4.9601084141
 30
0.0
 10
4.6979722467
 20
4.9581925149
 30
0.0
 10
4.6973579959
 20
4.9562676662
 30
0.0
 10
4.6969886027
 20
4.954337024
 30
0.0
 10
4.6969060652
 20
4.9530438645
 30
0.0
 10
4.696906047
 20
4.9524028637
 30
0.0
  0
SPLINE
  5
3AD
100
AcDbEntity
  8
0
100
AcDbSpline
 62
7
  6
CONTINUOUS
 70
0
 71
3
 72
53
 73
49
 74
0
 42
0.0000001
 43
0.0000001
 44
0.0000000001
 40
0.0
 40
0.0
 40
0.0
 40
0.0
 40
0.0005535149
 40
0.0010423134
 40
0.0014853024
 40
0.0019075589
 40
0.0023374374
 40
0.002801563
 40
0.0033210253
 40
0.0039107472
 40
0.0045807455
 40
0.0053377585
 40
0.006186812
 40
0.0071316984
 40
0.0093194944
 40
0.0119184376
 40
0.014939966
 40
0.0183938991
 40
0.022289457
 40
0.0266349257
 40
0.0314383424
 40
0.0367102406
 40
0.0424622472
 40
0.0487058214
 40
0.0627225458
 40
0.078889457
 40
0.0973569322
 40
0.1182928514
 40
0.1418572252
 40
0.1682010997
 40
0.1974109985
 40
0.2294475594
 40
0.2642040928
 40
0.3015399234
 40
0.3412893719
 40
0.3832616787
 40
0.4272404818
 40
0.4729901983
 40
0.5202996947
 40
0.5689957337
 40
0.618953112
 40
0.6700834229
 40
0.7223385768
 40
0.7756923222
 40
0.8301334476
 40
0.8856594793
 40
0.9422796201
 40
1.0
 40
1.0
 40
1.0
 40
1.0
 10
4.7411685198
 20
5.5006724743
 30
0.0
 10
4.7412140796
 20
5.5007271867
 30
0.0
 10
4.7413064546
 20
5.5008251636
 30
0.0
 10
4.7414604013
 20
5.5009402868
 30
0.0
 10
4.7416208121
 20
5.501012382
 30
0.0
 10
4.7417871523
 20
5.501039769
 30
0.0
 10
4.7419573826
 20
5.5010219743
 30
0.0
 10
4.7421299757
 20
5.50096053
 30
0.0
 10
4.7423050491
 20
5.5008571542
 30
0.0
 10
4.7424833292
 20
5.5007126635
 30
0.0
 10
4.7426654075
 20
5.5005273009
 30
0.0
 10
4.7428516704
 20
5.5003010499
 30
0.0
 10
4.7430422304
 20
5.5000336682
 30
0.0
 10
4.7433156351
 20
5.4996003304
 30
0.0
 10
4.7436641615
 20
5.4989497028
 30
0.0
 10
4.7440824292
 20
5.498036143
 30
0.0
 10
4.7445186893
 20
5.4969531395
 30
0.0
 10
4.7449728792
 20
5.4956986042
 30
0.0
 10
4.7454448761
 20
5.4942700896
 30
0.0
 10
4.7459346876
 20
5.492665159
 30
0.0
 10
4.7464424641
 20
5.490880987
 30
0.0
 10
4.7469681214
 20
5.4889140921
 30
0.0
 10
4.7475116982
 20
5.4867604744
 30
0.0
 10
4.7482910579
 20
5.4835065046
 30
0.0
 10
4.7493070093
 20
5.4789320507
 30
0.0
 10
4.7505610616
 20
5.4728008314
 30
0.0
 10
4.7518952009
 20
5.4657782882
 30
0.0
 10
4.7533105688
 20
5.4578032693
 30
0.0
 10
4.754805965
 20
5.4488140353
 30
0.0
 10
4.7563731452
 20
5.4387583758
 30
0.0
 10
4.757992806
 20
5.4276085401
 30
0.0
 10
4.7596341117
 20
5.415369109
 30
0.0
 10
4.7612794758
 20
5.4020763613
 30
0.0
 10
4.7629119597
 20
5.3877829949
 30
0.0
 10
4.76450798
 20
5.372551925
 30
0.0
 10
4.7660414749
 20
5.3564558526
 30
0.0
 10
4.7674936169
 20
5.3395774718
 30
0.0
 10
4.7688655217
 20
5.3220037431
 30
0.0
 10
4.7701610822
 20
5.3038158966
 30
0.0
 10
4.7713864497
 20
5.2850807918
 30
0.0
 10
4.7725401181
 20
5.2658487681
 30
0.0
 10
4.7736205882
 20
5.2461539914
 30
0.0
 10
4.774626437
 20
5.2260178358
 30
0.0
 10
4.7755506367
 20
5.2054514515
 30
0.0
 10
4.7763829743
 20
5.1844600707
 30
0.0
 10
4.7771175769
 20
5.1630446306
 30
0.0
 10
4.7777468596
 20
5.1412038522
 30
0.0
 10
4.7780853966
 20
5.1265001506
 30
0.0
 10
4.7782322524
 20
5.119077098
 30
0.0
  0
SPLINE
  5
3AE
100
AcDbEntity
  8
0
100
AcDbSpline
 62
7
  6
CONTINUOUS
 70
0
 71
3
 72
11
 73
7
 74
0
 42
0.0000001
 43
0.0000001
 44
0.0000000001
 40
0.0
 40
0.0
 40
0.0
 40
0.0
 40
0.2641044408
 40
0.5164930237
 40
0.7604346602
 40
1.0
 40
1.0
 40
1.0
 40
1.0
 10
5.027265231
 20
4.8921884531
 30
0.0
 10
5.0275086778
 20
4.8920793207
 30
0.0
 10
5.027998021
 20
4.8918936812
 30
0.0
 10
5.0287485067
 20
4.8917187024
 30
0.0
 10
5.0294919569
 20
4.89165646
 30
0.0
 10
5.02998149
 20
4.8916908133
 30
0.0
 10
5.0302208319
 20
4.891726585
 30
0.0
  0
SPLINE
  5
3AF
100
AcDbEntity
  8
0
100
AcDbSpline
 62
7
  6
CONTINUOUS
 70
0
 71
3
 72
11
 73
7
 74
0
 42
0.0000001
 43
0.0000001
 44
0.0000000001
 40
0.0
 40
0.0
 40
0.0
 40
0.0
 40
0.2641046772
 40
0.5164930394
 40
0.7604344317
 40
1.0
 40
1.0
 40
1.0
 40
1.0
 10
4.8197847202
 20
4.892188414
 30
0.0
 10
4.8195412673
 20
4.8920792787
 30
0.0
 10
4.8190519117
 20
4.8918936357
 30
0.0
 10
4.8183014062
 20
4.8917186596
 30
0.0
 10
4.8175579369
 20
4.8916564287
 30
0.0
 10
4.8170683927
 20
4.8916907956
 30
0.0
 10
4.8168290458
 20
4.8917265753
 30
0.0
  0
SPLINE
  5
3B0
100
AcDbEntity
  8
0
100
AcDbSpline
 62
7
  6
CONTINUOUS
 70
0
 71
3
 72
15
 73
11
 74
0
 42
0.0000001
 43
0.0000001
 44
0.0000000001
 40
0.0
 40
0.0
 40
0.0
 40
0.0
 40
0.1266508179
 40
0.2530840337
 40
0.379119038
 40
0.5045975109
 40
0.6294232416
 40
0.753564807
 40
0.8770526545
 40
1.0
 40
1.0
 40
1.0
 40
1.0
 10
4.7160443335
 20
4.9386938788
 30
0.0
 10
4.714982182
 20
4.9386938799
 30
0.0
 10
4.7128560626
 20
4.9388577581
 30
0.0
 10
4.7097495001
 20
4.9395893783
 30
0.0
 10
4.7068013343
 20
4.9407882269
 30
0.0
 10
4.7040872449
 20
4.9424243841
 30
0.0
 10
4.701675895
 20
4.9444565249
 30
0.0
 10
4.6996287822
 20
4.9468337515
 30
0.0
 10
4.6979984081
 20
4.949494838
 30
0.0
 10
4.6972151102
 20
4.9514191744
 30
0.0
 10
4.6969060844
 20
4.9524028689
 30
0.0
  0
SPLINE
  5
3B1
100
AcDbEntity
  8
0
100
AcDbSpline
 62
7
  6
CONTINUOUS
 70
0
 71
3
 72
15
 73
11
 74
0
 42
0.0000001
 43
0.0000001
 44
0.0000000001
 40
0.0
 40
0.0
 40
0.0
 40
0.0
 40
0.1235176889
 40
0.2472213487
 40
0.3712752446
 40
0.495801666
 40
0.6209002666
 40
0.7466317818
 40
0.8730056048
 40
1.0
 40
1.0
 40
1.0
 40
1.0
 10
4.3550062357
 20
2.9032246986
 30
0.0
 10
4.355074259
 20
2.9045384042
 30
0.0
 10
4.3553978174
 20
2.907161906
 30
0.0
 10
4.3564352185
 20
2.9109905222
 30
0.0
 10
4.3580052654
 20
2.91464569
 30
0.0
 10
4.3600785403
 20
2.9180578088
 30
0.0
 10
4.3626159129
 20
2.921163328
 30
0.0
 10
4.3655699715
 20
2.9239045335
 30
0.0
 10
4.3688846909
 20
2.9262301423
 30
0.0
 10
4.3712900944
 20
2.9274739573
 30
0.0
 10
4.3725303214
 20
2.9280134693
 30
0.0
  0
SPLINE
  5
3B2
100
AcDbEntity
  8
0
100
AcDbSpline
 62
7
  6
CONTINUOUS
 70
0
 71
3
 72
15
 73
11
 74
0
 42
0.0000001
 43
0.0000001
 44
0.0000000001
 40
0.0
 40
0.0
 40
0.0
 40
0.0
 40
0.1237152417
 40
0.2477980062
 40
0.3722928889
 40
0.4971998966
 40
0.6224928273
 40
0.7481159269
 40
0.8739824708
 40
1.0
 40
1.0
 40
1.0
 40
1.0
 10
4.3565455561
 20
2.8919457583
 30
0.0
 10
4.3566400067
 20
2.8933136313
 30
0.0
 10
4.3570248832
 20
2.8960438652
 30
0.0
 10
4.3581746283
 20
2.9000200862
 30
0.0
 10
4.3598750178
 20
2.9038090451
 30
0.0
 10
4.3620927385
 20
2.9073357998
 30
0.0
 10
4.3647842178
 20
2.9105319748
 30
0.0
 10
4.367897156
 20
2.9133353418
 30
0.0
 10
4.3713698327
 20
2.9156911623
 30
0.0
 10
4.3738813267
 20
2.9169333358
 30
0.0
 10
4.3751724953
 20
2.9174657867
 30
0.0
  0
SPLINE
  5
3B3
100
AcDbEntity
  8
0
100
AcDbSpline
 62
7
  6
CONTINUOUS
 70
0
 71
3
 72
16
 73
12
 74
0
 42
0.0000001
 43
0.0000001
 44
0.0000000001
 40
0.0
 40
0.0
 40
0.0
 40
0.0
 40
0.1505526765
 40
0.2963392492
 40
0.4356138169
 40
0.5669029723
 40
0.6891404787
 40
0.8017940323
 40
0.854588875
 40
0.9051241805
 40
1.0
 40
1.0
 40
1.0
 40
1.0
 10
4.5975270428
 20
2.8919457367
 30
0.0
 10
4.5973364334
 20
2.8932969174
 30
0.0
 10
4.5970648271
 20
2.895972512
 30
0.0
 10
4.5969921871
 20
2.8999247437
 30
0.0
 10
4.5972602288
 20
2.9036944341
 30
0.0
 10
4.5978643381
 20
2.9072098181
 30
0.0
 10
4.5987935819
 20
2.910404075
 30
0.0
 10
4.5998485292
 20
2.9127995961
 30
0.0
 10
4.600847788
 20
2.9144857099
 30
0.0
 10
4.601893459
 20
2.915947923
 30
0.0
 10
4.602808467
 20
2.9169129407
 30
0.0
 10
4.6034671726
 20
2.917465728
 30
0.0
  0
SPLINE
  5
3B4
100
AcDbEntity
  8
0
100
AcDbSpline
 62
7
  6
CONTINUOUS
 70
0
 71
3
 72
18
 73
14
 74
0
 42
0.0000001
 43
0.0000001
 44
0.0000000001
 40
0.0
 40
0.0
 40
0.0
 40
0.0
 40
0.1550834009
 40
0.3045890226
 40
0.4465401042
 40
0.5792104155
 40
0.6416529744
 40
0.7013162688
 40
0.7581216933
 40
0.812032491
 40
0.863062323
 40
0.9113043663
 40
1.0
 40
1.0
 40
1.0
 40
1.0
 10
4.6392655699
 20
2.9032244889
 30
0.0
 10
4.6389822124
 20
2.904520917
 30
0.0
 10
4.6385146003
 20
2.9070874405
 30
0.0
 10
4.6380898699
 20
2.910887989
 30
0.0
 10
4.6379638063
 20
2.9145187763
 30
0.0
 10
4.6381097974
 20
2.9174039036
 30
0.0
 10
4.6383854052
 20
2.9195674169
 30
0.0
 10
4.6386616132
 20
2.9210740761
 30
0.0
 10
4.6390102462
 20
2.9224907136
 30
0.0
 10
4.6394298519
 20
2.923810719
 30
0.0
 10
4.6399187794
 20
2.9250286307
 30
0.0
 10
4.64063978
 20
2.9264672724
 30
0.0
 10
4.6413085846
 20
2.9274427901
 30
0.0
 10
4.6418094352
 20
2.9280130256
 30
0.0
  0
SPLINE
  5
3B5
100
AcDbEntity
  8
0
100
AcDbSpline
 62
7
  6
CONTINUOUS
 70
0
 71
3
 72
17
 73
13
 74
0
 42
0.0000001
 43
0.0000001
 44
0.0000000001
 40
0.0
 40
0.0
 40
0.0
 40
0.0
 40
0.1389520782
 40
0.2083921482
 40
0.2774720946
 40
0.4135830787
 40
0.5454408639
 40
0.6713363326
 40
0.7897787295
 40
0.8995774785
 40
0.9509945901
 40
1.0
 40
1.0
 40
1.0
 40
1.0
 10
4.6392655699
 20
2.9032244889
 30
0.0
 10
4.6396217879
 20
2.9045422946
 30
0.0
 10
4.6402187232
 20
2.90650268
 30
0.0
 10
4.6411454671
 20
2.9090667061
 30
0.0
 10
4.6421480155
 20
2.9115720444
 30
0.0
 10
4.6435345396
 20
2.9145822459
 30
0.0
 10
4.6454040128
 20
2.9179741085
 30
0.0
 10
4.6474367301
 20
2.9210657786
 30
0.0
 10
4.649594779
 20
2.9238006399
 30
0.0
 10
4.6515057731
 20
2.9257829373
 30
0.0
 10
4.6530659536
 20
2.927137788
 30
0.0
 10
4.6538517502
 20
2.9277358857
 30
0.0
 10
4.6542454177
 20
2.9280130361
 30
0.0
  0
SPLINE
  5
3B6
100
AcDbEntity
  8
0
100
AcDbSpline
 62
7
  6
CONTINUOUS
 70
0
 71
3
 72
9
 73
5
 74
0
 42
0.0000001
 43
0.0000001
 44
0.0000000001
 40
0.0
 40
0.0
 40
0.0
 40
0.0
 40
0.5047077687
 40
1.0
 40
1.0
 40
1.0
 40
1.0
 10
4.6952302131
 20
2.9174657884
 30
0.0
 10
4.6882683637
 20
2.9189644134
 30
0.0
 10
4.6745268475
 20
2.9221839805
 30
0.0
 10
4.6609303094
 20
2.9259753935
 30
0.0
 10
4.6542456154
 20
2.9280134286
 30
0.0
  0
SPLINE
  5
3B7
100
AcDbEntity
  8
0
100
AcDbSpline
 62
7
  6
CONTINUOUS
 70
0
 71
3
 72
18
 73
14
 74
0
 42
0.0000001
 43
0.0000001
 44
0.0000000001
 40
0.0
 40
0.0
 40
0.0
 40
0.0
 40
0.1446871009
 40
0.2877993462
 40
0.4270805448
 40
0.5603794037
 40
0.6857501255
 40
0.7449447592
 40
0.8015652728
 40
0.8554663046
 40
0.9065438198
 40
0.9547356248
 40
1.0
 40
1.0
 40
1.0
 40
1.0
 10
4.6825436163
 20
2.8919457564
 30
0.0
 10
4.6828308138
 20
2.8933126083
 30
0.0
 10
4.6834826583
 20
2.8960152247
 30
0.0
 10
4.6846859504
 20
2.899960889
 30
0.0
 10
4.6860913974
 20
2.9037224538
 30
0.0
 10
4.6876716746
 20
2.9072270489
 30
0.0
 10
4.6891356975
 20
2.9099277398
 30
0.0
 10
4.6903753154
 20
2.9118993269
 30
0.0
 10
4.6913108456
 20
2.9132450532
 30
0.0
 10
4.6922654016
 20
2.9144797757
 30
0.0
 10
4.6932345391
 20
2.9155976446
 30
0.0
 10
4.6942135534
 20
2.9165930406
 30
0.0
 10
4.694890816
 20
2.9171905924
 30
0.0
 10
4.6952302131
 20
2.9174657884
 30
0.0
  0
SPLINE
  5
3B8
100
AcDbEntity
  8
0
100
AcDbSpline
 62
7
  6
CONTINUOUS
 70
0
 71
3
 72
18
 73
14
 74
0
 42
0.0000001
 43
0.0000001
 44
0.0000000001
 40
0.0
 40
0.0
 40
0.0
 40
0.0
 40
0.1286067632
 40
0.2568695937
 40
0.3207638667
 40
0.3844425659
 40
0.5109774885
 40
0.6361301268
 40
0.6980835371
 40
0.7595652385
 40
0.8809514008
 40
0.9407874518
 40
1.0
 40
1.0
 40
1.0
 40
1.0
 10
4.9235248447
 20
2.8978678747
 30
0.0
 10
4.9136851722
 20
2.8978676358
 30
0.0
 10
4.894031709
 20
2.8980340683
 30
0.0
 10
4.8694972186
 20
2.8986799953
 30
0.0
 10
4.8499388993
 20
2.8994686052
 30
0.0
 10
4.8305213594
 20
2.9004437079
 30
0.0
 10
4.8064431823
 20
2.9020341443
 30
0.0
 10
4.7825403865
 20
2.9041861016
 30
0.0
 10
4.7636365882
 20
2.9062859277
 30
0.0
 10
4.7450527833
 20
2.9086349955
 30
0.0
 10
4.7266881713
 20
2.9114161361
 30
0.0
 10
4.7085868032
 20
2.9146986604
 30
0.0
 10
4.699659954
 20
2.9165126516
 30
0.0
 10
4.6952310671
 20
2.9174660255
 30
0.0
  0
SPLINE
  5
3B9
100
AcDbEntity
  8
0
100
AcDbSpline
 62
7
  6
CONTINUOUS
 70
0
 71
3
 72
18
 73
14
 74
0
 42
0.0000001
 43
0.0000001
 44
0.0000000001
 40
0.0
 40
0.0
 40
0.0
 40
0.0
 40
0.0592125456
 40
0.1190485894
 40
0.2404347122
 40
0.301916383
 40
0.3638697685
 40
0.4890223874
 40
0.6155572891
 40
0.6792359955
 40
0.7431302743
 40
0.8713931661
 40
1.0
 40
1.0
 40
1.0
 40
1.0
 10
5.1518186307
 20
2.9174660262
 30
0.0
 10
5.147389744
 20
2.9165126517
 30
0.0
 10
5.1384628959
 20
2.914698658
 30
0.0
 10
5.1203615319
 20
2.9114161286
 30
0.0
 10
5.1019969229
 20
2.9086350021
 30
0.0
 10
5.0834131219
 20
2.9062859577
 30
0.0
 10
5.0645093305
 20
2.9041861177
 30
0.0
 10
5.0406065429
 20
2.9020341073
 30
0.0
 10
5.0165283615
 20
2.9004437632
 30
0.0
 10
4.9971108238
 20
2.8994686244
 30
0.0
 10
4.9775525005
 20
2.8986799546
 30
0.0
 10
4.9530179966
 20
2.898034082
 30
0.0
 10
4.933364523
 20
2.8978676902
 30
0.0
 10
4.9235248447
 20
2.8978679113
 30
0.0
  0
SPLINE
  5
3BA
100
AcDbEntity
  8
0
100
AcDbSpline
 62
7
  6
CONTINUOUS
 70
0
 71
3
 72
18
 73
14
 74
0
 42
0.0000001
 43
0.0000001
 44
0.0000000001
 40
0.0
 40
0.0
 40
0.0
 40
0.0
 40
0.1446866363
 40
0.2877985961
 40
0.4270796746
 40
0.5603785528
 40
0.6857494003
 40
0.7449441274
 40
0.8015647479
 40
0.8554658874
 40
0.9065435295
 40
0.9547354872
 40
1.0
 40
1.0
 40
1.0
 40
1.0
 10
5.1645052482
 20
2.8919456564
 30
0.0
 10
5.1642180619
 20
2.8933125224
 30
0.0
 10
5.1635662358
 20
2.8960151684
 30
0.0
 10
5.1623629612
 20
2.8999608784
 30
0.0
 10
5.1609575217
 20
2.9037224909
 30
0.0
 10
5.1593772431
 20
2.9072271337
 30
0.0
 10
5.1579132126
 20
2.9099278629
 30
0.0
 10
5.156673585
 20
2.9118994789
 30
0.0
 10
5.155738046
 20
2.9132452255
 30
0.0
 10
5.15478348
 20
2.9144799668
 30
0.0
 10
5.1538143311
 20
2.9155978531
 30
0.0
 10
5.1528353041
 20
2.9165932646
 30
0.0
 10
5.1521580325
 20
2.9171908259
 30
0.0
 10
5.1518186307
 20
2.9174660262
 30
0.0
  0
SPLINE
  5
3BB
100
AcDbEntity
  8
0
100
AcDbSpline
 62
7
  6
CONTINUOUS
 70
0
 71
3
 72
9
 73
5
 74
0
 42
0.0000001
 43
0.0000001
 44
0.0000000001
 40
0.0
 40
0.0
 40
0.0
 40
0.0
 40
0.4952929642
 40
1.0
 40
1.0
 40
1.0
 40
1.0
 10
5.1928042091
 20
2.928013439
 30
0.0
 10
5.1861194902
 20
2.9259753878
 30
0.0
 10
5.1725228919
 20
2.9221840523
 30
0.0
 10
5.1587813539
 20
2.9189644228
 30
0.0
 10
5.1518194976
 20
2.9174657899
 30
0.0
  0
SPLINE
  5
3BC
100
AcDbEntity
  8
0
100
AcDbSpline
 62
7
  6
CONTINUOUS
 70
0
 71
3
 72
17
 73
13
 74
0
 42
0.0000001
 43
0.0000001
 44
0.0000000001
 40
0.0
 40
0.0
 40
0.0
 40
0.0
 40
0.1389521321
 40
0.2083922402
 40
0.2774722258
 40
0.4135832822
 40
0.5454411124
 40
0.6713365863
 40
0.7897789402
 40
0.8995776014
 40
0.9509946468
 40
1.0
 40
1.0
 40
1.0
 40
1.0
 10
5.2077841569
 20
2.9032248084
 30
0.0
 10
5.2074279316
 20
2.9045426171
 30
0.0
 10
5.2068309879
 20
2.9065030074
 30
0.0
 10
5.2059042396
 20
2.9090670423
 30
0.0
 10
5.204901687
 20
2.9115723896
 30
0.0
 10
5.2035151559
 20
2.914582601
 30
0.0
 10
5.2016456751
 20
2.9179744746
 30
0.0
 10
5.1996129492
 20
2.9210661531
 30
0.0
 10
5.1974548917
 20
2.9238010201
 30
0.0
 10
5.1955438892
 20
2.9257833187
 30
0.0
 10
5.1939837027
 20
2.9271381692
 30
0.0
 10
5.1931979028
 20
2.9277362658
 30
0.0
 10
5.1928042333
 20
2.928013415
 30
0.0
  0
SPLINE
  5
3BD
100
AcDbEntity
  8
0
100
AcDbSpline
 62
7
  6
CONTINUOUS
 70
0
 71
3
 72
18
 73
14
 74
0
 42
0.0000001
 43
0.0000001
 44
0.0000000001
 40
0.0
 40
0.0
 40
0.0
 40
0.0
 40
0.1550836843
 40
0.3045892516
 40
0.4465403097
 40
0.5792105445
 40
0.6416530565
 40
0.7013162979
 40
0.7581216682
 40
0.8120324184
 40
0.8630622195
 40
0.9113042582
 40
1.0
 40
1.0
 40
1.0
 40
1.0
 10
5.2077841569
 20
2.9032248084
 30
0.0
 10
5.2080674679
 20
2.9045212506
 30
0.0
 10
5.2085350143
 20
2.9070877888
 30
0.0
 10
5.2089597553
 20
2.9108883414
 30
0.0
 10
5.2090858076
 20
2.9145191322
 30
0.0
 10
5.2089398236
 20
2.9174042613
 30
0.0
 10
5.2086642216
 20
2.9195677763
 30
0.0
 10
5.2083880189
 20
2.9210744369
 30
0.0
 10
5.2080393916
 20
2.9224910761
 30
0.0
 10
5.2076197914
 20
2.9238110837
 30
0.0
 10
5.2071308688
 20
2.9250289982
 30
0.0
 10
5.206409873
 20
2.926467645
 30
0.0
 10
5.2057410706
 20
2.9274431669
 30
0.0
 10
5.2052402208
 20
2.9280134055
 30
0.0
  0
SPLINE
  5
3BE
100
AcDbEntity
  8
0
100
AcDbSpline
 62
7
  6
CONTINUOUS
 70
0
 71
3
 72
15
 73
11
 74
0
 42
0.0000001
 43
0.0000001
 44
0.0000000001
 40
0.0
 40
0.0
 40
0.0
 40
0.0
 40
0.125235745
 40
0.2505396825
 40
0.3758405577
 40
0.501075622
 40
0.6261796232
 40
0.7510844754
 40
0.8757167788
 40
1.0
 40
1.0
 40
1.0
 40
1.0
 10
4.6398474935
 20
5.0394375372
 30
0.0
 10
4.6393511209
 20
5.0398620065
 30
0.0
 10
4.638401891
 20
5.0407640023
 30
0.0
 10
4.6371288862
 20
5.0422589264
 30
0.0
 10
4.6360193571
 20
5.0438790647
 30
0.0
 10
4.6350844561
 20
5.0456045749
 30
0.0
 10
4.6343339932
 20
5.0474156716
 30
0.0
 10
4.6337754585
 20
5.0492916047
 30
0.0
 10
4.6334145134
 20
5.0512107906
 30
0.0
 10
4.6333080366
 20
5.0525073209
 30
0.0
 10
4.6332887801
 20
5.0531551829
 30
0.0
  0
SPLINE
  5
3BF
100
AcDbEntity
  8
0
100
AcDbSpline
 62
7
  6
CONTINUOUS
 70
0
 71
3
 72
19
 73
15
 74
0
 42
0.0000001
 43
0.0000001
 44
0.0000000001
 40
0.0
 40
0.0
 40
0.0
 40
0.0
 40
0.088006142
 40
0.1364106501
 40
0.1878988036
 40
0.2425063541
 40
0.3001832839
 40
0.3608158433
 40
0.424239344
 40
0.5585283979
 40
0.7009842035
 40
0.7745026756
 40
0.849090649
 40
1.0
 40
1.0
 40
1.0
 40
1.0
 10
4.8197844584
 20
4.9851993827
 30
0.0
 10
4.8192203128
 20
4.9854522825
 30
0.0
 10
4.8183972672
 20
4.9859638341
 30
0.0
 10
4.8173880701
 20
4.9868155243
 30
0.0
 10
4.8166222211
 20
4.9875867698
 30
0.0
 10
4.8158770811
 20
4.9884646027
 30
0.0
 10
4.8151568162
 20
4.9894438808
 30
0.0
 10
4.8144659149
 20
4.9905183515
 30
0.0
 10
4.8135727552
 20
4.9920991662
 30
0.0
 10
4.812564855
 20
4.9942704899
 30
0.0
 10
4.8117338379
 20
4.9965897624
 30
0.0
 10
4.8111641133
 20
4.9985503327
 30
0.0
 10
4.8106592668
 20
5.0005897538
 30
0.0
 10
4.8103692094
 20
5.0021492029
 30
0.0
 10
4.8102152934
 20
5.0031981001
 30
0.0
  0
SPLINE
  5
3C0
100
AcDbEntity
  8
0
100
AcDbSpline
 62
7
  6
CONTINUOUS
 70
0
 71
3
 72
23
 73
19
 74
0
 42
0.0000001
 43
0.0000001
 44
0.0000000001
 40
0.0
 40
0.0
 40
0.0
 40
0.0
 40
0.0463195744
 40
0.0934680024
 40
0.141620959
 40
0.19097572
 40
0.2417618029
 40
0.2942411702
 40
0.3487043476
 40
0.4054886416
 40
0.4649656833
 40
0.5275630016
 40
0.5937562379
 40
0.6640897949
 40
0.7391691244
 40
0.7787021718
 40
0.8196815681
 40
1.0
 40
1.0
 40
1.0
 40
1.0
 10
5.2393243831
 20
4.801295514
 30
0.0
 10
5.2397368689
 20
4.7990221191
 30
0.0
 10
5.2406574637
 20
4.794450095
 30
0.0
 10
5.2423344116
 20
4.7875855975
 30
0.0
 10
5.2443518068
 20
4.780655085
 30
0.0
 10
5.2467421276
 20
4.7736519145
 30
0.0
 10
5.2495434552
 20
4.7665698043
 30
0.0
 10
5.2527971602
 20
4.7594027016
 30
0.0
 10
5.2565450618
 20
4.7521424282
 30
0.0
 10
5.2608397491
 20
4.7447841346
 30
0.0
 10
5.2657336105
 20
4.737319442
 30
0.0
 10
5.2712907445
 20
4.7297436161
 30
0.0
 10
5.2775790848
 20
4.7220491072
 30
0.0
 10
5.2846782877
 20
4.7142315596
 30
0.0
 10
5.291224863
 20
4.7077254239
 30
0.0
 10
5.2969297005
 20
4.7024620521
 30
0.0
 10
5.3067082075
 20
4.6938785886
 30
0.0
 10
5.3154785687
 20
4.6871363494
 30
0.0
 10
5.3228324287
 20
4.6819571268
 30
0.0
  0
SPLINE
  5
3C1
100
AcDbEntity
  8
0
100
AcDbSpline
 62
7
  6
CONTINUOUS
 70
0
 71
3
 72
23
 73
19
 74
0
 42
0.0000001
 43
0.0000001
 44
0.0000000001
 40
0.0
 40
0.0
 40
0.0
 40
0.0
 40
0.0457001266
 40
0.092225588
 40
0.1397777034
 40
0.1885781434
 40
0.2388777059
 40
0.2909547417
 40
0.3451162842
 40
0.40171849
 40
0.4611484026
 40
0.5238490265
 40
0.5903052945
 40
0.6610640472
 40
0.7367224991
 40
0.8179405693
 40
0.9054464047
 40
1.0
 40
1.0
 40
1.0
 40
1.0
 10
5.2393082238
 20
4.8024113943
 30
0.0
 10
5.239727811
 20
4.8001651791
 30
0.0
 10
5.2406635783
 20
4.7956482288
 30
0.0
 10
5.2423659023
 20
4.7888675044
 30
0.0
 10
5.2444110012
 20
4.7820198263
 30
0.0
 10
5.2468310949
 20
4.7750950567
 30
0.0
 10
5.2496641394
 20
4.7680837681
 30
0.0
 10
5.2529504528
 20
4.7609764731
 30
0.0
 10
5.2567316112
 20
4.7537615851
 30
0.0
 10
5.2610583269
 20
4.7464295194
 30
0.0
 10
5.2659816276
 20
4.7389665806
 30
0.0
 10
5.2715628782
 20
4.7313613485
 30
0.0
 10
5.2778668431
 20
4.7235986471
 30
0.0
 10
5.2849691778
 20
4.7156654336
 30
0.0
 10
5.292951728
 20
4.7075462228
 30
0.0
 10
5.3019077052
 20
4.6992272561
 30
0.0
 10
5.3119383594
 20
4.6906958726
 30
0.0
 10
5.319116877
 20
4.6850929355
 30
0.0
 10
5.3228996905
 20
4.6822570079
 30
0.0
  0
SPLINE
  5
3C2
100
AcDbEntity
  8
0
100
AcDbSpline
 62
7
  6
CONTINUOUS
 70
0
 71
3
 72
15
 73
11
 74
0
 42
0.0000001
 43
0.0000001
 44
0.0000000001
 40
0.0
 40
0.0
 40
0.0
 40
0.0
 40
0.1247878181
 40
0.2519201633
 40
0.3802190667
 40
0.5085738293
 40
0.6358282935
 40
0.7608496499
 40
0.8825937234
 40
1.0
 40
1.0
 40
1.0
 40
1.0
 10
5.0685342081
 20
5.1192365079
 30
0.0
 10
5.0685457919
 20
5.1185383568
 30
0.0
 10
5.0685290854
 20
5.1171280043
 30
0.0
 10
5.0683902759
 20
5.1150041032
 30
0.0
 10
5.0681387775
 20
5.1128704365
 30
0.0
 10
5.0677775258
 20
5.1107519122
 30
0.0
 10
5.0673105386
 20
5.1086729276
 30
0.0
 10
5.066743289
 20
5.1066573525
 30
0.0
 10
5.0660821686
 20
5.1047287556
 30
0.0
 10
5.0655734406
 20
5.1034899642
 30
0.0
 10
5.0653040195
 20
5.1028908084
 30
0.0
  0
SPLINE
  5
3C3
100
AcDbEntity
  8
0
100
AcDbSpline
 62
7
  6
CONTINUOUS
 70
0
 71
3
 72
15
 73
11
 74
0
 42
0.0000001
 43
0.0000001
 44
0.0000000001
 40
0.0
 40
0.0
 40
0.0
 40
0.0
 40
0.1246392293
 40
0.2516032448
 40
0.3797451131
 40
0.5079855369
 40
0.6352000605
 40
0.7602870727
 40
0.8822306686
 40
1.0
 40
1.0
 40
1.0
 40
1.0
 10
4.778231971
 20
5.1190791169
 30
0.0
 10
4.7782327348
 20
5.1183875053
 30
0.0
 10
4.778273813
 20
5.1169911573
 30
0.0
 10
4.7784484292
 20
5.1148903062
 30
0.0
 10
4.7787351509
 20
5.1127815876
 30
0.0
 10
4.7791306463
 20
5.1106891412
 30
0.0
 10
4.7796307224
 20
5.108636614
 30
0.0
 10
4.7802298033
 20
5.1066471525
 30
0.0
 10
4.7809212282
 20
5.1047435483
 30
0.0
 10
4.7814491182
 20
5.1035215304
 30
0.0
 10
4.7817279048
 20
5.1029304896
 30
0.0
  0
SPLINE
  5
3C4
100
AcDbEntity
  8
0
100
AcDbSpline
 62
7
  6
CONTINUOUS
 70
0
 71
3
 72
16
 73
12
 74
0
 42
0.0000001
 43
0.0000001
 44
0.0000000001
 40
0.0
 40
0.0
 40
0.0
 40
0.0
 40
0.1236025698
 40
0.2472857231
 40
0.3713206545
 40
0.4958746532
 40
0.6209357296
 40
0.7464872173
 40
0.8095891635
 40
0.8729431631
 40
1.0
 40
1.0
 40
1.0
 40
1.0
 10
5.2136884892
 20
5.0520306422
 30
0.0
 10
5.2136323563
 20
5.0514347709
 30
0.0
 10
5.2134623978
 20
5.0502472634
 30
0.0
 10
5.2130368739
 20
5.0484976192
 30
0.0
 10
5.2124447464
 20
5.0467921199
 30
0.0
 10
5.2116918674
 20
5.0451440017
 30
0.0
 10
5.2107846257
 20
5.0435670726
 30
0.0
 10
5.2099053125
 20
5.0423255361
 30
0.0
 10
5.2091349579
 20
5.041378731
 30
0.0
 10
5.2083196435
 20
5.0404606863
 30
0.0
 10
5.2076620382
 20
5.0398120566
 30
0.0
 10
5.207204367
 20
5.0394008974
 30
0.0
  0
SPLINE
  5
3C5
100
AcDbEntity
  8
0
100
AcDbSpline
 62
7
  6
CONTINUOUS
 70
0
 71
3
 72
19
 73
15
 74
0
 42
0.0000001
 43
0.0000001
 44
0.0000000001
 40
0.0
 40
0.0
 40
0.0
 40
0.0
 40
0.0880057846
 40
0.1364101801
 40
0.1878982588
 40
0.2425057672
 40
0.300182683
 40
0.3608152521
 40
0.424238782
 40
0.5585279405
 40
0.7009838897
 40
0.7745024407
 40
0.8490904943
 40
1.0
 40
1.0
 40
1.0
 40
1.0
 10
5.0272649692
 20
4.9851994218
 30
0.0
 10
5.0278291084
 20
4.9854523258
 30
0.0
 10
5.0286521435
 20
4.9859638828
 30
0.0
 10
5.029661327
 20
4.9868155777
 30
0.0
 10
5.0304271661
 20
4.9875868266
 30
0.0
 10
5.0311722965
 20
4.9884646624
 30
0.0
 10
5.0318925521
 20
4.9894439427
 30
0.0
 10
5.0325834448
 20
4.9905184151
 30
0.0
 10
5.0334765936
 20
4.9920992315
 30
0.0
 10
5.0344844819
 20
4.9942705556
 30
0.0
 10
5.0353154901
 20
4.9965898266
 30
0.0
 10
5.0358852095
 20
4.9985503949
 30
0.0
 10
5.0363900523
 20
5.0005898133
 30
0.0
 10
5.0366801087
 20
5.0021492598
 30
0.0
 10
5.0368340248
 20
5.0031981552
 30
0.0
  0
SPLINE
  5
3C6
100
AcDbEntity
  8
0
100
AcDbSpline
 62
7
  6
CONTINUOUS
 70
0
 71
3
 72
15
 73
11
 74
0
 42
0.0000001
 43
0.0000001
 44
0.0000000001
 40
0.0
 40
0.0
 40
0.0
 40
0.0
 40
0.126650789
 40
0.2530840052
 40
0.3791190316
 40
0.5045975379
 40
0.6294233002
 40
0.7535648811
 40
0.8770527134
 40
1.0
 40
1.0
 40
1.0
 40
1.0
 10
5.1310053559
 20
4.9386939571
 30
0.0
 10
5.1320675076
 20
4.93869396
 30
0.0
 10
5.1341936272
 20
4.9388578419
 30
0.0
 10
5.1373001896
 20
4.9395894672
 30
0.0
 10
5.1402483553
 20
4.9407883203
 30
0.0
 10
5.1429624446
 20
4.9424244811
 30
0.0
 10
5.1453737943
 20
4.9444566249
 30
0.0
 10
5.147420907
 20
4.9468338533
 30
0.0
 10
5.1490512811
 20
4.9494949405
 30
0.0
 10
5.1498345792
 20
4.951419277
 30
0.0
 10
5.150143605
 20
4.9524029713
 30
0.0
  0
SPLINE
  5
3C7
100
AcDbEntity
  8
0
100
AcDbSpline
 62
7
  6
CONTINUOUS
 70
0
 71
3
 72
18
 73
14
 74
0
 42
0.0000001
 43
0.0000001
 44
0.0000000001
 40
0.0
 40
0.0
 40
0.0
 40
0.0
 40
0.0588264254
 40
0.1183347712
 40
0.2392392236
 40
0.3005697472
 40
0.3624305604
 40
0.4875630156
 40
0.614274402
 40
0.7421809108
 40
0.8064594906
 40
0.8708904044
 40
1.0
 40
1.0
 40
1.0
 40
1.0
 10
5.1645060937
 20
2.8919457588
 30
0.0
 10
5.1598633882
 20
2.890934049
 30
0.0
 10
5.1505003484
 20
2.8890066614
 30
0.0
 10
5.1314938392
 20
2.8855104239
 30
0.0
 10
5.1121894852
 20
2.8825388533
 30
0.0
 10
5.0926334975
 20
2.8800229579
 30
0.0
 10
5.0727018032
 20
2.8777676458
 30
0.0
 10
5.0474655661
 20
2.8754500724
 30
0.0
 10
5.0168585262
 20
2.8733862605
 30
0.0
 10
4.9911251379
 20
2.8722047245
 30
0.0
 10
4.9704073331
 20
2.8715481104
 30
0.0
 10
4.9495871676
 20
2.8710825641
 30
0.0
 10
4.9339535742
 20
2.8709470853
 30
0.0
 10
4.9235248447
 20
2.8709476395
 30
0.0
  0
SPLINE
  5
3C8
100
AcDbEntity
  8
0
100
AcDbSpline
 62
7
  6
CONTINUOUS
 70
0
 71
3
 72
35
 73
31
 74
0
 42
0.0000001
 43
0.0000001
 44
0.0000000001
 40
0.0
 40
0.0
 40
0.0
 40
0.0
 40
0.0064447419
 40
0.0128315907
 40
0.0192076134
 40
0.0256192878
 40
0.0321114974
 40
0.0387265771
 40
0.0524710591
 40
0.0671291181
 40
0.0829045926
 40
0.0999489499
 40
0.1183699184
 40
0.1382423047
 40
0.1596146664
 40
0.1825177772
 40
0.2069679734
 40
0.2329718868
 40
0.2605277374
 40
0.2896283568
 40
0.3202615108
 40
0.3524119844
 40
0.3860611026
 40
0.4211883231
 40
0.4577707346
 40
0.5352013894
 40
0.6181429774
 40
0.7063618198
 40
0.7996042306
 40
1.0
 40
1.0
 40
1.0
 40
1.0
 10
5.4905041429
 20
2.8919457588
 30
0.0
 10
5.4903105524
 20
2.8914464929
 30
0.0
 10
5.4898862893
 20
2.8904669541
 30
0.0
 10
5.4891363213
 20
2.8890563604
 30
0.0
 10
5.4882770626
 20
2.8877127053
 30
0.0
 10
5.4873086846
 20
2.8864345479
 30
0.0
 10
5.4862313084
 20
2.8852201881
 30
0.0
 10
5.4846299637
 20
2.8836641745
 30
0.0
 10
5.4823319209
 20
2.8818644294
 30
0.0
 10
5.4791821152
 20
2.8799654305
 30
0.0
 10
5.4756078143
 20
2.8782825184
 30
0.0
 10
5.4716117445
 20
2.8768014596
 30
0.0
 10
5.4671959838
 20
2.8755089936
 30
0.0
 10
5.4623632289
 20
2.8743935142
 30
0.0
 10
5.4571163974
 20
2.8734461851
 30
0.0
 10
5.4514593364
 20
2.8726586555
 30
0.0
 10
5.4453962608
 20
2.8720245324
 30
0.0
 10
5.4389320534
 20
2.8715376272
 30
0.0
 10
5.4320718933
 20
2.8711940131
 30
0.0
 10
5.4248214832
 20
2.8709897954
 30
0.0
 10
5.4171867949
 20
2.8709242555
 30
0.0
 10
5.4091742808
 20
2.870996483
 30
0.0
 10
5.4007907371
 20
2.8712075139
 30
0.0
 10
5.392043336
 20
2.8715581988
 30
0.0
 10
5.3796693789
 20
2.8722303514
 30
0.0
 10
5.3633485415
 20
2.8734564601
 30
0.0
 10
5.3427967514
 20
2.8755411654
 30
0.0
 10
5.3210029204
 20
2.8783326195
 30
0.0
 10
5.289653196
 20
2.8832323594
 30
0.0
 10
5.2657209024
 20
2.8880899657
 30
0.0
 10
5.249522894
 20
2.8919457588
 30
0.0
  0
SPLINE
  5
3C9
100
AcDbEntity
  8
0
100
AcDbSpline
 62
7
  6
CONTINUOUS
 70
0
 71
3
 72
23
 73
19
 74
0
 42
0.0000001
 43
0.0000001
 44
0.0000000001
 40
0.0
 40
0.0
 40
0.0
 40
0.0
 40
0.0621989
 40
0.1243975394
 40
0.1866066241
 40
0.2488343902
 40
0.3110877203
 40
0.3733732596
 40
0.4356985303
 40
0.4980730412
 40
0.5605091765
 40
0.623019411
 40
0.6856131146
 40
0.7482974405
 40
0.8110781591
 40
0.8739572018
 40
0.936932444
 40
1.0
 40
1.0
 40
1.0
 40
1.0
 10
5.2347590995
 20
4.8793177715
 30
0.0
 10
5.2354946286
 20
4.8716895076
 30
0.0
 10
5.2365725317
 20
4.8563922082
 30
0.0
 10
5.2370142851
 20
4.8333948472
 30
0.0
 10
5.2362873274
 20
4.8104006479
 30
0.0
 10
5.2343977665
 20
4.7874661563
 30
0.0
 10
5.2313517596
 20
4.7646469063
 30
0.0
 10
5.2271554243
 20
4.7419986934
 30
0.0
 10
5.2218147386
 20
4.7195773034
 30
0.0
 10
5.2153360438
 20
4.6974383847
 30
0.0
 10
5.2077243415
 20
4.6756388407
 30
0.0
 10
5.1990040164
 20
4.6542296467
 30
0.0
 10
5.1892014419
 20
4.6332602218
 30
0.0
 10
5.1783426391
 20
4.6127800746
 30
0.0
 10
5.1664529716
 20
4.5928398548
 30
0.0
 10
5.1535654677
 20
4.573486431
 30
0.0
 10
5.1397165232
 20
4.5547657765
 30
0.0
 10
5.1298722105
 20
4.5427449687
 30
0.0
 10
5.1248025509
 20
4.5368558363
 30
0.0
  0
LINE
  5
3CA
100
AcDbEntity
  8
0
100
AcDbLine
 62
7
  6
CONTINUOUS
 10
5.1247996208
 20
4.5368578582
 11
5.1198304816
 21
4.9171084545
  0
SPLINE
  5
3CB
100
AcDbEntity
  8
0
100
AcDbSpline
 62
7
  6
CONTINUOUS
 70
0
 71
3
 72
9
 73
5
 74
0
 42
0.0000001
 43
0.0000001
 44
0.0000000001
 40
0.0
 40
0.0
 40
0.0
 40
0.0
 40
0.4948530325
 40
1.0
 40
1.0
 40
1.0
 40
1.0
 10
5.2077841477
 20
2.9032247811
 30
0.0
 10
5.2007331093
 20
2.9010498594
 30
0.0
 10
5.1863771412
 20
2.8969972724
 30
0.0
 10
5.1718652665
 20
2.8935516212
 30
0.0
 10
5.1645060937
 20
2.8919457588
 30
0.0
  0
LINE
  5
3CC
100
AcDbEntity
  8
0
100
AcDbLine
 62
7
  6
CONTINUOUS
 10
5.0342161161
 20
5.6048180951
 11
4.9235248447
 21
5.6047781307
  0
SPLINE
  5
3CD
100
AcDbEntity
  8
0
100
AcDbSpline
 62
7
  6
CONTINUOUS
 70
0
 71
3
 72
15
 73
11
 74
0
 42
0.0000001
 43
0.0000001
 44
0.0000000001
 40
0.0
 40
0.0
 40
0.0
 40
0.0
 40
0.1467561872
 40
0.2863088096
 40
0.4188875884
 40
0.5449663424
 40
0.6652128376
 40
0.7804707682
 40
0.8917198928
 40
1.0
 40
1.0
 40
1.0
 40
1.0
 10
5.0342161161
 20
5.6048180951
 30
0.0
 10
5.0323192636
 20
5.6070124007
 30
0.0
 10
5.0285136017
 20
5.6112044109
 30
0.0
 10
5.0226035984
 20
5.6170092291
 30
0.0
 10
5.0166370226
 20
5.622151288
 30
0.0
 10
5.0106169533
 20
5.6266178561
 30
0.0
 10
5.004547079
 20
5.6304055813
 30
0.0
 10
4.9984318971
 20
5.6335200187
 30
0.0
 10
4.992277024
 20
5.6359737748
 30
0.0
 10
4.988105356
 20
5.6371943799
 30
0.0
 10
4.9860248447
 20
5.6376957588
 30
0.0
  0
SPLINE
  5
3CE
100
AcDbEntity
  8
0
100
AcDbSpline
 62
7
  6
CONTINUOUS
 70
0
 71
3
 72
14
 73
10
 74
0
 42
0.0000001
 43
0.0000001
 44
0.0000000001
 40
0.0
 40
0.0
 40
0.0
 40
0.0
 40
0.2499486997
 40
0.3749393888
 40
0.4999317441
 40
0.6249314314
 40
0.7499411936
 40
0.874961789
 40
1.0
 40
1.0
 40
1.0
 40
1.0
 10
5.1520704103
 20
5.6045856454
 30
0.0
 10
5.1453103931
 20
5.6081569764
 30
0.0
 10
5.134990072
 20
5.6131861033
 30
0.0
 10
5.1209020245
 20
5.6191396073
 30
0.0
 10
5.1101752808
 20
5.6232094379
 30
0.0
 10
5.0992992565
 20
5.6268633066
 30
0.0
 10
5.0882856403
 20
5.6300827947
 30
0.0
 10
5.0771493079
 20
5.6328525902
 30
0.0
 10
5.0696541371
 20
5.6343908337
 30
0.0
 10
5.0658923137
 20
5.6350812559
 30
0.0
  0
LINE
  5
3CF
100
AcDbEntity
  8
0
100
AcDbLine
 62
7
  6
CONTINUOUS
 10
5.1520704103
 20
5.6045856454
 11
5.0408792598
 21
5.6046809603
  0
SPLINE
  5
3D0
100
AcDbEntity
  8
0
100
AcDbSpline
 62
7
  6
CONTINUOUS
 70
0
 71
3
 72
15
 73
11
 74
0
 42
0.0000001
 43
0.0000001
 44
0.0000000001
 40
0.0
 40
0.0
 40
0.0
 40
0.0
 40
0.1456346991
 40
0.2853952316
 40
0.4191249977
 40
0.5467943243
 40
0.6684745616
 40
0.7843560058
 40
0.8947432029
 40
1.0
 40
1.0
 40
1.0
 40
1.0
 10
5.0405711053
 20
5.6049694999
 30
0.0
 10
5.0383332459
 20
5.6071517102
 30
0.0
 10
5.0338425945
 20
5.6113222586
 30
0.0
 10
5.0269243049
 20
5.6170790832
 30
0.0
 10
5.0199865966
 20
5.6221873693
 30
0.0
 10
5.0130615811
 20
5.6266307715
 30
0.0
 10
5.0061823929
 20
5.6304026954
 30
0.0
 10
4.9993821598
 20
5.6335065839
 30
0.0
 10
4.9926934064
 20
5.6359540511
 30
0.0
 10
4.9882262715
 20
5.6371885956
 30
0.0
 10
4.9860248447
 20
5.6376957588
 30
0.0
  0
SPLINE
  5
3D1
100
AcDbEntity
  8
0
100
AcDbSpline
 62
7
  6
CONTINUOUS
 70
0
 71
3
 72
18
 73
14
 74
0
 42
0.0000001
 43
0.0000001
 44
0.0000000001
 40
0.0
 40
0.0
 40
0.0
 40
0.0
 40
0.1291095956
 40
0.1935405078
 40
0.2578190877
 40
0.3857255991
 40
0.5124369827
 40
0.6375694402
 40
0.6994302522
 40
0.7607607766
 40
0.8816652294
 40
0.9411735738
 40
1.0
 40
1.0
 40
1.0
 40
1.0
 10
4.9235248447
 20
2.8709476395
 30
0.0
 10
4.9130961152
 20
2.8709470466
 30
0.0
 10
4.8974625213
 20
2.8710825387
 30
0.0
 10
4.8766423568
 20
2.871548127
 30
0.0
 10
4.8559245529
 20
2.8722047615
 30
0.0
 10
4.8301911579
 20
2.8733861676
 30
0.0
 10
4.7995841272
 20
2.8754501272
 30
0.0
 10
4.7743478841
 20
2.877767623
 30
0.0
 10
4.7544161883
 20
2.8800229277
 30
0.0
 10
4.7348602039
 20
2.8825388491
 30
0.0
 10
4.7155558526
 20
2.8855104351
 30
0.0
 10
4.6965493421
 20
2.8890066656
 30
0.0
 10
4.6871863014
 20
2.8909340491
 30
0.0
 10
4.6825435958
 20
2.8919457588
 30
0.0
  0
SPLINE
  5
3D2
100
AcDbEntity
  8
0
100
AcDbSpline
 62
7
  6
CONTINUOUS
 70
0
 71
3
 72
15
 73
11
 74
0
 42
0.0000001
 43
0.0000001
 44
0.0000000001
 40
0.0
 40
0.0
 40
0.0
 40
0.0
 40
0.1250459742
 40
0.2500764555
 40
0.3750842098
 40
0.5000789521
 40
0.6250629592
 40
0.7500401022
 40
0.875021964
 40
1.0
 40
1.0
 40
1.0
 40
1.0
 10
4.798524845
 20
5.6376957589
 30
0.0
 10
4.7939990794
 20
5.6371626753
 30
0.0
 10
4.7849732358
 20
5.6358692057
 30
0.0
 10
4.7715507092
 20
5.633255917
 30
0.0
 10
4.7582751418
 20
5.6299838327
 30
0.0
 10
4.74517529
 20
5.6260742111
 30
0.0
 10
4.7322749539
 20
5.6215539034
 30
0.0
 10
4.7195931076
 20
5.616454836
 30
0.0
 10
4.7071443797
 20
5.6108125125
 30
0.0
 10
4.6990064111
 20
5.6067131873
 30
0.0
 10
4.6949792841
 20
5.6045856485
 30
0.0
  0
SPLINE
  5
3D3
100
AcDbEntity
  8
0
100
AcDbSpline
 62
7
  6
CONTINUOUS
 70
0
 71
3
 72
36
 73
32
 74
0
 42
0.0000001
 43
0.0000001
 44
0.0000000001
 40
0.0
 40
0.0
 40
0.0
 40
0.0
 40
0.0972201589
 40
0.1905960118
 40
0.2798359834
 40
0.3646662194
 40
0.4053488581
 40
0.4448347194
 40
0.4830946826
 40
0.5201010711
 40
0.555827549
 40
0.5902495267
 40
0.623343905
 40
0.6550891843
 40
0.685472268
 40
0.714498728
 40
0.7421807645
 40
0.7685358703
 40
0.7935870363
 40
0.8173642642
 40
0.8399060705
 40
0.8612604639
 40
0.8814869449
 40
0.9006588696
 40
0.9188658654
 40
0.9276429051
 40
0.936221304
 40
0.9528463651
 40
0.9688990864
 40
0.9845535392
 40
1.0
 40
1.0
 40
1.0
 40
1.0
 10
5.0688035346
 20
5.1191971932
 30
0.0
 10
5.0741537834
 20
5.1184177886
 30
0.0
 10
5.0846259033
 20
5.1167710289
 30
0.0
 10
5.0999376643
 20
5.1139794169
 30
0.0
 10
5.1144970889
 20
5.1109302355
 30
0.0
 10
5.1261140306
 20
5.1081496037
 30
0.0
 10
5.1349843184
 20
5.1057989673
 30
0.0
 10
5.1413217385
 20
5.1040047012
 30
0.0
 10
5.1474302033
 20
5.1021559549
 30
0.0
 10
5.1533029946
 20
5.1002540658
 30
0.0
 10
5.1589333779
 20
5.0983004503
 30
0.0
 10
5.1643145557
 20
5.0962965456
 30
0.0
 10
5.1694396301
 20
5.0942438803
 30
0.0
 10
5.1743018656
 20
5.0921439274
 30
0.0
 10
5.1788954608
 20
5.089997813
 30
0.0
 10
5.1832168081
 20
5.0878084046
 30
0.0
 10
5.1872632682
 20
5.0855780004
 30
0.0
 10
5.1910326119
 20
5.0833091314
 30
0.0
 10
5.1945228201
 20
5.0810043518
 30
0.0
 10
5.1977318225
 20
5.0786658504
 30
0.0
 10
5.2006574842
 20
5.076295531
 30
0.0
 10
5.2032976824
 20
5.073895243
 30
0.0
 10
5.2056501808
 20
5.0714665914
 30
0.0
 10
5.2077125312
 20
5.0690113385
 30
0.0
 10
5.2092051409
 20
5.0669189961
 30
0.0
 10
5.210244353
 20
5.0652355475
 30
0.0
 10
5.2111621459
 20
5.0635829949
 30
0.0
 10
5.2121311768
 20
5.061498698
 30
0.0
 10
5.2130031754
 20
5.0589505028
 30
0.0
 10
5.2135683764
 20
5.0563840357
 30
0.0
 10
5.2137384512
 20
5.0546578623
 30
0.0
 10
5.213770736
 20
5.0537994426
 30
0.0
  0
SPLINE
  5
3D4
100
AcDbEntity
  8
0
100
AcDbSpline
 62
7
  6
CONTINUOUS
 70
0
 71
3
 72
35
 73
31
 74
0
 42
0.0000001
 43
0.0000001
 44
0.0000000001
 40
0.0
 40
0.0
 40
0.0
 40
0.0
 40
0.2003957687
 40
0.29363818
 40
0.3818570226
 40
0.4647986095
 40
0.5422292655
 40
0.5788116763
 40
0.6139388963
 40
0.6475880146
 40
0.6797384884
 40
0.7103716427
 40
0.7394722622
 40
0.7670281126
 40
0.7930320262
 40
0.8174822221
 40
0.8403853322
 40
0.8617576942
 40
0.8816300817
 40
0.9000510505
 40
0.9170954066
 40
0.9328708797
 40
0.9475289382
 40
0.961273421
 40
0.9678885016
 40
0.974380712
 40
0.980792387
 40
0.9871684099
 40
0.9935552586
 40
1.0
 40
1.0
 40
1.0
 40
1.0
 10
4.5975267955
 20
2.8919457588
 30
0.0
 10
4.5813287872
 20
2.8880899653
 30
0.0
 10
4.5573964931
 20
2.8832323612
 30
0.0
 10
4.5260467691
 20
2.8783326197
 30
0.0
 10
4.5042529383
 20
2.8755411629
 30
0.0
 10
4.4837011475
 20
2.8734564647
 30
0.0
 10
4.4673803108
 20
2.8722303483
 30
0.0
 10
4.4550063534
 20
2.8715581989
 30
0.0
 10
4.4462589523
 20
2.8712075166
 30
0.0
 10
4.4378754087
 20
2.8709964852
 30
0.0
 10
4.4298628945
 20
2.8709242556
 30
0.0
 10
4.4222282061
 20
2.8709897933
 30
0.0
 10
4.414977796
 20
2.8711940102
 30
0.0
 10
4.408117636
 20
2.8715376269
 30
0.0
 10
4.4016534288
 20
2.8720245348
 30
0.0
 10
4.3955903531
 20
2.872658656
 30
0.0
 10
4.3899332918
 20
2.8734461827
 30
0.0
 10
4.3846864603
 20
2.8743935128
 30
0.0
 10
4.3798537059
 20
2.8755089947
 30
0.0
 10
4.3754379452
 20
2.8768014609
 30
0.0
 10
4.3714418752
 20
2.8782825185
 30
0.0
 10
4.3678675741
 20
2.8799654297
 30
0.0
 10
4.3647177683
 20
2.8818644283
 30
0.0
 10
4.3624197256
 20
2.8836641737
 30
0.0
 10
4.3608183811
 20
2.8852201878
 30
0.0
 10
4.3597410049
 20
2.8864345479
 30
0.0
 10
4.3587726269
 20
2.8877127053
 30
0.0
 10
4.3579133681
 20
2.8890563606
 30
0.0
 10
4.3571634002
 20
2.8904669541
 30
0.0
 10
4.3567391371
 20
2.891446493
 30
0.0
 10
4.3565455465
 20
2.8919457588
 30
0.0
  0
SPLINE
  5
3D5
100
AcDbEntity
  8
0
100
AcDbSpline
 62
7
  6
CONTINUOUS
 70
0
 71
3
 72
9
 73
5
 74
0
 42
0.0000001
 43
0.0000001
 44
0.0000000001
 40
0.0
 40
0.0
 40
0.0
 40
0.0
 40
0.5051469784
 40
1.0
 40
1.0
 40
1.0
 40
1.0
 10
4.6825435958
 20
2.8919457588
 30
0.0
 10
4.6751844293
 20
2.8935516332
 30
0.0
 10
4.6606725787
 20
2.8969973367
 30
0.0
 10
4.6463165579
 20
2.9010497099
 30
0.0
 10
4.6392655201
 20
2.90322462
 30
0.0
  0
SPLINE
  5
3D6
100
AcDbEntity
  8
0
100
AcDbSpline
 62
7
  6
CONTINUOUS
 70
0
 71
3
 72
15
 73
11
 74
0
 42
0.0000001
 43
0.0000001
 44
0.0000000001
 40
0.0
 40
0.0
 40
0.0
 40
0.0
 40
0.1456347119
 40
0.2853952179
 40
0.4191249618
 40
0.5467943119
 40
0.6684745672
 40
0.7843560196
 40
0.894743209
 40
1.0
 40
1.0
 40
1.0
 40
1.0
 10
4.8064785825
 20
5.6049694989
 30
0.0
 10
4.8087164412
 20
5.6071517105
 30
0.0
 10
4.8132070939
 20
5.6113222574
 30
0.0
 10
4.8201253828
 20
5.6170790819
 30
0.0
 10
4.8270630898
 20
5.6221873694
 30
0.0
 10
4.8339881064
 20
5.6266307711
 30
0.0
 10
4.840867296
 20
5.6304026951
 30
0.0
 10
4.8476675296
 20
5.633506584
 30
0.0
 10
4.8543562833
 20
5.6359540509
 30
0.0
 10
4.8588234181
 20
5.6371885951
 30
0.0
 10
4.8610248447
 20
5.6376957588
 30
0.0
  0
LINE
  5
3D7
100
AcDbEntity
  8
0
100
AcDbLine
 62
7
  6
CONTINUOUS
 10
4.8061545557
 20
5.6046663741
 11
4.8064785825
 21
5.6049694989
  0
LINE
  5
3D8
100
AcDbEntity
  8
0
100
AcDbLine
 62
7
  6
CONTINUOUS
 10
4.8061545557
 20
5.6046663741
 11
4.6949792841
 21
5.6045856485
  0
LINE
  5
3D9
100
AcDbEntity
  8
0
100
AcDbLine
 62
7
  6
CONTINUOUS
 10
4.9235248447
 20
5.6047781307
 11
4.8128335667
 21
5.604818089
  0
SPLINE
  5
3DA
100
AcDbEntity
  8
0
100
AcDbSpline
 62
7
  6
CONTINUOUS
 70
0
 71
3
 72
15
 73
11
 74
0
 42
0.0000001
 43
0.0000001
 44
0.0000000001
 40
0.0
 40
0.0
 40
0.0
 40
0.0
 40
0.1467561759
 40
0.286308793
 40
0.4188876012
 40
0.5449663625
 40
0.6652128618
 40
0.7804707853
 40
0.8917198943
 40
1.0
 40
1.0
 40
1.0
 40
1.0
 10
4.8128335667
 20
5.604818089
 30
0.0
 10
4.8147304192
 20
5.607012395
 30
0.0
 10
4.8185360796
 20
5.6112044073
 30
0.0
 10
4.8244460848
 20
5.6170092259
 30
0.0
 10
4.8304126634
 20
5.6221512844
 30
0.0
 10
4.8364327338
 20
5.6266178543
 30
0.0
 10
4.8425026093
 20
5.63040558
 30
0.0
 10
4.8486177914
 20
5.6335200185
 30
0.0
 10
4.8547726652
 20
5.6359737746
 30
0.0
 10
4.8589443336
 20
5.6371943793
 30
0.0
 10
4.8610248451
 20
5.6376957589
 30
0.0
  0
LINE
  5
3DB
100
AcDbEntity
  8
0
100
AcDbLine
 62
7
  6
CONTINUOUS
 10
4.7272192077
 20
4.9171084798
 11
4.7222500687
 21
4.5368578583
  0
SPLINE
  5
3DC
100
AcDbEntity
  8
0
100
AcDbSpline
 62
7
  6
CONTINUOUS
 70
0
 71
3
 72
24
 73
20
 74
0
 42
0.0000001
 43
0.0000001
 44
0.0000000001
 40
0.0
 40
0.0
 40
0.0
 40
0.0
 40
0.0622040151
 40
0.1244052505
 40
0.1866153042
 40
0.2488429951
 40
0.3110955379
 40
0.3733797194
 40
0.4357030716
 40
0.4980750424
 40
0.5292856497
 40
0.5605132597
 40
0.6230202905
 40
0.6856112334
 40
0.7482935579
 40
0.8110732811
 40
0.8739526332
 40
0.9369295267
 40
1.0
 40
1.0
 40
1.0
 40
1.0
 10
4.6127766778
 20
4.8840900404
 30
0.0
 10
4.6119483723
 20
4.876370608
 30
0.0
 10
4.6106955763
 20
4.8608857406
 30
0.0
 10
4.61002355
 20
4.8375939415
 30
0.0
 10
4.6105520673
 20
4.8142949487
 30
0.0
 10
4.6122747814
 20
4.79104754
 30
0.0
 10
4.6151852697
 20
4.7679094686
 30
0.0
 10
4.6192772104
 20
4.7449386415
 30
0.0
 10
4.6245442235
 20
4.7221933971
 30
0.0
 10
4.6299064564
 20
4.7034782424
 30
0.0
 10
4.6347764288
 20
4.6886797745
 30
0.0
 10
4.6400337932
 20
4.6739965625
 30
0.0
 10
4.6473196213
 20
4.6558867291
 30
0.0
 10
4.6571723239
 20
4.6346103499
 30
0.0
 10
4.6681107651
 20
4.6138324599
 30
0.0
 10
4.6801085594
 20
4.5936060817
 30
0.0
 10
4.6931318752
 20
4.5739801053
 30
0.0
 10
4.7071427763
 20
4.555002286
 30
0.0
 10
4.7171114452
 20
4.5428216805
 30
0.0
 10
4.7222471396
 20
4.5368558393
 30
0.0
  0
SPLINE
  5
3DD
100
AcDbEntity
  8
0
100
AcDbSpline
 62
7
  6
CONTINUOUS
 70
0
 71
3
 72
59
 73
55
 74
0
 42
0.0000001
 43
0.0000001
 44
0.0000000001
 40
0.0
 40
0.0
 40
0.0
 40
0.0
 40
0.054322757
 40
0.1073685721
 40
0.1592575128
 40
0.1848068655
 40
0.2101119025
 40
0.2600379582
 40
0.2846832023
 40
0.3091326769
 40
0.3333983883
 40
0.3574912704
 40
0.3814208958
 40
0.405196766
 40
0.4522760463
 40
0.475547116
 40
0.4986108817
 40
0.5439655888
 40
0.5880173897
 40
0.6094441845
 40
0.630409342
 40
0.6508625236
 40
0.6707537824
 40
0.7086856926
 40
0.7266582563
 40
0.7439443165
 40
0.7605327858
 40
0.776417715
 40
0.8060729905
 40
0.8329984326
 40
0.8573862502
 40
0.8687017289
 40
0.8794648633
 40
0.8896986117
 40
0.8994224525
 40
0.9173854404
 40
0.9334378991
 40
0.9476583198
 40
0.9601122465
 40
0.9656893771
 40
0.9708393178
 40
0.9755661805
 40
0.9798739087
 40
0.9837668288
 40
0.9872498403
 40
0.9903286758
 40
0.9917187103
 40
0.9930104354
 40
0.9953035547
 40
0.9972201008
 40
0.9980421475
 40
0.9987766752
 40
0.9994274934
 40
1.0
 40
1.0
 40
1.0
 40
1.0
 10
5.0688035346
 20
5.1191971932
 30
0.0
 10
5.0689306206
 20
5.1261357655
 30
0.0
 10
5.0692343114
 20
5.1398488798
 30
0.0
 10
5.0698132273
 20
5.1601859114
 30
0.0
 10
5.0703862523
 20
5.1768455118
 30
0.0
 10
5.0708903225
 20
5.1899613084
 30
0.0
 10
5.071417532
 20
5.20282523
 30
0.0
 10
5.0719896739
 20
5.2155716734
 30
0.0
 10
5.0726057772
 20
5.2282065815
 30
0.0
 10
5.0730840137
 20
5.2375661798
 30
0.0
 10
5.0735778754
 20
5.2468543013
 30
0.0
 10
5.0740875892
 20
5.2560750571
 30
0.0
 10
5.0746180423
 20
5.2652319671
 30
0.0
 10
5.0753563403
 20
5.2773182193
 30
0.0
 10
5.0761519159
 20
5.2893166054
 30
0.0
 10
5.0769954079
 20
5.3012204298
 30
0.0
 10
5.0778567324
 20
5.3129020771
 30
0.0
 10
5.078980564
 20
5.3272262679
 30
0.0
 10
5.0801928077
 20
5.3413333728
 30
0.0
 10
5.0811940463
 20
5.3523311007
 30
0.0
 10
5.0819483624
 20
5.3603240725
 30
0.0
 10
5.0827117867
 20
5.3681191023
 30
0.0
 10
5.0837244655
 20
5.3780675213
 30
0.0
 10
5.0847599217
 20
5.3876950204
 30
0.0
 10
5.0858121341
 20
5.3969857366
 30
0.0
 10
5.0865783547
 20
5.4035647469
 30
0.0
 10
5.0873294577
 20
5.4098769987
 30
0.0
 10
5.0882892789
 20
5.4177556981
 30
0.0
 10
5.0894556239
 20
5.4269395298
 30
0.0
 10
5.0908530443
 20
5.4371886084
 30
0.0
 10
5.0920190713
 20
5.4451041917
 30
0.0
 10
5.0929339447
 20
5.4509693829
 30
0.0
 10
5.093591686
 20
5.4550445687
 30
0.0
 10
5.0942361519
 20
5.4589158833
 30
0.0
 10
5.0950540415
 20
5.4636907081
 30
0.0
 10
5.0960395884
 20
5.469190945
 30
0.0
 10
5.0972068232
 20
5.4752417363
 30
0.0
 10
5.0983197361
 20
5.4805856251
 30
0.0
 10
5.0992265414
 20
5.4846050174
 30
0.0
 10
5.0999267076
 20
5.4874824961
 30
0.0
 10
5.1004175033
 20
5.4893948205
 30
0.0
 10
5.1008936571
 20
5.4911432975
 30
0.0
 10
5.1013554188
 20
5.492729022
 30
0.0
 10
5.1018029299
 20
5.4941530909
 30
0.0
 10
5.1022364388
 20
5.4954165547
 30
0.0
 10
5.1025969933
 20
5.4963665466
 30
0.0
 10
5.1028800054
 20
5.497045936
 30
0.0
 10
5.1031383838
 20
5.49762664
 30
0.0
 10
5.1034490679
 20
5.4982574741
 30
0.0
 10
5.1037749028
 20
5.4988127406
 30
0.0
 10
5.1040305965
 20
5.4991756474
 30
0.0
 10
5.1042079864
 20
5.499395196
 30
0.0
 10
5.1043806988
 20
5.499576523
 30
0.0
 10
5.1044999441
 20
5.4996782278
 30
0.0
 10
5.1045588191
 20
5.4997216198
 30
0.0
  0
SPLINE
  5
3DE
100
AcDbEntity
  8
0
100
AcDbSpline
 62
7
  6
CONTINUOUS
 70
0
 71
3
 72
15
 73
11
 74
0
 42
0.0000001
 43
0.0000001
 44
0.0000000001
 40
0.0
 40
0.0
 40
0.0
 40
0.0
 40
0.1466895948
 40
0.2775572349
 40
0.3963170139
 40
0.5079030282
 40
0.6183609193
 40
0.7338703685
 40
0.859741714
 40
1.0
 40
1.0
 40
1.0
 40
1.0
 10
5.1045588191
 20
5.4997216198
 30
0.0
 10
5.1046057443
 20
5.4997562045
 30
0.0
 10
5.1046984245
 20
5.4998167215
 30
0.0
 10
5.1048425042
 20
5.4998821179
 30
0.0
 10
5.1049830595
 20
5.4999160073
 30
0.0
 10
5.1051197608
 20
5.4999174976
 30
0.0
 10
5.1052515405
 20
5.4998862072
 30
0.0
 10
5.1053774735
 20
5.4998229836
 30
0.0
 10
5.1054975776
 20
5.4997291141
 30
0.0
 10
5.1055698186
 20
5.4996513268
 30
0.0
 10
5.1056052946
 20
5.4996083372
 30
0.0
  0
SPLINE
  5
3DF
100
AcDbEntity
  8
0
100
AcDbSpline
 62
7
  6
CONTINUOUS
 70
0
 71
3
 72
32
 73
28
 74
0
 42
0.0000001
 43
0.0000001
 44
0.0000000001
 40
0.0
 40
0.0
 40
0.0
 40
0.0
 40
0.0306731637
 40
0.0613519955
 40
0.0920421178
 40
0.122749026
 40
0.153478045
 40
0.1842342881
 40
0.2150225803
 40
0.2458474239
 40
0.2767129668
 40
0.307622935
 40
0.3385806139
 40
0.3695888275
 40
0.4006498851
 40
0.4317655811
 40
0.4629371866
 40
0.4941654122
 40
0.5254504282
 40
0.5567918676
 40
0.619621299
 40
0.6826588363
 40
0.7458830705
 40
0.8092656489
 40
0.8727724681
 40
0.9363639476
 40
1.0
 40
1.0
 40
1.0
 40
1.0
 10
5.1685248447
 20
6.2264852996
 30
0.0
 10
5.1685248447
 20
6.2226225932
 30
0.0
 10
5.1683279586
 20
6.214895021
 30
0.0
 10
5.1674428152
 20
6.2033331203
 30
0.0
 10
5.1659699741
 20
6.1918267115
 30
0.0
 10
5.1639128988
 20
6.1804039404
 30
0.0
 10
5.1612766633
 20
6.1690922163
 30
0.0
 10
5.1580675981
 20
6.1579188318
 30
0.0
 10
5.1542933751
 20
6.1469107334
 30
0.0
 10
5.1499632075
 20
6.1360944154
 30
0.0
 10
5.1450874942
 20
6.1254959543
 30
0.0
 10
5.1396779484
 20
6.1151409151
 30
0.0
 10
5.1337477148
 20
6.1050541944
 30
0.0
 10
5.127311037
 20
6.0952601207
 30
0.0
 10
5.1203834099
 20
6.0857823081
 30
0.0
 10
5.1129816253
 20
6.0766435257
 30
0.0
 10
5.1051234415
 20
6.0678658162
 30
0.0
 10
5.0968278785
 20
6.05947038
 30
0.0
 10
5.0881146917
 20
6.0514771704
 30
0.0
 10
5.0759608552
 20
6.0413752191
 30
0.0
 10
5.0598246001
 20
6.0298467041
 30
0.0
 10
5.0391713342
 20
6.0179222826
 30
0.0
 10
5.0174050084
 20
6.0080053819
 30
0.0
 10
4.994736392
 20
6.000192092
 30
0.0
 10
4.971382553
 20
5.9945571366
 30
0.0
 10
4.947570867
 20
5.9911543264
 30
0.0
 10
4.9315386052
 20
5.9903958386
 30
0.0
 10
4.9235248447
 20
5.9903958386
 30
0.0
  0
SPLINE
  5
3E0
100
AcDbEntity
  8
0
100
AcDbSpline
 62
7
  6
CONTINUOUS
 70
0
 71
3
 72
39
 73
35
 74
0
 42
0.0000001
 43
0.0000001
 44
0.0000000001
 40
0.0
 40
0.0
 40
0.0
 40
0.0
 40
0.0221522269
 40
0.033463315
 40
0.0449381552
 40
0.0683947535
 40
0.0925528559
 40
0.1174330886
 40
0.1430501464
 40
0.1694147781
 40
0.1965337289
 40
0.2244072887
 40
0.2530158441
 40
0.2823302991
 40
0.3123188305
 40
0.3429458653
 40
0.3741725564
 40
0.4059594033
 40
0.4382660976
 40
0.4710541554
 40
0.5042854272
 40
0.5379247022
 40
0.5719374345
 40
0.6062931349
 40
0.6409618919
 40
0.7111360038
 40
0.746595952
 40
0.7822754227
 40
0.818153838
 40
0.8542161111
 40
0.8904489626
 40
0.9268374528
 40
0.9633617013
 40
1.0
 40
1.0
 40
1.0
 40
1.0
 10
5.2133250947
 20
5.1491189623
 30
0.0
 10
5.215725683
 20
5.1470681843
 30
0.0
 10
5.219266014
 20
5.1438676481
 30
0.0
 10
5.2238404107
 20
5.1393838465
 30
0.0
 10
5.2284222676
 20
5.134645159
 30
0.0
 10
5.2340347822
 20
5.1283606517
 30
0.0
 10
5.2405283478
 20
5.1203185712
 30
0.0
 10
5.2468181
 20
5.1117315123
 30
0.0
 10
5.2528926955
 20
5.1026109364
 30
0.0
 10
5.2587406653
 20
5.0929685014
 30
0.0
 10
5.2643502146
 20
5.0828165934
 30
0.0
 10
5.2697072803
 20
5.0721702197
 30
0.0
 10
5.2748095023
 20
5.0610545024
 30
0.0
 10
5.2796548781
 20
5.0494971628
 30
0.0
 10
5.2842418635
 20
5.0375265168
 30
0.0
 10
5.2885713553
 20
5.025171419
 30
0.0
 10
5.2926457396
 20
5.012460649
 30
0.0
 10
5.296469187
 20
4.9994226725
 30
0.0
 10
5.3000466204
 20
4.9860846814
 30
0.0
 10
5.3033840263
 20
4.9724726943
 30
0.0
 10
5.3064878393
 20
4.9586109746
 30
0.0
 10
5.3093650911
 20
4.9445223688
 30
0.0
 10
5.3120231548
 20
4.9302278291
 30
0.0
 10
5.314469219
 20
4.9157467071
 30
0.0
 10
5.3174701269
 20
4.8961347675
 30
0.0
 10
5.3200589264
 20
4.8763029687
 30
0.0
 10
5.3222748491
 20
4.8562838631
 30
0.0
 10
5.3237654676
 20
4.8411035131
 30
0.0
 10
5.3250866502
 20
4.825821393
 30
0.0
 10
5.3262422521
 20
4.8104467712
 30
0.0
 10
5.3272356144
 20
4.7949879848
 30
0.0
 10
5.3280707519
 20
4.7794539374
 30
0.0
 10
5.3287614895
 20
4.7638550168
 30
0.0
 10
5.3291340934
 20
4.7534338899
 30
0.0
 10
5.3293009177
 20
4.7482146002
 30
0.0
  0
SPLINE
  5
3E1
100
AcDbEntity
  8
0
100
AcDbSpline
 62
7
  6
CONTINUOUS
 70
0
 71
3
 72
10
 73
6
 74
0
 42
0.0000001
 43
0.0000001
 44
0.0000000001
 40
0.0
 40
0.0
 40
0.0
 40
0.0
 40
0.499999011
 40
0.7499995986
 40
1.0
 40
1.0
 40
1.0
 40
1.0
 10
5.3293009177
 20
4.7482146002
 30
0.0
 10
5.3363971455
 20
4.8149545412
 30
0.0
 10
5.3465714392
 20
4.9151163547
 30
0.0
 10
5.3588303363
 20
5.0487888068
 30
0.0
 10
5.3644626568
 20
5.1156693317
 30
0.0
 10
5.3671394853
 20
5.1491205904
 30
0.0
  0
LINE
  5
3E2
100
AcDbEntity
  8
0
100
AcDbLine
 62
7
  6
CONTINUOUS
 10
4.7461466248
 20
4.9086788608
 11
4.7396205237
 21
4.5282708274
  0
SPLINE
  5
3E3
100
AcDbEntity
  8
0
100
AcDbSpline
 62
7
  6
CONTINUOUS
 70
0
 71
3
 72
9
 73
5
 74
0
 42
0.0000001
 43
0.0000001
 44
0.0000000001
 40
0.0
 40
0.0
 40
0.0
 40
0.0
 40
0.5055519167
 40
1.0
 40
1.0
 40
1.0
 40
1.0
 10
5.1493965631
 20
4.9476483427
 30
0.0
 10
5.1496408044
 20
4.9484242601
 30
0.0
 10
5.1500156758
 20
4.9499959035
 30
0.0
 10
5.1501436198
 20
4.9516073707
 30
0.0
 10
5.1501436425
 20
4.9524029546
 30
0.0
  0
SPLINE
  5
3E4
100
AcDbEntity
  8
0
100
AcDbSpline
 62
7
  6
CONTINUOUS
 70
0
 71
3
 72
14
 73
10
 74
0
 42
0.0000001
 43
0.0000001
 44
0.0000000001
 40
0.0
 40
0.0
 40
0.0
 40
0.0
 40
0.1241724906
 40
0.2485362127
 40
0.3731176058
 40
0.4979601317
 40
0.6230796611
 40
0.7484812245
 40
1.0
 40
1.0
 40
1.0
 40
1.0
 10
4.9920496457
 20
5.7282317198
 30
0.0
 10
4.993873758
 20
5.730537361
 30
0.0
 10
4.9973551493
 20
5.7352885623
 30
0.0
 10
5.0021011797
 20
5.7427457395
 30
0.0
 10
5.0064045521
 20
5.7504845144
 30
0.0
 10
5.0102877295
 20
5.7584613654
 30
0.0
 10
5.0137666119
 20
5.766643728
 30
0.0
 10
5.0178805857
 20
5.7777989365
 30
0.0
 10
5.0203751259
 20
5.7863849412
 30
0.0
 10
5.0217740142
 20
5.7921733702
 30
0.0
  0
SPLINE
  5
3E5
100
AcDbEntity
  8
0
100
AcDbSpline
 62
7
  6
CONTINUOUS
 70
0
 71
3
 72
14
 73
10
 74
0
 42
0.0000001
 43
0.0000001
 44
0.0000000001
 40
0.0
 40
0.0
 40
0.0
 40
0.0
 40
0.2514722184
 40
0.3768533906
 40
0.5019595941
 40
0.6267986697
 40
0.7513907521
 40
0.8757821751
 40
1.0
 40
1.0
 40
1.0
 40
1.0
 10
4.826094961
 20
5.7914342568
 30
0.0
 10
4.827513861
 20
5.7857083491
 30
0.0
 10
4.8300357554
 20
5.7772178215
 30
0.0
 10
4.8341775063
 20
5.7661918952
 30
0.0
 10
4.8376717625
 20
5.7581062454
 30
0.0
 10
4.8415636302
 20
5.750224935
 30
0.0
 10
4.8458670639
 20
5.7425788813
 30
0.0
 10
4.8506027786
 20
5.7352096384
 30
0.0
 10
4.8540684878
 20
5.7305124257
 30
0.0
 10
4.8558821497
 20
5.7282317198
 30
0.0
  0
LINE
  5
3E6
100
AcDbEntity
  8
0
100
AcDbLine
 62
7
  6
CONTINUOUS
 10
5.1074291657
 20
4.5282708274
 11
5.1009030777
 21
4.9086786677
  0
SPLINE
  5
3E7
100
AcDbEntity
  8
0
100
AcDbSpline
 62
7
  6
CONTINUOUS
 70
0
 71
3
 72
32
 73
28
 74
0
 42
0.0000001
 43
0.0000001
 44
0.0000000001
 40
0.0
 40
0.0
 40
0.0
 40
0.0
 40
0.0306731637
 40
0.0613519955
 40
0.0920421178
 40
0.122749026
 40
0.153478045
 40
0.1842342881
 40
0.2150225803
 40
0.2458474239
 40
0.2767129668
 40
0.307622935
 40
0.3385806139
 40
0.3695888275
 40
0.4006498851
 40
0.4317655811
 40
0.4629371866
 40
0.4941654122
 40
0.5254504282
 40
0.5567918676
 40
0.619621299
 40
0.6826588363
 40
0.7458830705
 40
0.8092656489
 40
0.8727724681
 40
0.9363639476
 40
1.0
 40
1.0
 40
1.0
 40
1.0
 10
5.1685248447
 20
6.2358386428
 30
0.0
 10
5.1685248447
 20
6.2319759364
 30
0.0
 10
5.1683279586
 20
6.2242483641
 30
0.0
 10
5.1674428152
 20
6.2126864635
 30
0.0
 10
5.1659699741
 20
6.2011800547
 30
0.0
 10
5.1639128988
 20
6.1897572836
 30
0.0
 10
5.1612766633
 20
6.1784455595
 30
0.0
 10
5.1580675981
 20
6.167272175
 30
0.0
 10
5.1542933751
 20
6.1562640765
 30
0.0
 10
5.1499632075
 20
6.1454477586
 30
0.0
 10
5.1450874942
 20
6.1348492975
 30
0.0
 10
5.1396779484
 20
6.1244942583
 30
0.0
 10
5.1337477148
 20
6.1144075376
 30
0.0
 10
5.127311037
 20
6.1046134639
 30
0.0
 10
5.1203834099
 20
6.0951356512
 30
0.0
 10
5.1129816253
 20
6.0859968688
 30
0.0
 10
5.1051234415
 20
6.0772191593
 30
0.0
 10
5.0968278785
 20
6.0688237231
 30
0.0
 10
5.0881146917
 20
6.0608305136
 30
0.0
 10
5.0759608552
 20
6.0507285623
 30
0.0
 10
5.0598246001
 20
6.0392000472
 30
0.0
 10
5.0391713342
 20
6.0272756258
 30
0.0
 10
5.0174050084
 20
6.017358725
 30
0.0
 10
4.994736392
 20
6.0095454351
 30
0.0
 10
4.971382553
 20
6.0039104797
 30
0.0
 10
4.947570867
 20
6.0005076696
 30
0.0
 10
4.9315386052
 20
5.9997491818
 30
0.0
 10
4.9235248447
 20
5.9997491818
 30
0.0
  0
LINE
  5
3E8
100
AcDbEntity
  8
0
100
AcDbLine
 62
7
  6
CONTINUOUS
 10
4.8097872345
 20
5.5859289039
 11
4.8098137969
 21
5.5862527693
  0
SPLINE
  5
3E9
100
AcDbEntity
  8
0
100
AcDbSpline
 62
7
  6
CONTINUOUS
 70
0
 71
3
 72
12
 73
8
 74
0
 42
0.0000001
 43
0.0000001
 44
0.0000000001
 40
0.0
 40
0.0
 40
0.0
 40
0.0
 40
0.2500002117
 40
0.375000596
 40
0.5000007376
 40
0.7500005374
 40
1.0
 40
1.0
 40
1.0
 40
1.0
 10
4.9235248447
 20
5.5877576956
 30
0.0
 10
4.9140478803
 20
5.5877576714
 30
0.0
 10
4.8998323562
 20
5.5877014936
 30
0.0
 10
4.8808792214
 20
5.5875242812
 30
0.0
 10
4.8619267886
 20
5.5872837832
 30
0.0
 10
4.8382377846
 20
5.5868775759
 30
0.0
 10
4.8192882575
 20
5.58646936
 30
0.0
 10
4.8098137969
 20
5.5862527693
 30
0.0
  0
SPLINE
  5
3EA
100
AcDbEntity
  8
0
100
AcDbSpline
 62
7
  6
CONTINUOUS
 70
0
 71
3
 72
12
 73
8
 74
0
 42
0.0000001
 43
0.0000001
 44
0.0000000001
 40
0.0
 40
0.0
 40
0.0
 40
0.0
 40
0.2499994626
 40
0.4999992624
 40
0.624999404
 40
0.7499997884
 40
1.0
 40
1.0
 40
1.0
 40
1.0
 10
5.0372358925
 20
5.5862527702
 30
0.0
 10
5.027761432
 20
5.5864693644
 30
0.0
 10
5.0088119048
 20
5.5868775778
 30
0.0
 10
4.9851229007
 20
5.5872837783
 30
0.0
 10
4.966170468
 20
5.587524275
 30
0.0
 10
4.9472173332
 20
5.5877014901
 30
0.0
 10
4.9330018091
 20
5.5877576721
 30
0.0
 10
4.9235248447
 20
5.5877576956
 30
0.0
  0
SPLINE
  5
3EB
100
AcDbEntity
  8
0
100
AcDbSpline
 62
7
  6
CONTINUOUS
 70
0
 71
3
 72
22
 73
18
 74
0
 42
0.0000001
 43
0.0000001
 44
0.0000000001
 40
0.0
 40
0.0
 40
0.0
 40
0.0
 40
0.124988142
 40
0.1874889054
 40
0.2499892657
 40
0.3124901191
 40
0.3749910018
 40
0.4374917095
 40
0.49999253
 40
0.5624933565
 40
0.6249941988
 40
0.6874950738
 40
0.7499960995
 40
0.8124968899
 40
0.8749974407
 40
0.9375003465
 40
1.0
 40
1.0
 40
1.0
 40
1.0
 10
5.3210476575
 20
5.2126957546
 30
0.0
 10
5.3105899789
 20
5.2261838706
 30
0.0
 10
5.2954786811
 20
5.2468750055
 30
0.0
 10
5.2766289525
 20
5.2753398166
 30
0.0
 10
5.2631690365
 20
5.2971254791
 30
0.0
 10
5.250419722
 20
5.3193342798
 30
0.0
 10
5.2384108469
 20
5.3419524305
 30
0.0
 10
5.2271705956
 20
5.3649623822
 30
0.0
 10
5.216725519
 20
5.3883442168
 30
0.0
 10
5.2071003504
 20
5.4120754851
 30
0.0
 10
5.1983138416
 20
5.4361299632
 30
0.0
 10
5.1903813961
 20
5.4604795231
 30
0.0
 10
5.1833164104
 20
5.4850947925
 30
0.0
 10
5.1771265598
 20
5.5099444632
 30
0.0
 10
5.1718152182
 20
5.5349968742
 30
0.0
 10
5.167380167
 20
5.5602185736
 30
0.0
 10
5.1650036315
 20
5.5771255389
 30
0.0
 10
5.1639591722
 20
5.5855957924
 30
0.0
  0
SPLINE
  5
3EC
100
AcDbEntity
  8
0
100
AcDbSpline
 62
7
  6
CONTINUOUS
 70
0
 71
3
 72
17
 73
13
 74
0
 42
0.0000001
 43
0.0000001
 44
0.0000000001
 40
0.0
 40
0.0
 40
0.0
 40
0.0
 40
0.1254324581
 40
0.2507631957
 40
0.3133807931
 40
0.3759623919
 40
0.5010155274
 40
0.6259286697
 40
0.688335846
 40
0.7507130726
 40
0.8753939184
 40
1.0
 40
1.0
 40
1.0
 40
1.0
 10
5.1639591722
 20
5.5855957924
 30
0.0
 10
5.1592043211
 20
5.5857853138
 30
0.0
 10
5.1496976674
 20
5.5861445801
 30
0.0
 10
5.1378142605
 20
5.5865128693
 30
0.0
 10
5.1283123899
 20
5.5867400447
 30
0.0
 10
5.1188199515
 20
5.5869152833
 30
0.0
 10
5.106962865
 20
5.5870312235
 30
0.0
 10
5.0951118282
 20
5.5870059576
 30
0.0
 10
5.0856394314
 20
5.5868973735
 30
0.0
 10
5.0761766831
 20
5.5867313921
 30
0.0
 10
5.0643565322
 20
5.5864279856
 30
0.0
 10
5.0549045766
 20
5.5861049105
 30
0.0
 10
5.0501805769
 20
5.5859289479
 30
0.0
  0
SPLINE
  5
3ED
100
AcDbEntity
  8
0
100
AcDbSpline
 62
7
  6
CONTINUOUS
 70
0
 71
3
 72
34
 73
30
 74
0
 42
0.0000001
 43
0.0000001
 44
0.0000000001
 40
0.0
 40
0.0
 40
0.0
 40
0.0
 40
0.1010890747
 40
0.1990615616
 40
0.2938813415
 40
0.3853975084
 40
0.4732795584
 40
0.5157254704
 40
0.5570728135
 40
0.5972118598
 40
0.6359877926
 40
0.7087915153
 40
0.7424827688
 40
0.774154639
 40
0.8036864087
 40
0.8309635811
 40
0.8559023799
 40
0.8785299856
 40
0.8989295257
 40
0.9172146743
 40
0.9334913097
 40
0.9478661214
 40
0.9604604041
 40
0.9713885974
 40
0.9807333699
 40
0.9885703104
 40
0.9949693678
 40
0.9976514325
 40
1.0
 40
1.0
 40
1.0
 40
1.0
 10
5.213770736
 20
5.0537994426
 30
0.0
 10
5.2137628337
 20
5.0622470391
 30
0.0
 10
5.2137246632
 20
5.0788817844
 30
0.0
 10
5.213587403
 20
5.1034399131
 30
0.0
 10
5.2133584793
 20
5.1271973848
 30
0.0
 10
5.2130231907
 20
5.1501103141
 30
0.0
 10
5.2126366893
 20
5.1686450688
 30
0.0
 10
5.21224961
 20
5.182986092
 30
0.0
 10
5.2119207014
 20
5.1933374279
 30
0.0
 10
5.2115485805
 20
5.2033804164
 30
0.0
 10
5.2110132697
 20
5.2160476617
 30
0.0
 10
5.2104084224
 20
5.228172538
 30
0.0
 10
5.2097431869
 20
5.2396994341
 30
0.0
 10
5.2092462115
 20
5.2476138603
 30
0.0
 10
5.2087450561
 20
5.254990868
 30
0.0
 10
5.2082478567
 20
5.2618041017
 30
0.0
 10
5.2077629633
 20
5.2680396718
 30
0.0
 10
5.2072952445
 20
5.2737000396
 30
0.0
 10
5.2068474574
 20
5.2788040756
 30
0.0
 10
5.206420908
 20
5.283377144
 30
0.0
 10
5.2060165394
 20
5.2874465608
 30
0.0
 10
5.2056350667
 20
5.2910402713
 30
0.0
 10
5.2052751555
 20
5.2941867182
 30
0.0
 10
5.2049358386
 20
5.2969123123
 30
0.0
 10
5.2046166012
 20
5.2992396345
 30
0.0
 10
5.2043173333
 20
5.301187413
 30
0.0
 10
5.2040721339
 20
5.3025799769
 30
0.0
 10
5.2038821391
 20
5.3035160698
 30
0.0
 10
5.2037898959
 20
5.303926265
 30
0.0
 10
5.2037440656
 20
5.304117099
 30
0.0
  0
SPLINE
  5
3EE
100
AcDbEntity
  8
0
100
AcDbSpline
 62
7
  6
CONTINUOUS
 70
0
 71
3
 72
51
 73
47
 74
0
 42
0.0000001
 43
0.0000001
 44
0.0000000001
 40
0.0
 40
0.0
 40
0.0
 40
0.0
 40
0.0002878979
 40
0.0006020298
 40
0.0009714646
 40
0.0014142294
 40
0.0019406341
 40
0.0025565996
 40
0.0032656591
 40
0.0040703712
 40
0.0059742258
 40
0.0082801477
 40
0.0109959484
 40
0.0141278259
 40
0.0176825066
 40
0.021666844
 40
0.0260873536
 40
0.0309508932
 40
0.0362670705
 40
0.0420463388
 40
0.04829912
 40
0.0550375114
 40
0.0700327676
 40
0.0871626772
 40
0.106582931
 40
0.1284485014
 40
0.1529016954
 40
0.1800683673
 40
0.2099643651
 40
0.2425085232
 40
0.2775766143
 40
0.3150213263
 40
0.3546753158
 40
0.3963498147
 40
0.4398378453
 40
0.484924189
 40
0.5314291912
 40
0.5792095498
 40
0.6281632268
 40
0.6782157024
 40
0.7293217987
 40
0.7814533583
 40
0.83459442
 40
0.8887347699
 40
0.9438720831
 40
1.0
 40
1.0
 40
1.0
 40
1.0
 10
4.759372686
 20
5.5112680704
 30
0.0
 10
4.7594098333
 20
5.5112748883
 30
0.0
 10
4.7594909484
 20
5.5112742328
 30
0.0
 10
4.7596117875
 20
5.5112279411
 30
0.0
 10
4.7597324676
 20
5.5111407686
 30
0.0
 10
4.7598547737
 20
5.5110139048
 30
0.0
 10
4.7599797251
 20
5.5108472248
 30
0.0
 10
4.7601076782
 20
5.5106405124
 30
0.0
 10
4.760238798
 20
5.5103936285
 30
0.0
 10
4.7604285932
 20
5.509987278
 30
0.0
 10
4.7606692749
 20
5.5093744596
 30
0.0
 10
4.7609569388
 20
5.5085124344
 30
0.0
 10
4.7612567726
 20
5.5074854729
 30
0.0
 10
4.7615685788
 20
5.5062919643
 30
0.0
 10
4.7618918265
 20
5.5049298392
 30
0.0
 10
4.7622261226
 20
5.5033968892
 30
0.0
 10
4.7625711278
 20
5.5016907575
 30
0.0
 10
4.7629266093
 20
5.4998086628
 30
0.0
 10
4.76329185
 20
5.4977471541
 30
0.0
 10
4.7636662215
 20
5.4955023011
 30
0.0
 10
4.7640491963
 20
5.4930698399
 30
0.0
 10
4.7645900655
 20
5.4894384724
 30
0.0
 10
4.7652809403
 20
5.4843869972
 30
0.0
 10
4.7661077268
 20
5.4776755958
 30
0.0
 10
4.7669540576
 20
5.4700590609
 30
0.0
 10
4.7678161157
 20
5.4614781643
 30
0.0
 10
4.7686908816
 20
5.4518776557
 30
0.0
 10
4.7695781597
 20
5.4412208092
 30
0.0
 10
4.7704776887
 20
5.4295001673
 30
0.0
 10
4.7713860256
 20
5.4167408142
 30
0.0
 10
4.7722955901
 20
5.402988947
 30
0.0
 10
4.7731970773
 20
5.3883019659
 30
0.0
 10
4.7740699585
 20
5.372745135
 30
0.0
 10
4.7748948265
 20
5.3563918203
 30
0.0
 10
4.7756572479
 20
5.3393220995
 30
0.0
 10
4.7763570218
 20
5.321615506
 30
0.0
 10
4.7769862024
 20
5.3033428254
 30
0.0
 10
4.7775348407
 20
5.2845599824
 30
0.0
 10
4.7779909347
 20
5.2653091445
 30
0.0
 10
4.7783480399
 20
5.2456198667
 30
0.0
 10
4.77861245
 20
5.225512214
 30
0.0
 10
4.7787833006
 20
5.2049983567
 30
0.0
 10
4.7788571024
 20
5.1840858751
 30
0.0
 10
4.7788368023
 20
5.1627789729
 30
0.0
 10
4.7787251989
 20
5.1410805293
 30
0.0
 10
4.7785920166
 20
5.1264847994
 30
0.0
 10
4.7785098608
 20
5.1191221362
 30
0.0
  0
SPLINE
  5
3EF
100
AcDbEntity
  8
0
100
AcDbSpline
 62
7
  6
CONTINUOUS
 70
0
 71
3
 72
39
 73
35
 74
0
 42
0.0000001
 43
0.0000001
 44
0.0000000001
 40
0.0
 40
0.0
 40
0.0
 40
0.0
 40
0.0221521832
 40
0.0334632486
 40
0.0449380662
 40
0.0683946205
 40
0.092552682
 40
0.1174328784
 40
0.1430499063
 40
0.1694145159
 40
0.1965334536
 40
0.2244070098
 40
0.2530155698
 40
0.2823300353
 40
0.3123185806
 40
0.3429456307
 40
0.3741723376
 40
0.4059591998
 40
0.4382659077
 40
0.4710539774
 40
0.5042852593
 40
0.5379245433
 40
0.5719372844
 40
0.6062929942
 40
0.6409617612
 40
0.7111358956
 40
0.7465958561
 40
0.7822753394
 40
0.8181537678
 40
0.8542160544
 40
0.8904489199
 40
0.9268374243
 40
0.9633616871
 40
1.0
 40
1.0
 40
1.0
 40
1.0
 10
4.633724824
 20
5.1491189812
 30
0.0
 10
4.6313242296
 20
5.1470682179
 30
0.0
 10
4.6277838888
 20
5.1438677037
 30
0.0
 10
4.6232094788
 20
5.13938393
 30
0.0
 10
4.6186276085
 20
5.1346452694
 30
0.0
 10
4.613015077
 20
5.128360793
 30
0.0
 10
4.6065214919
 20
5.1203187448
 30
0.0
 10
4.6002317213
 20
5.1117317129
 30
0.0
 10
4.5941571089
 20
5.1026111578
 30
0.0
 10
4.5883091241
 20
5.0929687372
 30
0.0
 10
4.5826995624
 20
5.0828168368
 30
0.0
 10
4.5773424874
 20
5.0721704642
 30
0.0
 10
4.5722402589
 20
5.0610547425
 30
0.0
 10
4.5673948788
 20
5.0494973947
 30
0.0
 10
4.5628078901
 20
5.0375267382
 30
0.0
 10
4.5584783957
 20
5.0251716288
 30
0.0
 10
4.5544040092
 20
5.0124608467
 30
0.0
 10
4.5505805594
 20
4.9994228585
 30
0.0
 10
4.5470031231
 20
4.9860848563
 30
0.0
 10
4.5436657134
 20
4.9724728589
 30
0.0
 10
4.5405618956
 20
4.9586111298
 30
0.0
 10
4.5376846386
 20
4.944522515
 30
0.0
 10
4.5350265695
 20
4.9302279663
 30
0.0
 10
4.5325805002
 20
4.915746835
 30
0.0
 10
4.529579586
 20
4.896134882
 30
0.0
 10
4.5269907813
 20
4.8763030691
 30
0.0
 10
4.5247748543
 20
4.8562839488
 30
0.0
 10
4.5232842328
 20
4.8411035874
 30
0.0
 10
4.5219630476
 20
4.8258214555
 30
0.0
 10
4.5208074435
 20
4.8104468218
 30
0.0
 10
4.5198140794
 20
4.7949880232
 30
0.0
 10
4.5189789405
 20
4.7794539634
 30
0.0
 10
4.5182882015
 20
4.7638550303
 30
0.0
 10
4.5179155965
 20
4.7534338951
 30
0.0
 10
4.5177487716
 20
4.7482146013
 30
0.0
  0
SPLINE
  5
3F0
100
AcDbEntity
  8
0
100
AcDbSpline
 62
7
  6
CONTINUOUS
 70
0
 71
3
 72
10
 73
6
 74
0
 42
0.0000001
 43
0.0000001
 44
0.0000000001
 40
0.0
 40
0.0
 40
0.0
 40
0.0
 40
0.499999011
 40
0.7499995986
 40
1.0
 40
1.0
 40
1.0
 40
1.0
 10
4.5177487716
 20
4.7482146013
 30
0.0
 10
4.5106525439
 20
4.8149545421
 30
0.0
 10
4.5004782504
 20
4.9151163553
 30
0.0
 10
4.4882193539
 20
5.048788807
 30
0.0
 10
4.4825870318
 20
5.1156693317
 30
0.0
 10
4.4799102034
 20
5.1491205902
 30
0.0
  0
SPLINE
  5
3F1
100
AcDbEntity
  8
0
100
AcDbSpline
 62
7
  6
CONTINUOUS
 70
0
 71
3
 72
45
 73
41
 74
0
 42
0.0000001
 43
0.0000001
 44
0.0000000001
 40
0.0
 40
0.0
 40
0.0
 40
0.0
 40
0.1367393071
 40
0.2052153579
 40
0.2737532428
 40
0.3423203662
 40
0.3765984217
 40
0.4108604347
 40
0.4450938269
 40
0.479285485
 40
0.4963613988
 40
0.5134214371
 40
0.5304624198
 40
0.5474809073
 40
0.5644724133
 40
0.5814267971
 40
0.5983326383
 40
0.6151765878
 40
0.6319407221
 40
0.6486062675
 40
0.6651494348
 40
0.6815446078
 40
0.6977610951
 40
0.7137669122
 40
0.721681292
 40
0.7295318004
 40
0.7373166697
 40
0.7450351665
 40
0.7602699703
 40
0.7752332779
 40
0.7899235599
 40
0.8043405535
 40
0.8323559342
 40
0.8592997309
 40
0.8851975291
 40
0.9100781407
 40
0.9339708643
 40
0.9569037451
 40
0.9789048113
 40
1.0
 40
1.0
 40
1.0
 40
1.0
 10
4.7656872093
 20
3.7317584175
 30
0.0
 10
4.7675938835
 20
3.6937807323
 30
0.0
 10
4.7701702076
 20
3.6367680123
 30
0.0
 10
4.7724534335
 20
3.5606732744
 30
0.0
 10
4.7734439543
 20
3.5035105197
 30
0.0
 10
4.7735440621
 20
3.4558486872
 30
0.0
 10
4.7731164452
 20
3.4177227901
 30
0.0
 10
4.7725242401
 20
3.3891484167
 30
0.0
 10
4.7716431146
 20
3.360605504
 30
0.0
 10
4.7706540874
 20
3.33684879
 30
0.0
 10
4.7697042796
 20
3.3178713929
 30
0.0
 10
4.7689116483
 20
3.3036617229
 30
0.0
 10
4.7680339412
 20
3.2894730456
 30
0.0
 10
4.7670662591
 20
3.2753093168
 30
0.0
 10
4.7660048699
 20
3.2611764232
 30
0.0
 10
4.7648295477
 20
3.247083916
 30
0.0
 10
4.7635187416
 20
3.2330445007
 30
0.0
 10
4.7620525592
 20
3.2190735778
 30
0.0
 10
4.7604146651
 20
3.2051889445
 30
0.0
 10
4.7585887309
 20
3.1914120567
 30
0.0
 10
4.756558458
 20
3.1777673998
 30
0.0
 10
4.754307506
 20
3.1642838574
 30
0.0
 10
4.7518255766
 20
3.150992823
 30
0.0
 10
4.7495486362
 20
3.1400650121
 30
0.0
 10
4.7475969899
 20
3.1314480379
 30
0.0
 10
4.7460727925
 20
3.1250788077
 30
0.0
 10
4.7444834157
 20
3.1187816921
 30
0.0
 10
4.7422897108
 20
3.1105198913
 30
0.0
 10
4.7393962191
 20
3.1003793159
 30
0.0
 10
4.7356764416
 20
3.0884622526
 30
0.0
 10
4.7317387937
 20
3.0768552002
 30
0.0
 10
4.7262690795
 20
3.0619401478
 30
0.0
 10
4.718972497
 20
3.0440715172
 30
0.0
 10
4.7094598105
 20
3.0236877635
 30
0.0
 10
4.6993564208
 20
3.0045707438
 30
0.0
 10
4.6887317624
 20
2.986718941
 30
0.0
 10
4.6776459424
 20
2.9701325563
 30
0.0
 10
4.6661512038
 20
2.9548160475
 30
0.0
 10
4.6542948539
 20
2.9407818699
 30
0.0
 10
4.6460053132
 20
2.9321131379
 30
0.0
 10
4.6418094223
 20
2.9280133673
 30
0.0
  0
SPLINE
  5
3F2
100
AcDbEntity
  8
0
100
AcDbSpline
 62
7
  6
CONTINUOUS
 70
0
 71
3
 72
26
 73
22
 74
0
 42
0.0000001
 43
0.0000001
 44
0.0000000001
 40
0.0
 40
0.0
 40
0.0
 40
0.0
 40
0.0650485339
 40
0.1299695459
 40
0.1947256252
 40
0.2592821077
 40
0.3236030252
 40
0.3876434021
 40
0.4513543024
 40
0.514681785
 40
0.577568035
 40
0.6399509936
 40
0.670932769
 40
0.7017632201
 40
0.7629372054
 40
0.8234100975
 40
0.8533645969
 40
0.8831211962
 40
0.9126733029
 40
0.9420137911
 40
1.0
 40
1.0
 40
1.0
 40
1.0
 10
4.5440951301
 20
4.511001045
 30
0.0
 10
4.547161394
 20
4.4941039701
 30
0.0
 10
4.5534391204
 20
4.4603701292
 30
0.0
 10
4.563351425
 20
4.409925617
 30
0.0
 10
4.573800284
 20
4.3597219847
 30
0.0
 10
4.5847998867
 20
4.3097982938
 30
0.0
 10
4.59636161
 20
4.2601956441
 30
0.0
 10
4.6085073607
 20
4.2109624889
 30
0.0
 10
4.6212562792
 20
4.1621529284
 30
0.0
 10
4.6346229839
 20
4.1138247867
 30
0.0
 10
4.6486197883
 20
4.0660404503
 30
0.0
 10
4.6608444007
 20
4.0266405343
 30
0.0
 10
4.670956137
 20
3.9954503744
 30
0.0
 10
4.6812366025
 20
3.9646517301
 30
0.0
 10
4.6944859623
 20
3.9266377104
 30
0.0
 10
4.7083519595
 20
3.8890904046
 30
0.0
 10
4.7197717026
 20
3.8594872814
 30
0.0
 10
4.7284674801
 20
3.8375841325
 30
0.0
 10
4.7373173491
 20
3.8159177527
 30
0.0
 10
4.7492703899
 20
3.7874701961
 30
0.0
 10
4.7585187106
 20
3.7663497247
 30
0.0
 10
4.7648002908
 20
3.7523892928
 30
0.0
  0
SPLINE
  5
3F3
100
AcDbEntity
  8
0
100
AcDbSpline
 62
7
  6
CONTINUOUS
 70
0
 71
3
 72
67
 73
63
 74
0
 42
0.0000001
 43
0.0000001
 44
0.0000000001
 40
0.0
 40
0.0
 40
0.0
 40
0.0
 40
0.0156209253
 40
0.0312429301
 40
0.0468645907
 40
0.062486655
 40
0.0781088315
 40
0.0937311125
 40
0.1093534391
 40
0.124975751
 40
0.1327878458
 40
0.1406000953
 40
0.1484123188
 40
0.1562246699
 40
0.1640370672
 40
0.1718497175
 40
0.179662241
 40
0.1874750172
 40
0.1952881377
 40
0.2031013611
 40
0.2109147943
 40
0.2187282211
 40
0.234353852
 40
0.2421674919
 40
0.2499807951
 40
0.2577939423
 40
0.2656073758
 40
0.2695140649
 40
0.2734206366
 40
0.2812335977
 40
0.2890465749
 40
0.2968595925
 40
0.3046725992
 40
0.3124856093
 40
0.3202986161
 40
0.3281116019
 40
0.3437375249
 40
0.3593635552
 40
0.3749894854
 40
0.3906155034
 40
0.406241349
 40
0.4374925555
 40
0.4687435556
 40
0.4999944177
 40
0.531245214
 40
0.546870545
 40
0.5624957259
 40
0.5781209134
 40
0.5937461338
 40
0.6015587393
 40
0.6093713339
 40
0.624996497
 40
0.656246764
 40
0.687497037
 40
0.7187473447
 40
0.7499976552
 40
0.7812479487
 40
0.8124982368
 40
0.8437485236
 40
0.8749988128
 40
0.9374994172
 40
1.0
 40
1.0
 40
1.0
 40
1.0
 10
4.3725302037
 20
2.928013461
 30
0.0
 10
4.3805569477
 20
2.9317404875
 30
0.0
 10
4.3964359052
 20
2.9395787613
 30
0.0
 10
4.4196638382
 20
2.952459246
 30
0.0
 10
4.4422435313
 20
2.9664480416
 30
0.0
 10
4.4641061566
 20
2.9815337966
 30
0.0
 10
4.485174984
 20
2.9977115392
 30
0.0
 10
4.5053610018
 20
3.0149803529
 30
0.0
 10
4.5245600907
 20
3.0333414695
 30
0.0
 10
4.5396378044
 20
3.0495565779
 30
0.0
 10
4.5510726509
 20
3.0630735261
 30
0.0
 10
4.5593168829
 20
3.0734848398
 30
0.0
 10
4.5672065924
 20
3.0841675865
 30
0.0
 10
4.5747188397
 20
3.0951194493
 30
0.0
 10
4.5818288839
 20
3.1063371416
 30
0.0
 10
4.5885109528
 20
3.11781532
 30
0.0
 10
4.5947347737
 20
3.129548976
 30
0.0
 10
4.6004709056
 20
3.1415288774
 30
0.0
 10
4.6057301904
 20
3.1537256968
 30
0.0
 10
4.6105256522
 20
3.1661122306
 30
0.0
 10
4.6148822752
 20
3.1786597057
 30
0.0
 10
4.6201394547
 20
3.1955695123
 30
0.0
 10
4.6246280679
 20
3.2127081163
 30
0.0
 10
4.6284659656
 20
3.2299938537
 30
0.0
 10
4.631050787
 20
3.2430206973
 30
0.0
 10
4.6333756429
 20
3.2560958719
 30
0.0
 10
4.6351265423
 20
3.267023279
 30
0.0
 10
4.6364338445
 20
3.2757793647
 30
0.0
 10
4.637683051
 20
3.2845436664
 30
0.0
 10
4.6391386747
 20
3.2955137035
 30
0.0
 10
4.6407278625
 20
3.3086975684
 30
0.0
 10
4.6421724962
 20
3.3218980508
 30
0.0
 10
4.6434793472
 20
3.3351128927
 30
0.0
 10
4.6446486345
 20
3.3483406059
 30
0.0
 10
4.6456820391
 20
3.3615796221
 30
0.0
 10
4.6468801073
 20
3.3792446408
 30
0.0
 10
4.6480494778
 20
3.4013469356
 30
0.0
 10
4.6489593926
 20
3.4278907574
 30
0.0
 10
4.649406648
 20
3.4544463336
 30
0.0
 10
4.6494199863
 20
3.481005432
 30
0.0
 10
4.6488978497
 20
3.5164129783
 30
0.0
 10
4.647309455
 20
3.5606524087
 30
0.0
 10
4.6441516524
 20
3.6136767837
 30
0.0
 10
4.6399808192
 20
3.666629598
 30
0.0
 10
4.6358631679
 20
3.710700533
 30
0.0
 10
4.6323074705
 20
3.7459308738
 30
0.0
 10
4.6295372523
 20
3.7723428436
 30
0.0
 10
4.6266891989
 20
3.7987464309
 30
0.0
 10
4.6242723814
 20
3.8207446929
 30
0.0
 10
4.6223262423
 20
3.8383419032
 30
0.0
 10
4.620373361
 20
3.8559383346
 30
0.0
 10
4.6169371906
 20
3.8867299549
 30
0.0
 10
4.6119762016
 20
3.9307121209
 30
0.0
 10
4.6059386217
 20
3.9834811293
 30
0.0
 10
4.5998300642
 20
4.0362419859
 30
0.0
 10
4.5936679698
 20
4.0889966223
 30
0.0
 10
4.5874671148
 20
4.1417467025
 30
0.0
 10
4.5812402209
 20
4.1944936996
 30
0.0
 10
4.5750003355
 20
4.2472391579
 30
0.0
 10
4.566681255
 20
4.317566542
 30
0.0
 10
4.5563177056
 20
4.4054799498
 30
0.0
 10
4.5481382764
 20
4.475823784
 30
0.0
 10
4.5440951301
 20
4.511001045
 30
0.0
  0
SPLINE
  5
3F4
100
AcDbEntity
  8
0
100
AcDbSpline
 62
7
  6
CONTINUOUS
 70
0
 71
3
 72
22
 73
18
 74
0
 42
0.0000001
 43
0.0000001
 44
0.0000000001
 40
0.0
 40
0.0
 40
0.0
 40
0.0
 40
0.0624996536
 40
0.1250025665
 40
0.1875031262
 40
0.2500039172
 40
0.3125049555
 40
0.3750058313
 40
0.4375066682
 40
0.5000074884
 40
0.5625083016
 40
0.6250090206
 40
0.6875098958
 40
0.750010738
 40
0.8125111034
 40
0.8750118614
 40
1.0
 40
1.0
 40
1.0
 40
1.0
 10
4.6830905151
 20
5.585595787
 30
0.0
 10
4.682046059
 20
5.5771255328
 30
0.0
 10
4.6796695688
 20
5.56021856
 30
0.0
 10
4.6752346094
 20
5.5349968411
 30
0.0
 10
4.669923292
 20
5.5099444192
 30
0.0
 10
4.6637332408
 20
5.4850947928
 30
0.0
 10
4.6566681534
 20
5.4604795528
 30
0.0
 10
4.6487358438
 20
5.4361299473
 30
0.0
 10
4.6399493727
 20
5.4120754542
 30
0.0
 10
4.6303241919
 20
5.3883441921
 30
0.0
 10
4.6198791256
 20
5.3649623539
 30
0.0
 10
4.608639077
 20
5.3419523046
 30
0.0
 10
4.5966303221
 20
5.3193340845
 30
0.0
 10
4.5838806688
 20
5.2971254761
 30
0.0
 10
4.5704205607
 20
5.2753399367
 30
0.0
 10
4.5515709797
 20
5.2468750363
 30
0.0
 10
4.536459966
 20
5.2261836738
 30
0.0
 10
4.5260020324
 20
5.2126957552
 30
0.0
  0
SPLINE
  5
3F5
100
AcDbEntity
  8
0
100
AcDbSpline
 62
7
  6
CONTINUOUS
 70
0
 71
3
 72
17
 73
13
 74
0
 42
0.0000001
 43
0.0000001
 44
0.0000000001
 40
0.0
 40
0.0
 40
0.0
 40
0.0
 40
0.124606108
 40
0.2492870478
 40
0.3116643185
 40
0.3740715178
 40
0.4989846405
 40
0.624037708
 40
0.686619276
 40
0.7492368537
 40
0.874567571
 40
1.0
 40
1.0
 40
1.0
 40
1.0
 10
4.7968691316
 20
5.5859293579
 30
0.0
 10
4.7921451304
 20
5.58610532
 30
0.0
 10
4.782693166
 20
5.5864283092
 30
0.0
 10
4.770873003
 20
5.5867315292
 30
0.0
 10
4.7614102458
 20
5.5868973917
 30
0.0
 10
4.7519378456
 20
5.5870059076
 30
0.0
 10
4.7400868106
 20
5.5870311714
 30
0.0
 10
4.7282297271
 20
5.5869152728
 30
0.0
 10
4.7187372918
 20
5.5867400546
 30
0.0
 10
4.7092354231
 20
5.5865128809
 30
0.0
 10
4.6973520181
 20
5.5861445758
 30
0.0
 10
4.6878453657
 20
5.5857853032
 30
0.0
 10
4.6830905151
 20
5.585595787
 30
0.0
  0
SPLINE
  5
3F6
100
AcDbEntity
  8
0
100
AcDbSpline
 62
7
  6
CONTINUOUS
 70
0
 71
3
 72
11
 73
7
 74
0
 42
0.0000001
 43
0.0000001
 44
0.0000000001
 40
0.0
 40
0.0
 40
0.0
 40
0.0
 40
0.2351968729
 40
0.4778162628
 40
0.7316084839
 40
1.0
 40
1.0
 40
1.0
 40
1.0
 10
4.3751724936
 20
2.9174657907
 30
0.0
 10
4.3747796923
 20
2.9182292544
 30
0.0
 10
4.3740751311
 20
2.9198301541
 30
0.0
 10
4.3732879179
 20
2.9223878395
 30
0.0
 10
4.3727579765
 20
2.925133928
 30
0.0
 10
4.3725805615
 20
2.9270349931
 30
0.0
 10
4.3725302037
 20
2.928013461
 30
0.0
  0
SPLINE
  5
3F7
100
AcDbEntity
  8
0
100
AcDbSpline
 62
7
  6
CONTINUOUS
 70
0
 71
3
 72
36
 73
32
 74
0
 42
0.0000001
 43
0.0000001
 44
0.0000000001
 40
0.0
 40
0.0
 40
0.0
 40
0.0
 40
0.1005639611
 40
0.1966887012
 40
0.2881492071
 40
0.3747481115
 40
0.4563054385
 40
0.495142829
 40
0.5326594388
 40
0.5688366783
 40
0.6036564765
 40
0.6371019408
 40
0.6691569091
 40
0.6998067699
 40
0.7290384239
 40
0.756841279
 40
0.7832077842
 40
0.8081349881
 40
0.8316259018
 40
0.8536916006
 40
0.874354354
 40
0.8936516559
 40
0.9116426739
 40
0.9284133741
 40
0.9440865096
 40
0.9588296418
 40
0.972866501
 40
0.9797093069
 40
0.9864841884
 40
0.9932331826
 40
1.0
 40
1.0
 40
1.0
 40
1.0
 10
4.6034671466
 20
2.9174657907
 30
0.0
 10
4.5957954822
 20
2.9156087166
 30
0.0
 10
4.5807246718
 20
2.9122442925
 30
0.0
 10
4.558496276
 20
2.9080518952
 30
0.0
 10
4.5372336785
 20
2.9047089445
 30
0.0
 10
4.5170197662
 20
2.9021146052
 30
0.0
 10
4.500853247
 20
2.9004798521
 30
0.0
 10
4.4884987981
 20
2.8994815599
 30
0.0
 10
4.4796859549
 20
2.8988878105
 30
0.0
 10
4.4711807259
 20
2.8984312978
 30
0.0
 10
4.4629891821
 20
2.8981073392
 30
0.0
 10
4.4551171601
 20
2.8979133908
 30
0.0
 10
4.4475703049
 20
2.897846777
 30
0.0
 10
4.4403541057
 20
2.8979076834
 30
0.0
 10
4.4334739004
 20
2.8980958059
 30
0.0
 10
4.4269349499
 20
2.8984136752
 30
0.0
 10
4.4207423405
 20
2.8988637471
 30
0.0
 10
4.4149010639
 20
2.899450572
 30
0.0
 10
4.4094159409
 20
2.9001795217
 30
0.0
 10
4.4042915806
 20
2.9010571449
 30
0.0
 10
4.3995324763
 20
2.9020917777
 30
0.0
 10
4.395142593
 20
2.9032923126
 30
0.0
 10
4.3911258119
 20
2.9046699616
 30
0.0
 10
4.387485459
 20
2.9062365609
 30
0.0
 10
4.3842252699
 20
2.9080068312
 30
0.0
 10
4.3813495648
 20
2.9099960602
 30
0.0
 10
4.379259963
 20
2.9118675537
 30
0.0
 10
4.3778038572
 20
2.9134794634
 30
0.0
 10
4.3768200355
 20
2.9147413431
 30
0.0
 10
4.3759361341
 20
2.9160678507
 30
0.0
 10
4.3754154115
 20
2.9169934718
 30
0.0
 10
4.3751724936
 20
2.9174657907
 30
0.0
  0
SPLINE
  5
3F8
100
AcDbEntity
  8
0
100
AcDbSpline
 62
7
  6
CONTINUOUS
 70
0
 71
3
 72
67
 73
63
 74
0
 42
0.0000001
 43
0.0000001
 44
0.0000000001
 40
0.0
 40
0.0
 40
0.0
 40
0.0
 40
0.0156209243
 40
0.0312429281
 40
0.0468645898
 40
0.0624866545
 40
0.0781088315
 40
0.093731113
 40
0.1093534404
 40
0.1249757522
 40
0.1327878473
 40
0.1406000981
 40
0.1484123212
 40
0.1562246699
 40
0.1640370657
 40
0.1718497099
 40
0.1796622221
 40
0.1874749978
 40
0.195288123
 40
0.2031013483
 40
0.2109147763
 40
0.2187282039
 40
0.2343538389
 40
0.2421674794
 40
0.2499807783
 40
0.2577939283
 40
0.2656073652
 40
0.2695140534
 40
0.2734206243
 40
0.2812335853
 40
0.2890465632
 40
0.2968595809
 40
0.3046725877
 40
0.3124855981
 40
0.3202986051
 40
0.3281115912
 40
0.3437375157
 40
0.3593635456
 40
0.3749894766
 40
0.3906154952
 40
0.4062413411
 40
0.4374925484
 40
0.4687435499
 40
0.499994412
 40
0.5312452098
 40
0.5468705401
 40
0.562495721
 40
0.5781209091
 40
0.59374613
 40
0.6015587355
 40
0.6093713303
 40
0.6249964934
 40
0.6562467606
 40
0.6874970339
 40
0.718747342
 40
0.7499976527
 40
0.7812479465
 40
0.812498235
 40
0.8437485221
 40
0.8749988116
 40
0.9374994166
 40
1.0
 40
1.0
 40
1.0
 40
1.0
 10
5.4745194817
 20
2.9280134761
 30
0.0
 10
5.4664927392
 20
2.9317405043
 30
0.0
 10
5.4506137777
 20
2.9395787669
 30
0.0
 10
5.4273858429
 20
2.9524592477
 30
0.0
 10
5.4048061528
 20
2.9664480483
 30
0.0
 10
5.3829435261
 20
2.9815338027
 30
0.0
 10
5.3618746974
 20
2.9977115449
 30
0.0
 10
5.3416886807
 20
3.0149803612
 30
0.0
 10
5.3224895902
 20
3.0333414769
 30
0.0
 10
5.3074118825
 20
3.0495565916
 30
0.0
 10
5.2959770349
 20
3.0630735396
 30
0.0
 10
5.2877327856
 20
3.0734848402
 30
0.0
 10
5.2798430722
 20
3.0841675838
 30
0.0
 10
5.2723308888
 20
3.0951194884
 30
0.0
 10
5.2652208783
 20
3.1063371922
 30
0.0
 10
5.2585386242
 20
3.1178152484
 30
0.0
 10
5.2523147273
 20
3.1295488576
 30
0.0
 10
5.246578808
 20
3.1415288587
 30
0.0
 10
5.2413196616
 20
3.1537257376
 30
0.0
 10
5.2365240791
 20
3.1661122233
 30
0.0
 10
5.2321673504
 20
3.1786596619
 30
0.0
 10
5.2269102217
 20
3.1955694851
 30
0.0
 10
5.2224216292
 20
3.2127080956
 30
0.0
 10
5.218583701
 20
3.2299938269
 30
0.0
 10
5.2159989337
 20
3.2430206811
 30
0.0
 10
5.2136741491
 20
3.2560958693
 30
0.0
 10
5.2119232722
 20
3.2670232825
 30
0.0
 10
5.2106159277
 20
3.2757793628
 30
0.0
 10
5.2093666991
 20
3.2845436603
 30
0.0
 10
5.2079110653
 20
3.2955136959
 30
0.0
 10
5.2063218676
 20
3.3086975597
 30
0.0
 10
5.2048771807
 20
3.3218980368
 30
0.0
 10
5.2035703095
 20
3.3351128771
 30
0.0
 10
5.2024010215
 20
3.3483405905
 30
0.0
 10
5.201367633
 20
3.3615796084
 30
0.0
 10
5.2001695907
 20
3.3792446298
 30
0.0
 10
5.1990002217
 20
3.4013469252
 30
0.0
 10
5.1980902954
 20
3.4278907475
 30
0.0
 10
5.1976430381
 20
3.4544463242
 30
0.0
 10
5.1976297033
 20
3.4810054234
 30
0.0
 10
5.1981518421
 20
3.5164129704
 30
0.0
 10
5.1997402298
 20
3.5606524024
 30
0.0
 10
5.2028980494
 20
3.6136767774
 30
0.0
 10
5.2070688759
 20
3.6666295934
 30
0.0
 10
5.2111865025
 20
3.7107005309
 30
0.0
 10
5.214742211
 20
3.7459308709
 30
0.0
 10
5.2175124581
 20
3.7723428374
 30
0.0
 10
5.2203605322
 20
3.7987464229
 30
0.0
 10
5.2227773425
 20
3.8207446862
 30
0.0
 10
5.2247234492
 20
3.8383419004
 30
0.0
 10
5.2266763112
 20
3.855938334
 30
0.0
 10
5.230112466
 20
3.8867299561
 30
0.0
 10
5.2350734758
 20
3.9307121198
 30
0.0
 10
5.2411110769
 20
3.9834811259
 30
0.0
 10
5.2472196301
 20
4.0362419832
 30
0.0
 10
5.2533817177
 20
4.0889966208
 30
0.0
 10
5.2595825724
 20
4.1417467012
 30
0.0
 10
5.2658094682
 20
4.1944936982
 30
0.0
 10
5.2720493547
 20
4.2472391566
 30
0.0
 10
5.2803684349
 20
4.3175665411
 30
0.0
 10
5.2907319837
 20
4.4054799493
 30
0.0
 10
5.2989114131
 20
4.4758237838
 30
0.0
 10
5.3029545593
 20
4.511001045
 30
0.0
  0
SPLINE
  5
3F9
100
AcDbEntity
  8
0
100
AcDbSpline
 62
7
  6
CONTINUOUS
 70
0
 71
3
 72
11
 73
7
 74
0
 42
0.0000001
 43
0.0000001
 44
0.0000000001
 40
0.0
 40
0.0
 40
0.0
 40
0.0
 40
0.2664119205
 40
0.523250218
 40
0.7684208622
 40
1.0
 40
1.0
 40
1.0
 40
1.0
 10
4.9920496457
 20
5.7282317198
 30
0.0
 10
4.9903148659
 20
5.7306242696
 30
0.0
 10
4.9869899494
 20
5.7353838415
 30
0.0
 10
4.9823761944
 20
5.7425539089
 30
0.0
 10
4.9782573752
 20
5.7495749642
 30
0.0
 10
4.9757912499
 20
5.7542561684
 30
0.0
 10
4.9746551189
 20
5.7565601706
 30
0.0
  0
SPLINE
  5
3FA
100
AcDbEntity
  8
0
100
AcDbSpline
 62
7
  6
CONTINUOUS
 70
0
 71
3
 72
26
 73
22
 74
0
 42
0.0000001
 43
0.0000001
 44
0.0000000001
 40
0.0
 40
0.0
 40
0.0
 40
0.0
 40
0.0650485374
 40
0.1299695526
 40
0.1947256351
 40
0.2592821206
 40
0.3236030407
 40
0.3876434199
 40
0.4513543221
 40
0.5146818061
 40
0.5775680569
 40
0.6399510156
 40
0.6709327907
 40
0.7017632414
 40
0.7629372252
 40
0.8234101147
 40
0.8533646123
 40
0.8831212095
 40
0.9126733136
 40
0.9420137988
 40
1.0
 40
1.0
 40
1.0
 40
1.0
 10
5.3029545593
 20
4.511001045
 30
0.0
 10
5.2998882934
 20
4.4941039591
 30
0.0
 10
5.2936105629
 20
4.4603700965
 30
0.0
 10
5.2836982513
 20
4.4099255518
 30
0.0
 10
5.2732493847
 20
4.3597218875
 30
0.0
 10
5.2622497736
 20
4.3097981649
 30
0.0
 10
5.2506880411
 20
4.2601954841
 30
0.0
 10
5.2385422804
 20
4.2109622984
 30
0.0
 10
5.2257933511
 20
4.1621527081
 30
0.0
 10
5.2124266347
 20
4.1138245376
 30
0.0
 10
5.1984298177
 20
4.0660401734
 30
0.0
 10
5.1862051942
 20
4.026640235
 30
0.0
 10
5.1760934485
 20
3.9954500578
 30
0.0
 10
5.1658129735
 20
3.9646513969
 30
0.0
 10
5.1525636013
 20
3.9266373574
 30
0.0
 10
5.1386975909
 20
3.8890900328
 30
0.0
 10
5.1272778366
 20
3.8594868955
 30
0.0
 10
5.1185820506
 20
3.8375837367
 30
0.0
 10
5.1097321728
 20
3.8159173477
 30
0.0
 10
5.0977791203
 20
3.7874697799
 30
0.0
 10
5.0885307905
 20
3.7663493006
 30
0.0
 10
5.0822492038
 20
3.7523888639
 30
0.0
  0
SPLINE
  5
3FB
100
AcDbEntity
  8
0
100
AcDbSpline
 62
7
  6
CONTINUOUS
 70
0
 71
3
 72
45
 73
41
 74
0
 42
0.0000001
 43
0.0000001
 44
0.0000000001
 40
0.0
 40
0.0
 40
0.0
 40
0.0
 40
0.0210952347
 40
0.0430963336
 40
0.0660292168
 40
0.0899220153
 40
0.1148027115
 40
0.140700572
 40
0.1676444207
 40
0.1956598652
 40
0.2247650108
 40
0.2397284397
 40
0.2549632142
 40
0.2626816304
 40
0.2704664219
 40
0.2783168914
 40
0.2862313345
 40
0.3022373833
 40
0.3184539
 40
0.3348490507
 40
0.3513922434
 40
0.3680578324
 40
0.384821948
 40
0.4016659108
 40
0.4185719192
 40
0.4355264675
 40
0.4525181042
 40
0.4695365389
 40
0.4865773177
 40
0.5036372015
 40
0.5207131205
 40
0.5549050026
 40
0.5891385068
 40
0.6234005135
 40
0.6576785961
 40
0.6919633339
 40
0.7262464071
 40
0.7947843691
 40
0.8632605054
 40
1.0
 40
1.0
 40
1.0
 40
1.0
 10
5.2052401959
 20
2.9280134268
 30
0.0
 10
5.2010442996
 20
2.9321131959
 30
0.0
 10
5.1927547547
 20
2.9407819268
 30
0.0
 10
5.1808984373
 20
2.9548161209
 30
0.0
 10
5.1694037273
 20
2.970132649
 30
0.0
 10
5.1583178915
 20
2.9867190309
 30
0.0
 10
5.1476931986
 20
3.0045708634
 30
0.0
 10
5.1375898232
 20
3.0236878373
 30
0.0
 10
5.1280770659
 20
3.0440718612
 30
0.0
 10
5.1192359847
 20
3.0657225823
 30
0.0
 10
5.1125677077
 20
3.0846358125
 30
0.0
 10
5.1076532887
 20
3.1003794137
 30
0.0
 10
5.1047598613
 20
3.1105200525
 30
0.0
 10
5.1025663979
 20
3.1187818408
 30
0.0
 10
5.1009771611
 20
3.1250789247
 30
0.0
 10
5.0994529259
 20
3.1314481182
 30
0.0
 10
5.0975011023
 20
3.1400651096
 30
0.0
 10
5.0952239303
 20
3.1509929465
 30
0.0
 10
5.0927420951
 20
3.1642840444
 30
0.0
 10
5.0904912416
 20
3.1777675877
 30
0.0
 10
5.0884609154
 20
3.1914122258
 30
0.0
 10
5.0866350076
 20
3.2051891083
 30
0.0
 10
5.084997301
 20
3.2190737508
 30
0.0
 10
5.0835311353
 20
3.2330446948
 30
0.0
 10
5.082219787
 20
3.24708413
 30
0.0
 10
5.0810438158
 20
3.261176689
 30
0.0
 10
5.0799824021
 20
3.2753096262
 30
0.0
 10
5.0790153912
 20
3.2894733424
 30
0.0
 10
5.0781384045
 20
3.3036619251
 30
0.0
 10
5.0773463303
 20
3.3178715029
 30
0.0
 10
5.0763964844
 20
3.3368488849
 30
0.0
 10
5.075406423
 20
3.3606056086
 30
0.0
 10
5.0745249927
 20
3.3891485628
 30
0.0
 10
5.0739332294
 20
3.4177229222
 30
0.0
 10
5.0736126848
 20
3.4463157928
 30
0.0
 10
5.0735457005
 20
3.4749162003
 30
0.0
 10
5.0737709049
 20
3.513043253
 30
0.0
 10
5.0745962486
 20
3.560673409
 30
0.0
 10
5.0768794877
 20
3.6367680048
 30
0.0
 10
5.0794558104
 20
3.6937807447
 30
0.0
 10
5.0813624801
 20
3.7317584175
 30
0.0
  0
SPLINE
  5
3FC
100
AcDbEntity
  8
0
100
AcDbSpline
 62
7
  6
CONTINUOUS
 70
0
 71
3
 72
36
 73
32
 74
0
 42
0.0000001
 43
0.0000001
 44
0.0000000001
 40
0.0
 40
0.0
 40
0.0
 40
0.0
 40
0.0067668178
 40
0.0135158121
 40
0.0202906937
 40
0.0271334997
 40
0.0411703585
 40
0.0559134899
 40
0.0715866248
 40
0.0883573249
 40
0.1063483431
 40
0.1256456453
 40
0.1463083989
 40
0.1683740979
 40
0.1918650117
 40
0.2167922156
 40
0.2431587205
 40
0.270961575
 40
0.3001932289
 40
0.3308430905
 40
0.3628980596
 40
0.3963435238
 40
0.4311633214
 40
0.4673405606
 40
0.5048571704
 40
0.5436945612
 40
0.6252518884
 40
0.7118507931
 40
0.8033112986
 40
0.8994360373
 40
1.0
 40
1.0
 40
1.0
 40
1.0
 10
5.4718771958
 20
2.9174657907
 30
0.0
 10
5.4716342779
 20
2.9169934718
 30
0.0
 10
5.4711135552
 20
2.9160678507
 30
0.0
 10
5.4702296535
 20
2.9147413432
 30
0.0
 10
5.4692458316
 20
2.9134794636
 30
0.0
 10
5.4677897258
 20
2.911867554
 30
0.0
 10
5.4657001242
 20
2.9099960605
 30
0.0
 10
5.4628244195
 20
2.9080068312
 30
0.0
 10
5.4595642305
 20
2.9062365608
 30
0.0
 10
5.4559238777
 20
2.9046699616
 30
0.0
 10
5.4519070966
 20
2.9032923126
 30
0.0
 10
5.4475172132
 20
2.9020917777
 30
0.0
 10
5.4427581088
 20
2.9010571449
 30
0.0
 10
5.4376337485
 20
2.9001795217
 30
0.0
 10
5.4321486254
 20
2.899450572
 30
0.0
 10
5.4263073489
 20
2.8988637471
 30
0.0
 10
5.4201147395
 20
2.8984136752
 30
0.0
 10
5.4135757891
 20
2.8980958058
 30
0.0
 10
5.4066955838
 20
2.8979076833
 30
0.0
 10
5.3994793845
 20
2.897846777
 30
0.0
 10
5.3919325292
 20
2.8979133909
 30
0.0
 10
5.3840605071
 20
2.8981073392
 30
0.0
 10
5.3758689635
 20
2.8984312978
 30
0.0
 10
5.3673637345
 20
2.8988878105
 30
0.0
 10
5.3585508913
 20
2.8994815599
 30
0.0
 10
5.3461964424
 20
2.9004798521
 30
0.0
 10
5.3300299231
 20
2.9021146052
 30
0.0
 10
5.3098160109
 20
2.9047089446
 30
0.0
 10
5.2885534136
 20
2.9080518953
 30
0.0
 10
5.2663250177
 20
2.9122442922
 30
0.0
 10
5.2512542073
 20
2.9156087166
 30
0.0
 10
5.2435825428
 20
2.9174657907
 30
0.0
  0
SPLINE
  5
3FD
100
AcDbEntity
  8
0
100
AcDbSpline
 62
7
  6
CONTINUOUS
 70
0
 71
3
 72
11
 73
7
 74
0
 42
0.0000001
 43
0.0000001
 44
0.0000000001
 40
0.0
 40
0.0
 40
0.0
 40
0.0
 40
0.2683919796
 40
0.5221841821
 40
0.7648032137
 40
1.0
 40
1.0
 40
1.0
 40
1.0
 10
5.4745194817
 20
2.9280134761
 30
0.0
 10
5.4744691663
 20
2.9270350027
 30
0.0
 10
5.4742917235
 20
2.925133932
 30
0.0
 10
5.4737617685
 20
2.9223878445
 30
0.0
 10
5.4729745809
 20
2.9198301474
 30
0.0
 10
5.472270002
 20
2.9182292532
 30
0.0
 10
5.4718771958
 20
2.9174657907
 30
0.0
  0
SPLINE
  5
3FE
100
AcDbEntity
  8
0
100
AcDbSpline
 62
7
  6
CONTINUOUS
 70
0
 71
3
 72
15
 73
11
 74
0
 42
0.0000001
 43
0.0000001
 44
0.0000000001
 40
0.0
 40
0.0
 40
0.0
 40
0.0
 40
0.1267639213
 40
0.253203639
 40
0.379176668
 40
0.5045993005
 40
0.6294043843
 40
0.753558588
 40
0.8770849866
 40
1.0
 40
1.0
 40
1.0
 40
1.0
 10
5.1639591884
 20
5.5855957918
 30
0.0
 10
5.1638633896
 20
5.5865722095
 30
0.0
 10
5.163558739
 20
5.5885133413
 30
0.0
 10
5.1627698546
 20
5.5913465134
 30
0.0
 10
5.1616622324
 20
5.5940601229
 30
0.0
 10
5.1602539544
 20
5.5966160224
 30
0.0
 10
5.158566917
 20
5.5989798537
 30
0.0
 10
5.1566267103
 20
5.6011210785
 30
0.0
 10
5.1544619653
 20
5.6030122323
 30
0.0
 10
5.1528849728
 20
5.604094227
 30
0.0
 10
5.1520704109
 20
5.6045856461
 30
0.0
  0
SPLINE
  5
3FF
100
AcDbEntity
  8
0
100
AcDbSpline
 62
7
  6
CONTINUOUS
 70
0
 71
3
 72
19
 73
15
 74
0
 42
0.0000001
 43
0.0000001
 44
0.0000000001
 40
0.0
 40
0.0
 40
0.0
 40
0.0
 40
0.1335970034
 40
0.2656968681
 40
0.3956015062
 40
0.5228795748
 40
0.585468429
 40
0.6472994859
 40
0.7082614289
 40
0.768209916
 40
0.8271933874
 40
0.8854676717
 40
0.9431514411
 40
1.0
 40
1.0
 40
1.0
 40
1.0
 10
5.0500968001
 20
5.5867518381
 30
0.0
 10
5.0499884703
 20
5.5876661194
 30
0.0
 10
5.049697206
 20
5.5894764638
 30
0.0
 10
5.0490339653
 20
5.5921241999
 30
0.0
 10
5.0481561492
 20
5.5946629681
 30
0.0
 10
5.0472445242
 20
5.5966733383
 30
0.0
 10
5.0464123808
 20
5.5981959734
 30
0.0
 10
5.0457433196
 20
5.5992849848
 30
0.0
 10
5.0450310213
 20
5.6003241426
 30
0.0
 10
5.0442812313
 20
5.6013120547
 30
0.0
 10
5.0434935156
 20
5.6022460477
 30
0.0
 10
5.0426630841
 20
5.6031210913
 30
0.0
 10
5.0417913282
 20
5.6039334058
 30
0.0
 10
5.0411842405
 20
5.6044385241
 30
0.0
 10
5.0408764587
 20
5.6046809147
 30
0.0
  0
LINE
  5
400
100
AcDbEntity
  8
0
100
AcDbLine
 62
7
  6
CONTINUOUS
 10
5.0344957768
 20
5.6041204056
 11
5.0342161213
 21
5.604818096
  0
SPLINE
  5
401
100
AcDbEntity
  8
0
100
AcDbSpline
 62
7
  6
CONTINUOUS
 70
0
 71
3
 72
21
 73
17
 74
0
 42
0.0000001
 43
0.0000001
 44
0.0000000001
 40
0.0
 40
0.0
 40
0.0
 40
0.0
 40
0.1463569622
 40
0.2184003878
 40
0.2893979235
 40
0.3591657202
 40
0.4275231329
 40
0.4942886816
 40
0.5592888717
 40
0.6223702994
 40
0.6833875039
 40
0.7422023343
 40
0.7986817547
 40
0.9043278465
 40
0.9534342326
 40
1.0
 40
1.0
 40
1.0
 40
1.0
 10
5.0372358926
 20
5.5862527701
 30
0.0
 10
5.0372125178
 20
5.5871383522
 30
0.0
 10
5.037160053
 20
5.5884594682
 30
0.0
 10
5.0370579992
 20
5.5902082314
 30
0.0
 10
5.0369655769
 20
5.5914930804
 30
0.0
 10
5.0368549604
 20
5.5927541028
 30
0.0
 10
5.0367259154
 20
5.5939876215
 30
0.0
 10
5.0365798623
 20
5.5951901754
 30
0.0
 10
5.0364175393
 20
5.596358414
 30
0.0
 10
5.0362384248
 20
5.5974889983
 30
0.0
 10
5.0360420611
 20
5.5985786929
 30
0.0
 10
5.0358296445
 20
5.5996246582
 30
0.0
 10
5.0355338355
 20
5.6009288811
 30
0.0
 10
5.0352029468
 20
5.6021651045
 30
0.0
 10
5.0348163845
 20
5.6033210932
 30
0.0
 10
5.0346060178
 20
5.6038609987
 30
0.0
 10
5.0344957768
 20
5.6041204056
 30
0.0
  0
SPLINE
  5
402
100
AcDbEntity
  8
0
100
AcDbSpline
 62
7
  6
CONTINUOUS
 70
0
 71
3
 72
15
 73
11
 74
0
 42
0.0000001
 43
0.0000001
 44
0.0000000001
 40
0.0
 40
0.0
 40
0.0
 40
0.0
 40
0.1463654584
 40
0.2894115095
 40
0.427540641
 40
0.5593050306
 40
0.6833937442
 40
0.7986933203
 40
0.9043850455
 40
1.0
 40
1.0
 40
1.0
 40
1.0
 10
4.8098137969
 20
5.5862527693
 30
0.0
 10
4.8098367412
 20
5.587138369
 30
0.0
 10
4.8099044244
 20
5.5888890011
 30
0.0
 10
4.8100743075
 20
5.5914714927
 30
0.0
 10
4.8103114029
 20
5.593959994
 30
0.0
 10
4.810615105
 20
5.5963256962
 30
0.0
 10
4.8109845928
 20
5.5985421605
 30
0.0
 10
4.8114194335
 20
5.6005859406
 30
0.0
 10
4.8119236703
 20
5.6024359485
 30
0.0
 10
4.8123326165
 20
5.6035856657
 30
0.0
 10
4.8125539111
 20
5.6041204072
 30
0.0
  0
SPLINE
  5
403
100
AcDbEntity
  8
0
100
AcDbSpline
 62
7
  6
CONTINUOUS
 70
0
 71
3
 72
15
 73
11
 74
0
 42
0.0000001
 43
0.0000001
 44
0.0000000001
 40
0.0
 40
0.0
 40
0.0
 40
0.0
 40
0.122915017
 40
0.2464414076
 40
0.3705956035
 40
0.4954006836
 40
0.6208233179
 40
0.7467963511
 40
0.8732360739
 40
1.0
 40
1.0
 40
1.0
 40
1.0
 10
4.6949792841
 20
5.6045856482
 30
0.0
 10
4.6941647218
 20
5.6040942289
 30
0.0
 10
4.6925877282
 20
5.6030122344
 30
0.0
 10
4.6904229821
 20
5.60112108
 30
0.0
 10
4.6884827747
 20
5.5989798543
 30
0.0
 10
4.6867957366
 20
5.5966160221
 30
0.0
 10
4.6853874579
 20
5.5940601215
 30
0.0
 10
4.6842798351
 20
5.5913465109
 30
0.0
 10
4.6834909503
 20
5.5885133374
 30
0.0
 10
4.6831862993
 20
5.5865722047
 30
0.0
 10
4.6830905005
 20
5.5855957865
 30
0.0
  0
SPLINE
  5
404
100
AcDbEntity
  8
0
100
AcDbSpline
 62
7
  6
CONTINUOUS
 70
0
 71
3
 72
13
 73
9
 74
0
 42
0.0000001
 43
0.0000001
 44
0.0000000001
 40
0.0
 40
0.0
 40
0.0
 40
0.0
 40
0.2655934985
 40
0.5226197707
 40
0.6468059198
 40
0.7676833325
 40
0.8853356849
 40
1.0
 40
1.0
 40
1.0
 40
1.0
 10
4.7969528892
 20
5.5867518364
 30
0.0
 10
4.7971677133
 20
5.5885662694
 30
0.0
 10
4.797888323
 20
5.5921087906
 30
0.0
 10
4.7995312978
 20
5.5962724841
 30
0.0
 10
4.8012520961
 20
5.5992731038
 30
0.0
 10
4.8027087122
 20
5.6013048937
 30
0.0
 10
4.804333059
 20
5.603118326
 30
0.0
 10
4.8055331737
 20
5.6041804593
 30
0.0
 10
4.8061545551
 20
5.6046663736
 30
0.0
  0
SPLINE
  5
405
100
AcDbEntity
  8
0
100
AcDbSpline
 62
7
  6
CONTINUOUS
 70
0
 71
3
 72
11
 73
7
 74
0
 42
0.0000001
 43
0.0000001
 44
0.0000000001
 40
0.0
 40
0.0
 40
0.0
 40
0.0
 40
0.2311538549
 40
0.4724525624
 40
0.7276449884
 40
1.0
 40
1.0
 40
1.0
 40
1.0
 10
4.3565455465
 20
2.8919457588
 30
0.0
 10
4.3562265692
 20
2.8927694318
 30
0.0
 10
4.3556820916
 20
2.8944963183
 30
0.0
 10
4.3551635792
 20
2.8972336636
 30
0.0
 10
4.3549264073
 20
2.9001668216
 30
0.0
 10
4.3549524216
 20
2.9021854312
 30
0.0
 10
4.3550062387
 20
2.9032247559
 30
0.0
  0
SPLINE
  5
406
100
AcDbEntity
  8
0
100
AcDbSpline
 62
7
  6
CONTINUOUS
 70
0
 71
3
 72
32
 73
28
 74
0
 42
0.0000001
 43
0.0000001
 44
0.0000000001
 40
0.0
 40
0.0
 40
0.0
 40
0.0
 40
0.0409184715
 40
0.0815242489
 40
0.1217185034
 40
0.1614146712
 40
0.200538261
 40
0.2390344139
 40
0.2768616787
 40
0.3139763603
 40
0.3503511681
 40
0.3859784339
 40
0.4208652755
 40
0.4550099658
 40
0.4884154002
 40
0.5211092992
 40
0.5531249857
 40
0.5844973839
 40
0.6453564902
 40
0.7036659369
 40
0.7593903544
 40
0.8125112972
 40
0.8380943123
 40
0.8630351272
 40
0.9110474409
 40
0.9566552489
 40
1.0
 40
1.0
 40
1.0
 40
1.0
 10
5.0822464019
 20
3.7524067925
 30
0.0
 10
5.0827827544
 20
3.7630938003
 30
0.0
 10
5.0839066967
 20
3.7843833931
 30
0.0
 10
5.0857234276
 20
3.8161618119
 30
0.0
 10
5.0876594766
 20
3.8476129556
 30
0.0
 10
5.0897017018
 20
3.8786689343
 30
0.0
 10
5.09182754
 20
3.9092741583
 30
0.0
 10
5.094010486
 20
3.9393853469
 30
0.0
 10
5.096223853
 20
3.9689675112
 30
0.0
 10
5.098442678
 20
3.9979929233
 30
0.0
 10
5.1006529323
 20
4.0264419719
 30
0.0
 10
5.1028421451
 20
4.054308289
 30
0.0
 10
5.1049849291
 20
4.081593265
 30
0.0
 10
5.1070661155
 20
4.1083002638
 30
0.0
 10
5.1090730342
 20
4.1344378304
 30
0.0
 10
5.1109958703
 20
4.1600234365
 30
0.0
 10
5.1128243453
 20
4.1850829398
 30
0.0
 10
5.1150958736
 20
4.2174949578
 30
0.0
 10
5.1176473742
 20
4.2567800893
 30
0.0
 10
5.1202117612
 20
4.3024445401
 30
0.0
 10
5.1222178137
 20
4.3461114092
 30
0.0
 10
5.1234459681
 20
4.3812446907
 30
0.0
 10
5.1241589364
 20
4.4083392552
 30
0.0
 10
5.1246914505
 20
4.4341017364
 30
0.0
 10
5.1250807207
 20
4.4651044382
 30
0.0
 10
5.1251539231
 20
4.5009221991
 30
0.0
 10
5.1249668763
 20
4.5241835862
 30
0.0
 10
5.1248204318
 20
4.5355175871
 30
0.0
  0
SPLINE
  5
407
100
AcDbEntity
  8
0
100
AcDbSpline
 62
7
  6
CONTINUOUS
 70
0
 71
3
 72
19
 73
15
 74
0
 42
0.0000001
 43
0.0000001
 44
0.0000000001
 40
0.0
 40
0.0
 40
0.0
 40
0.0
 40
0.1944346033
 40
0.3721439663
 40
0.5307812955
 40
0.6685240116
 40
0.7291139898
 40
0.7840257293
 40
0.8332067377
 40
0.8766973573
 40
0.9146440654
 40
0.947369957
 40
0.9754814464
 40
1.0
 40
1.0
 40
1.0
 40
1.0
 10
5.0038785803
 20
6.4333725669
 30
0.0
 10
5.00426075
 20
6.4336866745
 30
0.0
 10
5.005001133
 20
6.4342771619
 30
0.0
 10
5.0060865067
 20
6.4350812754
 30
0.0
 10
5.0070863695
 20
6.4357566838
 30
0.0
 10
5.0078665108
 20
6.4362231903
 30
0.0
 10
5.0084384098
 20
6.4365203632
 30
0.0
 10
5.008818979
 20
6.4366960827
 30
0.0
 10
5.0091685652
 20
6.4368338144
 30
0.0
 10
5.0094860662
 20
6.4369331882
 30
0.0
 10
5.009770645
 20
6.4369939498
 30
0.0
 10
5.0100219135
 20
6.4370157094
 30
0.0
 10
5.0102396102
 20
6.4369981404
 30
0.0
 10
5.0103688463
 20
6.4369565948
 30
0.0
 10
5.0104246154
 20
6.4369286444
 30
0.0
  0
LINE
  5
408
100
AcDbEntity
  8
0
100
AcDbLine
 62
7
  6
CONTINUOUS
 10
5.0104246154
 20
6.4369286444
 11
5.0105627224
 21
6.436831646
  0
LINE
  5
409
100
AcDbEntity
  8
0
100
AcDbLine
 62
7
  6
CONTINUOUS
 10
4.9182579931
 20
6.2700518174
 11
4.9198006182
 21
6.2736405954
  0
SPLINE
  5
40A
100
AcDbEntity
  8
0
100
AcDbSpline
 62
7
  6
CONTINUOUS
 70
0
 71
3
 72
11
 73
7
 74
0
 42
0.0000001
 43
0.0000001
 44
0.0000000001
 40
0.0
 40
0.0
 40
0.0
 40
0.0
 40
0.23611425
 40
0.4812427742
 40
0.735906117
 40
1.0
 40
1.0
 40
1.0
 40
1.0
 10
4.8064785837
 20
5.6049694966
 30
0.0
 10
4.8069678383
 20
5.60509687
 30
0.0
 10
4.8079860817
 20
5.6052806794
 30
0.0
 10
4.8095650356
 20
5.6053427498
 30
0.0
 10
4.8111982028
 20
5.605196326
 30
0.0
 10
4.8122876214
 20
5.6049654146
 30
0.0
 10
4.8128335631
 20
5.6048180824
 30
0.0
  0
SPLINE
  5
40B
100
AcDbEntity
  8
0
100
AcDbSpline
 62
7
  6
CONTINUOUS
 70
0
 71
3
 72
11
 73
7
 74
0
 42
0.0000001
 43
0.0000001
 44
0.0000000001
 40
0.0
 40
0.0
 40
0.0
 40
0.0
 40
0.2316761376
 40
0.4752110042
 40
0.7313725918
 40
1.0
 40
1.0
 40
1.0
 40
1.0
 10
4.8061545556
 20
5.6046663737
 30
0.0
 10
4.8066445431
 20
5.6047749121
 30
0.0
 10
4.807670046
 20
5.6049118829
 30
0.0
 10
4.8092592279
 20
5.6048821712
 30
0.0
 10
4.8109081713
 20
5.6046244887
 30
0.0
 10
4.8120041099
 20
5.6043110419
 30
0.0
 10
4.8125539109
 20
5.6041204165
 30
0.0
  0
SPLINE
  5
40C
100
AcDbEntity
  8
0
100
AcDbSpline
 62
7
  6
CONTINUOUS
 70
0
 71
3
 72
14
 73
10
 74
0
 42
0.0000001
 43
0.0000001
 44
0.0000000001
 40
0.0
 40
0.0
 40
0.0
 40
0.0
 40
0.0846433635
 40
0.1845574971
 40
0.2981438261
 40
0.4235671416
 40
0.558764509
 40
0.7014922836
 40
1.0
 40
1.0
 40
1.0
 40
1.0
 10
4.7969528976
 20
5.5867518351
 30
0.0
 10
4.7973152327
 20
5.5867808146
 30
0.0
 10
4.7981070271
 20
5.5868219906
 30
0.0
 10
4.7993873283
 20
5.586844201
 30
0.0
 10
4.8008428879
 20
5.5868310514
 30
0.0
 10
4.802449243
 20
5.5867825602
 30
0.0
 10
4.8041794664
 20
5.5866993237
 30
0.0
 10
4.8066499168
 20
5.5865413074
 30
0.0
 10
4.8085381342
 20
5.5863791755
 30
0.0
 10
4.8098137969
 20
5.5862527692
 30
0.0
  0
SPLINE
  5
40D
100
AcDbEntity
  8
0
100
AcDbSpline
 62
7
  6
CONTINUOUS
 70
0
 71
3
 72
14
 73
10
 74
0
 42
0.0000001
 43
0.0000001
 44
0.0000000001
 40
0.0
 40
0.0
 40
0.0
 40
0.0
 40
0.0847597775
 40
0.1847747341
 40
0.2984381304
 40
0.4239058632
 40
0.5591055071
 40
0.70178377
 40
1.0
 40
1.0
 40
1.0
 40
1.0
 10
4.7968694803
 20
5.5859288588
 30
0.0
 10
4.7972322229
 20
5.5859722631
 30
0.0
 10
4.7980256329
 20
5.5860447896
 30
0.0
 10
4.7993100579
 20
5.5861173265
 30
0.0
 10
4.8007713339
 20
5.5861610554
 30
0.0
 10
4.8023848032
 20
5.5861750334
 30
0.0
 10
4.8041233093
 20
5.5861588075
 30
0.0
 10
4.806605659
 20
5.5860961368
 30
0.0
 10
4.8085042126
 20
5.5860065086
 30
0.0
 10
4.8097872345
 20
5.5859289042
 30
0.0
  0
SPLINE
  5
40E
100
AcDbEntity
  8
0
100
AcDbSpline
 62
7
  6
CONTINUOUS
 70
0
 71
3
 72
11
 73
7
 74
0
 42
0.0000001
 43
0.0000001
 44
0.0000000001
 40
0.0
 40
0.0
 40
0.0
 40
0.0
 40
0.2640938785
 40
0.5187572311
 40
0.763885744
 40
1.0
 40
1.0
 40
1.0
 40
1.0
 10
5.0342161245
 20
5.6048180831
 30
0.0
 10
5.0347620662
 20
5.6049654154
 30
0.0
 10
5.0358514849
 20
5.605196327
 30
0.0
 10
5.0374846521
 20
5.6053427507
 30
0.0
 10
5.0390636061
 20
5.6052806806
 30
0.0
 10
5.0400818496
 20
5.6050968713
 30
0.0
 10
5.0405711042
 20
5.6049694979
 30
0.0
  0
SPLINE
  5
40F
100
AcDbEntity
  8
0
100
AcDbSpline
 62
7
  6
CONTINUOUS
 70
0
 71
3
 72
11
 73
7
 74
0
 42
0.0000001
 43
0.0000001
 44
0.0000000001
 40
0.0
 40
0.0
 40
0.0
 40
0.0
 40
0.2686275096
 40
0.52478852
 40
0.7683236084
 40
1.0
 40
1.0
 40
1.0
 40
1.0
 10
5.0344957775
 20
5.604120442
 30
0.0
 10
5.0350455804
 20
5.6043110613
 30
0.0
 10
5.0361415193
 20
5.6046244983
 30
0.0
 10
5.0377904611
 20
5.60488218
 30
0.0
 10
5.0393796418
 20
5.6049118826
 30
0.0
 10
5.0404051446
 20
5.6047749113
 30
0.0
 10
5.0408951323
 20
5.6046663732
 30
0.0
  0
SPLINE
  5
410
100
AcDbEntity
  8
0
100
AcDbSpline
 62
7
  6
CONTINUOUS
 70
0
 71
3
 72
14
 73
10
 74
0
 42
0.0000001
 43
0.0000001
 44
0.0000000001
 40
0.0
 40
0.0
 40
0.0
 40
0.0
 40
0.298529789
 40
0.4412640309
 40
0.5764635251
 40
0.7018843705
 40
0.8154640274
 40
0.9153682756
 40
1.0
 40
1.0
 40
1.0
 40
1.0
 10
5.0372358925
 20
5.5862525756
 30
0.0
 10
5.0385113067
 20
5.5863789487
 30
0.0
 10
5.0403991391
 20
5.586541031
 30
0.0
 10
5.0428690576
 20
5.5866989794
 30
0.0
 10
5.0445988428
 20
5.5867821642
 30
0.0
 10
5.0462047362
 20
5.5868306057
 30
0.0
 10
5.0476598225
 20
5.5868437099
 30
0.0
 10
5.0489396571
 20
5.5868214615
 30
0.0
 10
5.0497311442
 20
5.5867802654
 30
0.0
 10
5.0500933303
 20
5.5867512779
 30
0.0
  0
SPLINE
  5
411
100
AcDbEntity
  8
0
100
AcDbSpline
 62
7
  6
CONTINUOUS
 70
0
 71
3
 72
14
 73
10
 74
0
 42
0.0000001
 43
0.0000001
 44
0.0000000001
 40
0.0
 40
0.0
 40
0.0
 40
0.0
 40
0.2982132222
 40
0.4408906403
 40
0.576090019
 40
0.7015580903
 40
0.8152223782
 40
0.915238657
 40
1.0
 40
1.0
 40
1.0
 40
1.0
 10
5.0372624549
 20
5.5859289041
 30
0.0
 10
5.0385454921
 20
5.5860064968
 30
0.0
 10
5.0404440702
 20
5.5860961127
 30
0.0
 10
5.0429264554
 20
5.5861587788
 30
0.0
 10
5.0446649953
 20
5.5861750071
 30
0.0
 10
5.0462785033
 20
5.5861610367
 30
0.0
 10
5.0477398219
 20
5.5861173204
 30
0.0
 10
5.0490242916
 20
5.5860448003
 30
0.0
 10
5.0498177325
 20
5.585972289
 30
0.0
 10
5.0501804908
 20
5.5859288932
 30
0.0
  0
LINE
  5
412
100
AcDbEntity
  8
0
100
AcDbLine
 62
7
  6
CONTINUOUS
 10
4.9272490712
 20
6.2736405954
 11
4.9287916963
 21
6.2700518174
  0
SPLINE
  5
413
100
AcDbEntity
  8
0
100
AcDbSpline
 62
7
  6
CONTINUOUS
 70
0
 71
3
 72
21
 73
17
 74
0
 42
0.0000001
 43
0.0000001
 44
0.0000000001
 40
0.0
 40
0.0
 40
0.0
 40
0.0
 40
0.1899210537
 40
0.3657401348
 40
0.4472663847
 40
0.5240219752
 40
0.5956626284
 40
0.6619138689
 40
0.7225577892
 40
0.777468658
 40
0.8266180672
 40
0.8701370209
 40
0.9083591373
 40
0.9419425511
 40
0.9719661337
 40
1.0
 40
1.0
 40
1.0
 40
1.0
 10
4.7332579931
 20
6.1776696265
 30
0.0
 10
4.7325697169
 20
6.1776006513
 30
0.0
 10
4.7312469651
 20
6.1774386251
 30
0.0
 10
4.7296413245
 20
6.1771580722
 30
0.0
 10
4.7284536872
 20
6.1768921113
 30
0.0
 10
4.7276431612
 20
6.1766808425
 30
0.0
 10
4.7268948024
 20
6.1764539019
 30
0.0
 10
4.7262128087
 20
6.1762126937
 30
0.0
 10
4.7256009658
 20
6.1759585014
 30
0.0
 10
4.7250625469
 20
6.1756928493
 30
0.0
 10
4.7246004048
 20
6.1754170009
 30
0.0
 10
4.7242167358
 20
6.175132339
 30
0.0
 10
4.7239134287
 20
6.1748396342
 30
0.0
 10
4.7236921961
 20
6.1745390862
 30
0.0
 10
4.7235561638
 20
6.1742308374
 30
0.0
 10
4.7235248447
 20
6.1740183841
 30
0.0
 10
4.7235248447
 20
6.1739162802
 30
0.0
  0
SPLINE
  5
414
100
AcDbEntity
  8
0
100
AcDbSpline
 62
7
  6
CONTINUOUS
 70
0
 71
3
 72
19
 73
15
 74
0
 42
0.0000001
 43
0.0000001
 44
0.0000000001
 40
0.0
 40
0.0
 40
0.0
 40
0.0
 40
0.1752743664
 40
0.34237208
 40
0.4976518784
 40
0.6377903866
 40
0.7012630451
 40
0.7599122815
 40
0.8134644754
 40
0.8617054774
 40
0.9044755577
 40
0.941715959
 40
0.9734779273
 40
1.0
 40
1.0
 40
1.0
 40
1.0
 10
4.7348006182
 20
6.1740808484
 30
0.0
 10
4.7343070276
 20
6.1735352556
 30
0.0
 10
4.733358123
 20
6.1724555867
 30
0.0
 10
4.7320284732
 20
6.1708439732
 30
0.0
 10
4.7308459976
 20
6.1693036277
 30
0.0
 10
4.7299785061
 20
6.1680712005
 30
0.0
 10
4.7293821429
 20
6.167145691
 30
0.0
 10
4.7290020186
 20
6.1665136414
 30
0.0
 10
4.728676168
 20
6.1659240431
 30
0.0
 10
4.7284062814
 20
6.1653802661
 30
0.0
 10
4.7281937912
 20
6.1648852752
 30
0.0
 10
4.7280395905
 20
6.1644415567
 30
0.0
 10
4.727944428
 20
6.1640513834
 30
0.0
 10
4.727918243
 20
6.163806765
 30
0.0
 10
4.727918243
 20
6.1636954357
 30
0.0
  0
SPLINE
  5
415
100
AcDbEntity
  8
0
100
AcDbSpline
 62
7
  6
CONTINUOUS
 70
0
 71
3
 72
19
 73
15
 74
0
 42
0.0000001
 43
0.0000001
 44
0.0000000001
 40
0.0
 40
0.0
 40
0.0
 40
0.0
 40
0.1752743664
 40
0.34237208
 40
0.4976518784
 40
0.6377903866
 40
0.7012630451
 40
0.7599122815
 40
0.8134644754
 40
0.8617054774
 40
0.9044755577
 40
0.941715959
 40
0.9734779273
 40
1.0
 40
1.0
 40
1.0
 40
1.0
 10
5.0038785803
 20
6.0696517431
 30
0.0
 10
5.0043721708
 20
6.0691061503
 30
0.0
 10
5.0053210755
 20
6.0680264814
 30
0.0
 10
5.0066507253
 20
6.0664148679
 30
0.0
 10
5.0078332009
 20
6.0648745224
 30
0.0
 10
5.0087006924
 20
6.0636420952
 30
0.0
 10
5.0092970556
 20
6.0627165857
 30
0.0
 10
5.0096771799
 20
6.0620845361
 30
0.0
 10
5.0100030305
 20
6.0614949378
 30
0.0
 10
5.010272917
 20
6.0609511608
 30
0.0
 10
5.0104854073
 20
6.0604561699
 30
0.0
 10
5.010639608
 20
6.0600124513
 30
0.0
 10
5.0107347705
 20
6.0596222781
 30
0.0
 10
5.0107609555
 20
6.0593776597
 30
0.0
 10
5.0107609555
 20
6.0592663304
 30
0.0
  0
SPLINE
  5
416
100
AcDbEntity
  8
0
100
AcDbSpline
 62
7
  6
CONTINUOUS
 70
0
 71
3
 72
15
 73
11
 74
0
 42
0.0000001
 43
0.0000001
 44
0.0000000001
 40
0.0
 40
0.0
 40
0.0
 40
0.0
 40
0.1274079898
 40
0.2546112115
 40
0.3813944143
 40
0.5075375379
 40
0.6327918712
 40
0.7568675838
 40
0.8794248999
 40
1.0
 40
1.0
 40
1.0
 40
1.0
 10
4.9235248447
 20
5.7226112031
 30
0.0
 10
4.9264492187
 20
5.7226112042
 30
0.0
 10
4.932293391
 20
5.7226598964
 30
0.0
 10
4.9410450539
 20
5.7228833049
 30
0.0
 10
4.9497622793
 20
5.7232649823
 30
0.0
 10
4.9584256285
 20
5.7238175906
 30
0.0
 10
4.9670127129
 20
5.7245583668
 30
0.0
 10
4.9754964788
 20
5.7255101598
 30
0.0
 10
4.9838417569
 20
5.7267009963
 30
0.0
 10
4.9893366058
 20
5.7276851931
 30
0.0
 10
4.9920496457
 20
5.7282317198
 30
0.0
  0
SPLINE
  5
417
100
AcDbEntity
  8
0
100
AcDbSpline
 62
7
  6
CONTINUOUS
 70
0
 71
3
 72
15
 73
11
 74
0
 42
0.0000001
 43
0.0000001
 44
0.0000000001
 40
0.0
 40
0.0
 40
0.0
 40
0.0
 40
0.1207007437
 40
0.2433338751
 40
0.3674435532
 40
0.4926961159
 40
0.6188078285
 40
0.7455367852
 40
0.8726700752
 40
1.0
 40
1.0
 40
1.0
 40
1.0
 10
4.8558821497
 20
5.7282317198
 30
0.0
 10
4.8585628756
 20
5.727689311
 30
0.0
 10
4.8639908226
 20
5.7267102436
 30
0.0
 10
4.8722330515
 20
5.7255215201
 30
0.0
 10
4.8806094978
 20
5.7245689207
 30
0.0
 10
4.889085955
 20
5.7238259289
 30
0.0
 10
4.8976360854
 20
5.7232705727
 30
0.0
 10
4.9062381564
 20
5.7228861702
 30
0.0
 10
4.914873376
 20
5.7226605727
 30
0.0
 10
4.920639579
 20
5.7226112055
 30
0.0
 10
4.9235248447
 20
5.7226112031
 30
0.0
  0
SPLINE
  5
418
100
AcDbEntity
  8
0
100
AcDbSpline
 62
7
  6
CONTINUOUS
 70
0
 71
3
 72
11
 73
7
 74
0
 42
0.0000001
 43
0.0000001
 44
0.0000000001
 40
0.0
 40
0.0
 40
0.0
 40
0.0
 40
0.2665062214
 40
0.5234000592
 40
0.7685500328
 40
1.0
 40
1.0
 40
1.0
 40
1.0
 10
4.8558821497
 20
5.7282317198
 30
0.0
 10
4.8576200394
 20
5.7306218749
 30
0.0
 10
4.860948698
 20
5.735378189
 30
0.0
 10
4.8655601517
 20
5.7425476184
 30
0.0
 10
4.8696675739
 20
5.749570601
 30
0.0
 10
4.8721197258
 20
5.7542550954
 30
0.0
 10
4.8732468786
 20
5.7565607904
 30
0.0
  0
LINE
  5
419
100
AcDbEntity
  8
0
100
AcDbLine
 62
7
  6
CONTINUOUS
 10
4.7332579931
 20
6.3253546835
 11
4.7348006182
 21
6.3289434616
  0
SPLINE
  5
41A
100
AcDbEntity
  8
0
100
AcDbSpline
 62
7
  6
CONTINUOUS
 70
0
 71
3
 72
20
 73
16
 74
0
 42
0.0000001
 43
0.0000001
 44
0.0000000001
 40
0.0
 40
0.0
 40
0.0
 40
0.0
 40
0.2013957288
 40
0.3841827969
 40
0.5456881625
 40
0.6178072964
 40
0.683867193
 40
0.7437199683
 40
0.7972740772
 40
0.8445270486
 40
0.8856031942
 40
0.9208069387
 40
0.9507612382
 40
0.9765643582
 40
1.0
 40
1.0
 40
1.0
 40
1.0
 10
4.7348006182
 20
6.3289434616
 30
0.0
 10
4.734396029
 20
6.3292759959
 30
0.0
 10
4.7336142792
 20
6.3298984296
 30
0.0
 10
4.7324709181
 20
6.3307394531
 30
0.0
 10
4.7315688867
 20
6.3313396495
 30
0.0
 10
4.7308997574
 20
6.3317393979
 30
0.0
 10
4.7304479705
 20
6.3319868285
 30
0.0
 10
4.7300288606
 20
6.3321925408
 30
0.0
 10
4.7296440067
 20
6.33235578
 30
0.0
 10
4.7292947931
 20
6.3324760002
 30
0.0
 10
4.7289823101
 20
6.3325529041
 30
0.0
 10
4.7287071625
 20
6.3325861024
 30
0.0
 10
4.7284693728
 20
6.3325750297
 30
0.0
 10
4.7282690663
 20
6.3325177411
 30
0.0
 10
4.7281604247
 20
6.3324448739
 30
0.0
 10
4.7281165331
 20
6.3324025955
 30
0.0
  0
LINE
  5
41B
100
AcDbEntity
  8
0
100
AcDbLine
 62
7
  6
CONTINUOUS
 10
5.1248204318
 20
4.5355175871
 11
5.1248024962
 21
4.5368554818
  0
SPLINE
  5
41C
100
AcDbEntity
  8
0
100
AcDbSpline
 62
7
  6
CONTINUOUS
 70
0
 71
3
 72
28
 73
24
 74
0
 42
0.0000001
 43
0.0000001
 44
0.0000000001
 40
0.0
 40
0.0
 40
0.0
 40
0.0
 40
0.0189971902
 40
0.0384196333
 40
0.058503223
 40
0.079461216
 40
0.1014666554
 40
0.1246459039
 40
0.1490864735
 40
0.1748396693
 40
0.2019254092
 40
0.23033575
 40
0.2909609478
 40
0.3562635339
 40
0.4255218088
 40
0.4978399688
 40
0.5722011859
 40
0.6475131363
 40
0.7226497226
 40
0.7964907407
 40
0.8679634383
 40
0.9360815285
 40
1.0
 40
1.0
 40
1.0
 40
1.0
 10
4.9860248441
 20
5.6376957589
 30
0.0
 10
4.9857287118
 20
5.6377172873
 30
0.0
 10
4.9851321473
 20
5.6378036853
 30
0.0
 10
4.9842511911
 20
5.6380581063
 30
0.0
 10
4.983382613
 20
5.6384367383
 30
0.0
 10
4.9825310663
 20
5.6389368123
 30
0.0
 10
4.9817005266
 20
5.6395554553
 30
0.0
 10
4.9808948029
 20
5.6402892277
 30
0.0
 10
4.980117715
 20
5.6411344
 30
0.0
 10
4.9793728573
 20
5.6420866601
 30
0.0
 10
4.978663731
 20
5.6431413055
 30
0.0
 10
4.9777507855
 20
5.644711104
 30
0.0
 10
4.9767292719
 20
5.6469022924
 30
0.0
 10
4.9757213547
 20
5.649786012
 30
0.0
 10
4.9749250569
 20
5.6529237224
 30
0.0
 10
4.9743561055
 20
5.6562536868
 30
0.0
 10
4.9740257447
 20
5.6597105438
 30
0.0
 10
4.9739405639
 20
5.6632260495
 30
0.0
 10
4.9741022719
 20
5.6667307581
 30
0.0
 10
4.9745076134
 20
5.6701554064
 30
0.0
 10
4.9751486
 20
5.6734325901
 30
0.0
 10
4.9760123311
 20
5.6764975138
 30
0.0
 10
4.9767518626
 20
5.6784283735
 30
0.0
 10
4.9771595007
 20
5.6793404267
 30
0.0
  0
SPLINE
  5
41D
100
AcDbEntity
  8
0
100
AcDbSpline
 62
7
  6
CONTINUOUS
 70
0
 71
3
 72
28
 73
24
 74
0
 42
0.0000001
 43
0.0000001
 44
0.0000000001
 40
0.0
 40
0.0
 40
0.0
 40
0.0
 40
0.0189973775
 40
0.0384199883
 40
0.0585037226
 40
0.079461836
 40
0.1014673713
 40
0.1246466922
 40
0.1490873124
 40
0.1748405389
 40
0.2019262917
 40
0.2303366296
 40
0.2909617823
 40
0.3562642842
 40
0.4255224494
 40
0.4978404864
 40
0.5722015776
 40
0.6475134083
 40
0.7226498893
 40
0.796490823
 40
0.8679634624
 40
0.9360815244
 40
1.0
 40
1.0
 40
1.0
 40
1.0
 10
4.8610248459
 20
5.6376957589
 30
0.0
 10
4.8613209816
 20
5.6377172874
 30
0.0
 10
4.8619175526
 20
5.6378036853
 30
0.0
 10
4.8627985184
 20
5.6380581063
 30
0.0
 10
4.8636671054
 20
5.6384367382
 30
0.0
 10
4.8645186604
 20
5.6389368123
 30
0.0
 10
4.8653492077
 20
5.6395554552
 30
0.0
 10
4.8661549382
 20
5.6402892277
 30
0.0
 10
4.8669320322
 20
5.6411344
 30
0.0
 10
4.8676768952
 20
5.6420866602
 30
0.0
 10
4.868386026
 20
5.6431413057
 30
0.0
 10
4.8692989764
 20
5.6447111039
 30
0.0
 10
4.8703204942
 20
5.6469022921
 30
0.0
 10
4.8713284136
 20
5.6497860121
 30
0.0
 10
4.8721247105
 20
5.6529237227
 30
0.0
 10
4.8726936584
 20
5.6562536872
 30
0.0
 10
4.8730240133
 20
5.6597105443
 30
0.0
 10
4.8731091859
 20
5.6632260501
 30
0.0
 10
4.872947468
 20
5.6667307587
 30
0.0
 10
4.872542115
 20
5.6701554071
 30
0.0
 10
4.871901116
 20
5.6734325908
 30
0.0
 10
4.8710373718
 20
5.6764975145
 30
0.0
 10
4.8702978314
 20
5.6784283737
 30
0.0
 10
4.8698901888
 20
5.6793404266
 30
0.0
  0
SPLINE
  5
41E
100
AcDbEntity
  8
0
100
AcDbSpline
 62
7
  6
CONTINUOUS
 70
0
 71
3
 72
36
 73
32
 74
0
 42
0.0000001
 43
0.0000001
 44
0.0000000001
 40
0.0
 40
0.0
 40
0.0
 40
0.0
 40
0.0433444219
 40
0.0658546949
 40
0.0889539741
 40
0.1126547824
 40
0.1369687283
 40
0.1619095151
 40
0.1874921273
 40
0.2137263288
 40
0.2406128052
 40
0.2963375213
 40
0.3546447565
 40
0.4155041193
 40
0.44687658
 40
0.4788915003
 40
0.5115840853
 40
0.5449885448
 40
0.5791335565
 40
0.614020573
 40
0.6496471006
 40
0.6860224507
 40
0.7231386718
 40
0.7609670201
 40
0.7994632235
 40
0.8385861054
 40
0.8782817394
 40
0.9184758584
 40
0.9387326806
 40
0.9590815027
 40
1.0
 40
1.0
 40
1.0
 40
1.0
 10
4.7222285342
 20
4.5355184226
 30
0.0
 10
4.7220823824
 20
4.524184493
 30
0.0
 10
4.7219432214
 20
4.5069632271
 30
0.0
 10
4.7219301476
 20
4.4837010672
 30
0.0
 10
4.7220141962
 20
4.4655760248
 30
0.0
 10
4.722198369
 20
4.446980031
 30
0.0
 10
4.7224886291
 20
4.427903759
 30
0.0
 10
4.722892957
 20
4.4083373427
 30
0.0
 10
4.7234205479
 20
4.3882715164
 30
0.0
 10
4.7240786788
 20
4.367700463
 30
0.0
 10
4.7251479828
 20
4.3392565902
 30
0.0
 10
4.7268400465
 20
4.3024435253
 30
0.0
 10
4.7294017771
 20
4.256779349
 30
0.0
 10
4.731954052
 20
4.2174947099
 30
0.0
 10
4.7342257383
 20
4.1850827915
 30
0.0
 10
4.7360536978
 20
4.1600237552
 30
0.0
 10
4.7379756547
 20
4.1344388593
 30
0.0
 10
4.73998185
 20
4.1083017273
 30
0.0
 10
4.742063529
 20
4.0815948661
 30
0.0
 10
4.7442066002
 20
4.0543099495
 30
0.0
 10
4.7463949496
 20
4.026443543
 30
0.0
 10
4.7486057705
 20
3.9979941587
 30
0.0
 10
4.7508260627
 20
3.9689680003
 30
0.0
 10
4.7530405316
 20
3.939385188
 30
0.0
 10
4.7552236652
 20
3.9092738709
 30
0.0
 10
4.7573485072
 20
3.878668859
 30
0.0
 10
4.7593900227
 20
3.8476131671
 30
0.0
 10
4.7609992789
 20
3.8214735321
 30
0.0
 10
4.7622279175
 20
3.8003795598
 30
0.0
 10
4.7634218636
 20
3.7790938719
 30
0.0
 10
4.7642665898
 20
3.7630942399
 30
0.0
 10
4.7648030926
 20
3.7524072225
 30
0.0
  0
SPLINE
  5
41F
100
AcDbEntity
  8
0
100
AcDbSpline
 62
7
  6
CONTINUOUS
 70
0
 71
3
 72
21
 73
17
 74
0
 42
0.0000001
 43
0.0000001
 44
0.0000000001
 40
0.0
 40
0.0
 40
0.0
 40
0.0
 40
0.1899210538
 40
0.3657401351
 40
0.4472663851
 40
0.5240219756
 40
0.5956626288
 40
0.6619138693
 40
0.7225577896
 40
0.7774686584
 40
0.8266180675
 40
0.8701370212
 40
0.9083591375
 40
0.9419425512
 40
0.9719661338
 40
1.0
 40
1.0
 40
1.0
 40
1.0
 10
4.7332579931
 20
6.3253546835
 30
0.0
 10
4.7325697169
 20
6.3252857084
 30
0.0
 10
4.7312469651
 20
6.3251236821
 30
0.0
 10
4.7296413245
 20
6.3248431292
 30
0.0
 10
4.7284536872
 20
6.3245771684
 30
0.0
 10
4.7276431612
 20
6.3243658995
 30
0.0
 10
4.7268948024
 20
6.3241389589
 30
0.0
 10
4.7262128087
 20
6.3238977508
 30
0.0
 10
4.7256009658
 20
6.3236435585
 30
0.0
 10
4.7250625469
 20
6.3233779063
 30
0.0
 10
4.7246004048
 20
6.323102058
 30
0.0
 10
4.7242167358
 20
6.3228173961
 30
0.0
 10
4.7239134287
 20
6.3225246912
 30
0.0
 10
4.7236921961
 20
6.3222241433
 30
0.0
 10
4.7235561638
 20
6.3219158945
 30
0.0
 10
4.7235248447
 20
6.3217034412
 30
0.0
 10
4.7235248447
 20
6.3216013372
 30
0.0
  0
SPLINE
  5
420
100
AcDbEntity
  8
0
100
AcDbSpline
 62
7
  6
CONTINUOUS
 70
0
 71
3
 72
19
 73
15
 74
0
 42
0.0000001
 43
0.0000001
 44
0.0000000001
 40
0.0
 40
0.0
 40
0.0
 40
0.0
 40
0.1752743663
 40
0.3423720797
 40
0.4976518779
 40
0.6377903861
 40
0.7012630446
 40
0.759912281
 40
0.813464475
 40
0.861705477
 40
0.9044755574
 40
0.9417159589
 40
0.9734779272
 40
1.0
 40
1.0
 40
1.0
 40
1.0
 10
4.8431711092
 20
6.0696517431
 30
0.0
 10
4.8426775186
 20
6.0691061503
 30
0.0
 10
4.841728614
 20
6.0680264814
 30
0.0
 10
4.8403989641
 20
6.0664148679
 30
0.0
 10
4.8392164885
 20
6.0648745224
 30
0.0
 10
4.838348997
 20
6.0636420952
 30
0.0
 10
4.8377526339
 20
6.0627165857
 30
0.0
 10
4.8373725096
 20
6.0620845361
 30
0.0
 10
4.8370466589
 20
6.0614949378
 30
0.0
 10
4.8367767724
 20
6.0609511608
 30
0.0
 10
4.8365642821
 20
6.0604561699
 30
0.0
 10
4.8364100815
 20
6.0600124514
 30
0.0
 10
4.836314919
 20
6.0596222781
 30
0.0
 10
4.836288734
 20
6.0593776597
 30
0.0
 10
4.836288734
 20
6.0592663304
 30
0.0
  0
SPLINE
  5
421
100
AcDbEntity
  8
0
100
AcDbSpline
 62
7
  6
CONTINUOUS
 70
0
 71
3
 72
19
 73
15
 74
0
 42
0.0000001
 43
0.0000001
 44
0.0000000001
 40
0.0
 40
0.0
 40
0.0
 40
0.0
 40
0.1752743663
 40
0.3423720797
 40
0.4976518779
 40
0.6377903861
 40
0.7012630446
 40
0.759912281
 40
0.813464475
 40
0.861705477
 40
0.9044755574
 40
0.9417159589
 40
0.9734779272
 40
1.0
 40
1.0
 40
1.0
 40
1.0
 10
5.1122490712
 20
6.1740808484
 30
0.0
 10
5.1127426618
 20
6.1735352556
 30
0.0
 10
5.1136915665
 20
6.1724555867
 30
0.0
 10
5.1150212163
 20
6.1708439732
 30
0.0
 10
5.1162036919
 20
6.1693036277
 30
0.0
 10
5.1170711834
 20
6.1680712005
 30
0.0
 10
5.1176675465
 20
6.167145691
 30
0.0
 10
5.1180476708
 20
6.1665136414
 30
0.0
 10
5.1183735215
 20
6.1659240431
 30
0.0
 10
5.118643408
 20
6.1653802661
 30
0.0
 10
5.1188558983
 20
6.1648852752
 30
0.0
 10
5.1190100989
 20
6.1644415567
 30
0.0
 10
5.1191052614
 20
6.1640513834
 30
0.0
 10
5.1191314464
 20
6.163806765
 30
0.0
 10
5.1191314464
 20
6.1636954357
 30
0.0
  0
SPLINE
  5
422
100
AcDbEntity
  8
0
100
AcDbSpline
 62
7
  6
CONTINUOUS
 70
0
 71
3
 72
21
 73
17
 74
0
 42
0.0000001
 43
0.0000001
 44
0.0000000001
 40
0.0
 40
0.0
 40
0.0
 40
0.0
 40
0.1899210538
 40
0.3657401351
 40
0.4472663851
 40
0.5240219756
 40
0.5956626288
 40
0.6619138693
 40
0.7225577896
 40
0.7774686584
 40
0.8266180675
 40
0.8701370212
 40
0.9083591375
 40
0.9419425512
 40
0.9719661338
 40
1.0
 40
1.0
 40
1.0
 40
1.0
 10
5.1137916963
 20
6.1776696265
 30
0.0
 10
5.1144799725
 20
6.1776006513
 30
0.0
 10
5.1158027244
 20
6.1774386251
 30
0.0
 10
5.117408365
 20
6.1771580722
 30
0.0
 10
5.1185960022
 20
6.1768921113
 30
0.0
 10
5.1194065282
 20
6.1766808425
 30
0.0
 10
5.120154887
 20
6.1764539019
 30
0.0
 10
5.1208368807
 20
6.1762126937
 30
0.0
 10
5.1214487237
 20
6.1759585014
 30
0.0
 10
5.1219871425
 20
6.1756928493
 30
0.0
 10
5.1224492846
 20
6.1754170009
 30
0.0
 10
5.1228329537
 20
6.175132339
 30
0.0
 10
5.1231362607
 20
6.1748396341
 30
0.0
 10
5.1233574933
 20
6.1745390862
 30
0.0
 10
5.1234935256
 20
6.1742308374
 30
0.0
 10
5.1235248447
 20
6.1740183841
 30
0.0
 10
5.1235248447
 20
6.1739162802
 30
0.0
  0
SPLINE
  5
423
100
AcDbEntity
  8
0
100
AcDbSpline
 62
7
  6
CONTINUOUS
 70
0
 71
3
 72
20
 73
16
 74
0
 42
0.0000001
 43
0.0000001
 44
0.0000000001
 40
0.0
 40
0.0
 40
0.0
 40
0.0
 40
0.201398977
 40
0.384188379
 40
0.5456950037
 40
0.6178143256
 40
0.6838741035
 40
0.7437264574
 40
0.797279849
 40
0.8445318382
 40
0.8856067844
 40
0.9208092132
 40
0.9507622571
 40
0.9765644805
 40
1.0
 40
1.0
 40
1.0
 40
1.0
 10
4.8431711092
 20
6.4333725669
 30
0.0
 10
4.8427665094
 20
6.4337051099
 30
0.0
 10
4.84198474
 20
6.4343275586
 30
0.0
 10
4.8408413518
 20
6.4351685994
 30
0.0
 10
4.839939301
 20
6.4357688041
 30
0.0
 10
4.8392701596
 20
6.4361685543
 30
0.0
 10
4.8388183669
 20
6.4364159833
 30
0.0
 10
4.8383992533
 20
6.4366216914
 30
0.0
 10
4.838014398
 20
6.4367849241
 30
0.0
 10
4.8376651853
 20
6.4369051352
 30
0.0
 10
4.8373527054
 20
6.4369820277
 30
0.0
 10
4.8370775629
 20
6.4370152121
 30
0.0
 10
4.8368397803
 20
6.4370041227
 30
0.0
 10
4.836639483
 20
6.4369468135
 30
0.0
 10
4.8365308527
 20
6.436873931
 30
0.0
 10
4.8364869671
 20
6.436831646
 30
0.0
  0
LINE
  5
424
100
AcDbEntity
  8
0
100
AcDbLine
 62
7
  6
CONTINUOUS
 10
4.7222471932
 20
4.5368554818
 11
4.7222285342
 21
4.5355184226
  0
LINE
  5
425
100
AcDbEntity
  8
0
100
AcDbLine
 62
7
  6
CONTINUOUS
 10
5.3228996905
 20
4.6822570079
 11
5.3293000393
 21
4.7482080152
  0
SPLINE
  5
426
100
AcDbEntity
  8
0
100
AcDbSpline
 62
7
  6
CONTINUOUS
 70
0
 71
3
 72
20
 73
16
 74
0
 42
0.0000001
 43
0.0000001
 44
0.0000000001
 40
0.0
 40
0.0
 40
0.0
 40
0.0
 40
0.2013957289
 40
0.3841827971
 40
0.5456881627
 40
0.6178072966
 40
0.6838671932
 40
0.7437199684
 40
0.7972740774
 40
0.8445270488
 40
0.8856031944
 40
0.9208069388
 40
0.9507612382
 40
0.9765643582
 40
1.0
 40
1.0
 40
1.0
 40
1.0
 10
5.1122490712
 20
6.3289434616
 30
0.0
 10
5.1126536604
 20
6.3292759959
 30
0.0
 10
5.1134354103
 20
6.3298984296
 30
0.0
 10
5.1145787714
 20
6.3307394531
 30
0.0
 10
5.1154808028
 20
6.3313396495
 30
0.0
 10
5.116149932
 20
6.3317393979
 30
0.0
 10
5.116601719
 20
6.3319868285
 30
0.0
 10
5.1170208288
 20
6.3321925408
 30
0.0
 10
5.1174056828
 20
6.33235578
 30
0.0
 10
5.1177548963
 20
6.3324760002
 30
0.0
 10
5.1180673794
 20
6.3325529041
 30
0.0
 10
5.118342527
 20
6.3325861024
 30
0.0
 10
5.1185803166
 20
6.3325750297
 30
0.0
 10
5.1187806231
 20
6.3325177411
 30
0.0
 10
5.1188892648
 20
6.3324448739
 30
0.0
 10
5.1189331564
 20
6.3324025955
 30
0.0
  0
LINE
  5
427
100
AcDbEntity
  8
0
100
AcDbLine
 62
7
  6
CONTINUOUS
 10
5.1122490712
 20
6.3289434616
 11
5.1137916963
 21
6.3253546835
  0
SPLINE
  5
428
100
AcDbEntity
  8
0
100
AcDbSpline
 62
7
  6
CONTINUOUS
 70
0
 71
3
 72
21
 73
17
 74
0
 42
0.0000001
 43
0.0000001
 44
0.0000000001
 40
0.0
 40
0.0
 40
0.0
 40
0.0
 40
0.1899210537
 40
0.3657401348
 40
0.4472663847
 40
0.5240219752
 40
0.5956626284
 40
0.6619138689
 40
0.7225577892
 40
0.777468658
 40
0.8266180672
 40
0.8701370209
 40
0.9083591373
 40
0.9419425511
 40
0.9719661337
 40
1.0
 40
1.0
 40
1.0
 40
1.0
 10
5.1137916963
 20
6.3253546835
 30
0.0
 10
5.1144799725
 20
6.3252857084
 30
0.0
 10
5.1158027244
 20
6.3251236821
 30
0.0
 10
5.117408365
 20
6.3248431292
 30
0.0
 10
5.1185960022
 20
6.3245771684
 30
0.0
 10
5.1194065282
 20
6.3243658995
 30
0.0
 10
5.120154887
 20
6.3241389589
 30
0.0
 10
5.1208368807
 20
6.3238977508
 30
0.0
 10
5.1214487237
 20
6.3236435585
 30
0.0
 10
5.1219871425
 20
6.3233779063
 30
0.0
 10
5.1224492846
 20
6.323102058
 30
0.0
 10
5.1228329537
 20
6.3228173961
 30
0.0
 10
5.1231362607
 20
6.3225246912
 30
0.0
 10
5.1233574933
 20
6.3222241433
 30
0.0
 10
5.1234935256
 20
6.3219158945
 30
0.0
 10
5.1235248447
 20
6.3217034412
 30
0.0
 10
5.1235248447
 20
6.3216013372
 30
0.0
  0
SPLINE
  5
429
100
AcDbEntity
  8
0
100
AcDbSpline
 62
7
  6
CONTINUOUS
 70
0
 71
3
 72
13
 73
9
 74
0
 42
0.0000001
 43
0.0000001
 44
0.0000000001
 40
0.0
 40
0.0
 40
0.0
 40
0.0
 40
0.2519515758
 40
0.5021935468
 40
0.626953332
 40
0.7514459893
 40
0.8757810261
 40
1.0
 40
1.0
 40
1.0
 40
1.0
 10
4.727918243
 20
6.1557838455
 30
0.0
 10
4.7272276515
 20
6.1564493205
 30
0.0
 10
4.7259775649
 20
6.1579144372
 30
0.0
 10
4.7248110271
 20
6.1600155666
 30
0.0
 10
4.7241481674
 20
6.1618005404
 30
0.0
 10
4.7237895801
 20
6.1631792874
 30
0.0
 10
4.723573151
 20
6.1645850285
 30
0.0
 10
4.7235248447
 20
6.165531853
 30
0.0
 10
4.7235248447
 20
6.1660046899
 30
0.0
  0
SPLINE
  5
42A
100
AcDbEntity
  8
0
100
AcDbSpline
 62
7
  6
CONTINUOUS
 70
0
 71
3
 72
13
 73
9
 74
0
 42
0.0000001
 43
0.0000001
 44
0.0000000001
 40
0.0
 40
0.0
 40
0.0
 40
0.0
 40
0.1242189739
 40
0.2485540107
 40
0.373046668
 40
0.4978064532
 40
0.7480484242
 40
1.0
 40
1.0
 40
1.0
 40
1.0
 10
4.7235248447
 20
6.1739162802
 30
0.0
 10
4.7235248447
 20
6.1734434433
 30
0.0
 10
4.723573151
 20
6.1724966188
 30
0.0
 10
4.7237895801
 20
6.1710908777
 30
0.0
 10
4.7241481674
 20
6.1697121306
 30
0.0
 10
4.7248110271
 20
6.1679271569
 30
0.0
 10
4.7259775649
 20
6.1658260275
 30
0.0
 10
4.7272276515
 20
6.1643609108
 30
0.0
 10
4.727918243
 20
6.1636954357
 30
0.0
  0
SPLINE
  5
42B
100
AcDbEntity
  8
0
100
AcDbSpline
 62
7
  6
CONTINUOUS
 70
0
 71
3
 72
13
 73
9
 74
0
 42
0.0000001
 43
0.0000001
 44
0.0000000001
 40
0.0
 40
0.0
 40
0.0
 40
0.0
 40
0.1242189739
 40
0.2485540107
 40
0.373046668
 40
0.4978064532
 40
0.7480484242
 40
1.0
 40
1.0
 40
1.0
 40
1.0
 10
5.1235248447
 20
6.1660046899
 30
0.0
 10
5.1235248447
 20
6.165531853
 30
0.0
 10
5.1234765385
 20
6.1645850285
 30
0.0
 10
5.1232601093
 20
6.1631792874
 30
0.0
 10
5.1229015221
 20
6.1618005404
 30
0.0
 10
5.1222386623
 20
6.1600155666
 30
0.0
 10
5.1210721246
 20
6.1579144372
 30
0.0
 10
5.119822038
 20
6.1564493205
 30
0.0
 10
5.1191314464
 20
6.1557838455
 30
0.0
  0
SPLINE
  5
42C
100
AcDbEntity
  8
0
100
AcDbSpline
 62
7
  6
CONTINUOUS
 70
0
 71
3
 72
13
 73
9
 74
0
 42
0.0000001
 43
0.0000001
 44
0.0000000001
 40
0.0
 40
0.0
 40
0.0
 40
0.0
 40
0.2519515758
 40
0.5021935468
 40
0.626953332
 40
0.7514459893
 40
0.8757810261
 40
1.0
 40
1.0
 40
1.0
 40
1.0
 10
5.1191314464
 20
6.1636954357
 30
0.0
 10
5.119822038
 20
6.1643609108
 30
0.0
 10
5.1210721246
 20
6.1658260275
 30
0.0
 10
5.1222386623
 20
6.1679271569
 30
0.0
 10
5.1229015221
 20
6.1697121306
 30
0.0
 10
5.1232601093
 20
6.1710908777
 30
0.0
 10
5.1234765385
 20
6.1724966188
 30
0.0
 10
5.1235248447
 20
6.1734434433
 30
0.0
 10
5.1235248447
 20
6.1739162802
 30
0.0
  0
SPLINE
  5
42D
100
AcDbEntity
  8
0
100
AcDbSpline
 62
7
  6
CONTINUOUS
 70
0
 71
3
 72
11
 73
7
 74
0
 42
0.0000001
 43
0.0000001
 44
0.0000000001
 40
0.0
 40
0.0
 40
0.0
 40
0.0
 40
0.2479854686
 40
0.4975987994
 40
0.7484584024
 40
1.0
 40
1.0
 40
1.0
 40
1.0
 10
5.0107609555
 20
6.0513547402
 30
0.0
 10
5.0100653566
 20
6.0506844399
 30
0.0
 10
5.0085329231
 20
6.0494739551
 30
0.0
 10
5.005924646
 20
6.0481328406
 30
0.0
 10
5.0030962816
 20
6.0473068532
 30
0.0
 10
5.0011342084
 20
6.0471211278
 30
0.0
 10
5.0001543538
 20
6.0471211278
 30
0.0
  0
SPLINE
  5
42E
100
AcDbEntity
  8
0
100
AcDbSpline
 62
7
  6
CONTINUOUS
 70
0
 71
3
 72
11
 73
7
 74
0
 42
0.0000001
 43
0.0000001
 44
0.0000000001
 40
0.0
 40
0.0
 40
0.0
 40
0.0
 40
0.2515415976
 40
0.5024012006
 40
0.7520145314
 40
1.0
 40
1.0
 40
1.0
 40
1.0
 10
5.0001543538
 20
6.055032718
 30
0.0
 10
5.0011342084
 20
6.055032718
 30
0.0
 10
5.0030962816
 20
6.0552184435
 30
0.0
 10
5.005924646
 20
6.0560444308
 30
0.0
 10
5.0085329231
 20
6.0573855453
 30
0.0
 10
5.0100653566
 20
6.0585960302
 30
0.0
 10
5.0107609555
 20
6.0592663304
 30
0.0
  0
SPLINE
  5
42F
100
AcDbEntity
  8
0
100
AcDbSpline
 62
7
  6
CONTINUOUS
 70
0
 71
3
 72
11
 73
7
 74
0
 42
0.0000001
 43
0.0000001
 44
0.0000000001
 40
0.0
 40
0.0
 40
0.0
 40
0.0
 40
0.2515415976
 40
0.5024012006
 40
0.7520145314
 40
1.0
 40
1.0
 40
1.0
 40
1.0
 10
4.8468953357
 20
6.0471211278
 30
0.0
 10
4.845915481
 20
6.0471211278
 30
0.0
 10
4.8439534079
 20
6.0473068532
 30
0.0
 10
4.8411250435
 20
6.0481328406
 30
0.0
 10
4.8385167663
 20
6.0494739551
 30
0.0
 10
4.8369843328
 20
6.0506844399
 30
0.0
 10
4.836288734
 20
6.0513547402
 30
0.0
  0
SPLINE
  5
430
100
AcDbEntity
  8
0
100
AcDbSpline
 62
7
  6
CONTINUOUS
 70
0
 71
3
 72
11
 73
7
 74
0
 42
0.0000001
 43
0.0000001
 44
0.0000000001
 40
0.0
 40
0.0
 40
0.0
 40
0.0
 40
0.2479854686
 40
0.4975987994
 40
0.7484584024
 40
1.0
 40
1.0
 40
1.0
 40
1.0
 10
4.836288734
 20
6.0592663304
 30
0.0
 10
4.8369843328
 20
6.0585960302
 30
0.0
 10
4.8385167663
 20
6.0573855453
 30
0.0
 10
4.8411250435
 20
6.0560444308
 30
0.0
 10
4.8439534079
 20
6.0552184435
 30
0.0
 10
4.845915481
 20
6.055032718
 30
0.0
 10
4.8468953357
 20
6.055032718
 30
0.0
  0
SPLINE
  5
431
100
AcDbEntity
  8
0
100
AcDbSpline
 62
7
  6
CONTINUOUS
 70
0
 71
3
 72
32
 73
28
 74
0
 42
0.0000001
 43
0.0000001
 44
0.0000000001
 40
0.0
 40
0.0
 40
0.0
 40
0.0
 40
0.0636360524
 40
0.1272275319
 40
0.1907343511
 40
0.2541169295
 40
0.3173411637
 40
0.380378701
 40
0.4432081324
 40
0.4745495718
 40
0.5058345878
 40
0.5370628134
 40
0.5682344189
 40
0.5993501149
 40
0.6304111725
 40
0.6614193861
 40
0.692377065
 40
0.7232870332
 40
0.7541525761
 40
0.7849774197
 40
0.8157657119
 40
0.846521955
 40
0.877250974
 40
0.9079578822
 40
0.9386480045
 40
0.9693268363
 40
1.0
 40
1.0
 40
1.0
 40
1.0
 10
4.9235248447
 20
5.9903958386
 30
0.0
 10
4.9155110843
 20
5.9903958386
 30
0.0
 10
4.8994788225
 20
5.9911543264
 30
0.0
 10
4.8756671364
 20
5.9945571366
 30
0.0
 10
4.8523132975
 20
6.000192092
 30
0.0
 10
4.8296446811
 20
6.0080053819
 30
0.0
 10
4.8078783553
 20
6.0179222826
 30
0.0
 10
4.7872250893
 20
6.0298467041
 30
0.0
 10
4.7710888342
 20
6.0413752191
 30
0.0
 10
4.7589349978
 20
6.0514771704
 30
0.0
 10
4.7502218109
 20
6.05947038
 30
0.0
 10
4.7419262479
 20
6.0678658162
 30
0.0
 10
4.7340680642
 20
6.0766435257
 30
0.0
 10
4.7266662795
 20
6.0857823081
 30
0.0
 10
4.7197386524
 20
6.0952601207
 30
0.0
 10
4.7133019747
 20
6.1050541944
 30
0.0
 10
4.7073717411
 20
6.1151409151
 30
0.0
 10
4.7019621952
 20
6.1254959543
 30
0.0
 10
4.697086482
 20
6.1360944154
 30
0.0
 10
4.6927563143
 20
6.1469107334
 30
0.0
 10
4.6889820914
 20
6.1579188318
 30
0.0
 10
4.6857730262
 20
6.1690922163
 30
0.0
 10
4.6831367906
 20
6.1804039404
 30
0.0
 10
4.6810797154
 20
6.1918267115
 30
0.0
 10
4.6796068742
 20
6.2033331203
 30
0.0
 10
4.6787217309
 20
6.214895021
 30
0.0
 10
4.6785248447
 20
6.2226225932
 30
0.0
 10
4.6785248447
 20
6.2264852996
 30
0.0
  0
SPLINE
  5
432
100
AcDbEntity
  8
0
100
AcDbSpline
 62
7
  6
CONTINUOUS
 70
0
 71
3
 72
62
 73
58
 74
0
 42
0.0000001
 43
0.0000001
 44
0.0000000001
 40
0.0
 40
0.0
 40
0.0
 40
0.0
 40
0.0555073186
 40
0.1096934559
 40
0.1626874851
 40
0.1887803487
 40
0.2146249051
 40
0.2402355986
 40
0.2656267146
 40
0.3158046421
 40
0.3652682549
 40
0.3897688912
 40
0.4141314431
 40
0.4623923906
 40
0.4862523492
 40
0.5098881345
 40
0.5332561059
 40
0.5563115485
 40
0.5790035869
 40
0.6012791526
 40
0.644360522
 40
0.6650509728
 40
0.6851045339
 40
0.704476517
 40
0.7231292254
 40
0.7410415584
 40
0.7581968764
 40
0.7745906086
 40
0.790223484
 40
0.8192726098
 40
0.845547157
 40
0.8577262302
 40
0.8693052095
 40
0.880306363
 40
0.8907511471
 40
0.9100337218
 40
0.927260991
 40
0.942517668
 40
0.9558721171
 40
0.9673709533
 40
0.9724376481
 40
0.9770556441
 40
0.9812299485
 40
0.9849657629
 40
0.9882678651
 40
0.991141245
 40
0.9935918785
 40
0.9946610133
 40
0.9956269144
 40
0.9964903356
 40
0.9972525391
 40
0.9979156019
 40
0.9984829695
 40
0.9989604975
 40
0.999358433
 40
0.9996949156
 40
1.0
 40
1.0
 40
1.0
 40
1.0
 10
5.0685326162
 20
5.1192420278
 30
0.0
 10
5.0684566851
 20
5.126503422
 30
0.0
 10
5.0683791658
 20
5.140854183
 30
0.0
 10
5.0684296608
 20
5.1621380026
 30
0.0
 10
5.0685842685
 20
5.179572979
 30
0.0
 10
5.0687580261
 20
5.1932996312
 30
0.0
 10
5.0689094256
 20
5.2034438072
 30
0.0
 10
5.0690809482
 20
5.2134958407
 30
0.0
 10
5.0693330533
 20
5.226730371
 30
0.0
 10
5.0696849829
 20
5.2430841052
 30
0.0
 10
5.0700632428
 20
5.25932071
 30
0.0
 10
5.0703807488
 20
5.2721804789
 30
0.0
 10
5.0707067235
 20
5.2848826444
 30
0.0
 10
5.071042276
 20
5.2975007133
 30
0.0
 10
5.0713705185
 20
5.3100238613
 30
0.0
 10
5.071614106
 20
5.3192914653
 30
0.0
 10
5.0718602384
 20
5.3284537142
 30
0.0
 10
5.0721129155
 20
5.3374922716
 30
0.0
 10
5.072372961
 20
5.3463876472
 30
0.0
 10
5.0727260919
 20
5.3579013112
 30
0.0
 10
5.0730981632
 20
5.3691524379
 30
0.0
 10
5.0735149999
 20
5.3801110629
 30
0.0
 10
5.0738448187
 20
5.3879688916
 30
0.0
 10
5.0741963912
 20
5.3955589166
 30
0.0
 10
5.0745697366
 20
5.4028674205
 30
0.0
 10
5.0749577059
 20
5.4098847313
 30
0.0
 10
5.0753533823
 20
5.4166055865
 30
0.0
 10
5.07575681
 20
5.4230272149
 30
0.0
 10
5.0762942167
 20
5.4309994258
 30
0.0
 10
5.0769866854
 20
5.440256711
 30
0.0
 10
5.0777476413
 20
5.4490551707
 30
0.0
 10
5.07836463
 20
5.4555716057
 30
0.0
 10
5.0788152406
 20
5.460096644
 30
0.0
 10
5.0792621374
 20
5.4643939937
 30
0.0
 10
5.0798324552
 20
5.4696917311
 30
0.0
 10
5.0805233514
 20
5.4757957167
 30
0.0
 10
5.0813523342
 20
5.4825173192
 30
0.0
 10
5.0821547638
 20
5.4884603889
 30
0.0
 10
5.0829241049
 20
5.4936512634
 30
0.0
 10
5.0835617921
 20
5.4975135654
 30
0.0
 10
5.0840606897
 20
5.5002397095
 30
0.0
 10
5.0844108021
 20
5.5020187638
 30
0.0
 10
5.0847527498
 20
5.5036217832
 30
0.0
 10
5.0850865141
 20
5.505050265
 30
0.0
 10
5.0854114038
 20
5.5063057211
 30
0.0
 10
5.0857265996
 20
5.5073895177
 30
0.0
 10
5.0859910217
 20
5.5081833702
 30
0.0
 10
5.086199613
 20
5.5087319768
 30
0.0
 10
5.0863459234
 20
5.5090818951
 30
0.0
 10
5.086489179
 20
5.5093893047
 30
0.0
 10
5.0866292536
 20
5.5096541204
 30
0.0
 10
5.0867660358
 20
5.5098763216
 30
0.0
 10
5.086899509
 20
5.5100559942
 30
0.0
 10
5.0870299048
 20
5.5101933333
 30
0.0
 10
5.0871580981
 20
5.510288538
 30
0.0
 10
5.0872859208
 20
5.5103405044
 30
0.0
 10
5.0873719987
 20
5.5103436067
 30
0.0
 10
5.0874114482
 20
5.5103375418
 30
0.0
  0
SPLINE
  5
433
100
AcDbEntity
  8
0
100
AcDbSpline
 62
7
  6
CONTINUOUS
 70
0
 71
3
 72
33
 73
29
 74
0
 42
0.0000001
 43
0.0000001
 44
0.0000000001
 40
0.0
 40
0.0
 40
0.0
 40
0.0
 40
0.0147631517
 40
0.0297473705
 40
0.0451575122
 40
0.0611817934
 40
0.0779865988
 40
0.0957133386
 40
0.1144775096
 40
0.1343727076
 40
0.1554731159
 40
0.1778366129
 40
0.2015074967
 40
0.2265174891
 40
0.2528891933
 40
0.2806361576
 40
0.3097648883
 40
0.3402757529
 40
0.3721623097
 40
0.4054141178
 40
0.4400151939
 40
0.4759458281
 40
0.5516973279
 40
0.632454913
 40
0.7179653243
 40
0.8079389334
 40
0.9020671697
 40
1.0
 40
1.0
 40
1.0
 40
1.0
 10
5.1310053559
 20
4.9386939571
 30
0.0
 10
5.1310052921
 20
4.9392807314
 30
0.0
 10
5.1309295775
 20
4.9404643834
 30
0.0
 10
5.1305910253
 20
4.9422313655
 30
0.0
 10
5.1300283559
 20
4.943992835
 30
0.0
 10
5.1292432467
 20
4.9457460236
 30
0.0
 10
5.1282375642
 20
4.9474892835
 30
0.0
 10
5.1270129992
 20
4.9492210222
 30
0.0
 10
5.1255714934
 20
4.9509399572
 30
0.0
 10
5.1239147744
 20
4.9526446063
 30
0.0
 10
5.122044717
 20
4.954333532
 30
0.0
 10
5.1199632537
 20
4.9560052286
 30
0.0
 10
5.117672425
 20
4.9576580482
 30
0.0
 10
5.1151745558
 20
4.9592904619
 30
0.0
 10
5.1124720732
 20
4.9609007255
 30
0.0
 10
5.1095676988
 20
4.9624872244
 30
0.0
 10
5.1064643476
 20
4.9640482831
 30
0.0
 10
5.103165185
 20
4.9655821795
 30
0.0
 10
5.0996736989
 20
4.9670873912
 30
0.0
 10
5.0959935798
 20
4.968562198
 30
0.0
 10
5.0921288279
 20
4.9700051385
 30
0.0
 10
5.0866380299
 20
4.9719182737
 30
0.0
 10
5.0793383512
 20
4.9742093334
 30
0.0
 10
5.0700623111
 20
4.9767624035
 30
0.0
 10
5.0601610511
 20
4.9791543122
 30
0.0
 10
5.0496763352
 20
4.9813748334
 30
0.0
 10
5.0386525464
 20
4.9834140314
 30
0.0
 10
5.0311146504
 20
4.9846241563
 30
0.0
 10
5.0272649692
 20
4.9851994218
 30
0.0
  0
SPLINE
  5
434
100
AcDbEntity
  8
0
100
AcDbSpline
 62
7
  6
CONTINUOUS
 70
0
 71
3
 72
33
 73
29
 74
0
 42
0.0000001
 43
0.0000001
 44
0.0000000001
 40
0.0
 40
0.0
 40
0.0
 40
0.0
 40
0.0979633841
 40
0.1920587954
 40
0.2819586251
 40
0.3673635282
 40
0.4479971924
 40
0.5236162229
 40
0.5594809836
 40
0.594018598
 40
0.627210503
 40
0.6590425303
 40
0.6895053034
 40
0.7185936646
 40
0.7463095284
 40
0.7726604105
 40
0.7976613621
 40
0.8213361251
 40
0.8437175181
 40
0.8648505137
 40
0.8847932577
 40
0.9036205634
 40
0.9214264578
 40
0.9383261629
 40
0.9544594778
 40
0.9699902145
 40
0.9851033778
 40
1.0
 40
1.0
 40
1.0
 40
1.0
 10
5.0300919985
 20
4.8926186476
 30
0.0
 10
5.0338474542
 20
4.8932005839
 30
0.0
 10
5.0411980274
 20
4.8944214186
 30
0.0
 10
5.0519435574
 20
4.8964699163
 30
0.0
 10
5.0621566011
 20
4.8986924295
 30
0.0
 10
5.0717955392
 20
4.9010793493
 30
0.0
 10
5.0808208379
 20
4.9036206268
 30
0.0
 10
5.0879197828
 20
4.9058964976
 30
0.0
 10
5.0932574183
 20
4.907794268
 30
0.0
 10
5.0970134424
 20
4.9092243982
 30
0.0
 10
5.1005892903
 20
4.9106850657
 30
0.0
 10
5.1039812143
 20
4.9121747999
 30
0.0
 10
5.1071857284
 20
4.91369199
 30
0.0
 10
5.1101995385
 20
4.9152351871
 30
0.0
 10
5.1130196916
 20
4.9168026962
 30
0.0
 10
5.115643431
 20
4.9183929681
 30
0.0
 10
5.1180682273
 20
4.9200044139
 30
0.0
 10
5.1202918051
 20
4.9216353862
 30
0.0
 10
5.1223119777
 20
4.9232844106
 30
0.0
 10
5.1241268001
 20
4.9249499083
 30
0.0
 10
5.1257343633
 20
4.9266304948
 30
0.0
 10
5.1271329091
 20
4.9283247664
 30
0.0
 10
5.1283208609
 20
4.9300312819
 30
0.0
 10
5.1292964591
 20
4.9317487699
 30
0.0
 10
5.1300580607
 20
4.9334757219
 30
0.0
 10
5.1306037752
 20
4.9352105725
 30
0.0
 10
5.130932009
 20
4.9369506454
 30
0.0
 10
5.131005338
 20
4.9381160751
 30
0.0
 10
5.1310053559
 20
4.9386939571
 30
0.0
  0
SPLINE
  5
435
100
AcDbEntity
  8
0
100
AcDbSpline
 62
7
  6
CONTINUOUS
 70
0
 71
3
 72
15
 73
11
 74
0
 42
0.0000001
 43
0.0000001
 44
0.0000000001
 40
0.0
 40
0.0
 40
0.0
 40
0.0
 40
0.1303794197
 40
0.2602412349
 40
0.3890617107
 40
0.5163323821
 40
0.6415480785
 40
0.7642128786
 40
0.8838522031
 40
1.0
 40
1.0
 40
1.0
 40
1.0
 10
4.9235248463
 20
4.8849940101
 30
0.0
 10
4.9280481577
 20
4.8849940521
 30
0.0
 10
4.9370770075
 20
4.8850709948
 30
0.0
 10
4.9505711452
 20
4.8854145797
 30
0.0
 10
4.9639496988
 20
4.8859852158
 30
0.0
 10
4.9771553116
 20
4.8867805656
 30
0.0
 10
4.9901315724
 20
4.8877970466
 30
0.0
 10
5.0028231046
 20
4.8890304144
 30
0.0
 10
5.0151755832
 20
4.8904754366
 30
0.0
 10
5.0232798937
 20
4.8915930542
 30
0.0
 10
5.027265231
 20
4.8921884531
 30
0.0
  0
SPLINE
  5
436
100
AcDbEntity
  8
0
100
AcDbSpline
 62
7
  6
CONTINUOUS
 70
0
 71
3
 72
11
 73
7
 74
0
 42
0.0000001
 43
0.0000001
 44
0.0000000001
 40
0.0
 40
0.0
 40
0.0
 40
0.0
 40
0.2392638855
 40
0.4853862946
 40
0.7389298152
 40
1.0
 40
1.0
 40
1.0
 40
1.0
 10
5.2052402208
 20
2.9280134055
 30
0.0
 10
5.2042740673
 20
2.928278161
 30
0.0
 10
5.2022732346
 20
2.9286753853
 30
0.0
 10
5.1991770886
 20
2.9288678138
 30
0.0
 10
5.1959907375
 20
2.9286637211
 30
0.0
 10
5.1938664844
 20
2.9282711582
 30
0.0
 10
5.1928042333
 20
2.928013415
 30
0.0
  0
SPLINE
  5
437
100
AcDbEntity
  8
0
100
AcDbSpline
 62
7
  6
CONTINUOUS
 70
0
 71
3
 72
46
 73
42
 74
0
 42
0.0000001
 43
0.0000001
 44
0.0000000001
 40
0.0
 40
0.0
 40
0.0
 40
0.0
 40
0.022003162
 40
0.0447987219
 40
0.068424463
 40
0.0929173821
 40
0.1183121173
 40
0.1446421323
 40
0.1719381861
 40
0.2002260545
 40
0.2295218852
 40
0.2445497886
 40
0.259828324
 40
0.2753536048
 40
0.2832063797
 40
0.2911157055
 40
0.2990787397
 40
0.3070924949
 40
0.3151534715
 40
0.3232579238
 40
0.3395822276
 40
0.356040563
 40
0.3726098563
 40
0.3892706285
 40
0.4227953548
 40
0.4396318241
 40
0.4565024729
 40
0.4734006316
 40
0.4903197067
 40
0.5072562222
 40
0.5242083707
 40
0.5411743204
 40
0.558152271
 40
0.5921368101
 40
0.6261485352
 40
0.6601762817
 40
0.6942102489
 40
0.7282429497
 40
0.7962801952
 40
0.8642568571
 40
1.0
 40
1.0
 40
1.0
 40
1.0
 10
5.1928042508
 20
2.9280134031
 30
0.0
 10
5.1881880159
 20
2.9320979582
 30
0.0
 10
5.1790709186
 20
2.9407372243
 30
0.0
 10
5.1660016148
 20
2.954774021
 30
0.0
 10
5.1533361858
 20
2.9700928849
 30
0.0
 10
5.1411153365
 20
2.9866811903
 30
0.0
 10
5.1293865458
 20
3.004534386
 30
0.0
 10
5.118207508
 20
3.0236521217
 30
0.0
 10
5.1076478873
 20
3.0440363415
 30
0.0
 10
5.0977927401
 20
3.0656866406
 30
0.0
 10
5.0903164351
 20
3.0846144048
 30
0.0
 10
5.0847835094
 20
3.1003693385
 30
0.0
 10
5.0808472728
 20
3.1125917545
 30
0.0
 10
5.0778036671
 20
3.122985791
 30
0.0
 10
5.0755113101
 20
3.1314456352
 30
0.0
 10
5.0738596609
 20
3.1378836073
 30
0.0
 10
5.072284613
 20
3.1443871486
 30
0.0
 10
5.0707876693
 20
3.150952679
 30
0.0
 10
5.0693657503
 20
3.1575753741
 30
0.0
 10
5.0675622573
 20
3.1664966072
 30
0.0
 10
5.0654844379
 20
3.1777614943
 30
0.0
 10
5.0632569119
 20
3.1914069461
 30
0.0
 10
5.0612711695
 20
3.2051848098
 30
0.0
 10
5.0589126124
 20
3.2237365517
 30
0.0
 10
5.0569585418
 20
3.2424123469
 30
0.0
 10
5.0553083853
 20
3.2611740656
 30
0.0
 10
5.0541991245
 20
3.2753071471
 30
0.0
 10
5.053202051
 20
3.2894716777
 30
0.0
 10
5.0522962004
 20
3.3036608037
 30
0.0
 10
5.0514761639
 20
3.3178702922
 30
0.0
 10
5.0507409004
 20
3.3320975641
 30
0.0
 10
5.050088197
 20
3.3463404813
 30
0.0
 10
5.0493253108
 20
3.3653544253
 30
0.0
 10
5.0485690532
 20
3.389147203
 30
0.0
 10
5.0479611806
 20
3.4177217471
 30
0.0
 10
5.0476327199
 20
3.4463146651
 30
0.0
 10
5.0475642748
 20
3.4749152119
 30
0.0
 10
5.0477943435
 20
3.5130424088
 30
0.0
 10
5.0486362879
 20
3.5606728427
 30
0.0
 10
5.0509559414
 20
3.6367677431
 30
0.0
 10
5.0535602769
 20
3.6937804433
 30
0.0
 10
5.0554798303
 20
3.7317584176
 30
0.0
  0
SPLINE
  5
438
100
AcDbEntity
  8
0
100
AcDbSpline
 62
7
  6
CONTINUOUS
 70
0
 71
3
 72
16
 73
12
 74
0
 42
0.0000001
 43
0.0000001
 44
0.0000000001
 40
0.0
 40
0.0
 40
0.0
 40
0.0
 40
0.1505198396
 40
0.2984198977
 40
0.4412110414
 40
0.5764931418
 40
0.7019975721
 40
0.81562854
 40
0.9155037407
 40
0.9597726549
 40
1.0
 40
1.0
 40
1.0
 40
1.0
 10
5.0554795537
 20
3.7317584229
 30
0.0
 10
5.0567774463
 20
3.7316936034
 30
0.0
 10
5.0593513875
 20
3.7315795309
 30
0.0
 10
5.0631586003
 20
3.7314543705
 30
0.0
 10
5.0668355322
 20
3.7313777499
 30
0.0
 10
5.0703198179
 20
3.7313508689
 30
0.0
 10
5.0735524083
 20
3.731373957
 30
0.0
 10
5.0764785115
 20
3.7314464366
 30
0.0
 10
5.0787018839
 20
3.7315499932
 30
0.0
 10
5.0802898674
 20
3.7316605526
 30
0.0
 10
5.0810166431
 20
3.7317241771
 30
0.0
 10
5.0813622508
 20
3.7317584406
 30
0.0
  0
SPLINE
  5
439
100
AcDbEntity
  8
0
100
AcDbSpline
 62
7
  6
CONTINUOUS
 70
0
 71
3
 72
17
 73
13
 74
0
 42
0.0000001
 43
0.0000001
 44
0.0000000001
 40
0.0
 40
0.0
 40
0.0
 40
0.0
 40
0.150205101
 40
0.2978190754
 40
0.440381271
 40
0.5755205522
 40
0.7009986912
 40
0.8147533071
 40
0.866647321
 40
0.9149454635
 40
0.9594589781
 40
1.0
 40
1.0
 40
1.0
 40
1.0
 10
5.0563716632
 20
3.7515679264
 30
0.0
 10
5.0576686746
 20
3.7515227168
 30
0.0
 10
5.0602410463
 20
3.7514525569
 30
0.0
 10
5.0640459031
 20
3.7514074752
 30
0.0
 10
5.0677208435
 20
3.7514235649
 30
0.0
 10
5.0712037496
 20
3.7515003836
 30
0.0
 10
5.074435757
 20
3.7516364617
 30
0.0
 10
5.0769460658
 20
3.7518014792
 30
0.0
 10
5.0787874385
 20
3.7519649022
 30
0.0
 10
5.0800308263
 20
3.7520967331
 30
0.0
 10
5.0811740298
 20
3.7522409999
 30
0.0
 10
5.081900866
 20
3.752350167
 30
0.0
 10
5.0822464333
 20
3.7524074425
 30
0.0
  0
SPLINE
  5
43A
100
AcDbEntity
  8
0
100
AcDbSpline
 62
7
  6
CONTINUOUS
 70
0
 71
3
 72
35
 73
31
 74
0
 42
0.0000001
 43
0.0000001
 44
0.0000000001
 40
0.0
 40
0.0
 40
0.0
 40
0.0
 40
0.0405978956
 40
0.0607781377
 40
0.0808623015
 40
0.1008413643
 40
0.1207062742
 40
0.1600557184
 40
0.198848237
 40
0.2370414694
 40
0.2745961375
 40
0.3114727106
 40
0.347647959
 40
0.3831272285
 40
0.4179187803
 40
0.4520175999
 40
0.4854325974
 40
0.5181889321
 40
0.5503234799
 40
0.581861798
 40
0.6128126325
 40
0.6431650542
 40
0.7020089521
 40
0.7583016484
 40
0.7854637325
 40
0.8119536204
 40
0.862907436
 40
0.911200972
 40
0.9568673231
 40
1.0
 40
1.0
 40
1.0
 40
1.0
 10
5.0563716632
 20
3.7515679264
 30
0.0
 10
5.0567670372
 20
3.7620797085
 30
0.0
 10
5.0574376692
 20
3.7778137866
 30
0.0
 10
5.0584645022
 20
3.7987406602
 30
0.0
 10
5.0592921961
 20
3.814328275
 30
0.0
 10
5.060176148
 20
3.8298309557
 30
0.0
 10
5.0614213707
 20
3.8503127781
 30
0.0
 10
5.0630963774
 20
3.8756519912
 30
0.0
 10
5.0652726601
 20
3.9057168
 30
0.0
 10
5.067572823
 20
3.9353059126
 30
0.0
 10
5.0699560413
 20
3.9643903339
 30
0.0
 10
5.0723924238
 20
3.992945586
 30
0.0
 10
5.0748582056
 20
4.0209585094
 30
0.0
 10
5.0773386449
 20
4.0484277267
 30
0.0
 10
5.0798104593
 20
4.0753574741
 30
0.0
 10
5.082251772
 20
4.101752894
 30
0.0
 10
5.0846473115
 20
4.1276229566
 30
0.0
 10
5.0869802072
 20
4.1529876828
 30
0.0
 10
5.0892403862
 20
4.177870774
 30
0.0
 10
5.0914126451
 20
4.2022920718
 30
0.0
 10
5.0934868498
 20
4.226258452
 30
0.0
 10
5.0960798643
 20
4.2572813252
 30
0.0
 10
5.0990198751
 20
4.294864207
 30
0.0
 10
5.1015526377
 20
4.3316484822
 30
0.0
 10
5.1032671106
 20
4.360084481
 30
0.0
 10
5.104732644
 20
4.3871491083
 30
0.0
 10
5.1061737454
 20
4.4196977709
 30
0.0
 10
5.1072900378
 20
4.4572308889
 30
0.0
 10
5.107760097
 20
4.4927511644
 30
0.0
 10
5.107634193
 20
4.5157611479
 30
0.0
 10
5.1074506239
 20
4.5269356357
 30
0.0
  0
SPLINE
  5
43B
100
AcDbEntity
  8
0
100
AcDbSpline
 62
7
  6
CONTINUOUS
 70
0
 71
3
 72
11
 73
7
 74
0
 42
0.0000001
 43
0.0000001
 44
0.0000000001
 40
0.0
 40
0.0
 40
0.0
 40
0.0
 40
0.2566447764
 40
0.5096986124
 40
0.7577775198
 40
1.0
 40
1.0
 40
1.0
 40
1.0
 10
5.107429166
 20
4.5282708263
 30
0.0
 10
5.1090913741
 20
4.5285354575
 30
0.0
 10
5.1123594222
 20
4.5293036626
 30
0.0
 10
5.116990392
 20
4.5311578429
 30
0.0
 10
5.1211990481
 20
4.5336567886
 30
0.0
 10
5.1236755322
 20
4.5357353812
 30
0.0
 10
5.124799628
 20
4.536857843
 30
0.0
  0
SPLINE
  5
43C
100
AcDbEntity
  8
0
100
AcDbSpline
 62
7
  6
CONTINUOUS
 70
0
 71
3
 72
15
 73
11
 74
0
 42
0.0000001
 43
0.0000001
 44
0.0000000001
 40
0.0
 40
0.0
 40
0.0
 40
0.0
 40
0.1161475101
 40
0.2357877395
 40
0.358452406
 40
0.4836678108
 40
0.6109383762
 40
0.7397585867
 40
0.8696205874
 40
1.0
 40
1.0
 40
1.0
 40
1.0
 10
4.8197847202
 20
4.892188414
 30
0.0
 10
4.8237700329
 20
4.8915929866
 30
0.0
 10
4.8318743441
 20
4.8904753593
 30
0.0
 10
4.844226823
 20
4.8890304661
 30
0.0
 10
4.856918334
 20
4.887797046
 30
0.0
 10
4.8698945436
 20
4.886780558
 30
0.0
 10
4.8831000989
 20
4.8859851975
 30
0.0
 10
4.8964786101
 20
4.8854144948
 30
0.0
 10
4.9099727136
 20
4.8850709979
 30
0.0
 10
4.9190015465
 20
4.8849940638
 30
0.0
 10
4.9235248463
 20
4.8849940101
 30
0.0
  0
SPLINE
  5
43D
100
AcDbEntity
  8
0
100
AcDbSpline
 62
7
  6
CONTINUOUS
 70
0
 71
3
 72
16
 73
12
 74
0
 42
0.0000001
 43
0.0000001
 44
0.0000000001
 40
0.0
 40
0.0
 40
0.0
 40
0.0
 40
0.124143699
 40
0.2483722552
 40
0.3727683869
 40
0.4975037634
 40
0.6225332326
 40
0.7475943038
 40
0.8103455952
 40
0.8733657209
 40
1.0
 40
1.0
 40
1.0
 40
1.0
 10
5.2137420615
 20
5.0525938563
 30
0.0
 10
5.2137070121
 20
5.0519678156
 30
0.0
 10
5.213573453
 20
5.0507179303
 30
0.0
 10
5.2131846739
 20
5.0488726166
 30
0.0
 10
5.2126108853
 20
5.0470728801
 30
0.0
 10
5.2118581919
 20
5.0453360498
 30
0.0
 10
5.2109351067
 20
5.0436795467
 30
0.0
 10
5.2100273245
 20
5.0423827078
 30
0.0
 10
5.2092261498
 20
5.0414007651
 30
0.0
 10
5.2083742836
 20
5.04045187
 30
0.0
 10
5.2076844034
 20
5.0397846134
 30
0.0
 10
5.2072041181
 20
5.0393622217
 30
0.0
  0
SPLINE
  5
43E
100
AcDbEntity
  8
0
100
AcDbSpline
 62
7
  6
CONTINUOUS
 70
0
 71
3
 72
33
 73
29
 74
0
 42
0.0000001
 43
0.0000001
 44
0.0000000001
 40
0.0
 40
0.0
 40
0.0
 40
0.0
 40
0.0148966549
 40
0.0300098605
 40
0.0455404678
 40
0.0616734322
 40
0.078572862
 40
0.0963789229
 40
0.1152066424
 40
0.1351495842
 40
0.1562824108
 40
0.1786635854
 40
0.2023383745
 40
0.2273395295
 40
0.2536906238
 40
0.2814065898
 40
0.3104949216
 40
0.3409575264
 40
0.3727893457
 40
0.4059811467
 40
0.4405187966
 40
0.4763837016
 40
0.5520030345
 40
0.6326363697
 40
0.718041542
 40
0.8079416469
 40
0.9020361908
 40
1.0
 40
1.0
 40
1.0
 40
1.0
 10
4.7160443335
 20
4.9386938788
 30
0.0
 10
4.7160443964
 20
4.9381159951
 30
0.0
 10
4.7161178059
 20
4.9369505681
 30
0.0
 10
4.7164460958
 20
4.9352105102
 30
0.0
 10
4.7169917587
 20
4.9334756638
 30
0.0
 10
4.7177532447
 20
4.9317486917
 30
0.0
 10
4.71872878
 20
4.9300311828
 30
0.0
 10
4.7199167847
 20
4.9283246847
 30
0.0
 10
4.7213154129
 20
4.9266304409
 30
0.0
 10
4.7229230078
 20
4.9249498607
 30
0.0
 10
4.7247378058
 20
4.9232843455
 30
0.0
 10
4.7267579534
 20
4.9216353087
 30
0.0
 10
4.7289815396
 20
4.9200043427
 30
0.0
 10
4.7314063654
 20
4.9183929064
 30
0.0
 10
4.7340301355
 20
4.916802642
 30
0.0
 10
4.7368503052
 20
4.9152351355
 30
0.0
 10
4.7398641142
 20
4.913691939
 30
0.0
 10
4.7430686109
 20
4.912174743
 30
0.0
 10
4.7464605144
 20
4.9106850014
 30
0.0
 10
4.7500363533
 20
4.9092243322
 30
0.0
 10
4.7537923848
 20
4.9077942049
 30
0.0
 10
4.7591300479
 20
4.9058964428
 30
0.0
 10
4.766229013
 20
4.903620604
 30
0.0
 10
4.7752543139
 20
4.9010792744
 30
0.0
 10
4.7848932782
 20
4.8986923905
 30
0.0
 10
4.7951063258
 20
4.8964699225
 30
0.0
 10
4.8058518368
 20
4.8944213167
 30
0.0
 10
4.8132024052
 20
4.8932005176
 30
0.0
 10
4.8169578834
 20
4.8926186006
 30
0.0
  0
SPLINE
  5
43F
100
AcDbEntity
  8
0
100
AcDbSpline
 62
7
  6
CONTINUOUS
 70
0
 71
3
 72
39
 73
35
 74
0
 42
0.0000001
 43
0.0000001
 44
0.0000000001
 40
0.0
 40
0.0
 40
0.0
 40
0.0
 40
0.031823526
 40
0.0636247976
 40
0.0953837786
 40
0.1270806006
 40
0.1586982435
 40
0.1902225238
 40
0.2216427324
 40
0.2529520822
 40
0.2841479969
 40
0.3152322544
 40
0.3462109635
 40
0.3770943732
 40
0.4078965067
 40
0.4386346308
 40
0.4693285858
 40
0.5
 40
0.5306714142
 40
0.5613653692
 40
0.5921034933
 40
0.6229056268
 40
0.6537890365
 40
0.6847677456
 40
0.7158520031
 40
0.7470479178
 40
0.7783572676
 40
0.8097774762
 40
0.8413017565
 40
0.8729193994
 40
0.9046162214
 40
0.9363752024
 40
0.968176474
 40
1.0
 40
1.0
 40
1.0
 40
1.0
 10
4.9235248447
 20
6.0182122142
 30
0.0
 10
4.9160017364
 20
6.0182122142
 30
0.0
 10
4.9009510612
 20
6.0189242583
 30
0.0
 10
4.8785972435
 20
6.0221187387
 30
0.0
 10
4.8566732439
 20
6.0274086811
 30
0.0
 10
4.8353924419
 20
6.034743631
 30
0.0
 10
4.8149589248
 20
6.0440532238
 30
0.0
 10
4.7955694952
 20
6.0552481799
 30
0.0
 10
4.7774108197
 20
6.0682211316
 30
0.0
 10
4.7606579433
 20
6.0828476205
 30
0.0
 10
4.7454724058
 20
6.0989871275
 30
0.0
 10
4.7320007721
 20
6.1164845135
 30
0.0
 10
4.7203732383
 20
6.1351714943
 30
0.0
 10
4.7107022801
 20
6.1548681725
 30
0.0
 10
4.7030814529
 20
6.1753847458
 30
0.0
 10
4.6975845831
 20
6.1965234119
 30
0.0
 10
4.6942650215
 20
6.2180802565
 30
0.0
 10
4.6931549233
 20
6.2398472184
 30
0.0
 10
4.6942650215
 20
6.2616141803
 30
0.0
 10
4.6975845831
 20
6.283171025
 30
0.0
 10
4.7030814529
 20
6.3043096911
 30
0.0
 10
4.7107022801
 20
6.3248262643
 30
0.0
 10
4.7203732383
 20
6.3445229425
 30
0.0
 10
4.7320007721
 20
6.3632099233
 30
0.0
 10
4.7454724058
 20
6.3807073094
 30
0.0
 10
4.7606579433
 20
6.3968468164
 30
0.0
 10
4.7774108197
 20
6.4114733052
 30
0.0
 10
4.7955694952
 20
6.4244462569
 30
0.0
 10
4.8149589248
 20
6.4356412131
 30
0.0
 10
4.8353924419
 20
6.4449508059
 30
0.0
 10
4.8566732439
 20
6.4522857558
 30
0.0
 10
4.8785972435
 20
6.4575756982
 30
0.0
 10
4.9009510612
 20
6.4607701785
 30
0.0
 10
4.9160017364
 20
6.4614822227
 30
0.0
 10
4.9235248447
 20
6.4614822227
 30
0.0
  0
SPLINE
  5
440
100
AcDbEntity
  8
0
100
AcDbSpline
 62
7
  6
CONTINUOUS
 70
0
 71
3
 72
39
 73
35
 74
0
 42
0.0000001
 43
0.0000001
 44
0.0000000001
 40
0.0
 40
0.0
 40
0.0
 40
0.0
 40
0.031823526
 40
0.0636247976
 40
0.0953837786
 40
0.1270806006
 40
0.1586982435
 40
0.1902225238
 40
0.2216427324
 40
0.2529520822
 40
0.2841479969
 40
0.3152322544
 40
0.3462109635
 40
0.3770943732
 40
0.4078965067
 40
0.4386346308
 40
0.4693285858
 40
0.5
 40
0.5306714142
 40
0.5613653692
 40
0.5921034933
 40
0.6229056268
 40
0.6537890365
 40
0.6847677456
 40
0.7158520031
 40
0.7470479178
 40
0.7783572676
 40
0.8097774762
 40
0.8413017565
 40
0.8729193994
 40
0.9046162214
 40
0.9363752024
 40
0.968176474
 40
1.0
 40
1.0
 40
1.0
 40
1.0
 10
4.9235248447
 20
6.4614822227
 30
0.0
 10
4.931047953
 20
6.4614822227
 30
0.0
 10
4.9460986282
 20
6.4607701785
 30
0.0
 10
4.968452446
 20
6.4575756982
 30
0.0
 10
4.9903764455
 20
6.4522857558
 30
0.0
 10
5.0116572475
 20
6.4449508059
 30
0.0
 10
5.0320907647
 20
6.4356412131
 30
0.0
 10
5.0514801943
 20
6.4244462569
 30
0.0
 10
5.0696388697
 20
6.4114733052
 30
0.0
 10
5.0863917461
 20
6.3968468164
 30
0.0
 10
5.1015772836
 20
6.3807073094
 30
0.0
 10
5.1150489174
 20
6.3632099233
 30
0.0
 10
5.1266764511
 20
6.3445229425
 30
0.0
 10
5.1363474093
 20
6.3248262643
 30
0.0
 10
5.1439682365
 20
6.3043096911
 30
0.0
 10
5.1494651064
 20
6.283171025
 30
0.0
 10
5.1527846679
 20
6.2616141803
 30
0.0
 10
5.1538947661
 20
6.2398472184
 30
0.0
 10
5.1527846679
 20
6.2180802565
 30
0.0
 10
5.1494651064
 20
6.1965234119
 30
0.0
 10
5.1439682365
 20
6.1753847458
 30
0.0
 10
5.1363474093
 20
6.1548681725
 30
0.0
 10
5.1266764511
 20
6.1351714943
 30
0.0
 10
5.1150489174
 20
6.1164845135
 30
0.0
 10
5.1015772836
 20
6.0989871275
 30
0.0
 10
5.0863917461
 20
6.0828476205
 30
0.0
 10
5.0696388697
 20
6.0682211316
 30
0.0
 10
5.0514801943
 20
6.0552481799
 30
0.0
 10
5.0320907647
 20
6.0440532238
 30
0.0
 10
5.0116572475
 20
6.034743631
 30
0.0
 10
4.9903764455
 20
6.0274086811
 30
0.0
 10
4.968452446
 20
6.0221187387
 30
0.0
 10
4.9460986282
 20
6.0189242583
 30
0.0
 10
4.931047953
 20
6.0182122142
 30
0.0
 10
4.9235248447
 20
6.0182122142
 30
0.0
  0
SPLINE
  5
441
100
AcDbEntity
  8
0
100
AcDbSpline
 62
7
  6
CONTINUOUS
 70
0
 71
3
 72
33
 73
29
 74
0
 42
0.0000001
 43
0.0000001
 44
0.0000000001
 40
0.0
 40
0.0
 40
0.0
 40
0.0
 40
0.097932184
 40
0.1920611381
 40
0.2820348325
 40
0.3675447865
 40
0.4483027604
 40
0.5240540429
 40
0.5599845171
 40
0.5945855313
 40
0.6278374095
 40
0.6597241649
 40
0.6902352251
 40
0.7193640225
 40
0.7471109172
 40
0.7734824332
 40
0.7984922156
 40
0.8221630404
 40
0.8445267344
 40
0.8656273419
 40
0.8855223971
 40
0.904286163
 40
0.9220127082
 40
0.9388177689
 40
0.9548424079
 40
0.9702526925
 40
0.9852368761
 40
1.0
 40
1.0
 40
1.0
 40
1.0
 10
4.8197844584
 20
4.9851993827
 30
0.0
 10
4.8159348116
 20
4.9846240955
 30
0.0
 10
4.8083969315
 20
4.9834139205
 30
0.0
 10
4.7973731355
 20
4.9813748099
 30
0.0
 10
4.7868884175
 20
4.9791542926
 30
0.0
 10
4.7769871887
 20
4.9767623117
 30
0.0
 10
4.7677111561
 20
4.9742093048
 30
0.0
 10
4.7604114949
 20
4.9719182181
 30
0.0
 10
4.7549207277
 20
4.9700050711
 30
0.0
 10
4.7510559892
 20
4.9685621273
 30
0.0
 10
4.7473758669
 20
4.9670873205
 30
0.0
 10
4.7438843632
 20
4.9655821157
 30
0.0
 10
4.740585182
 20
4.9640482268
 30
0.0
 10
4.7374818268
 20
4.9624871689
 30
0.0
 10
4.7345774667
 20
4.960900668
 30
0.0
 10
4.7318750142
 20
4.9592903981
 30
0.0
 10
4.7293771775
 20
4.9576579748
 30
0.0
 10
4.7270863631
 20
4.9560051474
 30
0.0
 10
4.7250048794
 20
4.9543334613
 30
0.0
 10
4.7231347951
 20
4.9526445547
 30
0.0
 10
4.7214780999
 20
4.9509399038
 30
0.0
 10
4.7200366764
 20
4.9492209407
 30
0.0
 10
4.7188121725
 20
4.9474891818
 30
0.0
 10
4.7178064345
 20
4.945745942
 30
0.0
 10
4.7170212079
 20
4.9439927757
 30
0.0
 10
4.7164584815
 20
4.9422313033
 30
0.0
 10
4.7161199847
 20
4.9404643058
 30
0.0
 10
4.7160443517
 20
4.9392806512
 30
0.0
 10
4.7160443335
 20
4.9386938788
 30
0.0
  0
SPLINE
  5
442
100
AcDbEntity
  8
0
100
AcDbSpline
 62
7
  6
CONTINUOUS
 70
0
 71
3
 72
28
 73
24
 74
0
 42
0.0000001
 43
0.0000001
 44
0.0000000001
 40
0.0
 40
0.0
 40
0.0
 40
0.0
 40
0.0636108636
 40
0.1271793094
 40
0.1906673106
 40
0.2540369254
 40
0.3172553671
 40
0.3802950061
 40
0.4431345363
 40
0.5057597947
 40
0.5681643451
 40
0.6303497853
 40
0.6923257696
 40
0.7232495872
 40
0.7541281991
 40
0.7849649138
 40
0.8157634199
 40
0.8465277785
 40
0.8772623841
 40
0.9079719003
 40
0.9386612443
 40
0.9693355292
 40
1.0
 40
1.0
 40
1.0
 40
1.0
 10
4.9235248447
 20
5.9997491818
 30
0.0
 10
4.9157129053
 20
5.9997491818
 30
0.0
 10
4.9000846456
 20
6.000469908
 30
0.0
 10
4.8768615321
 20
6.0037038288
 30
0.0
 10
4.8540626906
 20
6.0090607867
 30
0.0
 10
4.8318989685
 20
6.0164922192
 30
0.0
 10
4.8105723532
 20
6.0259303737
 30
0.0
 10
4.7902780319
 20
6.0372892163
 30
0.0
 10
4.771201634
 20
6.0504652353
 30
0.0
 10
4.7535179226
 20
6.0653382118
 30
0.0
 10
4.7373887226
 20
6.0817727161
 30
0.0
 10
4.7229625813
 20
6.0996173504
 30
0.0
 10
4.7124594615
 20
6.1155445062
 30
0.0
 10
4.7050386058
 20
6.128816757
 30
0.0
 10
4.6999760684
 20
6.1390104685
 30
0.0
 10
4.6954254241
 20
6.1494256942
 30
0.0
 10
4.6913970046
 20
6.1600389115
 30
0.0
 10
4.6878999872
 20
6.1708256959
 30
0.0
 10
4.6849424066
 20
6.1817613906
 30
0.0
 10
4.6825311208
 20
6.1928209342
 30
0.0
 10
4.6806715292
 20
6.2039790706
 30
0.0
 10
4.6793680012
 20
6.2152098971
 30
0.0
 10
4.6788715958
 20
6.2227300975
 30
0.0
 10
4.6787169051
 20
6.2264927693
 30
0.0
  0
SPLINE
  5
443
100
AcDbEntity
  8
0
100
AcDbSpline
 62
7
  6
CONTINUOUS
 70
0
 71
3
 72
11
 73
7
 74
0
 42
0.0000001
 43
0.0000001
 44
0.0000000001
 40
0.0
 40
0.0
 40
0.0
 40
0.0
 40
0.2566428647
 40
0.5096988824
 40
0.7577799956
 40
1.0
 40
1.0
 40
1.0
 40
1.0
 10
4.7395974632
 20
4.5269372607
 30
0.0
 10
4.7379356346
 20
4.527201778
 30
0.0
 10
4.7346682825
 20
4.5279695533
 30
0.0
 10
4.7300380336
 20
4.5298224748
 30
0.0
 10
4.7258296169
 20
4.5323196274
 30
0.0
 10
4.7233528751
 20
4.5343967375
 30
0.0
 10
4.7222285338
 20
4.5355184223
 30
0.0
  0
SPLINE
  5
444
100
AcDbEntity
  8
0
100
AcDbSpline
 62
7
  6
CONTINUOUS
 70
0
 71
3
 72
37
 73
33
 74
0
 42
0.0000001
 43
0.0000001
 44
0.0000000001
 40
0.0
 40
0.0
 40
0.0
 40
0.0
 40
0.0431329675
 40
0.0888004752
 40
0.1370961189
 40
0.1622379276
 40
0.1880492248
 40
0.2417006746
 40
0.2695238168
 40
0.2979940615
 40
0.3271009346
 40
0.3568359963
 40
0.3871877888
 40
0.4181398219
 40
0.4496782151
 40
0.481811363
 40
0.5145670283
 40
0.5479806215
 40
0.582079848
 40
0.6168713836
 40
0.6523503245
 40
0.6885257264
 40
0.7254032562
 40
0.7629594528
 40
0.8011527023
 40
0.8399443946
 40
0.8792936155
 40
0.8991583258
 40
0.9191372618
 40
0.939221496
 40
0.9594019904
 40
1.0
 40
1.0
 40
1.0
 40
1.0
 10
4.7395974632
 20
4.5269372607
 30
0.0
 10
4.7394142238
 20
4.5157626783
 30
0.0
 10
4.7392880952
 20
4.4927522909
 30
0.0
 10
4.7397589187
 20
4.4572310786
 30
0.0
 10
4.740678431
 20
4.426382428
 30
0.0
 10
4.7417183529
 20
4.400687196
 30
0.0
 10
4.7430010743
 20
4.3736135186
 30
0.0
 10
4.7445995592
 20
4.3458600631
 30
0.0
 10
4.7464745716
 20
4.3174342062
 30
0.0
 10
4.7480437286
 20
4.2953619464
 30
0.0
 10
4.7497529436
 20
4.2728032761
 30
0.0
 10
4.7515950597
 20
4.2497659663
 30
0.0
 10
4.7535603028
 20
4.2262590529
 30
0.0
 10
4.7556360394
 20
4.2022926109
 30
0.0
 10
4.7578102556
 20
4.1778714901
 30
0.0
 10
4.7600692984
 20
4.1529887846
 30
0.0
 10
4.7624029285
 20
4.1276249978
 30
0.0
 10
4.7647982257
 20
4.1017553146
 30
0.0
 10
4.7672408307
 20
4.0753602458
 30
0.0
 10
4.769714182
 20
4.0484305885
 30
0.0
 10
4.7721922432
 20
4.0209611725
 30
0.0
 10
4.7746593885
 20
3.9929481329
 30
0.0
 10
4.7770964079
 20
3.9643922134
 30
0.0
 10
4.7794811663
 20
3.9353072316
 30
0.0
 10
4.7817806251
 20
3.905717836
 30
0.0
 10
4.7839545248
 20
3.8756530867
 30
0.0
 10
4.7856288928
 20
3.8503141269
 30
0.0
 10
4.786873614
 20
3.8298323911
 30
0.0
 10
4.7877571104
 20
3.8143297318
 30
0.0
 10
4.788584541
 20
3.7987420334
 30
0.0
 10
4.7896114163
 20
3.777815023
 30
0.0
 10
4.7902821902
 20
3.7620808375
 30
0.0
 10
4.7906777628
 20
3.7515690203
 30
0.0
  0
SPLINE
  5
445
100
AcDbEntity
  8
0
100
AcDbSpline
 62
7
  6
CONTINUOUS
 70
0
 71
3
 72
17
 73
13
 74
0
 42
0.0000001
 43
0.0000001
 44
0.0000000001
 40
0.0
 40
0.0
 40
0.0
 40
0.0
 40
0.1501967341
 40
0.2978029966
 40
0.440358905
 40
0.5754942395
 40
0.700971749
 40
0.8147299801
 40
0.866627685
 40
0.9149308685
 40
0.9594508703
 40
1.0
 40
1.0
 40
1.0
 40
1.0
 10
4.7906710275
 20
3.7515684833
 30
0.0
 10
4.7893743135
 20
3.7515229299
 30
0.0
 10
4.7868025216
 20
3.751452084
 30
0.0
 10
4.7829984941
 20
3.7514059892
 30
0.0
 10
4.7793243071
 20
3.7514211025
 30
0.0
 10
4.7758420459
 20
3.7514970044
 30
0.0
 10
4.7726105426
 20
3.7516322484
 30
0.0
 10
4.770100548
 20
3.7517966418
 30
0.0
 10
4.7682593339
 20
3.75195963
 30
0.0
 10
4.7670159907
 20
3.7520911845
 30
0.0
 10
4.7658727769
 20
3.752235217
 30
0.0
 10
4.7651459146
 20
3.752344248
 30
0.0
 10
4.7648003244
 20
3.7524014629
 30
0.0
  0
ENDSEC
  0
SECTION
  2
OBJECTS
  0
DICTIONARY
  5
C
100
AcDbDictionary
280
0
281
1
  3
ACAD_GROUP
350
D
  3
ACAD_MLINESTYLE
350
17
  3
ACAD_LAYOUT
350
1A
  3
ACAD_PLOTSETTINGS
350
19
  3
ACAD_PLOTSTYLENAME
350
E
  0
DICTIONARY
  5
D
102
{ACAD_REACTORS
330
C
102
}
100
AcDbDictionary
280
0
281
1
  0
ACDBDICTIONARYWDFLT
  5
E
102
{ACAD_REACTORS
330
C
102
}
100
AcDbDictionary
281
1
  3
Normal
350
F
100
AcDbDictionaryWithDefault
340
F
  0
DICTIONARY
  5
17
102
{ACAD_REACTORS
330
C
102
}
100
AcDbDictionary
280
0
281
1
  3
Standard
350
18
  0
DICTIONARY
  5
19
102
{ACAD_REACTORS
330
C
102
}
100
AcDbDictionary
281
1
  0
DICTIONARY
  5
1A
102
{ACAD_REACTORS
330
C
102
}
100
AcDbDictionary
281
1
  3
Model
350
446
  3
Layout1
350
447
  0
ACDBPLACEHOLDER
  5
F
102
{ACAD_REACTORS
330
E
102
}
  0
MLINESTYLE
  5
18
102
{ACAD_REACTORS
330
17
102
}
100
AcDbMlineStyle
  2
STANDARD
 70
0
  3

 62
256
 51
90.0
 52
90.0
 71
2
 49
0.5
 62
256
  6
BYLAYER
 49
-0.5
 62
256
  6
BYLAYER
  0
LAYOUT
  5
446
102
{ACAD_REACTORS
330
1A
102
}
100
AcDbPlotSettings
  1

  2
none_device
  4
ANSI_A_(11.00_x_8.50_Inches)
  6

 40
0.0
 41
0.0
 42
0.0
 43
0.0
 44
279.4
 45
215.9
 46
0.0
 47
0.0
 48
0.0
 49
0.0
140
0.0
141
0.0
142
1.0
143
1.0
 70
1024
 72
0
 73
0
 74
0
  7

 75
0
147
1.0
148
0.0
149
0.0
100
AcDbLayout
  1
Model
 70
0
 71
0
 10
0.0
 20
0.0
 11
11.0
 21
8.5
 12
0.0
 22
0.0
 32
0.0
 14
0.0
 24
0.0
 34
0.0
 15
0.0
 25
0.0
 35
0.0
146
0.0
 13
0.0
 23
0.0
 33
0.0
 16
1.0
 26
0.0
 36
0.0
 17
0.0
 27
1.0
 37
0.0
 76
0
330
202
345
0
346
0
  0
LAYOUT
  5
447
102
{ACAD_REACTORS
330
1A
102
}
100
AcDbPlotSettings
  1

  2
none_device
  4
ANSI_A_(11.00_x_8.50_Inches)
  6

 40
0.0
 41
0.0
 42
0.0
 43
0.0
 44
279.4
 45
215.9
 46
0.0
 47
0.0
 48
0.0
 49
0.0
140
0.0
141
0.0
142
1.0
143
1.0
 70
0
 72
0
 73
0
 74
0
  7

 75
0
147
1.0
148
0.0
149
0.0
100
AcDbLayout
  1
Layout1
 70
0
 71
1
 10
0.0
 20
0.0
 11
11.0
 21
8.5
 12
0.0
 22
0.0
 32
0.0
 14
0.0
 24
0.0
 34
0.0
 15
0.0
 25
0.0
 35
0.0
146
0.0
 13
0.0
 23
0.0
 33
0.0
 16
1.0
 26
0.0
 36
0.0
 17
0.0
 27
1.0
 37
0.0
 76
0
330
203
345
0
346
0
  0
ENDSEC
  0
EOF
