999
DXF file: 1233_top.dxf
999
Pro/ENGINEER 2018400 by Parametric Technology Corporation
  0
SECTION
  2
HEADER
  9
$ACADVER
  1
AC1027
  9
$DWGCODEPAGE
  3
ANSI_1252
  9
$EXTMAX
 10
11.0
 20
8.5
 30
0.0
  9
$EXTMIN
 10
0.0
 20
0.0
 30
0.0
  9
$LIMMIN
 10
0.0
 20
0.0
  9
$LIMMAX
 10
11.0
 20
8.5
  9
$VIEWCTR
 10
5.5
 20
4.25
  9
$VIEWSIZE
 40
8.5
  9
$CLAYER
  8
0
  9
$LTSCALE
 40
0.605
  9
$CELTYPE
  6
BYLAYER
  9
$DIMSCALE
 40
1.0
  9
$DIMASZ
 40
0.1
  9
$DIMEXO
 40
0.0625
  9
$DIMDLI
 40
0.418
  9
$DIMEXE
 40
0.125
  9
$DIMCEN
 40
0.099
  9
$DIMLFAC
 40
1.0
  9
$DIMBLK
  1
_FILLED
  9
$DIMALT
 70
1
  9
$DIMALTD
 70
2
  9
$DIMALTTD
 70
2
  9
$DIMALTF
 40
25.4
  9
$DIMTXT
 40
0.08
  9
$DIMTOL
 70
1
  9
$DIMLIM
 70
0
  9
$DIMTFAC
 40
1.0
  9
$DIMTP
 40
0.001
  9
$DIMTM
 40
0.001
  9
$DIMGAP
 40
0.09
  9
$DIMDSEP
 70
46
  9
$AUNITS
 70
0
  9
$PDMODE
 70
3
  9
$PDSIZE
 40
0.3125
  9
$HANDSEED
  5
43E
  9
$TILEMODE
 70
1
  9
$MEASUREMENT
 70
0
  9
$INSUNITS
 70
1
  0
ENDSEC
  0
SECTION
  2
CLASSES
  0
CLASS
  1
ACDBDICTIONARYWDFLT
  2
AcDbDictionaryWithDefault
  3
AutoCAD 2000
 90
0
 91
1
280
0
281
0
  0
CLASS
  1
ACDBPLACEHOLDER
  2
AcDbPlaceHolder
  3
AutoCAD 2000
 90
0
 91
1
280
0
281
0
  0
CLASS
  1
LAYOUT
  2
AcDbLayout
  3
AutoCAD 2000
 90
0
 91
0
280
0
281
0
  0
ENDSEC
  0
SECTION
  2
TABLES
  0
TABLE
  2
VPORT
  5
8
100
AcDbSymbolTable
 70
2
  0
VPORT
  5
1F4
100
AcDbSymbolTableRecord
100
AcDbViewportTableRecord
  2
*ACTIVE
 70
0
 10
0.0
 20
0.0
 11
1.0
 21
1.0
 12
5.5
 22
4.25
 13
0.0
 23
0.0
 14
1.0
 24
1.0
 15
0.0
 25
0.0
 16
0.0
 26
0.0
 36
1.0
 17
0.0
 27
0.0
 37
0.0
 40
8.5
 41
1.2941176471
 42
50.0
 43
0.0
 44
0.0
 50
0.0
 51
0.0
 71
0
 72
100
 73
1
 74
1
 75
0
 76
0
 77
0
 78
0
  0
ENDTAB
  0
TABLE
  2
LTYPE
  5
5
100
AcDbSymbolTable
 70
6
  0
LTYPE
  5
14
100
AcDbSymbolTableRecord
100
AcDbLinetypeTableRecord
  2
BYBLOCK
 70
0
  3

 72
65
 73
0
 40
0.0
  0
LTYPE
  5
15
100
AcDbSymbolTableRecord
100
AcDbLinetypeTableRecord
  2
BYLAYER
 70
0
  3

 72
65
 73
0
 40
0.0
  0
LTYPE
  5
16
100
AcDbSymbolTableRecord
100
AcDbLinetypeTableRecord
  2
CONTINUOUS
 70
64
  3
Solid line
 72
65
 73
0
 40
0.0
  0
LTYPE
  5
1F5
100
AcDbSymbolTableRecord
100
AcDbLinetypeTableRecord
  2
CENTER
 70
64
  3
____ _ ____ _ ____ _ ____ _ ____ _ ____ _ ____
 72
65
 73
4
 40
0.6
 49
0.375
 74
0
 49
-0.075
 74
0
 49
0.075
 74
0
 49
-0.075
 74
0
  0
LTYPE
  5
1F6
100
AcDbSymbolTableRecord
100
AcDbLinetypeTableRecord
  2
HIDDEN
 70
64
  3
- - - - - - - - - - - - - - - - - - - -
 72
65
 73
2
 40
0.2
 49
0.1
 74
0
 49
-0.1
 74
0
  0
LTYPE
  5
1F7
100
AcDbSymbolTableRecord
100
AcDbLinetypeTableRecord
  2
PHANTOM
 70
64
  3
_____ _ _ _____ _ _ _____ _ _ _____
 72
65
 73
6
 40
0.8
 49
0.45
 74
0
 49
-0.05
 74
0
 49
0.1
 74
0
 49
-0.05
 74
0
 49
0.1
 74
0
 49
-0.05
 74
0
  0
LTYPE
  5
1F8
100
AcDbSymbolTableRecord
100
AcDbLinetypeTableRecord
  2
DOT
 70
64
  3
. . . . . . . . . . . . . . . . . . . .
 72
65
 73
2
 40
0.2
 49
0.1
 74
0
 49
-0.1
 74
0
  0
LTYPE
  5
1F9
100
AcDbSymbolTableRecord
100
AcDbLinetypeTableRecord
  2
DASHED
 70
64
  3
- - - - - - - - - - - - - - - - - - - -
 72
65
 73
2
 40
0.2
 49
0.1
 74
0
 49
-0.1
 74
0
  0
ENDTAB
  0
TABLE
  2
LAYER
  5
2
100
AcDbSymbolTable
 70
36
  0
LAYER
  5
10
100
AcDbSymbolTableRecord
100
AcDbLayerTableRecord
  2
0
 70
0
 62
7
  6
CONTINUOUS
370
-3
390
F
  0
LAYER
  5
1FA
100
AcDbSymbolTableRecord
100
AcDbLayerTableRecord
  2
DEFAULT_1
 70
0
 62
7
  6
CENTER
370
-3
390
F
  0
LAYER
  5
1FB
100
AcDbSymbolTableRecord
100
AcDbLayerTableRecord
  2
DEFAULT_2
 70
0
 62
8
  6
HIDDEN
370
-3
390
F
  0
LAYER
  5
1FC
100
AcDbSymbolTableRecord
100
AcDbLayerTableRecord
  2
DEFAULT_3
 70
0
 62
7
  6
PHANTOM
370
-3
390
F
  0
LAYER
  5
1FD
100
AcDbSymbolTableRecord
100
AcDbLayerTableRecord
  2
DEFAULT_COORDINATE_SYSTEM
 70
0
 62
7
  6
CONTINUOUS
370
-3
390
F
  0
LAYER
  5
1FE
100
AcDbSymbolTableRecord
100
AcDbLayerTableRecord
  2
DEFAULT_DATUM_AXES
 70
0
 62
7
  6
CONTINUOUS
370
-3
390
F
  0
LAYER
  5
1FF
100
AcDbSymbolTableRecord
100
AcDbLayerTableRecord
  2
DEFAULT_DATUM_PLANES
 70
0
 62
7
  6
CONTINUOUS
370
-3
390
F
  0
ENDTAB
  0
TABLE
  2
STYLE
  5
3
100
AcDbSymbolTable
 70
1
  0
STYLE
  5
11
100
AcDbSymbolTableRecord
100
AcDbTextStyleTableRecord
  2
STANDARD
 70
0
 40
0.0
 41
0.8
 50
0.0
 71
0
 42
0.2
  3
txt
  4

  0
STYLE
  5
200
100
AcDbSymbolTableRecord
100
AcDbTextStyleTableRecord
  2
TEXTSTYLE_1
 70
0
 40
0.0
 41
0.8
 50
0.0
 71
0
 42
0.2
  3
gdt
  4

  0
ENDTAB
  0
TABLE
  2
VIEW
  5
6
100
AcDbSymbolTable
 70
0
  0
ENDTAB
  0
TABLE
  2
UCS
  5
7
100
AcDbSymbolTable
 70
0
  0
ENDTAB
  0
TABLE
  2
APPID
  5
9
100
AcDbSymbolTable
 70
1
  0
APPID
  5
201
100
AcDbSymbolTableRecord
100
AcDbRegAppTableRecord
  2
ACAD
 70
0
  0
ENDTAB
  0
TABLE
  2
BLOCK_RECORD
  5
1
100
AcDbSymbolTable
 70
0
  0
BLOCK_RECORD
  5
202
100
AcDbSymbolTableRecord
100
AcDbBlockTableRecord
  2
*Model_Space
  0
BLOCK_RECORD
  5
203
100
AcDbSymbolTableRecord
100
AcDbBlockTableRecord
  2
*Paper_Space
  0
BLOCK_RECORD
  5
204
100
AcDbSymbolTableRecord
100
AcDbBlockTableRecord
  2
_FILLED
  0
ENDTAB
  0
TABLE
  2
DIMSTYLE
  5
A
100
AcDbSymbolTable
 70
1
100
AcDbDimStyleTable
 71
0
  0
DIMSTYLE
105
205
100
AcDbSymbolTableRecord
100
AcDbDimStyleTableRecord
  2
STANDARD
 70
0
  3

  4

 40
1.0
 41
0.1
 42
0.0625
 43
0.38
 44
0.125
 45
0.0
 46
0.0
 47
0.001
 48
0.001
140
0.08
141
0.09
142
0.0
143
25.4
144
1.0
145
0.0
146
1.0
147
0.09
 71
1.0
 72
0.0
 73
1
 74
1
 75
0
 76
0
 77
0
 78
4
 79
1
170
1
171
2
172
0
173
0
174
0
175
0
176
0
177
0
178
0
270
2
179
3
271
3
272
3
273
2
274
2
275
0
280
0
281
0
282
0
283
1
284
4
285
0
286
0
287
3
288
0
340
11
278
46
341
204
342
204
343
204
344
204
  0
ENDTAB
  0
ENDSEC
  0
SECTION
  2
BLOCKS
  0
BLOCK
  5
20
100
AcDbEntity
  8
0
100
AcDbBlockBegin
  2
*Model_Space
 70
0
 10
0.0
 20
0.0
 30
0.0
  3
*Model_Space
  1

  0
ENDBLK
  5
21
100
AcDbEntity
  8
0
100
AcDbBlockEnd
  0
BLOCK
  5
1C
100
AcDbEntity
  8
0
100
AcDbBlockBegin
  2
*Paper_Space
 70
0
 10
0.0
 20
0.0
 30
0.0
  3
*Paper_Space
  1

  0
ENDBLK
  5
1D
100
AcDbEntity
  8
0
100
AcDbBlockEnd
  0
BLOCK
  5
206
100
AcDbEntity
  8
0
100
AcDbBlockBegin
  2
_FILLED
 70
64
 10
0.0
 20
0.0
  3
_FILLED
  1

  0
SOLID
  5
207
100
AcDbEntity
  8
0
  6
BYBLOCK
 62
0
100
AcDbTrace
 10
0.0
 20
0.0
 11
-1.0
 21
0.2
 12
-1.0
 22
-0.2
 13
-1.0
 23
-0.2
  0
ENDBLK
  5
208
100
AcDbEntity
  8
0
  6
BYBLOCK
 62
0
100
AcDbBlockEnd
  0
ENDSEC
  0
SECTION
  2
ENTITIES
  0
MTEXT
  5
209
100
AcDbEntity
  8
0
100
AcDbMText
 62
2
  6
CONTINUOUS
  7
STANDARD
 71
3
 72
1
 10
5.4077639752
 20
1.4984923376
 30
0.0
 11
1.0
 21
0.0
 31
0.0
 73
2
 44
0.9
  1
SCALE  .500
 40
0.08
 41
0.704
  0
LINE
  5
20A
100
AcDbEntity
  8
0
100
AcDbLine
 62
7
  6
CONTINUOUS
 10
0.0
 20
0.0
 11
0.0
 21
8.5
  0
LINE
  5
20B
100
AcDbEntity
  8
0
100
AcDbLine
 62
7
  6
CONTINUOUS
 10
0.0
 20
0.0
 11
11.0
 21
0.0
  0
LINE
  5
20C
100
AcDbEntity
  8
0
100
AcDbLine
 62
7
  6
CONTINUOUS
 10
0.0
 20
8.5
 11
11.0
 21
8.5
  0
LINE
  5
20D
100
AcDbEntity
  8
0
100
AcDbLine
 62
7
  6
CONTINUOUS
 10
11.0
 20
0.0
 11
11.0
 21
8.5
  0
LWPOLYLINE
  5
20E
100
AcDbEntity
  8
0
100
AcDbPolyline
 62
7
  6
CONTINUOUS
 90
25
 70
0
 10
4.9235271424
 20
2.8155905232
 10
4.928986453
 20
2.8156419458
 10
4.9353819605
 20
2.8158299491
 10
4.9417709217
 20
2.8161550471
 10
4.9481495821
 20
2.8166164254
 10
4.9545143327
 20
2.8172132652
 10
4.960861776
 20
2.8179447557
 10
4.9671889759
 20
2.8188100442
 10
4.9734933867
 20
2.8198082735
 10
4.9797726781
 20
2.8209386377
 10
4.9860245044
 20
2.8222003574
 10
4.9922461367
 20
2.8235925913
 10
4.9984346134
 20
2.825114465
 10
5.0045872281
 20
2.8267652546
 10
5.0107010701
 20
2.828544208
 10
5.0167727107
 20
2.8304504029
 10
5.0227991984
 20
2.8324830325
 10
5.0287778774
 20
2.8346413998
 10
5.0347058183
 20
2.8369247407
 10
5.0405802872
 20
2.8393323652
 10
5.0463985475
 20
2.8418635873
 10
5.0521576654
 20
2.8445176319
 10
5.0578545391
 20
2.8472936318
 10
5.0634859352
 20
2.850190664
 10
5.0682866037
 20
2.852785132
  0
LINE
  5
20F
100
AcDbEntity
  8
0
100
AcDbLine
 62
7
  6
CONTINUOUS
 10
4.7785098608
 20
2.8535976498
 11
4.7788438193
 21
2.8534195902
  0
LWPOLYLINE
  5
210
100
AcDbEntity
  8
0
100
AcDbPolyline
 62
7
  6
CONTINUOUS
 90
25
 70
0
 10
4.7785495034
 20
2.8528675879
 10
4.7832250569
 20
2.8503355384
 10
4.7888671219
 20
2.8474254244
 10
4.7945749568
 20
2.8446370203
 10
4.8003452775
 20
2.8419712485
 10
4.8061749245
 20
2.8394289788
 10
4.8120609401
 20
2.8370109722
 10
4.8180005619
 20
2.8347179014
 10
4.8239910311
 20
2.8325504424
 10
4.8300294028
 20
2.830509344
 10
4.8361130045
 20
2.8285952923
 10
4.8422388559
 20
2.8268090889
 10
4.848403495
 20
2.8251516521
 10
4.8546039836
 20
2.8236237275
 10
4.86083762
 20
2.8222260317
 10
4.8671014436
 20
2.8209594229
 10
4.8733926871
 20
2.8198247205
 10
4.8797089872
 20
2.8188226767
 10
4.8860480255
 20
2.8179540653
 10
4.892407201
 20
2.8172197186
 10
4.8987833587
 20
2.8166204829
 10
4.905173137
 20
2.8161571919
 10
4.9115729888
 20
2.8158307011
 10
4.9179791947
 20
2.8156418692
 10
4.9235271425
 20
2.8155902183
  0
LINE
  5
211
100
AcDbEntity
  8
0
100
AcDbLine
 62
7
  6
CONTINUOUS
 10
4.7785098608
 20
2.8535976498
 11
4.778841534
 21
2.8534157199
  0
LINE
  5
212
100
AcDbEntity
  8
0
100
AcDbLine
 62
7
  6
CONTINUOUS
 10
4.7785472664
 20
2.8528688352
 11
4.7785495034
 21
2.8528675879
  0
LINE
  5
213
100
AcDbEntity
  8
0
100
AcDbLine
 62
7
  6
CONTINUOUS
 10
4.505828757
 20
5.858798023
 11
4.4798479779
 21
5.843798016
  0
LINE
  5
214
100
AcDbEntity
  8
0
100
AcDbLine
 62
7
  6
CONTINUOUS
 10
5.1323728973
 20
6.2205334511
 11
5.1583536775
 21
6.2355334602
  0
LINE
  5
215
100
AcDbEntity
  8
0
100
AcDbLine
 62
7
  6
CONTINUOUS
 10
4.6886960137
 20
6.2355334633
 11
4.479847979
 21
5.8737980561
  0
LINE
  5
216
100
AcDbEntity
  8
0
100
AcDbLine
 62
7
  6
CONTINUOUS
 10
4.7146767974
 20
6.2205334622
 11
4.5058287504
 21
5.8587980343
  0
LINE
  5
217
100
AcDbEntity
  8
0
100
AcDbLine
 62
7
  6
CONTINUOUS
 10
4.6596436153
 20
5.5923802568
 11
4.6336645423
 21
5.5773799114
  0
LINE
  5
218
100
AcDbEntity
  8
0
100
AcDbLine
 62
7
  6
CONTINUOUS
 10
5.3412209325
 20
5.8587980472
 11
5.3672017116
 21
5.8737980542
  0
LWPOLYLINE
  5
219
100
AcDbEntity
  8
0
100
AcDbPolyline
 62
7
  6
CONTINUOUS
 90
3
 70
0
 10
5.0540176161
 20
6.0992168076
 10
5.0520564768
 20
6.0958824295
 10
5.0501995826
 20
6.0927249744
  0
LINE
  5
21A
100
AcDbEntity
  8
0
100
AcDbLine
 62
7
  6
CONTINUOUS
 10
5.0764633672
 20
6.1373856134
 11
5.0372624549
 21
6.0707139198
  0
LINE
  5
21B
100
AcDbEntity
  8
0
100
AcDbLine
 62
7
  6
CONTINUOUS
 10
4.7659943271
 20
5.4275714627
 11
4.7759581424
 21
5.4352858149
  0
LINE
  5
21C
100
AcDbEntity
  8
0
100
AcDbLine
 62
7
  6
CONTINUOUS
 10
5.0889718332
 20
6.1316913629
 11
5.0501805621
 21
6.0632555858
  0
LINE
  5
21D
100
AcDbEntity
  8
0
100
AcDbLine
 62
7
  6
CONTINUOUS
 10
5.068780113
 20
6.096062824
 11
5.0667366364
 21
6.0924573608
  0
LINE
  5
21E
100
AcDbEntity
  8
0
100
AcDbLine
 62
7
  6
CONTINUOUS
 10
4.8582735678
 20
5.4522320171
 11
4.8624007153
 21
5.4583865877
  0
LINE
  5
21F
100
AcDbEntity
  8
0
100
AcDbLine
 62
7
  6
CONTINUOUS
 10
5.0038785803
 20
4.1401288926
 11
5.0040270278
 21
4.1401668191
  0
LINE
  5
220
100
AcDbEntity
  8
0
100
AcDbLine
 62
7
  6
CONTINUOUS
 10
5.0038785803
 20
4.1401288926
 11
5.0034792404
 21
4.1400314152
  0
LINE
  5
221
100
AcDbEntity
  8
0
100
AcDbLine
 62
7
  6
CONTINUOUS
 10
4.9268486105
 20
4.1226183974
 11
5.0038785803
 21
4.1401288926
  0
LINE
  5
222
100
AcDbEntity
  8
0
100
AcDbLine
 62
7
  6
CONTINUOUS
 10
4.9202010789
 20
4.1226183974
 11
4.8431711092
 21
4.1401288926
  0
LINE
  5
223
100
AcDbEntity
  8
0
100
AcDbLine
 62
7
  6
CONTINUOUS
 10
4.843023342
 20
4.1401666373
 11
4.8435715699
 21
4.1400311605
  0
LINE
  5
224
100
AcDbEntity
  8
0
100
AcDbLine
 62
7
  6
CONTINUOUS
 10
4.8431711092
 20
4.1401288926
 11
4.843023342
 21
4.1401666373
  0
LINE
  5
225
100
AcDbEntity
  8
0
100
AcDbLine
 62
7
  6
CONTINUOUS
 10
5.0038785803
 20
4.1401288926
 11
5.1123975188
 21
4.1691275731
  0
LINE
  5
226
100
AcDbEntity
  8
0
100
AcDbLine
 62
7
  6
CONTINUOUS
 10
5.1685248447
 20
4.2527423721
 11
5.1710248447
 21
4.253410468
  0
LINE
  5
227
100
AcDbEntity
  8
0
100
AcDbLine
 62
7
  6
CONTINUOUS
 10
5.1122490712
 20
4.1690896466
 11
5.1123971654
 21
4.1691274787
  0
LINE
  5
228
100
AcDbEntity
  8
0
100
AcDbLine
 62
7
  6
CONTINUOUS
 10
4.9272490712
 20
4.1227161295
 11
5.1122490712
 21
4.1690896466
  0
LINE
  5
229
100
AcDbEntity
  8
0
100
AcDbLine
 62
7
  6
CONTINUOUS
 10
4.9287916963
 20
4.1237113857
 11
5.1137916963
 21
4.1700849029
  0
LINE
  5
22A
100
AcDbEntity
  8
0
100
AcDbLine
 62
7
  6
CONTINUOUS
 10
4.9272490712
 20
4.1227161295
 11
4.9268486105
 21
4.1226183974
  0
LINE
  5
22B
100
AcDbEntity
  8
0
100
AcDbLine
 62
7
  6
CONTINUOUS
 10
5.0001543538
 20
4.2414098529
 11
4.8468953357
 21
4.2414098529
  0
LINE
  5
22C
100
AcDbEntity
  8
0
100
AcDbLine
 62
7
  6
CONTINUOUS
 10
5.0001543538
 20
4.2575450533
 11
4.8468953357
 21
4.2575450533
  0
LINE
  5
22D
100
AcDbEntity
  8
0
100
AcDbLine
 62
7
  6
CONTINUOUS
 10
4.9202010789
 20
4.1226183974
 11
4.9198006182
 21
4.1227161295
  0
LINE
  5
22E
100
AcDbEntity
  8
0
100
AcDbLine
 62
7
  6
CONTINUOUS
 10
4.9198006182
 20
4.1227161295
 11
4.7348006182
 21
4.1690896466
  0
LINE
  5
22F
100
AcDbEntity
  8
0
100
AcDbLine
 62
7
  6
CONTINUOUS
 10
4.9182579931
 20
4.1237113857
 11
4.7332579931
 21
4.1700849029
  0
LINE
  5
230
100
AcDbEntity
  8
0
100
AcDbLine
 62
7
  6
CONTINUOUS
 10
4.7348006182
 20
4.1690896466
 11
4.7346528168
 21
4.1691274005
  0
LINE
  5
231
100
AcDbEntity
  8
0
100
AcDbLine
 62
7
  6
CONTINUOUS
 10
4.7346521706
 20
4.1691275731
 11
4.8431711092
 21
4.1401288926
  0
LINE
  5
232
100
AcDbEntity
  8
0
100
AcDbLine
 62
7
  6
CONTINUOUS
 10
4.6760248447
 20
4.253410468
 11
4.6785248447
 21
4.2527423721
  0
LINE
  5
233
100
AcDbEntity
  8
0
100
AcDbLine
 62
7
  6
CONTINUOUS
 10
4.9182579931
 20
4.1237113857
 11
4.7332579931
 21
4.211041594
  0
LINE
  5
234
100
AcDbEntity
  8
0
100
AcDbLine
 62
7
  6
CONTINUOUS
 10
4.9198006182
 20
4.124706642
 11
4.7348006182
 21
4.2120368502
  0
LINE
  5
235
100
AcDbEntity
  8
0
100
AcDbLine
 62
7
  6
CONTINUOUS
 10
4.6760248447
 20
4.3082038791
 11
4.6668747765
 21
4.315031999
  0
LINE
  5
236
100
AcDbEntity
  8
0
100
AcDbLine
 62
7
  6
CONTINUOUS
 10
4.6768929016
 20
4.3214953979
 11
4.6677277948
 21
4.3283600511
  0
LINE
  5
237
100
AcDbEntity
  8
0
100
AcDbLine
 62
7
  6
CONTINUOUS
 10
4.6760248447
 20
4.253410468
 11
4.6668747765
 21
4.2657852199
  0
LINE
  5
238
100
AcDbEntity
  8
0
100
AcDbLine
 62
7
  6
CONTINUOUS
 10
4.6044363833
 20
5.4783048689
 11
4.6049528731
 21
5.4705065231
  0
LINE
  5
239
100
AcDbEntity
  8
0
100
AcDbLine
 62
7
  6
CONTINUOUS
 10
4.6102550189
 20
5.070593664
 11
4.6121451061
 21
5.0388668673
  0
LINE
  5
23A
100
AcDbEntity
  8
0
100
AcDbLine
 62
7
  6
CONTINUOUS
 10
4.6049528731
 20
5.4705065231
 11
4.6055131538
 21
5.4611058143
  0
LWPOLYLINE
  5
23B
100
AcDbEntity
  8
0
100
AcDbPolyline
 62
7
  6
CONTINUOUS
 90
9
 70
0
 10
4.6121451061
 20
5.0388668673
 10
4.6139652424
 20
5.0065877063
 10
4.6156581241
 20
4.9747248441
 10
4.6172260579
 20
4.9432752465
 10
4.6186710904
 20
4.9122417503
 10
4.6199950863
 20
4.8816334178
 10
4.6212002716
 20
4.8514544308
 10
4.6222892281
 20
4.8217036293
 10
4.623084702
 20
4.7980190244
  0
LINE
  5
23C
100
AcDbEntity
  8
0
100
AcDbLine
 62
7
  6
CONTINUOUS
 10
4.6055131538
 20
5.4611058143
 11
4.606030945
 21
5.4512792925
  0
LINE
  5
23D
100
AcDbEntity
  8
0
100
AcDbLine
 62
7
  6
CONTINUOUS
 10
4.606030945
 20
5.4512792925
 11
4.6065035187
 21
5.4410087365
  0
LINE
  5
23E
100
AcDbEntity
  8
0
100
AcDbLine
 62
7
  6
CONTINUOUS
 10
4.6065035187
 20
5.4410087365
 11
4.6069278992
 21
5.4302866877
  0
LINE
  5
23F
100
AcDbEntity
  8
0
100
AcDbLine
 62
7
  6
CONTINUOUS
 10
4.6069278992
 20
5.4302866877
 11
4.607301513
 21
5.4191087375
  0
LINE
  5
240
100
AcDbEntity
  8
0
100
AcDbLine
 62
7
  6
CONTINUOUS
 10
4.607301513
 20
5.4191087375
 11
4.607622532
 21
5.4074658296
  0
LINE
  5
241
100
AcDbEntity
  8
0
100
AcDbLine
 62
7
  6
CONTINUOUS
 10
4.607622532
 20
5.4074658296
 11
4.6078898424
 21
5.3953426055
  0
LWPOLYLINE
  5
242
100
AcDbEntity
  8
0
100
AcDbPolyline
 62
7
  6
CONTINUOUS
 90
46
 70
0
 10
4.633280611
 20
3.0964044539
 10
4.6333919251
 20
3.0907784328
 10
4.6336667561
 20
3.0842212998
 10
4.6340985984
 20
3.0776508312
 10
4.6346885105
 20
3.0710670045
 10
4.6354370273
 20
3.0644766697
 10
4.6363433378
 20
3.0578934418
 10
4.6374074048
 20
3.0513208177
 10
4.6386292401
 20
3.0447622307
 10
4.6400066971
 20
3.038231012
 10
4.6415391316
 20
3.0317304928
 10
4.6432259091
 20
3.0252639838
 10
4.6450634949
 20
3.0188445171
 10
4.6470502541
 20
3.0124761981
 10
4.6491851013
 20
3.0061612862
 10
4.6514641407
 20
2.9999097191
 10
4.6538842346
 20
2.9937277764
 10
4.6564449341
 20
2.9876151439
 10
4.6591461631
 20
2.9815717749
 10
4.6619862586
 20
2.9756015815
 10
4.6649642686
 20
2.9697069128
 10
4.668081612
 20
2.9638856422
 10
4.6713360865
 20
2.9581413894
 10
4.674725365
 20
2.9524774119
 10
4.6782506426
 20
2.9468915269
 10
4.6819101735
 20
2.9413869431
 10
4.6857015706
 20
2.9359673335
 10
4.6896254649
 20
2.9306309352
 10
4.6936801319
 20
2.925379529
 10
4.6978627096
 20
2.9202164115
 10
4.7021724934
 20
2.9151422805
 10
4.7066096082
 20
2.9101574674
 10
4.7111700404
 20
2.9052672982
 10
4.7158466738
 20
2.9004797912
 10
4.7206377216
 20
2.8957969443
 10
4.7255403141
 20
2.8912218223
 10
4.7305448304
 20
2.8867632389
 10
4.7356484703
 20
2.8824231957
 10
4.7408483734
 20
2.878203755
 10
4.7461340167
 20
2.8741128229
 10
4.7515021766
 20
2.8701520103
 10
4.7569500639
 20
2.8663225973
 10
4.7624670995
 20
2.8626309597
 10
4.7680468893
 20
2.8590798525
 10
4.7736878226
 20
2.8556688676
 10
4.778547581
 20
2.8528694274
  0
LINE
  5
243
100
AcDbEntity
  8
0
100
AcDbLine
 62
7
  6
CONTINUOUS
 10
4.6078898424
 20
5.3953426055
 11
4.6081027053
 21
5.3827357934
  0
LINE
  5
244
100
AcDbEntity
  8
0
100
AcDbLine
 62
7
  6
CONTINUOUS
 10
4.6081027053
 20
5.3827357934
 11
4.6082613308
 21
5.3696359765
  0
LINE
  5
245
100
AcDbEntity
  8
0
100
AcDbLine
 62
7
  6
CONTINUOUS
 10
4.6082613308
 20
5.3696359765
 11
4.6083666067
 21
5.3560665362
  0
LWPOLYLINE
  5
246
100
AcDbEntity
  8
0
100
AcDbPolyline
 62
7
  6
CONTINUOUS
 90
12
 70
0
 10
4.6076939264
 20
5.1683529291
 10
4.6077398451
 20
5.159777912
 10
4.6078100099
 20
5.1511228386
 10
4.6079078825
 20
5.142403682
 10
4.6080372093
 20
5.1336317387
 10
4.6082030975
 20
5.1247679642
 10
4.6084103762
 20
5.1158353502
 10
4.608664499
 20
5.1068475953
 10
4.6089738293
 20
5.0977556995
 10
4.6093470343
 20
5.0885587684
 10
4.6097919097
 20
5.0793034361
 10
4.6102824176
 20
5.0705953351
  0
LINE
  5
247
100
AcDbEntity
  8
0
100
AcDbLine
 62
7
  6
CONTINUOUS
 10
4.6332806713
 20
3.0964011162
 11
4.6332805949
 21
3.0964225361
  0
LINE
  5
248
100
AcDbEntity
  8
0
100
AcDbLine
 62
7
  6
CONTINUOUS
 10
4.6083666067
 20
5.3560665362
 11
4.6084208743
 21
5.3420557714
  0
LINE
  5
249
100
AcDbEntity
  8
0
100
AcDbLine
 62
7
  6
CONTINUOUS
 10
4.6076620509
 20
5.185369631
 11
4.6076939264
 21
5.1683529291
  0
LINE
  5
24A
100
AcDbEntity
  8
0
100
AcDbLine
 62
7
  6
CONTINUOUS
 10
4.6668747765
 20
4.315031999
 11
4.6668747765
 21
4.2657852199
  0
LINE
  5
24B
100
AcDbEntity
  8
0
100
AcDbLine
 62
7
  6
CONTINUOUS
 10
4.6760248447
 20
4.3082038791
 11
4.6760248447
 21
4.253410468
  0
LINE
  5
24C
100
AcDbEntity
  8
0
100
AcDbLine
 62
7
  6
CONTINUOUS
 10
4.6785248447
 20
4.2470801077
 11
4.6785248447
 21
4.2808071735
  0
LINE
  5
24D
100
AcDbEntity
  8
0
100
AcDbLine
 62
7
  6
CONTINUOUS
 10
4.6084208743
 20
5.3420557714
 11
4.6084279787
 21
5.3276570655
  0
LINE
  5
24E
100
AcDbEntity
  8
0
100
AcDbLine
 62
7
  6
CONTINUOUS
 10
4.6076928611
 20
5.2021668666
 11
4.6076620509
 21
5.185369631
  0
LINE
  5
24F
100
AcDbEntity
  8
0
100
AcDbLine
 62
7
  6
CONTINUOUS
 10
4.6084279787
 20
5.3276570655
 11
4.6083934512
 21
5.3129292101
  0
LINE
  5
250
100
AcDbEntity
  8
0
100
AcDbLine
 62
7
  6
CONTINUOUS
 10
4.6083934512
 20
5.3129292101
 11
4.6083241868
 21
5.297904827
  0
LINE
  5
251
100
AcDbEntity
  8
0
100
AcDbLine
 62
7
  6
CONTINUOUS
 10
4.6078177409
 20
5.2269651063
 11
4.6076928611
 21
5.2021668666
  0
LINE
  5
252
100
AcDbEntity
  8
0
100
AcDbLine
 62
7
  6
CONTINUOUS
 10
4.6083241868
 20
5.297904827
 11
4.6081728107
 21
5.2748605662
  0
LINE
  5
253
100
AcDbEntity
  8
0
100
AcDbLine
 62
7
  6
CONTINUOUS
 10
4.6081728107
 20
5.2748605662
 11
4.6078177409
 21
5.2269651063
  0
LINE
  5
254
100
AcDbEntity
  8
0
100
AcDbLine
 62
7
  6
CONTINUOUS
 10
4.6677277948
 20
4.3283600511
 11
4.6668747765
 21
4.315031999
  0
LINE
  5
255
100
AcDbEntity
  8
0
100
AcDbLine
 62
7
  6
CONTINUOUS
 10
5.1276856532
 20
5.517650531
 11
5.3210476457
 21
5.8525633209
  0
LINE
  5
256
100
AcDbEntity
  8
0
100
AcDbLine
 62
7
  6
CONTINUOUS
 10
5.1874064822
 20
5.5923809635
 11
5.341220939
 21
5.8587980359
  0
LINE
  5
257
100
AcDbEntity
  8
0
100
AcDbLine
 62
7
  6
CONTINUOUS
 10
4.8431711092
 20
4.2409976042
 11
4.7348006182
 21
4.2120368502
  0
LINE
  5
258
100
AcDbEntity
  8
0
100
AcDbLine
 62
7
  6
CONTINUOUS
 10
4.836288734
 20
4.2563709687
 11
4.727918243
 21
4.2274102147
  0
LINE
  5
259
100
AcDbEntity
  8
0
100
AcDbLine
 62
7
  6
CONTINUOUS
 10
4.836288734
 20
4.2848992415
 11
4.727918243
 21
4.2559384875
  0
LINE
  5
25A
100
AcDbEntity
  8
0
100
AcDbLine
 62
7
  6
CONTINUOUS
 10
4.821006988
 20
4.3469486716
 11
4.6760248447
 21
4.3082038791
  0
LINE
  5
25B
100
AcDbEntity
  8
0
100
AcDbLine
 62
7
  6
CONTINUOUS
 10
5.0001543538
 20
4.2860733261
 11
4.8468953357
 21
4.2860733261
  0
LINE
  5
25C
100
AcDbEntity
  8
0
100
AcDbLine
 62
7
  6
CONTINUOUS
 10
5.0260427014
 20
4.3469486716
 11
4.821006988
 21
4.3469486716
  0
LINE
  5
25D
100
AcDbEntity
  8
0
100
AcDbLine
 62
7
  6
CONTINUOUS
 10
5.0156650153
 20
4.3589953569
 11
4.8313846741
 21
4.3589953569
  0
LINE
  5
25E
100
AcDbEntity
  8
0
100
AcDbLine
 62
7
  6
CONTINUOUS
 10
5.1122490712
 20
4.2120368502
 11
5.0038785803
 21
4.2409976042
  0
LINE
  5
25F
100
AcDbEntity
  8
0
100
AcDbLine
 62
7
  6
CONTINUOUS
 10
5.1191314464
 20
4.2274102147
 11
5.0107609555
 21
4.2563709687
  0
LINE
  5
260
100
AcDbEntity
  8
0
100
AcDbLine
 62
7
  6
CONTINUOUS
 10
5.1191314464
 20
4.2559384875
 11
5.0107609555
 21
4.2848992415
  0
LINE
  5
261
100
AcDbEntity
  8
0
100
AcDbLine
 62
7
  6
CONTINUOUS
 10
5.1710248447
 20
4.3082038791
 11
5.0260427014
 21
4.3469486716
  0
LINE
  5
262
100
AcDbEntity
  8
0
100
AcDbLine
 62
7
  6
CONTINUOUS
 10
4.821006988
 20
4.3469486716
 11
4.8071987805
 21
4.3563181294
  0
LINE
  5
263
100
AcDbEntity
  8
0
100
AcDbLine
 62
7
  6
CONTINUOUS
 10
4.8313846741
 20
4.3589953569
 11
4.8175702374
 21
4.3684037022
  0
LINE
  5
264
100
AcDbEntity
  8
0
100
AcDbLine
 62
7
  6
CONTINUOUS
 10
4.9198006182
 20
4.124706642
 11
4.8431711092
 21
4.2409976042
  0
LINE
  5
265
100
AcDbEntity
  8
0
100
AcDbLine
 62
7
  6
CONTINUOUS
 10
4.9235248447
 20
4.1251188906
 11
4.8468953357
 21
4.2414098529
  0
LINE
  5
266
100
AcDbEntity
  8
0
100
AcDbLine
 62
7
  6
CONTINUOUS
 10
4.7323160785
 20
5.149033754
 11
4.7329509113
 21
5.0577620402
  0
LWPOLYLINE
  5
267
100
AcDbEntity
  8
0
100
AcDbPolyline
 62
7
  6
CONTINUOUS
 90
4
 70
0
 10
4.7560189849
 20
4.1634175404
 10
4.7565579193
 20
4.0081727634
 10
4.7569572236
 20
3.8516125017
 10
4.7572100464
 20
3.6966520846
  0
LINE
  5
268
100
AcDbEntity
  8
0
100
AcDbLine
 62
7
  6
CONTINUOUS
 10
4.7560203653
 20
4.1634174954
 11
4.7572100464
 21
3.6966520846
  0
LINE
  5
269
100
AcDbEntity
  8
0
100
AcDbLine
 62
7
  6
CONTINUOUS
 10
4.7146768112
 20
6.2205334622
 11
4.7146768124
 21
6.2505334824
  0
LINE
  5
26A
100
AcDbEntity
  8
0
100
AcDbLine
 62
7
  6
CONTINUOUS
 10
4.7235248447
 20
4.1836190325
 11
4.7235248447
 21
4.2531039964
  0
LINE
  5
26B
100
AcDbEntity
  8
0
100
AcDbLine
 62
7
  6
CONTINUOUS
 10
4.727918243
 20
4.2274102147
 11
4.727918243
 21
4.2559384875
  0
LINE
  5
26C
100
AcDbEntity
  8
0
100
AcDbLine
 62
7
  6
CONTINUOUS
 10
4.7332579931
 20
4.211041594
 11
4.7332579931
 21
4.1700849029
  0
LINE
  5
26D
100
AcDbEntity
  8
0
100
AcDbLine
 62
7
  6
CONTINUOUS
 10
4.7772748447
 20
5.4356376883
 11
4.7772748447
 21
5.4833215868
  0
LINE
  5
26E
100
AcDbEntity
  8
0
100
AcDbLine
 62
7
  6
CONTINUOUS
 10
4.6760248447
 20
4.3082038791
 11
4.6768929016
 21
4.3214953979
  0
LINE
  5
26F
100
AcDbEntity
  8
0
100
AcDbLine
 62
7
  6
CONTINUOUS
 10
4.7659943271
 20
5.4275714627
 11
4.6677277948
 21
4.3283600511
  0
LINE
  5
270
100
AcDbEntity
  8
0
100
AcDbLine
 62
7
  6
CONTINUOUS
 10
5.2026920334
 20
5.5582535039
 11
5.2037039139
 21
5.5601136639
  0
LINE
  5
271
100
AcDbEntity
  8
0
100
AcDbLine
 62
7
  6
CONTINUOUS
 10
5.2037039139
 20
5.5601136639
 11
5.2071921589
 21
5.5664458451
  0
LINE
  5
272
100
AcDbEntity
  8
0
100
AcDbLine
 62
7
  6
CONTINUOUS
 10
5.2071921589
 20
5.5664458451
 11
5.2105614008
 21
5.5724419097
  0
LINE
  5
273
100
AcDbEntity
  8
0
100
AcDbLine
 62
7
  6
CONTINUOUS
 10
5.2105614008
 20
5.5724419097
 11
5.2133881931
 21
5.577380075
  0
LINE
  5
274
100
AcDbEntity
  8
0
100
AcDbLine
 62
7
  6
CONTINUOUS
 10
5.2133859795
 20
5.5773813531
 11
5.3672017104
 21
5.8437980141
  0
LINE
  5
275
100
AcDbEntity
  8
0
100
AcDbLine
 62
7
  6
CONTINUOUS
 10
4.8071987805
 20
4.3563181294
 11
4.6768929016
 21
4.3214953979
  0
LINE
  5
276
100
AcDbEntity
  8
0
100
AcDbLine
 62
7
  6
CONTINUOUS
 10
5.1701567878
 20
4.3214953979
 11
5.0398509089
 21
4.3563181294
  0
LINE
  5
277
100
AcDbEntity
  8
0
100
AcDbLine
 62
7
  6
CONTINUOUS
 10
4.5885961056
 20
5.6225770837
 11
4.5897984477
 21
5.6148779714
  0
LINE
  5
278
100
AcDbEntity
  8
0
100
AcDbLine
 62
7
  6
CONTINUOUS
 10
4.836288734
 20
4.2563709687
 11
4.836288734
 21
4.2848992415
  0
LINE
  5
279
100
AcDbEntity
  8
0
100
AcDbLine
 62
7
  6
CONTINUOUS
 10
4.8468953357
 20
4.2414098529
 11
4.8468953357
 21
4.2860733261
  0
LINE
  5
27A
100
AcDbEntity
  8
0
100
AcDbLine
 62
7
  6
CONTINUOUS
 10
4.8629461112
 20
5.4583865877
 11
4.8629461112
 21
5.506216237
  0
LINE
  5
27B
100
AcDbEntity
  8
0
100
AcDbLine
 62
7
  6
CONTINUOUS
 10
4.9235248447
 20
6.0608804978
 11
4.9235248447
 21
6.0705221717
  0
LINE
  5
27C
100
AcDbEntity
  8
0
100
AcDbLine
 62
7
  6
CONTINUOUS
 10
4.8582735678
 20
5.4522320171
 11
4.8175702374
 21
4.3684037022
  0
LINE
  5
27D
100
AcDbEntity
  8
0
100
AcDbLine
 62
7
  6
CONTINUOUS
 10
5.0260427014
 20
4.3469486716
 11
5.0156650153
 21
4.3589953569
  0
LINE
  5
27E
100
AcDbEntity
  8
0
100
AcDbLine
 62
7
  6
CONTINUOUS
 10
5.0398509089
 20
4.3563181294
 11
5.029479452
 21
4.3684037022
  0
LWPOLYLINE
  5
27F
100
AcDbEntity
  8
0
100
AcDbPolyline
 62
7
  6
CONTINUOUS
 90
15
 70
0
 10
4.579181678
 20
5.6717470005
 10
4.5797288328
 20
5.669325972
 10
4.5803712179
 20
5.6664210786
 10
4.5810213048
 20
5.6634153629
 10
4.5816798575
 20
5.6603006116
 10
4.5823457463
 20
5.6570771528
 10
4.5830180093
 20
5.6537445592
 10
4.5836975152
 20
5.6502930032
 10
4.5843830638
 20
5.6467226298
 10
4.5850736141
 20
5.6430328082
 10
4.5857700691
 20
5.6392121132
 10
4.5864712646
 20
5.6352597492
 10
4.5871759033
 20
5.6311757111
 10
4.5878844489
 20
5.6269494436
 10
4.5885961056
 20
5.6225770837
  0
LINE
  5
280
100
AcDbEntity
  8
0
100
AcDbLine
 62
7
  6
CONTINUOUS
 10
4.9887761216
 20
5.4522320171
 11
5.029479452
 21
4.3684037022
  0
LINE
  5
281
100
AcDbEntity
  8
0
100
AcDbLine
 62
7
  6
CONTINUOUS
 10
4.9841035782
 20
5.4583865877
 11
4.9841035782
 21
5.506216237
  0
LINE
  5
282
100
AcDbEntity
  8
0
100
AcDbLine
 62
7
  6
CONTINUOUS
 10
5.0001543538
 20
4.2414098529
 11
5.0001543538
 21
4.2860733261
  0
LINE
  5
283
100
AcDbEntity
  8
0
100
AcDbLine
 62
7
  6
CONTINUOUS
 10
5.0107609555
 20
4.2563709687
 11
5.0107609555
 21
4.2848992415
  0
LINE
  5
284
100
AcDbEntity
  8
0
100
AcDbLine
 62
7
  6
CONTINUOUS
 10
4.8071987805
 20
4.3563181294
 11
4.8175702374
 21
4.3684037022
  0
LINE
  5
285
100
AcDbEntity
  8
0
100
AcDbLine
 62
7
  6
CONTINUOUS
 10
4.821006988
 20
4.3469486716
 11
4.8313846741
 21
4.3589953569
  0
LWPOLYLINE
  5
286
100
AcDbEntity
  8
0
100
AcDbPolyline
 62
7
  6
CONTINUOUS
 90
37
 70
0
 10
4.9971051459
 20
5.6347313197
 10
4.9970465858
 20
5.6353594075
 10
4.9969363792
 20
5.6368200554
 10
4.9968624963
 20
5.6382727298
 10
4.9968240623
 20
5.6397157244
 10
4.9968201314
 20
5.6411477481
 10
4.9968497338
 20
5.6425679567
 10
4.9969118744
 20
5.6439750676
 10
4.9970055139
 20
5.6453678208
 10
4.9971296254
 20
5.6467455445
 10
4.9972831339
 20
5.6481071594
 10
4.997464928
 20
5.6494515986
 10
4.9976739432
 20
5.6507783134
 10
4.9979090458
 20
5.652086381
 10
4.9981690778
 20
5.6533749257
 10
4.9984529589
 20
5.6546435441
 10
4.9987595237
 20
5.6558914832
 10
4.9990875802
 20
5.6571179965
 10
4.9994360253
 20
5.6583227371
 10
4.9998036922
 20
5.659505157
 10
5.0001893421
 20
5.6606645549
 10
5.0005917558
 20
5.6618003781
 10
5.0010097837
 20
5.6629123177
 10
5.0014420993
 20
5.6639996456
 10
5.0018871457
 20
5.6650612005
 10
5.0023437529
 20
5.6660968632
 10
5.002810475
 20
5.6671059225
 10
5.0032851799
 20
5.6680863788
 10
5.0037665285
 20
5.6690380809
 10
5.004253028
 20
5.6699605983
 10
5.0047420994
 20
5.6708516113
 10
5.0052325055
 20
5.6717114403
 10
5.0057224733
 20
5.6725394596
 10
5.0062083736
 20
5.673332144
 10
5.0066883848
 20
5.6740892247
 10
5.0071611393
 20
5.6748111364
 10
5.0072005032
 20
5.6748694152
  0
LINE
  5
287
100
AcDbEntity
  8
0
100
AcDbLine
 62
7
  6
CONTINUOUS
 10
5.0810553624
 20
5.4275714627
 11
5.1793218946
 21
4.3283600511
  0
LINE
  5
288
100
AcDbEntity
  8
0
100
AcDbLine
 62
7
  6
CONTINUOUS
 10
5.1710248447
 20
4.3082038791
 11
5.1701567878
 21
4.3214953979
  0
LINE
  5
289
100
AcDbEntity
  8
0
100
AcDbLine
 62
7
  6
CONTINUOUS
 10
5.1793218946
 20
4.3283600511
 11
5.180174913
 21
4.315031999
  0
LINE
  5
28A
100
AcDbEntity
  8
0
100
AcDbLine
 62
7
  6
CONTINUOUS
 10
5.2106304655
 20
3.2125581153
 11
5.2103881681
 21
3.2180759902
  0
LINE
  5
28B
100
AcDbEntity
  8
0
100
AcDbLine
 62
7
  6
CONTINUOUS
 10
5.2103881681
 20
3.2180759902
 11
5.2094084261
 21
3.2407659733
  0
LINE
  5
28C
100
AcDbEntity
  8
0
100
AcDbLine
 62
7
  6
CONTINUOUS
 10
5.2117830646
 20
3.1855827933
 11
5.2106304655
 21
3.2125581153
  0
LINE
  5
28D
100
AcDbEntity
  8
0
100
AcDbLine
 62
7
  6
CONTINUOUS
 10
5.2094084261
 20
3.2407659733
 11
5.2086799741
 21
3.258666023
  0
LINE
  5
28E
100
AcDbEntity
  8
0
100
AcDbLine
 62
7
  6
CONTINUOUS
 10
5.2121941839
 20
3.1749542958
 11
5.2117830646
 21
3.1855827933
  0
LINE
  5
28F
100
AcDbEntity
  8
0
100
AcDbLine
 62
7
  6
CONTINUOUS
 10
5.2086799741
 20
3.258666023
 11
5.2082069519
 21
3.2711229776
  0
LINE
  5
290
100
AcDbEntity
  8
0
100
AcDbLine
 62
7
  6
CONTINUOUS
 10
5.2082069519
 20
3.2711229776
 11
5.2077465984
 21
3.2840341475
  0
LINE
  5
291
100
AcDbEntity
  8
0
100
AcDbLine
 62
7
  6
CONTINUOUS
 10
5.2125583296
 20
3.1644470921
 11
5.2121941839
 21
3.1749542958
  0
LINE
  5
292
100
AcDbEntity
  8
0
100
AcDbLine
 62
7
  6
CONTINUOUS
 10
5.2077465984
 20
3.2840341475
 11
5.2072989282
 21
3.2974494523
  0
LINE
  5
293
100
AcDbEntity
  8
0
100
AcDbLine
 62
7
  6
CONTINUOUS
 10
5.2072989282
 20
3.2974494523
 11
5.2068637542
 21
3.3114266913
  0
LINE
  5
294
100
AcDbEntity
  8
0
100
AcDbLine
 62
7
  6
CONTINUOUS
 10
5.2128670564
 20
3.1542092504
 11
5.2125583296
 21
3.1644470921
  0
LINE
  5
295
100
AcDbEntity
  8
0
100
AcDbLine
 62
7
  6
CONTINUOUS
 10
5.2068637542
 20
3.3114266913
 11
5.206441053
 21
3.3259923869
  0
LINE
  5
296
100
AcDbEntity
  8
0
100
AcDbLine
 62
7
  6
CONTINUOUS
 10
5.206441053
 20
3.3259923869
 11
5.2060305083
 21
3.341189179
  0
LINE
  5
297
100
AcDbEntity
  8
0
100
AcDbLine
 62
7
  6
CONTINUOUS
 10
5.2060305083
 20
3.341189179
 11
5.2056337982
 21
3.3570012997
  0
LINE
  5
298
100
AcDbEntity
  8
0
100
AcDbLine
 62
7
  6
CONTINUOUS
 10
5.2132300819
 20
3.1396940617
 11
5.2128670564
 21
3.1542092504
  0
LINE
  5
299
100
AcDbEntity
  8
0
100
AcDbLine
 62
7
  6
CONTINUOUS
 10
5.2056337982
 20
3.3570012997
 11
5.2052525776
 21
3.3734230583
  0
LINE
  5
29A
100
AcDbEntity
  8
0
100
AcDbLine
 62
7
  6
CONTINUOUS
 10
5.2052525776
 20
3.3734230583
 11
5.2048885237
 21
3.3904511161
  0
LINE
  5
29B
100
AcDbEntity
  8
0
100
AcDbLine
 62
7
  6
CONTINUOUS
 10
5.2048885237
 20
3.3904511161
 11
5.2045434702
 21
3.4080760118
  0
LINE
  5
29C
100
AcDbEntity
  8
0
100
AcDbLine
 62
7
  6
CONTINUOUS
 10
5.2045434702
 20
3.4080760118
 11
5.2042192741
 21
3.4262804254
  0
LINE
  5
29D
100
AcDbEntity
  8
0
100
AcDbLine
 62
7
  6
CONTINUOUS
 10
5.2134830491
 20
3.1265375055
 11
5.2132300819
 21
3.1396940617
  0
LINE
  5
29E
100
AcDbEntity
  8
0
100
AcDbLine
 62
7
  6
CONTINUOUS
 10
5.2042192741
 20
3.4262804254
 11
5.2039179247
 21
3.4450327757
  0
LINE
  5
29F
100
AcDbEntity
  8
0
100
AcDbLine
 62
7
  6
CONTINUOUS
 10
5.2039179247
 20
3.4450327757
 11
5.2036416768
 21
3.4642959146
  0
LINE
  5
2A0
100
AcDbEntity
  8
0
100
AcDbLine
 62
7
  6
CONTINUOUS
 10
5.2135986644
 20
3.1186920607
 11
5.2134830491
 21
3.1265375055
  0
LINE
  5
2A1
100
AcDbEntity
  8
0
100
AcDbLine
 62
7
  6
CONTINUOUS
 10
5.2036416768
 20
3.4642959146
 11
5.2033933225
 21
3.4840425537
  0
LWPOLYLINE
  5
2A2
100
AcDbEntity
  8
0
100
AcDbPolyline
 62
7
  6
CONTINUOUS
 90
3
 70
0
 10
5.2033933225
 20
3.4840425537
 10
5.2031758844
 20
3.5042409413
 10
5.203079763
 20
3.5144976586
  0
LINE
  5
2A3
100
AcDbEntity
  8
0
100
AcDbLine
 62
7
  6
CONTINUOUS
 10
5.0697748447
 20
5.4356376883
 11
5.0697748447
 21
5.4833215868
  0
LINE
  5
2A4
100
AcDbEntity
  8
0
100
AcDbLine
 62
7
  6
CONTINUOUS
 10
5.1137916963
 20
4.1700849029
 11
5.1137916963
 21
4.211041594
  0
LINE
  5
2A5
100
AcDbEntity
  8
0
100
AcDbLine
 62
7
  6
CONTINUOUS
 10
5.1191314464
 20
4.2274102147
 11
5.1191314464
 21
4.2559384875
  0
LINE
  5
2A6
100
AcDbEntity
  8
0
100
AcDbLine
 62
7
  6
CONTINUOUS
 10
5.1235248447
 20
4.1836190325
 11
5.1235248447
 21
4.2531039964
  0
LINE
  5
2A7
100
AcDbEntity
  8
0
100
AcDbLine
 62
7
  6
CONTINUOUS
 10
5.132372876
 20
6.2205334631
 11
5.132372879
 21
6.2505334824
  0
LINE
  5
2A8
100
AcDbEntity
  8
0
100
AcDbLine
 62
7
  6
CONTINUOUS
 10
5.1685248447
 20
4.2470801077
 11
5.1685248447
 21
4.2808071735
  0
LINE
  5
2A9
100
AcDbEntity
  8
0
100
AcDbLine
 62
7
  6
CONTINUOUS
 10
5.1710248447
 20
4.253410468
 11
5.1710248447
 21
4.3082038791
  0
LINE
  5
2AA
100
AcDbEntity
  8
0
100
AcDbLine
 62
7
  6
CONTINUOUS
 10
5.180174913
 20
4.2657852199
 11
5.180174913
 21
4.315031999
  0
LWPOLYLINE
  5
2AB
100
AcDbEntity
  8
0
100
AcDbPolyline
 62
7
  6
CONTINUOUS
 90
4
 70
0
 10
5.0898396431
 20
3.6966520846
 10
5.0900924656
 20
3.8516124276
 10
5.0904917698
 20
4.0081726391
 10
5.0910307045
 20
4.1634175404
  0
LINE
  5
2AC
100
AcDbEntity
  8
0
100
AcDbLine
 62
7
  6
CONTINUOUS
 10
5.0898396431
 20
3.6966520846
 11
5.0910293242
 21
4.1634174954
  0
LINE
  5
2AD
100
AcDbEntity
  8
0
100
AcDbLine
 62
7
  6
CONTINUOUS
 10
5.114115243
 20
5.0577629707
 11
5.114733611
 21
5.1490337541
  0
LINE
  5
2AE
100
AcDbEntity
  8
0
100
AcDbLine
 62
7
  6
CONTINUOUS
 10
5.2415294314
 20
5.4609791566
 11
5.2420887751
 21
5.4703790883
  0
LINE
  5
2AF
100
AcDbEntity
  8
0
100
AcDbLine
 62
7
  6
CONTINUOUS
 10
5.2420887751
 20
5.4703790883
 11
5.2425469228
 21
5.4773425104
  0
LWPOLYLINE
  5
2B0
100
AcDbEntity
  8
0
100
AcDbPolyline
 62
7
  6
CONTINUOUS
 90
8
 70
0
 10
5.2425470818
 20
5.4773448206
 10
5.2431435336
 20
5.4857956068
 10
5.2448770671
 20
5.5079931964
 10
5.2468222103
 20
5.5297081759
 10
5.2489898611
 20
5.5510112984
 10
5.2513760947
 20
5.5718235007
 10
5.2539729564
 20
5.5920725506
 10
5.2567795623
 20
5.6117597829
  0
LWPOLYLINE
  5
2B1
100
AcDbEntity
  8
0
100
AcDbPolyline
 62
7
  6
CONTINUOUS
 90
17
 70
0
 10
5.2567795623
 20
5.6117597829
 10
5.2577678546
 20
5.6182360132
 10
5.2584803478
 20
5.6227439201
 10
5.259191622
 20
5.6271090278
 10
5.2598997667
 20
5.6313283588
 10
5.2606039885
 20
5.6354057641
 10
5.2613047511
 20
5.6393517666
 10
5.2620007606
 20
5.6431663719
 10
5.2626908554
 20
5.6468503704
 10
5.2633759358
 20
5.6504151462
 10
5.2640549631
 20
5.6538613266
 10
5.2647267394
 20
5.6571887653
 10
5.2653921306
 20
5.6604072532
 10
5.2660501762
 20
5.6635172151
 10
5.2666997485
 20
5.6665183207
 10
5.2673416071
 20
5.669418748
 10
5.2678682567
 20
5.6717474253
  0
LINE
  5
2B2
100
AcDbEntity
  8
0
100
AcDbLine
 62
7
  6
CONTINUOUS
 10
4.5058287504
 20
5.8587980343
 11
4.6596436153
 21
5.5923802568
  0
LINE
  5
2B3
100
AcDbEntity
  8
0
100
AcDbLine
 62
7
  6
CONTINUOUS
 10
4.5260020426
 20
5.8525633237
 11
4.719364052
 21
5.5176505121
  0
LINE
  5
2B4
100
AcDbEntity
  8
0
100
AcDbLine
 62
7
  6
CONTINUOUS
 10
4.4798479773
 20
5.843798017
 11
4.6348163201
 21
5.5753729712
  0
LINE
  5
2B5
100
AcDbEntity
  8
0
100
AcDbLine
 62
7
  6
CONTINUOUS
 10
4.6348163201
 20
5.5753729712
 11
4.638131887
 21
5.569531765
  0
LINE
  5
2B6
100
AcDbEntity
  8
0
100
AcDbLine
 62
7
  6
CONTINUOUS
 10
4.638131887
 20
5.569531765
 11
4.6415693794
 21
5.5633539935
  0
LINE
  5
2B7
100
AcDbEntity
  8
0
100
AcDbLine
 62
7
  6
CONTINUOUS
 10
4.6415693794
 20
5.5633539935
 11
4.6443577234
 21
5.5582533835
  0
LINE
  5
2B8
100
AcDbEntity
  8
0
100
AcDbLine
 62
7
  6
CONTINUOUS
 10
4.6443536407
 20
5.5582609057
 11
4.6443576742
 21
5.5582534704
  0
LINE
  5
2B9
100
AcDbEntity
  8
0
100
AcDbLine
 62
7
  6
CONTINUOUS
 10
5.2137081293
 20
3.1085030912
 11
5.2135986644
 21
3.1186920607
  0
LINE
  5
2BA
100
AcDbEntity
  8
0
100
AcDbLine
 62
7
  6
CONTINUOUS
 10
5.203079763
 20
3.5144976586
 11
5.2029149163
 21
3.5353052442
  0
LINE
  5
2BB
100
AcDbEntity
  8
0
100
AcDbLine
 62
7
  6
CONTINUOUS
 10
5.2392323442
 20
5.2269033799
 11
5.2387259793
 21
5.297818914
  0
LINE
  5
2BC
100
AcDbEntity
  8
0
100
AcDbLine
 62
7
  6
CONTINUOUS
 10
5.2029149163
 20
3.5353052442
 11
5.2027896627
 21
3.5564626468
  0
LINE
  5
2BD
100
AcDbEntity
  8
0
100
AcDbLine
 62
7
  6
CONTINUOUS
 10
5.2387259793
 20
5.297818914
 11
5.2386565631
 21
5.3128384077
  0
LINE
  5
2BE
100
AcDbEntity
  8
0
100
AcDbLine
 62
7
  6
CONTINUOUS
 10
5.2393570045
 20
5.2021141979
 11
5.2392323442
 21
5.2269033799
  0
LINE
  5
2BF
100
AcDbEntity
  8
0
100
AcDbLine
 62
7
  6
CONTINUOUS
 10
5.2027896627
 20
3.5564626468
 11
5.2027074593
 21
3.5779257685
  0
LINE
  5
2C0
100
AcDbEntity
  8
0
100
AcDbLine
 62
7
  6
CONTINUOUS
 10
5.2137693039
 20
3.0964787565
 11
5.2137081293
 21
3.1085030912
  0
LINE
  5
2C1
100
AcDbEntity
  8
0
100
AcDbLine
 62
7
  6
CONTINUOUS
 10
5.2386565631
 20
5.3128384077
 11
5.2386218083
 21
5.3275617373
  0
LINE
  5
2C2
100
AcDbEntity
  8
0
100
AcDbLine
 62
7
  6
CONTINUOUS
 10
5.2137722887
 20
3.0964787697
 11
5.2137722525
 21
3.0965034466
  0
LINE
  5
2C3
100
AcDbEntity
  8
0
100
AcDbLine
 62
7
  6
CONTINUOUS
 10
5.2027074593
 20
3.5779257685
 11
5.2026697106
 21
3.5996660883
  0
LINE
  5
2C4
100
AcDbEntity
  8
0
100
AcDbLine
 62
7
  6
CONTINUOUS
 10
5.2393876458
 20
5.1853233431
 11
5.2393570045
 21
5.2021141979
  0
LINE
  5
2C5
100
AcDbEntity
  8
0
100
AcDbLine
 62
7
  6
CONTINUOUS
 10
5.2026697106
 20
3.5996660883
 11
5.2026734325
 21
3.6216903992
  0
LINE
  5
2C6
100
AcDbEntity
  8
0
100
AcDbLine
 62
7
  6
CONTINUOUS
 10
5.2386218083
 20
5.3275617373
 11
5.2386286072
 21
5.3419563298
  0
LINE
  5
2C7
100
AcDbEntity
  8
0
100
AcDbLine
 62
7
  6
CONTINUOUS
 10
5.2026734325
 20
3.6216903992
 11
5.2027112962
 21
3.643163422
  0
LWPOLYLINE
  5
2C8
100
AcDbEntity
  8
0
100
AcDbPolyline
 62
7
  6
CONTINUOUS
 90
12
 70
0
 10
5.2027114867
 20
3.6431635313
 10
5.2030784196
 20
3.7392753493
 10
5.2037216883
 20
3.83698328
 10
5.2046437241
 20
3.9353500244
 10
5.2058424922
 20
4.0339921925
 10
5.2073228011
 20
4.1332911002
 10
5.2091074224
 20
4.2343937569
 10
5.211215526
 20
4.3377504529
 10
5.213649089
 20
4.4429026324
 10
5.2164116088
 20
4.5496329892
 10
5.2195086927
 20
4.6578633768
 10
5.2229513066
 20
4.7676557896
  0
LINE
  5
2C9
100
AcDbEntity
  8
0
100
AcDbLine
 62
7
  6
CONTINUOUS
 10
5.2137706735
 20
3.0961376478
 11
5.2137722848
 21
3.0964774104
  0
LINE
  5
2CA
100
AcDbEntity
  8
0
100
AcDbLine
 62
7
  6
CONTINUOUS
 10
5.2386286072
 20
5.3419563298
 11
5.2386824915
 21
5.3559633643
  0
LINE
  5
2CB
100
AcDbEntity
  8
0
100
AcDbLine
 62
7
  6
CONTINUOUS
 10
5.2386824915
 20
5.3559633643
 11
5.2387873078
 21
5.3695293419
  0
LINE
  5
2CC
100
AcDbEntity
  8
0
100
AcDbLine
 62
7
  6
CONTINUOUS
 10
5.2387873078
 20
5.3695293419
 11
5.238945399
 21
5.3826258997
  0
LINE
  5
2CD
100
AcDbEntity
  8
0
100
AcDbLine
 62
7
  6
CONTINUOUS
 10
5.238945399
 20
5.3826258997
 11
5.2391576536
 21
5.3952295283
  0
LINE
  5
2CE
100
AcDbEntity
  8
0
100
AcDbLine
 62
7
  6
CONTINUOUS
 10
5.2391576536
 20
5.3952295283
 11
5.2394242847
 21
5.4073497352
  0
LINE
  5
2CF
100
AcDbEntity
  8
0
100
AcDbLine
 62
7
  6
CONTINUOUS
 10
5.2394242847
 20
5.4073497352
 11
5.2397445576
 21
5.4189898335
  0
LINE
  5
2D0
100
AcDbEntity
  8
0
100
AcDbLine
 62
7
  6
CONTINUOUS
 10
5.2238596752
 20
4.8118986087
 11
5.2240069915
 21
4.8163930713
  0
LWPOLYLINE
  5
2D1
100
AcDbEntity
  8
0
100
AcDbPolyline
 62
7
  6
CONTINUOUS
 90
9
 70
0
 10
5.2229513066
 20
4.7676557896
 10
5.2249094092
 20
4.825938799
 10
5.2259934328
 20
4.8551976033
 10
5.2271899427
 20
4.8848735001
 10
5.2285014111
 20
4.9149675876
 10
5.2299299761
 20
4.9454758813
 10
5.2314774405
 20
4.976389791
 10
5.2331457786
 20
5.0077065895
 10
5.2349372143
 20
5.039429134
  0
LINE
  5
2D2
100
AcDbEntity
  8
0
100
AcDbLine
 62
7
  6
CONTINUOUS
 10
5.2397445576
 20
5.4189898335
 11
5.2401173646
 21
5.4301652423
  0
LINE
  5
2D3
100
AcDbEntity
  8
0
100
AcDbLine
 62
7
  6
CONTINUOUS
 10
5.2401173646
 20
5.4301652423
 11
5.2405408876
 21
5.4408851177
  0
LINE
  5
2D4
100
AcDbEntity
  8
0
100
AcDbLine
 62
7
  6
CONTINUOUS
 10
5.2405408876
 20
5.4408851177
 11
5.2410125639
 21
5.4511539179
  0
LINE
  5
2D5
100
AcDbEntity
  8
0
100
AcDbLine
 62
7
  6
CONTINUOUS
 10
5.2410125639
 20
5.4511539179
 11
5.2415294314
 21
5.4609791566
  0
LWPOLYLINE
  5
2D6
100
AcDbEntity
  8
0
100
AcDbPolyline
 62
7
  6
CONTINUOUS
 90
13
 70
0
 10
5.2367672736
 20
5.0705953655
 10
5.2372575745
 20
5.0792995006
 10
5.2377023082
 20
5.0885509112
 10
5.2380754245
 20
5.0977439735
 10
5.2383847101
 20
5.1068321105
 10
5.2386388227
 20
5.1158162171
 10
5.2388461175
 20
5.124745234
 10
5.2390120428
 20
5.1336054765
 10
5.2391414232
 20
5.1423739778
 10
5.2392393615
 20
5.1510897313
 10
5.2393096009
 20
5.1597414466
 10
5.2393556002
 20
5.1683131694
 10
5.2393876458
 20
5.1853233431
  0
LINE
  5
2D7
100
AcDbEntity
  8
0
100
AcDbLine
 62
7
  6
CONTINUOUS
 10
5.2367946721
 20
5.0705936898
 11
5.2349372143
 21
5.039429134
  0
LINE
  5
2D8
100
AcDbEntity
  8
0
100
AcDbLine
 62
7
  6
CONTINUOUS
 10
5.2132358516
 20
3.0818083085
 11
5.213283761
 21
3.0825755485
  0
LINE
  5
2D9
100
AcDbEntity
  8
0
100
AcDbLine
 62
7
  6
CONTINUOUS
 10
4.9235248447
 20
4.1251188906
 11
5.0001543538
 21
4.2414098529
  0
LINE
  5
2DA
100
AcDbEntity
  8
0
100
AcDbLine
 62
7
  6
CONTINUOUS
 10
4.9272490712
 20
4.124706642
 11
5.0038785803
 21
4.2409976042
  0
LINE
  5
2DB
100
AcDbEntity
  8
0
100
AcDbLine
 62
7
  6
CONTINUOUS
 10
5.1701567878
 20
4.3214953979
 11
5.1793218946
 21
4.3283600511
  0
LINE
  5
2DC
100
AcDbEntity
  8
0
100
AcDbLine
 62
7
  6
CONTINUOUS
 10
5.0156650153
 20
4.3589953569
 11
5.029479452
 21
4.3684037022
  0
LINE
  5
2DD
100
AcDbEntity
  8
0
100
AcDbLine
 62
7
  6
CONTINUOUS
 10
5.0260427014
 20
4.3469486716
 11
5.0398509089
 21
4.3563181294
  0
LWPOLYLINE
  5
2DE
100
AcDbEntity
  8
0
100
AcDbPolyline
 62
7
  6
CONTINUOUS
 90
3
 70
0
 10
5.2132295705
 20
3.0818085134
 10
5.2132696094
 20
3.0823444866
 10
5.2132809501
 20
3.0825755607
  0
LINE
  5
2DF
100
AcDbEntity
  8
0
100
AcDbLine
 62
7
  6
CONTINUOUS
 10
5.1710248447
 20
4.253410468
 11
5.180174913
 21
4.2657852199
  0
LINE
  5
2E0
100
AcDbEntity
  8
0
100
AcDbLine
 62
7
  6
CONTINUOUS
 10
5.1710248447
 20
4.3082038791
 11
5.180174913
 21
4.315031999
  0
LINE
  5
2E1
100
AcDbEntity
  8
0
100
AcDbLine
 62
7
  6
CONTINUOUS
 10
4.9272490712
 20
4.124706642
 11
5.1122490712
 21
4.2120368502
  0
LINE
  5
2E2
100
AcDbEntity
  8
0
100
AcDbLine
 62
7
  6
CONTINUOUS
 10
4.9287916963
 20
4.1237113857
 11
5.1137916963
 21
4.211041594
  0
LINE
  5
2E3
100
AcDbEntity
  8
0
100
AcDbLine
 62
7
  6
CONTINUOUS
 10
4.9887761216
 20
5.4522320171
 11
4.9846489742
 21
5.4583865877
  0
LWPOLYLINE
  5
2E4
100
AcDbEntity
  8
0
100
AcDbPolyline
 62
7
  6
CONTINUOUS
 90
35
 70
0
 10
4.8403375187
 20
5.6746442909
 10
4.8406328609
 20
5.6741954268
 10
4.8411162003
 20
5.6734360375
 10
4.8416058787
 20
5.6726394806
 10
4.8420979489
 20
5.6718094472
 10
4.8425905606
 20
5.6709464501
 10
4.8430823397
 20
5.6700501893
 10
4.843570311
 20
5.6691234041
 10
4.8440528526
 20
5.6681665687
 10
4.8445285649
 20
5.6671797545
 10
4.8449950588
 20
5.6661652294
 10
4.8454508021
 20
5.665123696
 10
4.8458945476
 20
5.6640552712
 10
4.8463245319
 20
5.6629614081
 10
4.8467393379
 20
5.6618429043
 10
4.8471377846
 20
5.6607000067
 10
4.8475185626
 20
5.6595333644
 10
4.8478803726
 20
5.6583437013
 10
4.8482220016
 20
5.6571315532
 10
4.8485422902
 20
5.6558973077
 10
4.8488399948
 20
5.6546417222
 10
4.8491139024
 20
5.6533655531
 10
4.8493628858
 20
5.6520692288
 10
4.8495857384
 20
5.6507536401
 10
4.8497812807
 20
5.6494197155
 10
4.8499484065
 20
5.6480680129
 10
4.8500859575
 20
5.6466996144
 10
4.8501928127
 20
5.645315614
 10
4.850267905
 20
5.6439166917
 10
4.8503101488
 20
5.6425041269
 10
4.8503185041
 20
5.6410792251
 10
4.8502919607
 20
5.6396428441
 10
4.8502295295
 20
5.6381962983
 10
4.8501302909
 20
5.6367413285
 10
4.8500768493
 20
5.6361218239
  0
LINE
  5
2E5
100
AcDbEntity
  8
0
100
AcDbLine
 62
7
  6
CONTINUOUS
 10
4.7705863222
 20
6.1373856134
 11
4.8097872345
 21
6.0707139198
  0
LWPOLYLINE
  5
2E6
100
AcDbEntity
  8
0
100
AcDbPolyline
 62
7
  6
CONTINUOUS
 90
3
 70
0
 10
4.780312028
 20
6.0924593641
 10
4.7822517713
 20
6.0890361495
 10
4.7840881926
 20
6.0857956544
  0
LINE
  5
2E7
100
AcDbEntity
  8
0
100
AcDbLine
 62
7
  6
CONTINUOUS
 10
4.7580778562
 20
6.1316913629
 11
4.7968691293
 21
6.0632555798
  0
LINE
  5
2E8
100
AcDbEntity
  8
0
100
AcDbLine
 62
7
  6
CONTINUOUS
 10
5.0810553624
 20
5.4275714627
 11
5.071091547
 21
5.4352858149
  0
LINE
  5
2E9
100
AcDbEntity
  8
0
100
AcDbLine
 62
7
  6
CONTINUOUS
 10
4.7659943271
 20
5.4275714627
 11
4.8582735678
 21
5.4522320171
  0
LINE
  5
2EA
100
AcDbEntity
  8
0
100
AcDbLine
 62
7
  6
CONTINUOUS
 10
4.7759581424
 20
5.4352858149
 11
4.8624007153
 21
5.4583865877
  0
LINE
  5
2EB
100
AcDbEntity
  8
0
100
AcDbLine
 62
7
  6
CONTINUOUS
 10
4.7772748447
 20
5.4833215868
 11
4.8629461112
 21
5.506216237
  0
LINE
  5
2EC
100
AcDbEntity
  8
0
100
AcDbLine
 62
7
  6
CONTINUOUS
 10
5.0697775298
 20
5.4825588681
 11
5.1320912307
 21
5.4828334367
  0
LINE
  5
2ED
100
AcDbEntity
  8
0
100
AcDbLine
 62
7
  6
CONTINUOUS
 10
4.714833697
 20
5.4580553821
 11
4.7772748031
 21
5.4580952669
  0
LINE
  5
2EE
100
AcDbEntity
  8
0
100
AcDbLine
 62
7
  6
CONTINUOUS
 10
4.8582735678
 20
5.4522320171
 11
4.9887761216
 21
5.4522320171
  0
LINE
  5
2EF
100
AcDbEntity
  8
0
100
AcDbLine
 62
7
  6
CONTINUOUS
 10
4.8624007153
 20
5.4583865877
 11
4.9846489742
 21
5.4583865877
  0
LINE
  5
2F0
100
AcDbEntity
  8
0
100
AcDbLine
 62
7
  6
CONTINUOUS
 10
4.8629461112
 20
5.506216237
 11
4.9841035782
 21
5.506216237
  0
LINE
  5
2F1
100
AcDbEntity
  8
0
100
AcDbLine
 62
7
  6
CONTINUOUS
 10
4.7301628206
 20
5.5114158404
 11
4.7905075675
 21
5.5114158398
  0
LINE
  5
2F2
100
AcDbEntity
  8
0
100
AcDbLine
 62
7
  6
CONTINUOUS
 10
5.0565441064
 20
5.511415837
 11
5.1168868454
 21
5.5114158364
  0
LINE
  5
2F3
100
AcDbEntity
  8
0
100
AcDbLine
 62
7
  6
CONTINUOUS
 10
5.0697748863
 20
5.4580952577
 11
5.1322158479
 21
5.4580553723
  0
LINE
  5
2F4
100
AcDbEntity
  8
0
100
AcDbLine
 62
7
  6
CONTINUOUS
 10
4.7149584205
 20
5.4828334323
 11
4.7772721597
 21
5.482558868
  0
LINE
  5
2F5
100
AcDbEntity
  8
0
100
AcDbLine
 62
7
  6
CONTINUOUS
 10
4.9887761216
 20
5.4522320171
 11
5.0810553624
 21
5.4275714627
  0
LINE
  5
2F6
100
AcDbEntity
  8
0
100
AcDbLine
 62
7
  6
CONTINUOUS
 10
4.9846489742
 20
5.4583865877
 11
5.071091547
 21
5.4352858149
  0
LINE
  5
2F7
100
AcDbEntity
  8
0
100
AcDbLine
 62
7
  6
CONTINUOUS
 10
4.9841035782
 20
5.506216237
 11
5.0697748447
 21
5.4833215868
  0
LINE
  5
2F8
100
AcDbEntity
  8
0
100
AcDbLine
 62
7
  6
CONTINUOUS
 10
4.5058287567
 20
5.8587980453
 11
4.4798479787
 21
5.8737980556
  0
LINE
  5
2F9
100
AcDbEntity
  8
0
100
AcDbLine
 62
7
  6
CONTINUOUS
 10
4.9621031273
 20
5.6604321163
 11
4.9621017636
 21
5.6604318512
  0
LINE
  5
2FA
100
AcDbEntity
  8
0
100
AcDbLine
 62
7
  6
CONTINUOUS
 10
4.8861260714
 20
5.6602063616
 11
4.8861247338
 21
5.6602066134
  0
LINE
  5
2FB
100
AcDbEntity
  8
0
100
AcDbLine
 62
7
  6
CONTINUOUS
 10
5.1874064822
 20
5.5923809635
 11
5.2133859795
 21
5.5773813532
  0
LINE
  5
2FC
100
AcDbEntity
  8
0
100
AcDbLine
 62
7
  6
CONTINUOUS
 10
5.341220939
 20
5.8587980359
 11
5.1323728904
 21
6.2205334631
  0
LINE
  5
2FD
100
AcDbEntity
  8
0
100
AcDbLine
 62
7
  6
CONTINUOUS
 10
5.3672017121
 20
5.8737980532
 11
5.1583536779
 21
6.2355334596
  0
LINE
  5
2FE
100
AcDbEntity
  8
0
100
AcDbLine
 62
7
  6
CONTINUOUS
 10
4.7146767902
 20
6.2205334497
 11
4.6886960129
 21
6.2355334619
  0
LINE
  5
2FF
100
AcDbEntity
  8
0
100
AcDbLine
 62
7
  6
CONTINUOUS
 10
5.3412209327
 20
5.8587980249
 11
5.3672017107
 21
5.8437980146
  0
LINE
  5
300
100
AcDbEntity
  8
0
100
AcDbLine
 62
7
  6
CONTINUOUS
 10
5.0764633672
 20
6.1373856134
 11
4.7705863222
 21
6.1373856134
  0
LWPOLYLINE
  5
301
100
AcDbEntity
  8
0
100
AcDbPolyline
 62
7
  6
CONTINUOUS
 90
46
 70
0
 10
5.0682892854
 20
2.8527854595
 10
5.0731482955
 20
2.8555788686
 10
5.0787916886
 20
2.8589846349
 10
5.0843739127
 20
2.8625305102
 10
5.0898937567
 20
2.8662171603
 10
5.0953450655
 20
2.8700419565
 10
5.1007168382
 20
2.8739982279
 10
5.1060060389
 20
2.8780844942
 10
5.1112094075
 20
2.8822991546
 10
5.1163163827
 20
2.886634296
 10
5.1213241462
 20
2.8910878494
 10
5.1262298947
 20
2.8956577627
 10
5.1310239965
 20
2.9003351461
 10
5.1357036254
 20
2.9051169245
 10
5.1402669819
 20
2.9100010503
 10
5.1447068494
 20
2.9149793656
 10
5.1490191089
 20
2.9200465192
 10
5.1532039503
 20
2.9252023114
 10
5.1572608599
 20
2.9304461463
 10
5.1611870668
 20
2.9357747048
 10
5.1649810366
 20
2.941186235
 10
5.1686437566
 20
2.9466822394
 10
5.1721727214
 20
2.9522590734
 10
5.1755658365
 20
2.95791369
 10
5.1788240223
 20
2.9636485413
 10
5.1819447734
 20
2.9694604989
 10
5.1849266217
 20
2.9753461324
 10
5.1877712641
 20
2.9813078122
 10
5.1904776558
 20
2.9873430822
 10
5.193044038
 20
2.9934479141
 10
5.1954703532
 20
2.9996226041
 10
5.1977560533
 20
3.0058676752
 10
5.199897899
 20
3.0121767367
 10
5.2018919305
 20
3.018539777
 10
5.2037370619
 20
3.0249546213
 10
5.2054316154
 20
3.0314171233
 10
5.2069719484
 20
3.0379139702
 10
5.2083574182
 20
3.0444418653
 10
5.2095873656
 20
3.0509974572
 10
5.2106595575
 20
3.0575670625
 10
5.2115739749
 20
3.0641471944
 10
5.2123306041
 20
3.0707345795
 10
5.2129286252
 20
3.0773156967
 10
5.2133685741
 20
3.0838837008
 10
5.2136515235
 20
3.0904382523
 10
5.2137706514
 20
3.0961375446
  0
LINE
  5
302
100
AcDbEntity
  8
0
100
AcDbLine
 62
7
  6
CONTINUOUS
 10
5.0682892854
 20
2.8527854595
 11
5.0682871177
 21
2.8527842524
  0
LINE
  5
303
100
AcDbEntity
  8
0
100
AcDbLine
 62
7
  6
CONTINUOUS
 10
5.0679734445
 20
2.8533729583
 11
5.0685326162
 21
2.8536791933
  0
LINE
  5
304
100
AcDbEntity
  8
0
100
AcDbLine
 62
7
  6
CONTINUOUS
 10
5.0679698524
 20
2.8533790649
 11
5.0685326162
 21
2.8536791933
  0
LINE
  5
305
100
AcDbEntity
  8
0
100
AcDbLine
 62
7
  6
CONTINUOUS
 10
5.1323728904
 20
6.2205334631
 11
4.7146767974
 21
6.2205334622
  0
LINE
  5
306
100
AcDbEntity
  8
0
100
AcDbLine
 62
7
  6
CONTINUOUS
 10
5.1323728805
 20
6.2505334824
 11
4.7146768132
 21
6.2505334824
  0
ARC
  5
307
100
AcDbEntity
  8
0
100
AcDbCircle
 62
7
  6
CONTINUOUS
 10
-38.1007445357
 20
-18.9906043177
 40
49.4730083326
100
AcDbArc
 50
29.8776344116
 51
30.1411026799
  0
ARC
  5
308
100
AcDbEntity
  8
0
100
AcDbCircle
 62
7
  6
CONTINUOUS
 10
-35.1473567018
 20
3.5163008653
 40
39.7910891492
100
AcDbArc
 50
1.8458834128
 51
2.2601533929
  0
ARC
  5
309
100
AcDbEntity
  8
0
100
AcDbCircle
 62
7
  6
CONTINUOUS
 10
-35.1368400909
 20
3.516637098
 40
39.780567165
100
AcDbArc
 50
0.182371876
 51
1.8458872932
  0
ARC
  5
30A
100
AcDbEntity
  8
0
100
AcDbCircle
 62
7
  6
CONTINUOUS
 10
3.6761705426
 20
5.4246692777
 40
1.3017790413
100
AcDbArc
 50
27.989293093
 51
29.171897168
  0
ARC
  5
30B
100
AcDbEntity
  8
0
100
AcDbCircle
 62
7
  6
CONTINUOUS
 10
0.3607990402
 20
9.6910222312
 40
5.6572870896
100
AcDbArc
 50
317.4454958147
 51
321.0119264865
  0
ARC
  5
30C
100
AcDbEntity
  8
0
100
AcDbCircle
 62
7
  6
CONTINUOUS
 10
3.676171647
 20
6.2929260995
 40
1.301777739
100
AcDbArc
 50
330.828105314
 51
332.0107107208
  0
ARC
  5
30D
100
AcDbEntity
  8
0
100
AcDbCircle
 62
7
  6
CONTINUOUS
 10
4.9235248447
 20
-0.1370666609
 40
3.8373272561
100
AcDbArc
 50
87.5159458199
 51
92.4840541801
  0
ARC
  5
30E
100
AcDbEntity
  8
0
100
AcDbCircle
 62
7
  6
CONTINUOUS
 10
7.2618435187
 20
5.3380662959
 40
2.0241320452
100
AcDbArc
 50
174.7037629977
 51
176.054296755
  0
ARC
  5
30F
100
AcDbEntity
  8
0
100
AcDbCircle
 62
7
  6
CONTINUOUS
 10
7.0501666131
 20
5.3567956894
 40
1.8116302367
100
AcDbArc
 50
174.4665362782
 51
174.6756328714
  0
ARC
  5
310
100
AcDbEntity
  8
0
100
AcDbCircle
 62
7
  6
CONTINUOUS
 10
6.9927764035
 20
5.3623685088
 40
1.7539700918
100
AcDbArc
 50
174.0382891854
 51
174.4669569844
  0
ARC
  5
311
100
AcDbEntity
  8
0
100
AcDbCircle
 62
7
  6
CONTINUOUS
 10
6.9199929132
 20
5.3699092961
 40
1.6807970352
100
AcDbArc
 50
173.6852351965
 51
174.0362585785
  0
ARC
  5
312
100
AcDbEntity
  8
0
100
AcDbCircle
 62
7
  6
CONTINUOUS
 10
6.8597302306
 20
5.3765507538
 40
1.620169491
100
AcDbArc
 50
173.289369934
 51
173.6842747882
  0
ARC
  5
313
100
AcDbEntity
  8
0
100
AcDbCircle
 62
7
  6
CONTINUOUS
 10
6.8005702282
 20
5.3834778906
 40
1.5606053243
100
AcDbArc
 50
172.8728475695
 51
173.288141376
  0
ARC
  5
314
100
AcDbEntity
  8
0
100
AcDbCircle
 62
7
  6
CONTINUOUS
 10
6.7468732199
 20
5.3901549844
 40
1.5064947812
100
AcDbArc
 50
172.4892582469
 51
172.8714487712
  0
ARC
  5
315
100
AcDbEntity
  8
0
100
AcDbCircle
 62
7
  6
CONTINUOUS
 10
6.6872386337
 20
5.3979930593
 40
1.4463473067
100
AcDbArc
 50
172.0436381286
 51
172.4883022475
  0
ARC
  5
316
100
AcDbEntity
  8
0
100
AcDbCircle
 62
7
  6
CONTINUOUS
 10
6.6261193041
 20
5.4064963443
 40
1.3846393109
100
AcDbArc
 50
171.5689076341
 51
172.0420393701
  0
ARC
  5
317
100
AcDbEntity
  8
0
100
AcDbCircle
 62
7
  6
CONTINUOUS
 10
6.5789854504
 20
5.4134287442
 40
1.3369984105
100
AcDbArc
 50
171.2871547151
 51
171.5666244696
  0
ARC
  5
318
100
AcDbEntity
  8
0
100
AcDbCircle
 62
7
  6
CONTINUOUS
 10
6.1708782122
 20
5.424669894
 40
1.3017779249
100
AcDbArc
 50
150.828105969
 51
152.0107112469
  0
ARC
  5
319
100
AcDbEntity
  8
0
100
AcDbCircle
 62
7
  6
CONTINUOUS
 10
4.0085922275
 20
5.4979196131
 40
0.9732702499
100
AcDbArc
 50
33.3652942747
 51
34.9352832711
  0
ARC
  5
31A
100
AcDbEntity
  8
0
100
AcDbCircle
 62
7
  6
CONTINUOUS
 10
5.8384492097
 20
5.4979252886
 40
0.9732602344
100
AcDbArc
 50
145.0647124127
 51
146.634717873
  0
ARC
  5
31B
100
AcDbEntity
  8
0
100
AcDbCircle
 62
7
  6
CONTINUOUS
 10
4.9235224266
 20
5.0357130264
 40
0.5050742142
100
AcDbArc
 50
89.9997256859
 51
90.3753798354
  0
ARC
  5
31C
100
AcDbEntity
  8
0
100
AcDbCircle
 62
7
  6
CONTINUOUS
 10
4.905476928
 20
3.0991545184
 40
0.2722118338
100
AcDbArc
 50
183.4321270169
 51
183.5985941547
  0
ARC
  5
31D
100
AcDbEntity
  8
0
100
AcDbCircle
 62
7
  6
CONTINUOUS
 10
4.9424571392
 20
3.0991039823
 40
0.2713305147
100
AcDbArc
 50
356.5075945416
 51
357.6221795903
  0
ARC
  5
31E
100
AcDbEntity
  8
0
100
AcDbCircle
 62
7
  6
CONTINUOUS
 10
4.9044935304
 20
3.0990991648
 40
0.2712268862
100
AcDbArc
 50
182.3214000224
 51
183.4328912902
  0
ARC
  5
31F
100
AcDbEntity
  8
0
100
AcDbCircle
 62
7
  6
CONTINUOUS
 10
4.903561357
 20
3.099060452
 40
0.2702939097
100
AcDbArc
 50
181.9257298561
 51
182.3212042861
  0
ARC
  5
320
100
AcDbEntity
  8
0
100
AcDbCircle
 62
7
  6
CONTINUOUS
 10
4.9435862389
 20
3.0990538456
 40
0.2702003071
100
AcDbArc
 50
357.6228684103
 51
358.013004479
  0
ARC
  5
321
100
AcDbEntity
  8
0
100
AcDbCircle
 62
7
  6
CONTINUOUS
 10
4.9446821345
 20
3.0990175078
 40
0.2691038105
100
AcDbArc
 50
358.0126464367
 51
359.3908429227
  0
ARC
  5
322
100
AcDbEntity
  8
0
100
AcDbCircle
 62
7
  6
CONTINUOUS
 10
4.9020638067
 20
3.0990160298
 40
0.2687957125
100
AcDbArc
 50
180.55341887
 51
181.9269931408
  0
ARC
  5
323
100
AcDbEntity
  8
0
100
AcDbCircle
 62
7
  6
CONTINUOUS
 10
5.186155295
 20
3.0964506603
 40
0.0276170076
100
AcDbArc
 50
359.3897132211
 51
0.0583155765
  0
ARC
  5
324
100
AcDbEntity
  8
0
100
AcDbCircle
 62
7
  6
CONTINUOUS
 10
5.1862701384
 20
3.096451297
 40
0.0275021634
100
AcDbArc
 50
0.1086435121
 51
0.3975244745
  0
ARC
  5
325
100
AcDbEntity
  8
0
100
AcDbCircle
 62
7
  6
CONTINUOUS
 10
4.9235248447
 20
4.1372455154
 40
0.015
100
AcDbArc
 50
257.1992599906
 51
282.8004876079
  0
ARC
  5
326
100
AcDbEntity
  8
0
100
AcDbCircle
 62
7
  6
CONTINUOUS
 10
4.7385248447
 20
4.1836190325
 40
0.015
100
AcDbArc
 50
180.0000005632
 51
255.0405599152
  0
ARC
  5
327
100
AcDbEntity
  8
0
100
AcDbCircle
 62
7
  6
CONTINUOUS
 10
5.0001543538
 20
4.1546582785
 40
0.015
100
AcDbArc
 50
282.8064991542
 51
284.962696201
  0
ARC
  5
328
100
AcDbEntity
  8
0
100
AcDbCircle
 62
7
  6
CONTINUOUS
 10
5.1085248447
 20
4.1836190325
 40
0.015
100
AcDbArc
 50
284.9605973244
 51
359.9999999992
  0
ARC
  5
329
100
AcDbEntity
  8
0
100
AcDbCircle
 62
7
  6
CONTINUOUS
 10
5.1114761243
 20
4.171843795
 40
0.0028605559
100
AcDbArc
 50
285.6766824472
 51
288.7397974346
  0
ARC
  5
32A
100
AcDbEntity
  8
0
100
AcDbCircle
 62
7
  6
CONTINUOUS
 10
4.4416174148
 20
5.858798354
 40
0.0694595487
100
AcDbArc
 50
174.0670647596
 51
185.9334742031
  0
ARC
  5
32B
100
AcDbEntity
  8
0
100
AcDbCircle
 62
7
  6
CONTINUOUS
 10
4.5058287741
 20
5.858798037
 40
0.03
100
AcDbArc
 50
150.0
 51
210.0
  0
ARC
  5
32C
100
AcDbEntity
  8
0
100
AcDbCircle
 62
7
  6
CONTINUOUS
 10
4.0086004527
 20
6.2196707839
 40
0.9732602582
100
AcDbArc
 50
325.0647132408
 51
326.6347186323
  0
ARC
  5
32D
100
AcDbEntity
  8
0
100
AcDbCircle
 62
7
  6
CONTINUOUS
 10
4.791996765
 20
5.6634847006
 40
0.0214485319
100
AcDbArc
 50
343.4244975071
 51
346.2831555252
  0
ARC
  5
32E
100
AcDbEntity
  8
0
100
AcDbCircle
 62
7
  6
CONTINUOUS
 10
4.809891417
 20
5.6619782666
 40
0.0150966779
100
AcDbArc
 50
210.3924546733
 51
269.6045921743
  0
ARC
  5
32F
100
AcDbEntity
  8
0
100
AcDbCircle
 62
7
  6
CONTINUOUS
 10
4.7270939088
 20
5.8587980278
 40
0.0323131477
100
AcDbArc
 50
173.6482262085
 51
186.3517392611
  0
ARC
  5
330
100
AcDbEntity
  8
0
100
AcDbCircle
 62
7
  6
CONTINUOUS
 10
4.6962172876
 20
5.858798032
 40
0.0150978157
100
AcDbArc
 50
150.3970216771
 51
209.6029577669
  0
ARC
  5
331
100
AcDbEntity
  8
0
100
AcDbCircle
 62
7
  6
CONTINUOUS
 10
5.0551491666
 20
5.6635134954
 40
0.021548844
100
AcDbArc
 50
193.7305186175
 51
196.5758906281
  0
ARC
  5
332
100
AcDbEntity
  8
0
100
AcDbCircle
 62
7
  6
CONTINUOUS
 10
5.0371584696
 20
5.6619786152
 40
0.0150970165
100
AcDbArc
 50
270.3946504168
 51
329.6060339161
  0
ARC
  5
333
100
AcDbEntity
  8
0
100
AcDbCircle
 62
7
  6
CONTINUOUS
 10
5.04512206
 20
5.6655055922
 40
0.0055479751
100
AcDbArc
 50
214.8860525594
 51
220.1154634223
  0
ARC
  5
334
100
AcDbEntity
  8
0
100
AcDbCircle
 62
7
  6
CONTINUOUS
 10
4.9235248447
 20
5.8587980351
 40
0.575
100
AcDbArc
 50
303.2623967089
 51
236.7376096733
  0
ARC
  5
335
100
AcDbEntity
  8
0
100
AcDbCircle
 62
7
  6
CONTINUOUS
 10
4.9235248447
 20
5.8587980351
 40
0.5691
100
AcDbArc
 50
355.0521320743
 51
4.9478679257
  0
ARC
  5
336
100
AcDbEntity
  8
0
100
AcDbCircle
 62
7
  6
CONTINUOUS
 10
4.9235248447
 20
5.8587980351
 40
0.5691
100
AcDbArc
 50
55.0521320743
 51
64.9478679257
  0
ARC
  5
337
100
AcDbEntity
  8
0
100
AcDbCircle
 62
7
  6
CONTINUOUS
 10
4.9235248447
 20
5.8587980351
 40
0.5691
100
AcDbArc
 50
115.0521320743
 51
124.9478679257
  0
ARC
  5
338
100
AcDbEntity
  8
0
100
AcDbCircle
 62
7
  6
CONTINUOUS
 10
4.9235248447
 20
5.8587980351
 40
0.5691
100
AcDbArc
 50
175.0521320743
 51
184.9478679257
  0
ARC
  5
339
100
AcDbEntity
  8
0
100
AcDbCircle
 62
7
  6
CONTINUOUS
 10
4.9235248447
 20
5.8587980351
 40
0.5691
100
AcDbArc
 50
303.6644316121
 51
304.9478679257
  0
ARC
  5
33A
100
AcDbEntity
  8
0
100
AcDbCircle
 62
7
  6
CONTINUOUS
 10
4.9235248447
 20
5.8587980351
 40
0.5691
100
AcDbArc
 50
235.0521320743
 51
236.3355717897
  0
ARC
  5
33B
100
AcDbEntity
  8
0
100
AcDbCircle
 62
7
  6
CONTINUOUS
 10
4.9400443695
 20
5.8448189507
 40
0.5482067424
100
AcDbArc
 50
303.0461674718
 51
304.3695805395
  0
ARC
  5
33C
100
AcDbEntity
  8
0
100
AcDbCircle
 62
7
  6
CONTINUOUS
 10
4.9068435086
 20
5.8445759163
 40
0.5479147913
100
AcDbArc
 50
235.630038957
 51
236.9541471349
  0
ARC
  5
33D
100
AcDbEntity
  8
0
100
AcDbCircle
 62
7
  6
CONTINUOUS
 10
4.9461278921
 20
5.8513517847
 40
0.5459663396
100
AcDbArc
 50
355.6260798854
 51
0.7814622408
  0
ARC
  5
33E
100
AcDbEntity
  8
0
100
AcDbCircle
 62
7
  6
CONTINUOUS
 10
4.9009217582
 20
5.8662442874
 40
0.5459663004
100
AcDbArc
 50
175.6260797771
 51
180.7814625166
  0
ARC
  5
33F
100
AcDbEntity
  8
0
100
AcDbCircle
 62
7
  6
CONTINUOUS
 10
4.9283777806
 20
5.8820960119
 40
0.5459662815
100
AcDbArc
 50
59.2185416131
 51
64.3739235015
  0
ARC
  5
340
100
AcDbEntity
  8
0
100
AcDbCircle
 62
7
  6
CONTINUOUS
 10
4.9186714082
 20
5.8820969362
 40
0.5459652317
100
AcDbArc
 50
115.6260710834
 51
120.7814645672
  0
ARC
  5
341
100
AcDbEntity
  8
0
100
AcDbCircle
 62
7
  6
CONTINUOUS
 10
4.9057739952
 20
5.8746508858
 40
0.5459649939
100
AcDbArc
 50
119.2185358232
 51
124.3739297695
  0
ARC
  5
342
100
AcDbEntity
  8
0
100
AcDbCircle
 62
7
  6
CONTINUOUS
 10
4.9461295638
 20
5.8662443386
 40
0.5459646687
100
AcDbArc
 50
359.2185302762
 51
4.3739279352
  0
ARC
  5
343
100
AcDbEntity
  8
0
100
AcDbCircle
 62
7
  6
CONTINUOUS
 10
4.9412759835
 20
5.8746513534
 40
0.5459644446
100
AcDbArc
 50
55.6260675823
 51
60.7814683928
  0
ARC
  5
344
100
AcDbEntity
  8
0
100
AcDbCircle
 62
7
  6
CONTINUOUS
 10
4.9009185761
 20
5.8513516822
 40
0.5459631199
100
AcDbArc
 50
179.2185228924
 51
184.3739351715
  0
ARC
  5
345
100
AcDbEntity
  8
0
100
AcDbCircle
 62
7
  6
CONTINUOUS
 10
4.9331652893
 20
5.8408457466
 40
0.5306993765
100
AcDbArc
 50
305.246234782
 51
305.7974150206
  0
ARC
  5
346
100
AcDbEntity
  8
0
100
AcDbCircle
 62
7
  6
CONTINUOUS
 10
4.9136250305
 20
5.8404788105
 40
0.5302500474
100
AcDbArc
 50
234.2021250531
 51
234.7538191197
  0
ARC
  5
347
100
AcDbEntity
  8
0
100
AcDbCircle
 62
7
  6
CONTINUOUS
 10
4.9101960793
 20
5.8816723914
 40
0.5245711558
100
AcDbArc
 50
114.1918679433
 51
119.2041861733
  0
ARC
  5
348
100
AcDbEntity
  8
0
100
AcDbCircle
 62
7
  6
CONTINUOUS
 10
4.9103656833
 20
5.8817987875
 40
0.5245464545
100
AcDbArc
 50
120.7956719814
 51
125.8082239232
  0
ARC
  5
349
100
AcDbEntity
  8
0
100
AcDbCircle
 62
7
  6
CONTINUOUS
 10
4.9366867495
 20
5.8818027879
 40
0.5245416052
100
AcDbArc
 50
54.1917634411
 51
59.2043671082
  0
ARC
  5
34A
100
AcDbEntity
  8
0
100
AcDbCircle
 62
7
  6
CONTINUOUS
 10
4.8969969587
 20
5.8588999769
 40
0.524517305
100
AcDbArc
 50
180.7954661971
 51
185.8082989857
  0
ARC
  5
34B
100
AcDbEntity
  8
0
100
AcDbCircle
 62
7
  6
CONTINUOUS
 10
4.8969924088
 20
5.8586964023
 40
0.5245127471
100
AcDbArc
 50
174.1916843027
 51
179.2045659522
  0
ARC
  5
34C
100
AcDbEntity
  8
0
100
AcDbCircle
 62
7
  6
CONTINUOUS
 10
4.9500576932
 20
5.8588996368
 40
0.5245123335
100
AcDbArc
 50
354.1916831123
 51
359.2045687068
  0
ARC
  5
34D
100
AcDbEntity
  8
0
100
AcDbCircle
 62
7
  6
CONTINUOUS
 10
4.9500596639
 20
5.8586964931
 40
0.5245103669
100
AcDbArc
 50
0.7954297826
 51
5.8083321817
  0
ARC
  5
34E
100
AcDbEntity
  8
0
100
AcDbCircle
 62
7
  6
CONTINUOUS
 10
4.936888265
 20
5.881741712
 40
0.5244936721
100
AcDbArc
 50
60.7954257676
 51
65.8084821946
  0
ARC
  5
34F
100
AcDbEntity
  8
0
100
AcDbCircle
 62
7
  6
CONTINUOUS
 10
4.9276718293
 20
5.9302936095
 40
0.3188286307
100
AcDbArc
 50
268.8893673489
 51
269.2555585446
  0
ARC
  5
350
100
AcDbEntity
  8
0
100
AcDbCircle
 62
7
  6
CONTINUOUS
 10
4.9235248447
 20
5.8587980351
 40
0.2975
100
AcDbArc
 50
69.4693465673
 51
110.5306534326
  0
ARC
  5
351
100
AcDbEntity
  8
0
100
AcDbCircle
 62
7
  6
CONTINUOUS
 10
4.9232470089
 20
5.9225580779
 40
0.2653376494
100
AcDbArc
 50
269.5448259443
 51
270.059994575
  0
ARC
  5
352
100
AcDbEntity
  8
0
100
AcDbCircle
 62
7
  6
CONTINUOUS
 10
4.9235248447
 20
5.8587980351
 40
0.2020824627
100
AcDbArc
 50
281.0052471041
 51
259.3352212466
  0
CIRCLE
  5
353
100
AcDbEntity
  8
0
100
AcDbCircle
 62
7
  6
CONTINUOUS
 10
4.9235248447
 20
5.8587980351
 40
0.187450737
  0
ARC
  5
354
100
AcDbEntity
  8
0
100
AcDbCircle
 62
7
  6
CONTINUOUS
 10
4.6825638067
 20
6.2761550891
 40
0.0694447553
100
AcDbArc
 50
114.0656562377
 51
125.9346180295
  0
ARC
  5
355
100
AcDbEntity
  8
0
100
AcDbCircle
 62
7
  6
CONTINUOUS
 10
4.7146768132
 20
6.2205334417
 40
0.03
100
AcDbArc
 50
90.0
 51
150.0
  0
ARC
  5
356
100
AcDbEntity
  8
0
100
AcDbCircle
 62
7
  6
CONTINUOUS
 10
4.7918975937
 20
6.0540817719
 40
0.0215518784
100
AcDbArc
 50
13.7307441328
 51
16.5757028977
  0
ARC
  5
357
100
AcDbEntity
  8
0
100
AcDbCircle
 62
7
  6
CONTINUOUS
 10
5.0550520855
 20
6.0541116049
 40
0.0214476618
100
AcDbArc
 50
163.4244659632
 51
166.2832330016
  0
ARC
  5
358
100
AcDbEntity
  8
0
100
AcDbCircle
 62
7
  6
CONTINUOUS
 10
4.8098912191
 20
6.0556174539
 40
0.0150970177
100
AcDbArc
 50
90.3946474415
 51
149.6060288627
  0
ARC
  5
359
100
AcDbEntity
  8
0
100
AcDbCircle
 62
7
  6
CONTINUOUS
 10
5.0371582747
 20
6.0556177994
 40
0.0150966823
100
AcDbArc
 50
30.3924727591
 51
89.6046009754
  0
ARC
  5
35A
100
AcDbEntity
  8
0
100
AcDbCircle
 62
7
  6
CONTINUOUS
 10
4.8019272098
 20
6.052090147
 40
0.0055485074
100
AcDbArc
 50
34.8863931838
 51
40.1152784016
  0
ARC
  5
35B
100
AcDbEntity
  8
0
100
AcDbCircle
 62
7
  6
CONTINUOUS
 10
4.8598657814
 20
11.2693087529
 40
5.613618177
100
AcDbArc
 50
271.4220186962
 51
271.7798048868
  0
ARC
  5
35C
100
AcDbEntity
  8
0
100
AcDbCircle
 62
7
  6
CONTINUOUS
 10
4.9867781525
 20
11.2553490924
 40
5.5996526586
100
AcDbArc
 50
268.2199084929
 51
268.5813281007
  0
ARC
  5
35D
100
AcDbEntity
  8
0
100
AcDbCircle
 62
7
  6
CONTINUOUS
 10
6.170879834
 20
6.2929271029
 40
1.3017797937
100
AcDbArc
 50
207.9892909652
 51
209.1718943088
  0
ARC
  5
35E
100
AcDbEntity
  8
0
100
AcDbCircle
 62
7
  6
CONTINUOUS
 10
5.8384575565
 20
6.2196764649
 40
0.9732703331
100
AcDbArc
 50
213.3652916035
 51
214.9352803793
  0
ARC
  5
35F
100
AcDbEntity
  8
0
100
AcDbCircle
 62
7
  6
CONTINUOUS
 10
5.4054320271
 20
5.8587977135
 40
0.0694597926
100
AcDbArc
 50
354.0670877971
 51
5.9334559865
  0
ARC
  5
360
100
AcDbEntity
  8
0
100
AcDbCircle
 62
7
  6
CONTINUOUS
 10
5.1644852187
 20
6.2761533091
 40
0.0694466122
100
AcDbArc
 50
54.065832855
 51
65.9344756506
  0
ARC
  5
361
100
AcDbEntity
  8
0
100
AcDbCircle
 62
7
  6
CONTINUOUS
 10
5.1199558027
 20
5.8587980296
 40
0.0323131201
100
AcDbArc
 50
353.6482488266
 51
6.351772093
  0
ARC
  5
362
100
AcDbEntity
  8
0
100
AcDbCircle
 62
7
  6
CONTINUOUS
 10
5.3412209153
 20
5.8587980331
 40
0.03
100
AcDbArc
 50
330.0
 51
30.0
  0
ARC
  5
363
100
AcDbEntity
  8
0
100
AcDbCircle
 62
7
  6
CONTINUOUS
 10
5.1323728805
 20
6.2205334392
 40
0.03
100
AcDbArc
 50
30.0
 51
90.0
  0
ARC
  5
364
100
AcDbEntity
  8
0
100
AcDbCircle
 62
7
  6
CONTINUOUS
 10
5.1508322861
 20
5.8587980308
 40
0.0150978209
100
AcDbArc
 50
330.3972656993
 51
29.6027625835
  0
ARC
  5
365
100
AcDbEntity
  8
0
100
AcDbCircle
 62
7
  6
CONTINUOUS
 10
-38.0940511931
 20
30.7043403597
 40
49.4652817171
100
AcDbArc
 50
329.8588708615
 51
330.1223803141
  0
ARC
  5
366
100
AcDbEntity
  8
0
100
AcDbCircle
 62
7
  6
CONTINUOUS
 10
4.930668777
 20
52.2746197563
 40
46.2040981369
100
AcDbArc
 50
269.8501325972
 51
269.9911411069
  0
ARC
  5
367
100
AcDbEntity
  8
0
100
AcDbCircle
 62
7
  6
CONTINUOUS
 10
4.9163813964
 20
52.2742741835
 40
46.203752564
100
AcDbArc
 50
270.0088583593
 51
270.1498679235
  0
ARC
  5
368
100
AcDbEntity
  8
0
100
AcDbCircle
 62
7
  6
CONTINUOUS
 10
55.4697061514
 20
3.1144616037
 40
50.2739476999
100
AcDbArc
 50
177.7534166193
 51
178.060010055
  0
ARC
  5
369
100
AcDbEntity
  8
0
100
AcDbCircle
 62
7
  6
CONTINUOUS
 10
47.9392925903
 20
-18.985684752
 40
49.4631859195
100
AcDbArc
 50
149.8588804836
 51
150.1224011108
  0
ARC
  5
36A
100
AcDbEntity
  8
0
100
AcDbCircle
 62
7
  6
CONTINUOUS
 10
46.4616278561
 20
3.4130831077
 40
41.2615034937
100
AcDbArc
 50
177.6765475566
 51
178.0510003442
  0
ARC
  5
36B
100
AcDbEntity
  8
0
100
AcDbCircle
 62
7
  6
CONTINUOUS
 10
9.4862517515
 20
9.6910231613
 40
5.6572885317
100
AcDbArc
 50
218.9880738057
 51
222.5545036875
  0
ARC
  5
36C
100
AcDbEntity
  8
0
100
AcDbCircle
 62
7
  6
CONTINUOUS
 10
47.9405195143
 20
30.7040035196
 40
49.4646098169
100
AcDbArc
 50
209.8776168281
 51
210.1411298633
  0
SPLINE
  5
36D
100
AcDbEntity
  8
0
100
AcDbSpline
 62
7
  6
CONTINUOUS
 70
0
 71
3
 72
31
 73
27
 74
0
 42
0.0000001
 43
0.0000001
 44
0.0000000001
 40
0.0
 40
0.0
 40
0.0
 40
0.0
 40
0.0122869522
 40
0.0267465952
 40
0.0431093286
 40
0.0611692849
 40
0.101983594
 40
0.1490699672
 40
0.1750900504
 40
0.2028590973
 40
0.2324132175
 40
0.263706622
 40
0.2965935362
 40
0.3308434281
 40
0.3661524813
 40
0.4022380257
 40
0.4759976083
 40
0.551050046
 40
0.6267258607
 40
0.6646425483
 40
0.7025367969
 40
0.7403468947
 40
0.7780151949
 40
0.8527550658
 40
0.9266550087
 40
1.0
 40
1.0
 40
1.0
 40
1.0
 10
4.6332806329
 20
3.0964197773
 30
0.0
 10
4.633290179
 20
3.0986599952
 30
0.0
 10
4.6333336592
 20
3.1035364726
 30
0.0
 10
4.6334543045
 20
3.1113955631
 30
0.0
 10
4.6336411476
 20
3.1203061985
 30
0.0
 10
4.6339991069
 20
3.1340192879
 30
0.0
 10
4.6346360059
 20
3.1533284066
 30
0.0
 10
4.635412515
 20
3.1740846738
 30
0.0
 10
4.6361189498
 20
3.1924633901
 30
0.0
 10
4.6366978862
 20
3.2076480498
 30
0.0
 10
4.6372929736
 20
3.2237942526
 30
0.0
 10
4.6378885865
 20
3.2408741653
 30
0.0
 10
4.6384731896
 20
3.258811103
 30
0.0
 10
4.6390380446
 20
3.2774811807
 30
0.0
 10
4.6395801771
 20
3.2967353624
 30
0.0
 10
4.6402774438
 20
3.3231916543
 30
0.0
 10
4.6410797737
 20
3.3568939164
 30
0.0
 10
4.641922235
 20
3.3978154137
 30
0.0
 10
4.6425147324
 20
3.4322053834
 30
0.0
 10
4.6429099429
 20
3.459822636
 30
0.0
 10
4.6431614399
 20
3.4805372656
 30
0.0
 10
4.6433593953
 20
3.5012071911
 30
0.0
 10
4.6435496814
 20
3.5285953438
 30
0.0
 10
4.6436601775
 20
3.5625642099
 30
0.0
 10
4.643642189
 20
3.6030379943
 30
0.0
 10
4.6435674275
 20
3.6298845699
 30
0.0
 10
4.6435248447
 20
3.6432572447
 30
0.0
  0
SPLINE
  5
36E
100
AcDbEntity
  8
0
100
AcDbSpline
 62
7
  6
CONTINUOUS
 70
0
 71
3
 72
25
 73
21
 74
0
 42
0.0000001
 43
0.0000001
 44
0.0000000001
 40
0.0
 40
0.0
 40
0.0
 40
0.0
 40
0.0753961678
 40
0.1481284498
 40
0.218285497
 40
0.2859879273
 40
0.3514014588
 40
0.4147245302
 40
0.4762104734
 40
0.5063609005
 40
0.5361675578
 40
0.6527590222
 40
0.7102361153
 40
0.7676219327
 40
0.8252063648
 40
0.8831813083
 40
0.9122664273
 40
0.9413776452
 40
0.9705871969
 40
1.0
 40
1.0
 40
1.0
 40
1.0
 10
4.7235079877
 20
4.2003213193
 30
0.0
 10
4.7219166216
 20
4.2009914548
 30
0.0
 10
4.7188083157
 20
4.2023519338
 30
0.0
 10
4.7142929239
 20
4.2044993141
 30
0.0
 10
4.7100103804
 20
4.2067198332
 30
0.0
 10
4.7059609725
 20
4.2090189525
 30
0.0
 10
4.7021452877
 20
4.2114050229
 30
0.0
 10
4.6985626708
 20
4.2138867158
 30
0.0
 10
4.695755408
 20
4.2160610897
 30
0.0
 10
4.6936345985
 20
4.2178612583
 30
0.0
 10
4.6906357787
 20
4.2205729705
 30
0.0
 10
4.6874286948
 20
4.2239973019
 30
0.0
 10
4.6843229208
 20
4.228300352
 30
0.0
 10
4.6823211636
 20
4.2317126527
 30
0.0
 10
4.6806811932
 20
4.2353263954
 30
0.0
 10
4.679663606
 20
4.238487707
 30
0.0
 10
4.6790784249
 20
4.2410844963
 30
0.0
 10
4.6787604402
 20
4.243062249
 30
0.0
 10
4.6785677559
 20
4.2450635341
 30
0.0
 10
4.6785248447
 20
4.2464065007
 30
0.0
 10
4.6785248447
 20
4.2470801077
 30
0.0
  0
SPLINE
  5
36F
100
AcDbEntity
  8
0
100
AcDbSpline
 62
7
  6
CONTINUOUS
 70
0
 71
3
 72
25
 73
21
 74
0
 42
0.0000001
 43
0.0000001
 44
0.0000000001
 40
0.0
 40
0.0
 40
0.0
 40
0.0
 40
0.0294139529
 40
0.05862228
 40
0.087731656
 40
0.1168156006
 40
0.1458573121
 40
0.1748149071
 40
0.2323985293
 40
0.2897835311
 40
0.347258923
 40
0.4638488881
 40
0.5237974268
 40
0.5852825207
 40
0.6486043533
 40
0.7140167972
 40
0.7817182448
 40
0.8518739432
 40
0.9246051926
 40
1.0
 40
1.0
 40
1.0
 40
1.0
 10
5.1685248447
 20
4.2470801077
 30
0.0
 10
5.1685248447
 20
4.2464064564
 30
0.0
 10
5.1684819402
 20
4.2450634589
 30
0.0
 10
5.1682892502
 20
4.2430621494
 30
0.0
 10
5.1679712589
 20
4.2410844969
 30
0.0
 10
5.1675317816
 20
4.2391342748
 30
0.0
 10
5.1669770394
 20
4.2372173078
 30
0.0
 10
5.1660935661
 20
4.2347205972
 30
0.0
 10
5.1647283957
 20
4.2317123238
 30
0.0
 10
5.162726718
 20
4.2283003066
 30
0.0
 10
5.1596207749
 20
4.2239969658
 30
0.0
 10
5.1559401779
 20
4.2200673856
 30
0.0
 10
5.1518338822
 20
4.2164792907
 30
0.0
 10
5.1484867382
 20
4.2138864425
 30
0.0
 10
5.1449040867
 20
4.2114048109
 30
0.0
 10
5.1410883322
 20
4.2090187451
 30
0.0
 10
5.1370388993
 20
4.2067195849
 30
0.0
 10
5.132756283
 20
4.2044990918
 30
0.0
 10
5.1282408517
 20
4.2023516862
 30
0.0
 10
5.1251325051
 20
4.2009912108
 30
0.0
 10
5.1235411223
 20
4.2003210767
 30
0.0
  0
SPLINE
  5
370
100
AcDbEntity
  8
0
100
AcDbSpline
 62
7
  6
CONTINUOUS
 70
0
 71
3
 72
22
 73
18
 74
0
 42
0.0000001
 43
0.0000001
 44
0.0000000001
 40
0.0
 40
0.0
 40
0.0
 40
0.0
 40
0.1312930606
 40
0.2619833408
 40
0.3270072809
 40
0.3917387253
 40
0.4561107272
 40
0.5200475994
 40
0.5834608282
 40
0.6462483243
 40
0.7082782518
 40
0.7693958271
 40
0.8293864235
 40
0.8880166318
 40
0.9167510708
 40
0.9450516397
 40
1.0
 40
1.0
 40
1.0
 40
1.0
 10
4.9971051783
 20
5.6347312736
 30
0.0
 10
4.997688803
 20
5.6288134234
 30
0.0
 10
4.9993720206
 20
5.6170498123
 30
0.0
 10
5.0027528901
 20
5.6026095605
 30
0.0
 10
5.0061945631
 20
5.5913232317
 30
0.0
 10
5.0091276482
 20
5.5830312911
 30
0.0
 10
5.0124035341
 20
5.5749219438
 30
0.0
 10
5.016008544
 20
5.5670190091
 30
0.0
 10
5.0199247388
 20
5.5593460833
 30
0.0
 10
5.0241325924
 20
5.5519283224
 30
0.0
 10
5.0286067387
 20
5.5447905285
 30
0.0
 10
5.0333194673
 20
5.5379613615
 30
0.0
 10
5.038233534
 20
5.5314678702
 30
0.0
 10
5.0424924624
 20
5.5263263182
 30
0.0
 10
5.0459659429
 20
5.5224041575
 30
0.0
 10
5.0494115369
 20
5.5186818322
 30
0.0
 10
5.0520616436
 20
5.5159975119
 30
0.0
 10
5.0538490988
 20
5.5142658053
 30
0.0
  0
SPLINE
  5
371
100
AcDbEntity
  8
0
100
AcDbSpline
 62
7
  6
CONTINUOUS
 70
0
 71
3
 72
20
 73
16
 74
0
 42
0.0000001
 43
0.0000001
 44
0.0000000001
 40
0.0
 40
0.0
 40
0.0
 40
0.0
 40
0.0549543306
 40
0.1119608704
 40
0.1706085962
 40
0.2306142895
 40
0.3537450849
 40
0.4799360101
 40
0.5438823558
 40
0.608260824
 40
0.6729948374
 40
0.7380189801
 40
0.8032804963
 40
0.8687317811
 40
1.0
 40
1.0
 40
1.0
 40
1.0
 10
4.7932005906
 20
5.5142658053
 30
0.0
 10
4.7950065532
 20
5.516015442
 30
0.0
 10
4.7986065405
 20
5.5196629479
 30
0.0
 10
4.8038423503
 20
5.5254563481
 30
0.0
 10
4.8089646028
 20
5.5316538599
 30
0.0
 10
4.8156298265
 20
5.5404876238
 30
0.0
 10
4.8233895263
 20
5.552348372
 30
0.0
 10
4.8301524999
 20
5.5650093356
 30
0.0
 10
4.8349481814
 20
5.5756252382
 30
0.0
 10
4.8382247302
 20
5.5838320152
 30
0.0
 10
4.8411500861
 20
5.5922225375
 30
0.0
 10
4.8437116312
 20
5.6007733452
 30
0.0
 10
4.8458992569
 20
5.6094615469
 30
0.0
 10
4.8483085766
 20
5.6212068775
 30
0.0
 10
4.8495284914
 20
5.6301407495
 30
0.0
 10
4.8500768643
 20
5.6361220049
 30
0.0
  0
SPLINE
  5
372
100
AcDbEntity
  8
0
100
AcDbSpline
 62
7
  6
CONTINUOUS
 70
0
 71
3
 72
18
 73
14
 74
0
 42
0.0000001
 43
0.0000001
 44
0.0000000001
 40
0.0
 40
0.0
 40
0.0
 40
0.0
 40
0.1311534585
 40
0.2621908973
 40
0.3920166271
 40
0.5196633683
 40
0.6444086436
 40
0.7056275492
 40
0.7660206218
 40
0.8255433173
 40
0.8841900229
 40
0.9422318871
 40
1.0
 40
1.0
 40
1.0
 40
1.0
 10
5.0652675271
 20
5.4845273194
 30
0.0
 10
5.0654378598
 20
5.4859611057
 30
0.0
 10
5.0655899929
 20
5.4888535051
 30
0.0
 10
5.0652445027
 20
5.4931673799
 30
0.0
 10
5.0643481193
 20
5.4973618646
 30
0.0
 10
5.062953632
 20
5.5013429972
 30
0.0
 10
5.0614279317
 20
5.5044494066
 30
0.0
 10
5.0600315474
 20
5.5067756899
 30
0.0
 10
5.0589152937
 20
5.5084292424
 30
0.0
 10
5.0577344126
 20
5.5100017828
 30
0.0
 10
5.0564963383
 20
5.5114961783
 30
0.0
 10
5.0552039206
 20
5.5129176939
 30
0.0
 10
5.0543058635
 20
5.5138232865
 30
0.0
 10
5.0538490988
 20
5.5142658053
 30
0.0
  0
SPLINE
  5
373
100
AcDbEntity
  8
0
100
AcDbSpline
 62
7
  6
CONTINUOUS
 70
0
 71
3
 72
18
 73
14
 74
0
 42
0.0000001
 43
0.0000001
 44
0.0000000001
 40
0.0
 40
0.0
 40
0.0
 40
0.0
 40
0.0577590992
 40
0.1157964902
 40
0.1744499143
 40
0.2339809348
 40
0.2943753753
 40
0.3555916896
 40
0.48033366
 40
0.6079802455
 40
0.7378054022
 40
0.8688442041
 40
1.0
 40
1.0
 40
1.0
 40
1.0
 10
4.7932005906
 20
5.5142658053
 30
0.0
 10
4.7927438955
 20
5.513823354
 30
0.0
 10
4.7918459461
 20
5.5129178566
 30
0.0
 10
4.7905535975
 20
5.5114963698
 30
0.0
 10
4.7893154218
 20
5.5100018996
 30
0.0
 10
4.7881343602
 20
5.5084292594
 30
0.0
 10
4.7870180465
 20
5.5067756422
 30
0.0
 10
4.7856217522
 20
5.5044493507
 30
0.0
 10
4.784096103
 20
5.5013429826
 30
0.0
 10
4.782701555
 20
5.4973619015
 30
0.0
 10
4.7818051692
 20
5.493167392
 30
0.0
 10
4.7814596526
 20
5.4888534706
 30
0.0
 10
4.7816117819
 20
5.4859610168
 30
0.0
 10
4.7817821347
 20
5.4845272016
 30
0.0
  0
SPLINE
  5
374
100
AcDbEntity
  8
0
100
AcDbSpline
 62
7
  6
CONTINUOUS
 70
0
 71
3
 72
11
 73
7
 74
0
 42
0.0000001
 43
0.0000001
 44
0.0000000001
 40
0.0
 40
0.0
 40
0.0
 40
0.0
 40
0.2505573873
 40
0.5013132878
 40
0.7514035068
 40
1.0
 40
1.0
 40
1.0
 40
1.0
 10
4.6044363833
 20
5.4783048689
 30
0.0
 10
4.6036422443
 20
5.4897521229
 30
0.0
 10
4.6018718604
 20
5.5126436406
 30
0.0
 10
4.5986038225
 20
5.5469021718
 30
0.0
 10
4.5946540606
 20
5.5809988172
 30
0.0
 10
4.5915101889
 20
5.6036224238
 30
0.0
 10
4.5897984477
 20
5.6148779714
 30
0.0
  0
SPLINE
  5
375
100
AcDbEntity
  8
0
100
AcDbSpline
 62
7
  6
CONTINUOUS
 70
0
 71
3
 72
10
 73
6
 74
0
 42
0.0000001
 43
0.0000001
 44
0.0000000001
 40
0.0
 40
0.0
 40
0.0
 40
0.0
 40
0.2531204183
 40
0.5043244766
 40
1.0
 40
1.0
 40
1.0
 40
1.0
 10
5.3188987737
 20
5.8650484243
 30
0.0
 10
5.3193205392
 20
5.8645891248
 30
0.0
 10
5.3201238078
 20
5.8636384332
 30
0.0
 10
5.3215379316
 20
5.8616195851
 30
0.0
 10
5.3223651648
 20
5.8599525345
 30
0.0
 10
5.3227629789
 20
5.8587980351
 30
0.0
  0
SPLINE
  5
376
100
AcDbEntity
  8
0
100
AcDbSpline
 62
7
  6
CONTINUOUS
 70
0
 71
3
 72
13
 73
9
 74
0
 42
0.0000001
 43
0.0000001
 44
0.0000000001
 40
0.0
 40
0.0
 40
0.0
 40
0.0
 40
0.2546491392
 40
0.5071467465
 40
0.632196799
 40
0.7560835424
 40
0.8787052539
 40
1.0
 40
1.0
 40
1.0
 40
1.0
 10
5.0764633672
 20
6.1373856134
 30
0.0
 10
5.0776673639
 20
6.1373856123
 30
0.0
 10
5.0800723119
 20
6.1371354766
 30
0.0
 10
5.0829373584
 20
6.1362019338
 30
0.0
 10
5.085044348
 20
6.1351058196
 30
0.0
 10
5.0865052169
 20
6.1341229069
 30
0.0
 10
5.0878287994
 20
6.1329891381
 30
0.0
 10
5.0886109697
 20
6.1321370672
 30
0.0
 10
5.0889718414
 20
6.1316913529
 30
0.0
  0
SPLINE
  5
377
100
AcDbEntity
  8
0
100
AcDbSpline
 62
7
  6
CONTINUOUS
 70
0
 71
3
 72
13
 73
9
 74
0
 42
0.0000001
 43
0.0000001
 44
0.0000000001
 40
0.0
 40
0.0
 40
0.0
 40
0.0
 40
0.1212947492
 40
0.2439164633
 40
0.3678032033
 40
0.4928532577
 40
0.7453508833
 40
1.0
 40
1.0
 40
1.0
 40
1.0
 10
4.7580778477
 20
6.1316913525
 30
0.0
 10
4.7584387193
 20
6.1321370671
 30
0.0
 10
4.7592208895
 20
6.1329891385
 30
0.0
 10
4.7605444717
 20
6.1341229085
 30
0.0
 10
4.7620053402
 20
6.1351058227
 30
0.0
 10
4.7641123295
 20
6.1362019382
 30
0.0
 10
4.7669773749
 20
6.1371354919
 30
0.0
 10
4.7693823253
 20
6.1373856113
 30
0.0
 10
4.7705863222
 20
6.1373856134
 30
0.0
  0
SPLINE
  5
378
100
AcDbEntity
  8
0
100
AcDbSpline
 62
7
  6
CONTINUOUS
 70
0
 71
3
 72
10
 73
6
 74
0
 42
0.0000001
 43
0.0000001
 44
0.0000000001
 40
0.0
 40
0.0
 40
0.0
 40
0.0
 40
0.495675879
 40
0.7468801739
 40
1.0
 40
1.0
 40
1.0
 40
1.0
 10
4.5242866706
 20
5.8587980351
 30
0.0
 10
4.5246845075
 20
5.8599525308
 30
0.0
 10
4.525511806
 20
5.8616195544
 30
0.0
 10
4.5269259204
 20
5.8636384106
 30
0.0
 10
4.5277291498
 20
5.8645891403
 30
0.0
 10
4.5281509226
 20
5.8650484332
 30
0.0
  0
SPLINE
  5
379
100
AcDbEntity
  8
0
100
AcDbSpline
 62
7
  6
CONTINUOUS
 70
0
 71
3
 72
11
 73
7
 74
0
 42
0.0000001
 43
0.0000001
 44
0.0000000001
 40
0.0
 40
0.0
 40
0.0
 40
0.0
 40
0.2500119782
 40
0.5000209768
 40
0.750013535
 40
1.0
 40
1.0
 40
1.0
 40
1.0
 10
4.5260020426
 20
5.8525633237
 30
0.0
 10
4.52572966
 20
5.8530350986
 30
0.0
 10
4.525240352
 20
5.8540121169
 30
0.0
 10
4.5246968888
 20
5.8555580624
 30
0.0
 10
4.5243620808
 20
5.8571624432
 30
0.0
 10
4.5242866714
 20
5.8582533304
 30
0.0
 10
4.5242866706
 20
5.8587980351
 30
0.0
  0
SPLINE
  5
37A
100
AcDbEntity
  8
0
100
AcDbSpline
 62
7
  6
CONTINUOUS
 70
0
 71
3
 72
15
 73
11
 74
0
 42
0.0000001
 43
0.0000001
 44
0.0000000001
 40
0.0
 40
0.0
 40
0.0
 40
0.0
 40
0.1250008198
 40
0.2500129341
 40
0.3750049913
 40
0.4999998397
 40
0.6249946664
 40
0.7499867392
 40
0.8749990975
 40
1.0
 40
1.0
 40
1.0
 40
1.0
 10
4.7301628206
 20
5.5114158404
 30
0.0
 10
4.7296180916
 20
5.5114158429
 30
0.0
 10
4.728527317
 20
5.511480734
 30
0.0
 10
4.7269168481
 20
5.511782985
 30
0.0
 10
4.7253598165
 20
5.512295407
 30
0.0
 10
4.7238869871
 20
5.5130151165
 30
0.0
 10
4.7225272858
 20
5.5139307696
 30
0.0
 10
4.7213049994
 20
5.5150229891
 30
0.0
 10
4.7202380071
 20
5.5162665715
 30
0.0
 10
4.7196364188
 20
5.5171787638
 30
0.0
 10
4.719364052
 20
5.5176505121
 30
0.0
  0
SPLINE
  5
37B
100
AcDbEntity
  8
0
100
AcDbSpline
 62
7
  6
CONTINUOUS
 70
0
 71
3
 72
15
 73
11
 74
0
 42
0.0000001
 43
0.0000001
 44
0.0000000001
 40
0.0
 40
0.0
 40
0.0
 40
0.0
 40
0.1250008588
 40
0.2500128759
 40
0.3750050189
 40
0.499999841
 40
0.6249946369
 40
0.7499868019
 40
0.874999056
 40
1.0
 40
1.0
 40
1.0
 40
1.0
 10
5.1276856532
 20
5.517650531
 30
0.0
 10
5.1274132863
 20
5.5171787779
 30
0.0
 10
5.1268117482
 20
5.5162665445
 30
0.0
 10
5.1257447505
 20
5.5150229456
 30
0.0
 10
5.1245224524
 20
5.5139307223
 30
0.0
 10
5.1231627446
 20
5.5130150539
 30
0.0
 10
5.1216898987
 20
5.512295346
 30
0.0
 10
5.1201328557
 20
5.5117829158
 30
0.0
 10
5.1185223673
 20
5.5114806672
 30
0.0
 10
5.1174315795
 20
5.5114158365
 30
0.0
 10
5.1168868454
 20
5.5114158364
 30
0.0
  0
SPLINE
  5
37C
100
AcDbEntity
  8
0
100
AcDbSpline
 62
7
  6
CONTINUOUS
 70
0
 71
3
 72
11
 73
7
 74
0
 42
0.0000001
 43
0.0000001
 44
0.0000000001
 40
0.0
 40
0.0
 40
0.0
 40
0.0
 40
0.2499864647
 40
0.4999790129
 40
0.7499880198
 40
1.0
 40
1.0
 40
1.0
 40
1.0
 10
5.3227629789
 20
5.8587980351
 30
0.0
 10
5.3227629789
 20
5.8582533312
 30
0.0
 10
5.322687573
 20
5.8571624454
 30
0.0
 10
5.3223527747
 20
5.8555580652
 30
0.0
 10
5.3218093271
 20
5.8540121164
 30
0.0
 10
5.321320023
 20
5.8530350978
 30
0.0
 10
5.3210476457
 20
5.8525633209
 30
0.0
  0
LINE
  5
37D
100
AcDbEntity
  8
0
100
AcDbLine
 62
7
  6
CONTINUOUS
 10
5.4745194861
 20
5.8659779677
 11
5.3694390449
 21
5.8689288314
  0
SPLINE
  5
37E
100
AcDbEntity
  8
0
100
AcDbSpline
 62
7
  6
CONTINUOUS
 70
0
 71
3
 72
9
 73
5
 74
0
 42
0.0000001
 43
0.0000001
 44
0.0000000001
 40
0.0
 40
0.0
 40
0.0
 40
0.0
 40
0.2500352494
 40
1.0
 40
1.0
 40
1.0
 40
1.0
 10
4.7375261011
 20
4.1683597623
 30
0.0
 10
4.7376629328
 20
4.1288103636
 30
0.0
 10
4.7381738758
 20
3.970634948
 30
0.0
 10
4.7385400807
 20
3.8124590655
 30
0.0
 10
4.7387341191
 20
3.6938326208
 30
0.0
  0
SPLINE
  5
37F
100
AcDbEntity
  8
0
100
AcDbSpline
 62
7
  6
CONTINUOUS
 70
0
 71
3
 72
22
 73
18
 74
0
 42
0.0000001
 43
0.0000001
 44
0.0000000001
 40
0.0
 40
0.0
 40
0.0
 40
0.0
 40
0.1600207217
 40
0.2363618514
 40
0.3102123939
 40
0.3815443189
 40
0.4503366605
 40
0.5165795329
 40
0.5802684505
 40
0.6414043128
 40
0.6999944604
 40
0.756054443
 40
0.8096156316
 40
0.8607245887
 40
0.9094400269
 40
0.9558350606
 40
1.0
 40
1.0
 40
1.0
 40
1.0
 10
4.73873412
 20
3.6938325644
 30
0.0
 10
4.733213431
 20
3.6920383096
 30
0.0
 10
4.7250999848
 20
3.6892578164
 30
0.0
 10
4.7145613128
 20
3.6853099405
 30
0.0
 10
4.707092916
 20
3.6823417032
 30
0.0
 10
4.6999416394
 20
3.6793216837
 30
0.0
 10
4.693113002
 20
3.6762518882
 30
0.0
 10
4.6866118738
 20
3.6731348966
 30
0.0
 10
4.680442858
 20
3.6699730818
 30
0.0
 10
4.6746105198
 20
3.6667688049
 30
0.0
 10
4.6691193738
 20
3.6635244341
 30
0.0
 10
4.6639737962
 20
3.6602420497
 30
0.0
 10
4.6591774228
 20
3.6569240836
 30
0.0
 10
4.6547332379
 20
3.6535731445
 30
0.0
 10
4.6506440562
 20
3.6501915372
 30
0.0
 10
4.6469129129
 20
3.6467817755
 30
0.0
 10
4.6446108913
 20
3.6444350138
 30
0.0
 10
4.643524845
 20
3.6432571587
 30
0.0
  0
SPLINE
  5
380
100
AcDbEntity
  8
0
100
AcDbSpline
 62
7
  6
CONTINUOUS
 70
0
 71
3
 72
37
 73
33
 74
0
 42
0.0000001
 43
0.0000001
 44
0.0000000001
 40
0.0
 40
0.0
 40
0.0
 40
0.0
 40
0.006077285
 40
0.0122018684
 40
0.0184198462
 40
0.024775118
 40
0.0380470718
 40
0.0523106276
 40
0.0677845121
 40
0.0846302184
 40
0.1029614677
 40
0.1228536814
 40
0.1443526837
 40
0.167480933
 40
0.1922421187
 40
0.2186251886
 40
0.2466067019
 40
0.2761526986
 40
0.3072206204
 40
0.339760141
 40
0.3737140949
 40
0.4090195647
 40
0.4456081614
 40
0.4834066582
 40
0.5223376941
 40
0.5623198782
 40
0.6032683274
 40
0.6450951679
 40
0.7310161571
 40
0.819332223
 40
0.9092598032
 40
1.0
 40
1.0
 40
1.0
 40
1.0
 10
4.6785248447
 20
4.2808071735
 30
0.0
 10
4.6785248447
 20
4.2813433374
 30
0.0
 10
4.6785745159
 20
4.2824204864
 30
0.0
 10
4.6787975357
 20
4.2840323026
 30
0.0
 10
4.6791689285
 20
4.2856418092
 30
0.0
 10
4.6798712417
 20
4.2878136508
 30
0.0
 10
4.6811431821
 20
4.2905341975
 30
0.0
 10
4.6832322434
 20
4.2937145641
 30
0.0
 10
4.6858967051
 20
4.2968550721
 30
0.0
 10
4.6891285651
 20
4.2999506975
 30
0.0
 10
4.6929200806
 20
4.3029968389
 30
0.0
 10
4.6972626658
 20
4.3059878984
 30
0.0
 10
4.7021466518
 20
4.3089177469
 30
0.0
 10
4.7075609967
 20
4.3117799268
 30
0.0
 10
4.7134932386
 20
4.3145679431
 30
0.0
 10
4.7199295909
 20
4.3172752215
 30
0.0
 10
4.7268549336
 20
4.3198953082
 30
0.0
 10
4.7342528693
 20
4.322421954
 30
0.0
 10
4.7421058203
 20
4.3248490279
 30
0.0
 10
4.7503950506
 20
4.3271706575
 30
0.0
 10
4.7591007268
 20
4.3293812494
 30
0.0
 10
4.7682019978
 20
4.3314754094
 30
0.0
 10
4.7776770274
 20
4.3334480649
 30
0.0
 10
4.7875030583
 20
4.3352944559
 30
0.0
 10
4.797656485
 20
4.3370100731
 30
0.0
 10
4.808112889
 20
4.3385907619
 30
0.0
 10
4.8188471395
 20
4.3400327374
 30
0.0
 10
4.8336276926
 20
4.3417812234
 30
0.0
 10
4.8526070736
 20
4.3435868876
 30
0.0
 10
4.8758641368
 20
4.345136403
 30
0.0
 10
4.8995792845
 20
4.3460722446
 30
0.0
 10
4.9155193592
 20
4.3462805757
 30
0.0
 10
4.9235248447
 20
4.3462805757
 30
0.0
  0
SPLINE
  5
381
100
AcDbEntity
  8
0
100
AcDbSpline
 62
7
  6
CONTINUOUS
 70
0
 71
3
 72
37
 73
33
 74
0
 42
0.0000001
 43
0.0000001
 44
0.0000000001
 40
0.0
 40
0.0
 40
0.0
 40
0.0
 40
0.006077285
 40
0.0122018684
 40
0.0184198462
 40
0.024775118
 40
0.0380470718
 40
0.0523106276
 40
0.0677845121
 40
0.0846302184
 40
0.1029614677
 40
0.1228536814
 40
0.1443526837
 40
0.167480933
 40
0.1922421187
 40
0.2186251886
 40
0.2466067019
 40
0.2761526986
 40
0.3072206204
 40
0.339760141
 40
0.3737140949
 40
0.4090195647
 40
0.4456081614
 40
0.4834066582
 40
0.5223376941
 40
0.5623198782
 40
0.6032683274
 40
0.6450951679
 40
0.7310161571
 40
0.819332223
 40
0.9092598032
 40
1.0
 40
1.0
 40
1.0
 40
1.0
 10
4.6785248447
 20
4.2470801077
 30
0.0
 10
4.6785248447
 20
4.2476162716
 30
0.0
 10
4.6785745159
 20
4.2486934205
 30
0.0
 10
4.6787975357
 20
4.2503052367
 30
0.0
 10
4.6791689285
 20
4.2519147433
 30
0.0
 10
4.6798712417
 20
4.254086585
 30
0.0
 10
4.6811431821
 20
4.2568071316
 30
0.0
 10
4.6832322434
 20
4.2599874983
 30
0.0
 10
4.6858967051
 20
4.2631280062
 30
0.0
 10
4.6891285651
 20
4.2662236316
 30
0.0
 10
4.6929200806
 20
4.2692697731
 30
0.0
 10
4.6972626658
 20
4.2722608326
 30
0.0
 10
4.7021466518
 20
4.2751906811
 30
0.0
 10
4.7075609967
 20
4.2780528609
 30
0.0
 10
4.7134932386
 20
4.2808408773
 30
0.0
 10
4.7199295909
 20
4.2835481556
 30
0.0
 10
4.7268549336
 20
4.2861682423
 30
0.0
 10
4.7342528693
 20
4.2886948881
 30
0.0
 10
4.7421058203
 20
4.2911219621
 30
0.0
 10
4.7503950506
 20
4.2934435916
 30
0.0
 10
4.7591007268
 20
4.2956541836
 30
0.0
 10
4.7682019978
 20
4.2977483435
 30
0.0
 10
4.7776770274
 20
4.299720999
 30
0.0
 10
4.7875030583
 20
4.3015673901
 30
0.0
 10
4.797656485
 20
4.3032830072
 30
0.0
 10
4.808112889
 20
4.304863696
 30
0.0
 10
4.8188471395
 20
4.3063056716
 30
0.0
 10
4.8336276926
 20
4.3080541576
 30
0.0
 10
4.8526070736
 20
4.3098598217
 30
0.0
 10
4.8758641368
 20
4.3114093371
 30
0.0
 10
4.8995792845
 20
4.3123451787
 30
0.0
 10
4.9155193592
 20
4.3125535098
 30
0.0
 10
4.9235248447
 20
4.3125535098
 30
0.0
  0
SPLINE
  5
382
100
AcDbEntity
  8
0
100
AcDbSpline
 62
7
  6
CONTINUOUS
 70
0
 71
3
 72
11
 73
7
 74
0
 42
0.0000001
 43
0.0000001
 44
0.0000000001
 40
0.0
 40
0.0
 40
0.0
 40
0.0
 40
0.2498751762
 40
0.4998505658
 40
0.749900528
 40
1.0
 40
1.0
 40
1.0
 40
1.0
 10
4.6443576826
 20
5.5582534556
 30
0.0
 10
4.6482550128
 20
5.5510690412
 30
0.0
 10
4.6559084918
 20
5.5366196469
 30
0.0
 10
4.6670592474
 20
5.5147707164
 30
0.0
 10
4.6779784429
 20
5.4927972783
 30
0.0
 10
4.6851683914
 20
5.4781019555
 30
0.0
 10
4.6887587102
 20
5.4707511331
 30
0.0
  0
LINE
  5
383
100
AcDbEntity
  8
0
100
AcDbLine
 62
7
  6
CONTINUOUS
 10
4.3725302071
 20
5.865977949
 11
4.4776106439
 21
5.8689288309
  0
SPLINE
  5
384
100
AcDbEntity
  8
0
100
AcDbSpline
 62
7
  6
CONTINUOUS
 70
0
 71
3
 72
21
 73
17
 74
0
 42
0.0000001
 43
0.0000001
 44
0.0000000001
 40
0.0
 40
0.0
 40
0.0
 40
0.0
 40
0.0618447647
 40
0.1240203352
 40
0.1864300575
 40
0.2490019623
 40
0.3116831417
 40
0.3744350209
 40
0.4999999999
 40
0.6255649788
 40
0.688316858
 40
0.7509980375
 40
0.8135699423
 40
0.8759796644
 40
0.9381552342
 40
1.0
 40
1.0
 40
1.0
 40
1.0
 10
4.3751724936
 20
5.9117774539
 30
0.0
 10
4.3761510923
 20
5.9214187801
 30
0.0
 10
4.3786435131
 20
5.9407032518
 30
0.0
 10
4.3839484511
 20
5.9694440758
 30
0.0
 10
4.3908107154
 20
5.9979713288
 30
0.0
 10
4.3991978428
 20
6.0261700615
 30
0.0
 10
4.4090748986
 20
6.0539396492
 30
0.0
 10
4.4241775824
 20
6.0902710755
 30
0.0
 10
4.4465774396
 20
6.1341637475
 30
0.0
 10
4.4733896799
 20
6.175508929
 30
0.0
 10
4.4973022766
 20
6.2067539496
 30
0.0
 10
4.5164129167
 20
6.229192525
 30
0.0
 10
4.536640171
 20
6.2505553576
 30
0.0
 10
4.5579143646
 20
6.2707618794
 30
0.0
 10
4.5801521872
 20
6.289726493
 30
0.0
 10
4.5956068135
 20
6.3015272359
 30
0.0
 10
4.6034671466
 20
6.3071953919
 30
0.0
  0
LINE
  5
385
100
AcDbEntity
  8
0
100
AcDbLine
 62
7
  6
CONTINUOUS
 10
4.6418094496
 20
6.3323834435
 11
4.691794927
 21
6.2399043067
  0
LINE
  5
386
100
AcDbEntity
  8
0
100
AcDbLine
 62
7
  6
CONTINUOUS
 10
4.9653265612
 20
5.6610927814
 11
4.9629324046
 21
5.6597737606
  0
SPLINE
  5
387
100
AcDbEntity
  8
0
100
AcDbSpline
 62
7
  6
CONTINUOUS
 70
0
 71
3
 72
23
 73
19
 74
0
 42
0.0000001
 43
0.0000001
 44
0.0000000001
 40
0.0
 40
0.0
 40
0.0
 40
0.0
 40
0.0426678711
 40
0.0882478414
 40
0.1371802212
 40
0.1896814456
 40
0.2457778142
 40
0.3053396426
 40
0.368111325
 40
0.4337366037
 40
0.5017796481
 40
0.5717430485
 40
0.6430837097
 40
0.715226981
 40
0.7875820757
 40
0.8595489118
 40
0.9305478086
 40
1.0
 40
1.0
 40
1.0
 40
1.0
 10
4.9629324046
 20
5.6597737606
 30
0.0
 10
4.9624044045
 20
5.65938183
 30
0.0
 10
4.9613845567
 20
5.6584707616
 30
0.0
 10
4.9600416929
 20
5.656828982
 30
0.0
 10
4.9588533413
 20
5.6548928221
 30
0.0
 10
4.9578318374
 20
5.6526852032
 30
0.0
 10
4.9569872951
 20
5.6502309529
 30
0.0
 10
4.9563286871
 20
5.6475577731
 30
0.0
 10
4.9558631515
 20
5.6446958912
 30
0.0
 10
4.9555958618
 20
5.6416778479
 30
0.0
 10
4.955529828
 20
5.6385381026
 30
0.0
 10
4.9556658057
 20
5.6353126213
 30
0.0
 10
4.9560022425
 20
5.6320384407
 30
0.0
 10
4.9565352617
 20
5.6287531796
 30
0.0
 10
4.9572587659
 20
5.6254946926
 30
0.0
 10
4.9581643886
 20
5.6223003099
 30
0.0
 10
4.9592417281
 20
5.6192070833
 30
0.0
 10
4.9600775629
 20
5.6172086148
 30
0.0
 10
4.9605225367
 20
5.616235146
 30
0.0
  0
SPLINE
  5
388
100
AcDbEntity
  8
0
100
AcDbSpline
 62
7
  6
CONTINUOUS
 70
0
 71
3
 72
31
 73
27
 74
0
 42
0.0000001
 43
0.0000001
 44
0.0000000001
 40
0.0
 40
0.0
 40
0.0
 40
0.0
 40
0.0031424474
 40
0.0066878392
 40
0.0106607979
 40
0.015069412
 40
0.0251988555
 40
0.0370777149
 40
0.0506566492
 40
0.0658838102
 40
0.0827345146
 40
0.1011813864
 40
0.1211983553
 40
0.1427806144
 40
0.1906263071
 40
0.2168961886
 40
0.244734169
 40
0.3051177363
 40
0.3717771891
 40
0.4446597381
 40
0.5236391109
 40
0.6085126639
 40
0.6989894983
 40
0.7947022359
 40
0.8952189435
 40
1.0
 40
1.0
 40
1.0
 40
1.0
 10
4.9971051925
 20
5.6347314225
 30
0.0
 10
4.9971094915
 20
5.6346878687
 30
0.0
 10
4.9971097032
 20
5.6345942364
 30
0.0
 10
4.9970892518
 20
5.6344468477
 30
0.0
 10
4.9970484814
 20
5.6342855303
 30
0.0
 10
4.9969632333
 20
5.6340419476
 30
0.0
 10
4.9968025781
 20
5.6337097189
 30
0.0
 10
4.9965408161
 20
5.6332881275
 30
0.0
 10
4.9962020804
 20
5.6328331658
 30
0.0
 10
4.9957869113
 20
5.6323509577
 30
0.0
 10
4.9952960914
 20
5.6318462058
 30
0.0
 10
4.9947300037
 20
5.6313232039
 30
0.0
 10
4.9940887275
 20
5.6307859721
 30
0.0
 10
4.9930998038
 20
5.6300279411
 30
0.0
 10
4.9919938205
 20
5.6292817153
 30
0.0
 10
4.9907805863
 20
5.62854378
 30
0.0
 10
4.9893944154
 20
5.6277552258
 30
0.0
 10
4.9874766366
 20
5.6267657964
 30
0.0
 10
4.9849499342
 20
5.6255944668
 30
0.0
 10
4.9821473417
 20
5.6244069207
 30
0.0
 10
4.979080917
 20
5.6231948852
 30
0.0
 10
4.9757656506
 20
5.6219474613
 30
0.0
 10
4.9722209402
 20
5.6206487069
 30
0.0
 10
4.9684703655
 20
5.6192785593
 30
0.0
 10
4.9645422246
 20
5.617814016
 30
0.0
 10
4.9618771629
 20
5.6167778734
 30
0.0
 10
4.9605225367
 20
5.616235146
 30
0.0
  0
SPLINE
  5
389
100
AcDbEntity
  8
0
100
AcDbSpline
 62
7
  6
CONTINUOUS
 70
0
 71
3
 72
23
 73
19
 74
0
 42
0.0000001
 43
0.0000001
 44
0.0000000001
 40
0.0
 40
0.0
 40
0.0
 40
0.0
 40
0.0854392575
 40
0.1679636505
 40
0.2475046671
 40
0.323998202
 40
0.3973918421
 40
0.4676467624
 40
0.5347382056
 40
0.5986584705
 40
0.6594081363
 40
0.7169967117
 40
0.771455535
 40
0.822847747
 40
0.8712618095
 40
0.916816428
 40
0.9596644166
 40
1.0
 40
1.0
 40
1.0
 40
1.0
 10
4.7323160803
 20
5.1490338108
 30
0.0
 10
4.7285574526
 20
5.1479414558
 30
0.0
 10
4.7211877135
 20
5.1457268251
 30
0.0
 10
4.7103945331
 20
5.142249727
 30
0.0
 10
4.7000647012
 20
5.1386784378
 30
0.0
 10
4.6902114132
 20
5.1350170724
 30
0.0
 10
4.6808470468
 20
5.1312698454
 30
0.0
 10
4.6719829547
 20
5.1274409189
 30
0.0
 10
4.6636292862
 20
5.1235345459
 30
0.0
 10
4.6557949887
 20
5.1195559328
 30
0.0
 10
4.6484889093
 20
5.1155098805
 30
0.0
 10
4.6417201124
 20
5.1114005829
 30
0.0
 10
4.6354969203
 20
5.1072321561
 30
0.0
 10
4.6298257845
 20
5.1030096121
 30
0.0
 10
4.6247125199
 20
5.0987373738
 30
0.0
 10
4.6201619853
 20
5.0944201278
 30
0.0
 10
4.6161795891
 20
5.0900628926
 30
0.0
 10
4.6138399789
 20
5.0870477211
 30
0.0
 10
4.6127766748
 20
5.0855364473
 30
0.0
  0
SPLINE
  5
38A
100
AcDbEntity
  8
0
100
AcDbSpline
 62
7
  6
CONTINUOUS
 70
0
 71
3
 72
24
 73
20
 74
0
 42
0.0000001
 43
0.0000001
 44
0.0000000001
 40
0.0
 40
0.0
 40
0.0
 40
0.0
 40
0.031143361
 40
0.0623239397
 40
0.0935308076
 40
0.1247579844
 40
0.1872547142
 40
0.2185181229
 40
0.2497883817
 40
0.2810638926
 40
0.3123431157
 40
0.3749083497
 40
0.4374764484
 40
0.5000416974
 40
0.6251453229
 40
0.7501891809
 40
0.8751480067
 40
0.937588948
 40
1.0
 40
1.0
 40
1.0
 40
1.0
 10
5.2344002599
 20
5.0852118674
 30
0.0
 10
5.2345601146
 20
5.0892810768
 30
0.0
 10
5.2348335373
 20
5.0974262241
 30
0.0
 10
5.2351342061
 20
5.1096528492
 30
0.0
 10
5.2353533994
 20
5.1218921357
 30
0.0
 10
5.2355588858
 20
5.1382270151
 30
0.0
 10
5.2356683493
 20
5.1545702801
 30
0.0
 10
5.2357252313
 20
5.1709193216
 30
0.0
 10
5.2357500702
 20
5.1831859166
 30
0.0
 10
5.2357637293
 20
5.195454592
 30
0.0
 10
5.235776607
 20
5.2118154432
 30
0.0
 10
5.2357949307
 20
5.2322681528
 30
0.0
 10
5.2358594279
 20
5.2568118179
 30
0.0
 10
5.2360411403
 20
5.2895326659
 30
0.0
 10
5.2365164676
 20
5.3304213553
 30
0.0
 10
5.237665863
 20
5.3794586769
 30
0.0
 10
5.2392442591
 20
5.4202859468
 30
0.0
 10
5.2409626282
 20
5.4529067551
 30
0.0
 10
5.241988228
 20
5.4692007086
 30
0.0
 10
5.2425466466
 20
5.4773425347
 30
0.0
  0
SPLINE
  5
38B
100
AcDbEntity
  8
0
100
AcDbSpline
 62
7
  6
CONTINUOUS
 70
0
 71
3
 72
12
 73
8
 74
0
 42
0.0000001
 43
0.0000001
 44
0.0000000001
 40
0.0
 40
0.0
 40
0.0
 40
0.0
 40
0.1227449369
 40
0.2464431013
 40
0.4960317288
 40
0.7475672236
 40
1.0
 40
1.0
 40
1.0
 40
1.0
 10
4.9621007935
 20
5.6604316506
 30
0.0
 10
4.9605439843
 20
5.6601289345
 30
0.0
 10
4.9574066068
 20
5.6595799525
 30
0.0
 10
4.9510600788
 20
5.6586804558
 30
0.0
 10
4.9430226081
 20
5.6578825049
 30
0.0
 10
4.9332987245
 20
5.6573434655
 30
0.0
 10
4.9267864854
 20
5.6572239399
 30
0.0
 10
4.9235248446
 20
5.6572205844
 30
0.0
  0
SPLINE
  5
38C
100
AcDbEntity
  8
0
100
AcDbSpline
 62
7
  6
CONTINUOUS
 70
0
 71
3
 72
25
 73
21
 74
0
 42
0.0000001
 43
0.0000001
 44
0.0000000001
 40
0.0
 40
0.0
 40
0.0
 40
0.0
 40
0.0616919405
 40
0.123448371
 40
0.1852846726
 40
0.2472097727
 40
0.3092342456
 40
0.3713684903
 40
0.4336236033
 40
0.4648031746
 40
0.496016082
 40
0.5272632856
 40
0.5585450223
 40
0.6212046789
 40
0.6840023249
 40
0.7469369669
 40
0.8100074462
 40
0.8732099279
 40
0.9365438471
 40
1.0
 40
1.0
 40
1.0
 40
1.0
 10
4.6338018228
 20
3.0820688619
 30
0.0
 10
4.6341652264
 20
3.0762904464
 30
0.0
 10
4.6352614727
 20
3.0647475009
 30
0.0
 10
4.6379917948
 20
3.0475632051
 30
0.0
 10
4.6417907279
 20
3.0305601175
 30
0.0
 10
4.6466417151
 20
3.0138008626
 30
0.0
 10
4.6525292623
 20
2.9973471522
 30
0.0
 10
4.6594382146
 20
2.9812620845
 30
0.0
 10
4.6660319917
 20
2.9682238382
 30
0.0
 10
4.6718000985
 20
2.958044635
 30
0.0
 10
4.6763744744
 20
2.950539065
 30
0.0
 10
4.6811892335
 20
2.9431739635
 30
0.0
 10
4.6879240302
 20
2.933544867
 30
0.0
 10
4.696915069
 20
2.9218894062
 30
0.0
 10
4.7085626856
 20
2.9085731508
 30
0.0
 10
4.7210292299
 20
2.8959656075
 30
0.0
 10
4.7342681214
 20
2.8841148876
 30
0.0
 10
4.7482332903
 20
2.8730683933
 30
0.0
 10
4.7628765927
 20
2.8628755239
 30
0.0
 10
4.7730504674
 20
2.8566867489
 30
0.0
 10
4.7782322524
 20
2.8537514566
 30
0.0
  0
SPLINE
  5
38D
100
AcDbEntity
  8
0
100
AcDbSpline
 62
7
  6
CONTINUOUS
 70
0
 71
3
 72
53
 73
49
 74
0
 42
0.0000001
 43
0.0000001
 44
0.0000000001
 40
0.0
 40
0.0
 40
0.0
 40
0.0
 40
0.0367382009
 40
0.0551280193
 40
0.0735429521
 40
0.0919892382
 40
0.1104706585
 40
0.128990872
 40
0.147553377
 40
0.1848064571
 40
0.2034944586
 40
0.2222213867
 40
0.2409841858
 40
0.2597794127
 40
0.2786032407
 40
0.2974494495
 40
0.3163108691
 40
0.3351803439
 40
0.3729154661
 40
0.4105987578
 40
0.4481724438
 40
0.4855727962
 40
0.5227259322
 40
0.5595408997
 40
0.5958999241
 40
0.6316474396
 40
0.6492317958
 40
0.6665862381
 40
0.6836783274
 40
0.700475828
 40
0.716951522
 40
0.7330812131
 40
0.7642251816
 40
0.7792071007
 40
0.7937789211
 40
0.8079318408
 40
0.8216624256
 40
0.8478664657
 40
0.8724634727
 40
0.8841880624
 40
0.8955422993
 40
0.9171552185
 40
0.9372895845
 40
0.9558564683
 40
0.9726916524
 40
0.9875408555
 40
0.9941042428
 40
1.0
 40
1.0
 40
1.0
 40
1.0
 10
4.7387335602
 20
3.6938322275
 30
0.0
 10
4.7387502979
 20
3.6835282066
 30
0.0
 10
4.7387800757
 20
3.6680663716
 30
0.0
 10
4.738828949
 20
3.6474396949
 30
0.0
 10
4.73886988
 20
3.6319433832
 30
0.0
 10
4.7389164384
 20
3.6164213951
 30
0.0
 10
4.7389720041
 20
3.6008699078
 30
0.0
 10
4.7390396812
 20
3.5852858703
 30
0.0
 10
4.7391497461
 20
3.5644370557
 30
0.0
 10
4.73930016
 20
3.5435413822
 30
0.0
 10
4.7395181266
 20
3.5226002157
 30
0.0
 10
4.7397224526
 20
3.5068452464
 30
0.0
 10
4.7399666927
 20
3.4910607699
 30
0.0
 10
4.7402499408
 20
3.4752497634
 30
0.0
 10
4.7405714466
 20
3.4594160908
 30
0.0
 10
4.7409289023
 20
3.4435646212
 30
0.0
 10
4.7413197811
 20
3.4277011352
 30
0.0
 10
4.7418820651
 20
3.4065424947
 30
0.0
 10
4.7426621791
 20
3.3801088204
 30
0.0
 10
4.7437252769
 20
3.348435457
 30
0.0
 10
4.7449149203
 20
3.3168605492
 30
0.0
 10
4.7462315373
 20
3.2854394986
 30
0.0
 10
4.7476764254
 20
3.2542371039
 30
0.0
 10
4.7492509601
 20
3.2233334027
 30
0.0
 10
4.7509627566
 20
3.1928318255
 30
0.0
 10
4.7525186298
 20
3.1677240307
 30
0.0
 10
4.7538408094
 20
3.1479426095
 30
0.0
 10
4.7548627566
 20
3.1333852042
 30
0.0
 10
4.7559172245
 20
3.1190513974
 30
0.0
 10
4.7570007101
 20
3.1049669389
 30
0.0
 10
4.7581028421
 20
3.0911547019
 30
0.0
 10
4.7595679924
 20
3.0733349148
 30
0.0
 10
4.7610552252
 20
3.0559373708
 30
0.0
 10
4.7625495637
 20
3.0389790756
 30
0.0
 10
4.7636417071
 20
3.0267693295
 30
0.0
 10
4.7647108943
 20
3.0149099008
 30
0.0
 10
4.76607605
 20
2.9998014127
 30
0.0
 10
4.767693803
 20
2.9817745404
 30
0.0
 10
4.7692370858
 20
2.9643058868
 30
0.0
 10
4.7704016386
 20
2.9509849601
 30
0.0
 10
4.7714862749
 20
2.9384971941
 30
0.0
 10
4.7727596244
 20
2.9236582338
 30
0.0
 10
4.7741768774
 20
2.9068012674
 30
0.0
 10
4.7754505485
 20
2.8912769972
 30
0.0
 10
4.7765556673
 20
2.8772262888
 30
0.0
 10
4.7773531672
 20
2.8665285012
 30
0.0
 10
4.7778916011
 20
2.8588882166
 30
0.0
 10
4.7781255929
 20
2.8554016076
 30
0.0
 10
4.7782322524
 20
2.8537514566
 30
0.0
  0
SPLINE
  5
38E
100
AcDbEntity
  8
0
100
AcDbSpline
 62
7
  6
CONTINUOUS
 70
0
 71
3
 72
22
 73
18
 74
0
 42
0.0000001
 43
0.0000001
 44
0.0000000001
 40
0.0
 40
0.0
 40
0.0
 40
0.0
 40
0.0310690647
 40
0.0621740401
 40
0.0933094084
 40
0.1244713145
 40
0.1868604958
 40
0.2493180666
 40
0.2805667029
 40
0.3118259233
 40
0.3743699842
 40
0.4369390078
 40
0.4995238683
 40
0.6247105592
 40
0.7498790642
 40
0.8749878077
 40
1.0
 40
1.0
 40
1.0
 40
1.0
 10
5.2340460737
 20
5.0858567262
 30
0.0
 10
5.2342104452
 20
5.0899094647
 30
0.0
 10
5.2344948204
 20
5.0980214714
 30
0.0
 10
5.2348152965
 20
5.1101989136
 30
0.0
 10
5.2350554424
 20
5.1223902977
 30
0.0
 10
5.2352893273
 20
5.1386665071
 30
0.0
 10
5.2354595985
 20
5.159032899
 30
0.0
 10
5.2355383482
 20
5.17941104
 30
0.0
 10
5.2355766704
 20
5.1957252485
 30
0.0
 10
5.2356075004
 20
5.2120507638
 30
0.0
 10
5.2356446792
 20
5.2324651544
 30
0.0
 10
5.2357269243
 20
5.2569690325
 30
0.0
 10
5.2359273214
 20
5.2896504409
 30
0.0
 10
5.2364194781
 20
5.3305024962
 30
0.0
 10
5.2375858073
 20
5.3795070157
 30
0.0
 10
5.239498424
 20
5.428465881
 30
0.0
 10
5.2413836556
 20
5.4610675402
 30
0.0
 10
5.2425092584
 20
5.477349036
 30
0.0
  0
SPLINE
  5
38F
100
AcDbEntity
  8
0
100
AcDbSpline
 62
7
  6
CONTINUOUS
 70
0
 71
3
 72
46
 73
42
 74
0
 42
0.0000001
 43
0.0000001
 44
0.0000000001
 40
0.0
 40
0.0
 40
0.0
 40
0.0
 40
0.0322169874
 40
0.0483559366
 40
0.0645128926
 40
0.0968785063
 40
0.1293124142
 40
0.1455550641
 40
0.1618138573
 40
0.1943805467
 40
0.2597093188
 40
0.2760829878
 40
0.2924728493
 40
0.3252990366
 40
0.3581830772
 40
0.3911187168
 40
0.4240960575
 40
0.4571045175
 40
0.4901270665
 40
0.5231423504
 40
0.5890363345
 40
0.6218436838
 40
0.6545005445
 40
0.6869556797
 40
0.7191557894
 40
0.7510519994
 40
0.7825911073
 40
0.7982064695
 40
0.8137059126
 40
0.8442783277
 40
0.8741183076
 40
0.9029463522
 40
0.9168710806
 40
0.9304026303
 40
0.943486069
 40
0.9560635802
 40
0.9680716053
 40
0.9794436261
 40
0.9848692928
 40
0.9901096797
 40
1.0
 40
1.0
 40
1.0
 40
1.0
 10
5.1147336836
 20
5.1490337317
 30
0.0
 10
5.1147552461
 20
5.1525256482
 30
0.0
 10
5.1148760608
 20
5.1577668121
 30
0.0
 10
5.115210261
 20
5.1647515584
 30
0.0
 10
5.1156597204
 20
5.1717460477
 30
0.0
 10
5.1164313154
 20
5.1804884183
 30
0.0
 10
5.1174656297
 20
5.1892126476
 30
0.0
 10
5.1184312431
 20
5.1961845496
 30
0.0
 10
5.1194838941
 20
5.2031584128
 30
0.0
 10
5.1215323479
 20
5.2153616738
 30
0.0
 10
5.123894185
 20
5.2275215663
 30
0.0
 10
5.1260167545
 20
5.237939636
 30
0.0
 10
5.1274531207
 20
5.2449022782
 30
0.0
 10
5.12927312
 20
5.2536129614
 30
0.0
 10
5.1314648436
 20
5.2640780945
 30
0.0
 10
5.133635004
 20
5.2745644675
 30
0.0
 10
5.1357642492
 20
5.2850730158
 30
0.0
 10
5.1378312687
 20
5.2956036131
 30
0.0
 10
5.1398210715
 20
5.3061533053
 30
0.0
 10
5.1423511705
 20
5.3202278653
 30
0.0
 10
5.1446826683
 20
5.3343139097
 30
0.0
 10
5.1468093879
 20
5.3483921867
 30
0.0
 10
5.1482975195
 20
5.3589009265
 30
0.0
 10
5.1496842994
 20
5.369357104
 30
0.0
 10
5.1509739401
 20
5.3797426039
 30
0.0
 10
5.1521824756
 20
5.3900378451
 30
0.0
 10
5.1531372666
 20
5.3985527799
 30
0.0
 10
5.1538704735
 20
5.4053041137
 30
0.0
 10
5.1545782419
 20
5.4119527977
 30
0.0
 10
5.1554159752
 20
5.4201381486
 30
0.0
 10
5.1563231793
 20
5.4297683794
 30
0.0
 10
5.156965857
 20
5.4376106898
 30
0.0
 10
5.1573887678
 20
5.4436967162
 30
0.0
 10
5.1576528346
 20
5.4480829217
 30
0.0
 10
5.1578665464
 20
5.4523256707
 30
0.0
 10
5.1580294676
 20
5.4564054154
 30
0.0
 10
5.1581443603
 20
5.4603012126
 30
0.0
 10
5.1582053651
 20
5.4634228976
 30
0.0
 10
5.1582378489
 20
5.4658113763
 30
0.0
 10
5.158261272
 20
5.4680393483
 30
0.0
 10
5.1582763829
 20
5.4696792954
 30
0.0
 10
5.1582910253
 20
5.4707512022
 30
0.0
  0
SPLINE
  5
390
100
AcDbEntity
  8
0
100
AcDbSpline
 62
7
  6
CONTINUOUS
 70
0
 71
3
 72
11
 73
7
 74
0
 42
0.0000001
 43
0.0000001
 44
0.0000000001
 40
0.0
 40
0.0
 40
0.0
 40
0.0
 40
0.2500994967
 40
0.5001494482
 40
0.7501248298
 40
1.0
 40
1.0
 40
1.0
 40
1.0
 10
5.1582910253
 20
5.4707512022
 30
0.0
 10
5.1618813418
 20
5.4781020225
 30
0.0
 10
5.1690712733
 20
5.492797346
 30
0.0
 10
5.1799904716
 20
5.5147707707
 30
0.0
 10
5.19114122
 20
5.5366196915
 30
0.0
 10
5.1987946972
 20
5.551069078
 30
0.0
 10
5.2026920246
 20
5.5582534895
 30
0.0
  0
SPLINE
  5
391
100
AcDbEntity
  8
0
100
AcDbSpline
 62
7
  6
CONTINUOUS
 70
0
 71
3
 72
41
 73
37
 74
0
 42
0.0000001
 43
0.0000001
 44
0.0000000001
 40
0.0
 40
0.0
 40
0.0
 40
0.0
 40
0.0655379897
 40
0.0984036591
 40
0.1313263481
 40
0.1642994409
 40
0.197317239
 40
0.2303737875
 40
0.2634629421
 40
0.2965772647
 40
0.3297074135
 40
0.3628441406
 40
0.3959774856
 40
0.4290915081
 40
0.4621682884
 40
0.5281298882
 40
0.560963653
 40
0.5936611885
 40
0.6261878586
 40
0.658507971
 40
0.6905852148
 40
0.7223826358
 40
0.7538655242
 40
0.7694790183
 40
0.7850002114
 40
0.8157134937
 40
0.8458851687
 40
0.8753383752
 40
0.9038242103
 40
0.9309982959
 40
0.9564461034
 40
0.9683668644
 40
0.9796548736
 40
0.9850362686
 40
0.9902284884
 40
1.0
 40
1.0
 40
1.0
 40
1.0
 10
5.101325873
 20
5.2007376439
 30
0.0
 10
5.1020579337
 20
5.2063586686
 30
0.0
 10
5.1032810699
 20
5.2147825211
 30
0.0
 10
5.1050715589
 20
5.2259991464
 30
0.0
 10
5.106475121
 20
5.234425165
 30
0.0
 10
5.1079176643
 20
5.242857887
 30
0.0
 10
5.1093849718
 20
5.2512980841
 30
0.0
 10
5.1108621402
 20
5.259746744
 30
0.0
 10
5.1123338175
 20
5.2682048413
 30
0.0
 10
5.1137873241
 20
5.2766725459
 30
0.0
 10
5.1152155662
 20
5.2851487281
 30
0.0
 10
5.1166104614
 20
5.2936321405
 30
0.0
 10
5.1179639601
 20
5.3021208532
 30
0.0
 10
5.1192693977
 20
5.3106118604
 30
0.0
 10
5.120935787
 20
5.3219198891
 30
0.0
 10
5.122479828
 20
5.3332212145
 30
0.0
 10
5.1238978111
 20
5.3445055971
 30
0.0
 10
5.1248945347
 20
5.3529281064
 30
0.0
 10
5.1258271333
 20
5.36131325
 30
0.0
 10
5.1266955797
 20
5.3696513374
 30
0.0
 10
5.1275049198
 20
5.3779319817
 30
0.0
 10
5.1282620525
 20
5.386144831
 30
0.0
 10
5.1288581139
 20
5.3929424266
 30
0.0
 10
5.1293187729
 20
5.3983387037
 30
0.0
 10
5.1297674623
 20
5.4036691926
 30
0.0
 10
5.1303071959
 20
5.4102556277
 30
0.0
 10
5.1309139508
 20
5.4180455729
 30
0.0
 10
5.1314557824
 20
5.4256472108
 30
0.0
 10
5.1319033921
 20
5.4329953944
 30
0.0
 10
5.1322147259
 20
5.4400040235
 30
0.0
 10
5.1323444677
 20
5.4455855048
 30
0.0
 10
5.1323603709
 20
5.449793972
 30
0.0
 10
5.1323385546
 20
5.4522667549
 30
0.0
 10
5.1323056245
 20
5.4541573247
 30
0.0
 10
5.1322667992
 20
5.4559165852
 30
0.0
 10
5.1322341154
 20
5.4572104147
 30
0.0
 10
5.1322158479
 20
5.4580553723
 30
0.0
  0
SPLINE
  5
392
100
AcDbEntity
  8
0
100
AcDbSpline
 62
7
  6
CONTINUOUS
 70
0
 71
3
 72
41
 73
37
 74
0
 42
0.0000001
 43
0.0000001
 44
0.0000000001
 40
0.0
 40
0.0
 40
0.0
 40
0.0
 40
0.0097715083
 40
0.0149637189
 40
0.0203450998
 40
0.0316330722
 40
0.0435537785
 40
0.0690014793
 40
0.096175562
 40
0.124661415
 40
0.1541144884
 40
0.1842860442
 40
0.2149991253
 40
0.2305203229
 40
0.2461338858
 40
0.2776169053
 40
0.3094144448
 40
0.3414918259
 40
0.3738120096
 40
0.4063386319
 40
0.4390360891
 40
0.471869794
 40
0.5378313038
 40
0.5709080722
 40
0.6040220878
 40
0.6371554759
 40
0.6702922517
 40
0.7034224304
 40
0.7365367902
 40
0.7696259977
 40
0.8026825759
 40
0.835700384
 40
0.8686734757
 40
0.9015961791
 40
0.9344619063
 40
1.0
 40
1.0
 40
1.0
 40
1.0
 10
4.714833697
 20
5.4580553821
 30
0.0
 10
4.7148155141
 20
5.4572104344
 30
0.0
 10
4.7147828843
 20
5.4559166221
 30
0.0
 10
4.7147440782
 20
5.4541573875
 30
0.0
 10
4.7147111559
 20
5.4522668483
 30
0.0
 10
4.7146893025
 20
5.4497941086
 30
0.0
 10
4.7147051122
 20
5.4455857156
 30
0.0
 10
4.7148347903
 20
5.4400043196
 30
0.0
 10
4.715146543
 20
5.4329958137
 30
0.0
 10
4.7155937098
 20
5.4256477158
 30
0.0
 10
4.7161354851
 20
5.4180461958
 30
0.0
 10
4.7167423163
 20
5.410256403
 30
0.0
 10
4.7172817891
 20
5.4036700639
 30
0.0
 10
4.7177303736
 20
5.39833965
 30
0.0
 10
4.7181910241
 20
5.3929434281
 30
0.0
 10
4.7187871879
 20
5.3861459067
 30
0.0
 10
4.7195445886
 20
5.3779331605
 30
0.0
 10
4.7203542684
 20
5.3696526346
 30
0.0
 10
4.7212227567
 20
5.3613146526
 30
0.0
 10
4.7221551612
 20
5.3529296077
 30
0.0
 10
4.7231516572
 20
5.3445072033
 30
0.0
 10
4.7245695379
 20
5.3332229826
 30
0.0
 10
4.7261136135
 20
5.3219218328
 30
0.0
 10
4.7277797682
 20
5.3106139362
 30
0.0
 10
4.7290850307
 20
5.3021230177
 30
0.0
 10
4.730438391
 20
5.2936343934
 30
0.0
 10
4.7318332607
 20
5.2851510842
 30
0.0
 10
4.733261543
 20
5.2766750168
 30
0.0
 10
4.7347151051
 20
5.2682074294
 30
0.0
 10
4.7361868098
 20
5.2597494445
 30
0.0
 10
4.7376640839
 20
5.2513009131
 30
0.0
 10
4.7391314941
 20
5.2428608484
 30
0.0
 10
4.7405740866
 20
5.2344282504
 30
0.0
 10
4.741977609
 20
5.2260023364
 30
0.0
 10
4.7437681258
 20
5.2147858563
 30
0.0
 10
4.744991316
 20
5.2063621143
 30
0.0
 10
4.7457234081
 20
5.2007411621
 30
0.0
  0
SPLINE
  5
393
100
AcDbEntity
  8
0
100
AcDbSpline
 62
7
  6
CONTINUOUS
 70
0
 71
3
 72
13
 73
9
 74
0
 42
0.0000001
 43
0.0000001
 44
0.0000000001
 40
0.0
 40
0.0
 40
0.0
 40
0.0
 40
0.2619926303
 40
0.5183000626
 40
0.6431202026
 40
0.7650795714
 40
0.8840209478
 40
1.0
 40
1.0
 40
1.0
 40
1.0
 10
5.1322158531
 20
5.4580554523
 30
0.0
 10
5.1348448272
 20
5.4580633161
 30
0.0
 10
5.140061
 20
5.4586440262
 30
0.0
 10
5.1462167106
 20
5.4607727376
 30
0.0
 10
5.1506273845
 20
5.4632510414
 30
0.0
 10
5.1535879387
 20
5.4654370803
 30
0.0
 10
5.1561751303
 20
5.4679276358
 30
0.0
 10
5.1576394247
 20
5.4697868603
 30
0.0
 10
5.1582909171
 20
5.4707512205
 30
0.0
  0
SPLINE
  5
394
100
AcDbEntity
  8
0
100
AcDbSpline
 62
7
  6
CONTINUOUS
 70
0
 71
3
 72
11
 73
7
 74
0
 42
0.0000001
 43
0.0000001
 44
0.0000000001
 40
0.0
 40
0.0
 40
0.0
 40
0.0
 40
0.2735134823
 40
0.532671339
 40
0.7754574515
 40
1.0
 40
1.0
 40
1.0
 40
1.0
 10
5.1058031096
 20
5.1507597155
 30
0.0
 10
5.1066257819
 20
5.1506507164
 30
0.0
 10
5.1082252934
 20
5.1504176085
 30
0.0
 10
5.1105429498
 20
5.1500103119
 30
0.0
 10
5.1127005855
 20
5.149557536
 30
0.0
 10
5.1140767517
 20
5.1492139771
 30
0.0
 10
5.1147336787
 20
5.1490334522
 30
0.0
  0
SPLINE
  5
395
100
AcDbEntity
  8
0
100
AcDbSpline
 62
7
  6
CONTINUOUS
 70
0
 71
3
 72
14
 73
10
 74
0
 42
0.0000001
 43
0.0000001
 44
0.0000000001
 40
0.0
 40
0.0
 40
0.0
 40
0.0
 40
0.283406966
 40
0.4192477385
 40
0.5497765212
 40
0.6739933087
 40
0.7909720726
 40
0.8998964405
 40
1.0
 40
1.0
 40
1.0
 40
1.0
 10
5.0898396431
 20
3.6966521279
 30
0.0
 10
5.0916066431
 20
3.6965571133
 30
0.0
 10
5.0942182575
 20
3.6963615742
 30
0.0
 10
5.097630179
 20
3.695981825
 30
0.0
 10
5.1000465344
 20
3.6956496767
 30
0.0
 10
5.10233639
 20
3.6952687254
 30
0.0
 10
5.1044808589
 20
3.6948419304
 30
0.0
 10
5.1064620283
 20
3.6943726016
 30
0.0
 10
5.1077187366
 20
3.6940182411
 30
0.0
 10
5.1083155703
 20
3.6938326209
 30
0.0
  0
SPLINE
  5
396
100
AcDbEntity
  8
0
100
AcDbSpline
 62
7
  6
CONTINUOUS
 70
0
 71
3
 72
11
 73
7
 74
0
 42
0.0000001
 43
0.0000001
 44
0.0000000001
 40
0.0
 40
0.0
 40
0.0
 40
0.0
 40
0.2852481168
 40
0.5417433584
 40
0.7766913145
 40
1.0
 40
1.0
 40
1.0
 40
1.0
 10
5.2017878037
 20
3.645082253
 30
0.0
 10
5.2019329257
 20
3.6449340289
 30
0.0
 10
5.2021919494
 20
3.6446351171
 30
0.0
 10
5.2024899877
 20
3.6441517894
 30
0.0
 10
5.2026712811
 20
3.6436605061
 30
0.0
 10
5.202711881
 20
3.6433259257
 30
0.0
 10
5.2027114855
 20
3.6431635313
 30
0.0
  0
LINE
  5
397
100
AcDbEntity
  8
0
100
AcDbLine
 62
7
  6
CONTINUOUS
 10
5.2340460766
 20
5.0858567346
 11
5.2344002627
 21
5.0852118689
  0
SPLINE
  5
398
100
AcDbEntity
  8
0
100
AcDbSpline
 62
7
  6
CONTINUOUS
 70
0
 71
3
 72
11
 73
7
 74
0
 42
0.0000001
 43
0.0000001
 44
0.0000000001
 40
0.0
 40
0.0
 40
0.0
 40
0.0
 40
0.2573771054
 40
0.5080285232
 40
0.7546397481
 40
1.0
 40
1.0
 40
1.0
 40
1.0
 10
5.2344002343
 20
5.0852119704
 30
0.0
 10
5.2348621942
 20
5.0840185787
 30
0.0
 10
5.2356597641
 20
5.0816164512
 30
0.0
 10
5.2364630819
 20
5.0779441735
 30
0.0
 10
5.2368545306
 20
5.0742653476
 30
0.0
 10
5.236841255
 20
5.0718133542
 30
0.0
 10
5.2367672917
 20
5.0705956626
 30
0.0
  0
LINE
  5
399
100
AcDbEntity
  8
0
100
AcDbLine
 62
7
  6
CONTINUOUS
 10
4.8829303478
 20
5.6608497982
 11
4.8853697501
 21
5.6595371959
  0
SPLINE
  5
39A
100
AcDbEntity
  8
0
100
AcDbSpline
 62
7
  6
CONTINUOUS
 70
0
 71
3
 72
23
 73
19
 74
0
 42
0.0000001
 43
0.0000001
 44
0.0000000001
 40
0.0
 40
0.0
 40
0.0
 40
0.0
 40
0.042792036
 40
0.0884201547
 40
0.1373430597
 40
0.189794999
 40
0.2458179448
 40
0.305295307
 40
0.367982104
 40
0.4335305335
 40
0.5015113849
 40
0.5714323371
 40
0.6427541147
 40
0.7149048382
 40
0.7872956473
 40
0.8593276676
 40
0.9304219716
 40
1.0
 40
1.0
 40
1.0
 40
1.0
 10
4.8853697501
 20
5.6595371959
 30
0.0
 10
4.8858935643
 20
5.659153395
 30
0.0
 10
4.8869050635
 20
5.6582603759
 30
0.0
 10
4.8882360832
 20
5.6566475183
 30
0.0
 10
4.8894113252
 20
5.6547441751
 30
0.0
 10
4.8904185454
 20
5.6525730851
 30
0.0
 10
4.8912477656
 20
5.6501588332
 30
0.0
 10
4.8918901734
 20
5.6475288182
 30
0.0
 10
4.8923388031
 20
5.6447129261
 30
0.0
 10
4.8925886651
 20
5.641743327
 30
0.0
 10
4.8926369447
 20
5.6386540887
 30
0.0
 10
4.8924830931
 20
5.6354807685
 30
0.0
 10
4.8921288798
 20
5.6322599808
 30
0.0
 10
4.8915784077
 20
5.6290289118
 30
0.0
 10
4.890838007
 20
5.6258249758
 30
0.0
 10
4.8899162792
 20
5.6226850584
 30
0.0
 10
4.8888238657
 20
5.6196457644
 30
0.0
 10
4.887978897
 20
5.6176835562
 30
0.0
 10
4.8875296323
 20
5.616728054
 30
0.0
  0
SPLINE
  5
39B
100
AcDbEntity
  8
0
100
AcDbSpline
 62
7
  6
CONTINUOUS
 70
0
 71
3
 72
11
 73
7
 74
0
 42
0.0000001
 43
0.0000001
 44
0.0000000001
 40
0.0
 40
0.0
 40
0.0
 40
0.0
 40
0.2734969383
 40
0.532643602
 40
0.7754318468
 40
1.0
 40
1.0
 40
1.0
 40
1.0
 10
4.7412467254
 20
5.1507613551
 30
0.0
 10
4.7404240388
 20
5.1506525659
 30
0.0
 10
4.7388244856
 20
5.1504198185
 30
0.0
 10
4.7365067641
 20
5.1500127103
 30
0.0
 10
4.7343490588
 20
5.1495594999
 30
0.0
 10
4.7329729562
 20
5.1492150365
 30
0.0
 10
4.7323160772
 20
5.1490339301
 30
0.0
  0
SPLINE
  5
39C
100
AcDbEntity
  8
0
100
AcDbSpline
 62
7
  6
CONTINUOUS
 70
0
 71
3
 72
14
 73
10
 74
0
 42
0.0000001
 43
0.0000001
 44
0.0000000001
 40
0.0
 40
0.0
 40
0.0
 40
0.0
 40
0.2834121809
 40
0.4192547861
 40
0.5497845996
 40
0.6740013732
 40
0.7909788671
 40
0.8999005972
 40
1.0
 40
1.0
 40
1.0
 40
1.0
 10
4.7572112977
 20
3.6966520482
 30
0.0
 10
4.755444091
 20
3.6965570408
 30
0.0
 10
4.7528321748
 20
3.6963614999
 30
0.0
 10
4.7494198673
 20
3.6959817193
 30
0.0
 10
4.7470032574
 20
3.6956495355
 30
0.0
 10
4.7447131804
 20
3.6952685371
 30
0.0
 10
4.7425685292
 20
3.6948416846
 30
0.0
 10
4.7405872221
 20
3.6943722891
 30
0.0
 10
4.7393304401
 20
3.6940178738
 30
0.0
 10
4.7387335785
 20
3.693832224
 30
0.0
  0
SPLINE
  5
39D
100
AcDbEntity
  8
0
100
AcDbSpline
 62
7
  6
CONTINUOUS
 70
0
 71
3
 72
16
 73
12
 74
0
 42
0.0000001
 43
0.0000001
 44
0.0000000001
 40
0.0
 40
0.0
 40
0.0
 40
0.0
 40
0.1243768648
 40
0.1866681447
 40
0.249011906
 40
0.3738389116
 40
0.4988467951
 40
0.6240012907
 40
0.749267934
 40
0.8746154417
 40
1.0
 40
1.0
 40
1.0
 40
1.0
 10
4.778841534
 20
2.8534157199
 30
0.0
 10
4.7843253921
 20
2.8504125163
 30
0.0
 10
4.7927095402
 20
2.8461789108
 30
0.0
 10
4.8041402938
 20
2.8410735199
 30
0.0
 10
4.8157474359
 20
2.8363215346
 30
0.0
 10
4.8305450629
 20
2.8310632752
 30
0.0
 10
4.8486762768
 20
2.8258629115
 30
0.0
 10
4.8671155151
 20
2.8217858569
 30
0.0
 10
4.8857880758
 20
2.8188507345
 30
0.0
 10
4.9046175048
 20
2.8170764903
 30
0.0
 10
4.9172253358
 20
2.8166810748
 30
0.0
 10
4.9235283457
 20
2.8166830966
 30
0.0
  0
SPLINE
  5
39E
100
AcDbEntity
  8
0
100
AcDbSpline
 62
7
  6
CONTINUOUS
 70
0
 71
3
 72
29
 73
25
 74
0
 42
0.0000001
 43
0.0000001
 44
0.0000000001
 40
0.0
 40
0.0
 40
0.0
 40
0.0
 40
0.0156229124
 40
0.0323698376
 40
0.0502830216
 40
0.0693892331
 40
0.0897040992
 40
0.1112325694
 40
0.1339720696
 40
0.1579124672
 40
0.1830381132
 40
0.2093279028
 40
0.2367562986
 40
0.2652937935
 40
0.3255568706
 40
0.389817822
 40
0.4577303403
 40
0.5289118592
 40
0.6029494279
 40
0.679404584
 40
0.7578185779
 40
0.8377150656
 40
0.9186083633
 40
1.0
 40
1.0
 40
1.0
 40
1.0
 10
5.0538490969
 20
5.5142658052
 30
0.0
 10
5.0533442186
 20
5.5147549301
 30
0.0
 10
5.0522564114
 20
5.5157258377
 30
0.0
 10
5.0504680875
 20
5.5171140626
 30
0.0
 10
5.0484707379
 20
5.5184813538
 30
0.0
 10
5.0462677152
 20
5.5198256573
 30
0.0
 10
5.0438624074
 20
5.5211448156
 30
0.0
 10
5.0412587124
 20
5.5224368324
 30
0.0
 10
5.0384607847
 20
5.5236995336
 30
0.0
 10
5.0354731804
 20
5.5249309308
 30
0.0
 10
5.032300748
 20
5.5261289502
 30
0.0
 10
5.0289486813
 20
5.5272916385
 30
0.0
 10
5.0254224644
 20
5.528417086
 30
0.0
 10
5.0204047211
 20
5.5298923472
 30
0.0
 10
5.0137359607
 20
5.5316205226
 30
0.0
 10
5.0052781602
 20
5.5334825737
 30
0.0
 10
4.9962810146
 20
5.5351561762
 30
0.0
 10
4.9868037895
 20
5.536630102
 30
0.0
 10
4.9769088348
 20
5.5378944191
 30
0.0
 10
4.9666613822
 20
5.538940644
 30
0.0
 10
4.9561290721
 20
5.5397617297
 30
0.0
 10
4.9453813567
 20
5.5403522007
 30
0.0
 10
4.9344893511
 20
5.5407080771
 30
0.0
 10
4.9271870707
 20
5.5407871849
 30
0.0
 10
4.9235248447
 20
5.5407872405
 30
0.0
  0
SPLINE
  5
39F
100
AcDbEntity
  8
0
100
AcDbSpline
 62
7
  6
CONTINUOUS
 70
0
 71
3
 72
11
 73
7
 74
0
 42
0.0000001
 43
0.0000001
 44
0.0000000001
 40
0.0
 40
0.0
 40
0.0
 40
0.0
 40
0.257745156
 40
0.5084445368
 40
0.7548930226
 40
1.0
 40
1.0
 40
1.0
 40
1.0
 10
4.6127766778
 20
5.0855363683
 30
0.0
 10
4.6122925173
 20
5.0843176035
 30
0.0
 10
4.6114558487
 20
5.081863896
 30
0.0
 10
4.6106107627
 20
5.0781094298
 30
0.0
 10
4.6101963168
 20
5.0743478379
 30
0.0
 10
4.6102067873
 20
5.0718404716
 30
0.0
 10
4.6102823981
 20
5.070595658
 30
0.0
  0
LINE
  5
3A0
100
AcDbEntity
  8
0
100
AcDbLine
 62
7
  6
CONTINUOUS
 10
5.1928040951
 20
6.3395633004
 11
5.137713378
 21
6.2500445319
  0
SPLINE
  5
3A1
100
AcDbEntity
  8
0
100
AcDbSpline
 62
7
  6
CONTINUOUS
 70
0
 71
3
 72
52
 73
48
 74
0
 42
0.0000001
 43
0.0000001
 44
0.0000000001
 40
0.0
 40
0.0
 40
0.0
 40
0.0
 40
0.0369997104
 40
0.0740688203
 40
0.11126329
 40
0.1299176014
 40
0.1486145791
 40
0.1861379561
 40
0.2049616628
 40
0.2238245655
 40
0.2427233854
 40
0.2616543542
 40
0.2995939575
 40
0.3375896727
 40
0.3755823666
 40
0.413513921
 40
0.4513241994
 40
0.4889468162
 40
0.5263046569
 40
0.5633022191
 40
0.5998150458
 40
0.6356778002
 40
0.6533017772
 40
0.6706821313
 40
0.7045773905
 40
0.7371261532
 40
0.7528403027
 40
0.7681579085
 40
0.7830651158
 40
0.7975511267
 40
0.8252345928
 40
0.8384316151
 40
0.8512074089
 40
0.8635746857
 40
0.8755446584
 40
0.898327558
 40
0.909150259
 40
0.9195955087
 40
0.9296585682
 40
0.9393303765
 40
0.9485992304
 40
0.9574462939
 40
0.9737842356
 40
0.9812142791
 40
0.9880983337
 40
0.9943842053
 40
1.0
 40
1.0
 40
1.0
 40
1.0
 10
4.7572112902
 20
3.6966521015
 30
0.0
 10
4.7572233362
 20
3.6862496181
 30
0.0
 10
4.7572529394
 20
3.6654251452
 30
0.0
 10
4.7573165544
 20
3.6341434684
 30
0.0
 10
4.7573895787
 20
3.6080196461
 30
0.0
 10
4.7574668194
 20
3.5870612026
 30
0.0
 10
4.7575583587
 20
3.5660103452
 30
0.0
 10
4.7576780132
 20
3.5449119785
 30
0.0
 10
4.7578451714
 20
3.5237672975
 30
0.0
 10
4.7579994962
 20
3.5078590107
 30
0.0
 10
4.7581813001
 20
3.4919208565
 30
0.0
 10
4.7584583679
 20
3.4706200423
 30
0.0
 10
4.758864478
 20
3.443951379
 30
0.0
 10
4.7594478118
 20
3.4119257162
 30
0.0
 10
4.7601270937
 20
3.3799042079
 30
0.0
 10
4.7608990804
 20
3.347936954
 30
0.0
 10
4.7617597315
 20
3.316076052
 30
0.0
 10
4.7627037645
 20
3.2843788859
 30
0.0
 10
4.7637239341
 20
3.2529126997
 30
0.0
 10
4.7648075218
 20
3.2217608461
 30
0.0
 10
4.7659408791
 20
3.1910313956
 30
0.0
 10
4.7669222152
 20
3.1657469866
 30
0.0
 10
4.767723803
 20
3.145838792
 30
0.0
 10
4.768522004
 20
3.1264840813
 30
0.0
 10
4.7695323884
 20
3.1029384515
 30
0.0
 10
4.770585154
 20
3.0798636048
 30
0.0
 10
4.7714362322
 20
3.0620081724
 30
0.0
 10
4.7720671437
 20
3.0491078214
 30
0.0
 10
4.7726952144
 20
3.036553045
 30
0.0
 10
4.7735099052
 20
3.0205265949
 30
0.0
 10
4.7743062403
 20
3.0049806517
 30
0.0
 10
4.7750599357
 20
2.989913993
 30
0.0
 10
4.7755859039
 20
2.9791474907
 30
0.0
 10
4.7760814526
 20
2.9687249056
 30
0.0
 10
4.7766891417
 20
2.9554909922
 30
0.0
 10
4.7772374961
 20
2.9426890594
 30
0.0
 10
4.7777077034
 20
2.9303130413
 30
0.0
 10
4.7780077918
 20
2.9215093971
 30
0.0
 10
4.7782609356
 20
2.9130279898
 30
0.0
 10
4.7784689615
 20
2.9048762057
 30
0.0
 10
4.7786329347
 20
2.8970653565
 30
0.0
 10
4.7787874425
 20
2.8873798445
 30
0.0
 10
4.7788585832
 20
2.8782100934
 30
0.0
 10
4.7788355084
 20
2.8695922208
 30
0.0
 10
4.7787753657
 20
2.8638007686
 30
0.0
 10
4.7786733069
 20
2.8585200675
 30
0.0
 10
4.7785711025
 20
2.8551753456
 30
0.0
 10
4.7785098608
 20
2.8535976498
 30
0.0
  0
LINE
  5
3A2
100
AcDbEntity
  8
0
100
AcDbLine
 62
7
  6
CONTINUOUS
 10
4.6542455713
 20
6.3395632851
 11
4.7093359573
 21
6.2500450936
  0
SPLINE
  5
3A3
100
AcDbEntity
  8
0
100
AcDbSpline
 62
7
  6
CONTINUOUS
 70
0
 71
3
 72
62
 73
58
 74
0
 42
0.0000001
 43
0.0000001
 44
0.0000000001
 40
0.0
 40
0.0
 40
0.0
 40
0.0
 40
0.0028436156
 40
0.0059254186
 40
0.0092206291
 40
0.012708092
 40
0.0201961598
 40
0.0282739789
 40
0.0368526119
 40
0.0458595731
 40
0.0552393011
 40
0.0649434711
 40
0.0749308546
 40
0.085162856
 40
0.0956043863
 40
0.1062357841
 40
0.1170779412
 40
0.1281631532
 40
0.1395465836
 40
0.1512897907
 40
0.1634500892
 40
0.1760814649
 40
0.1892274295
 40
0.2029213625
 40
0.2171720621
 40
0.2319708086
 40
0.2395665844
 40
0.2472875087
 40
0.2630830504
 40
0.2793118373
 40
0.2959216015
 40
0.3300802005
 40
0.347540823
 40
0.3652114056
 40
0.3830655583
 40
0.4010828873
 40
0.437534619
 40
0.4744434403
 40
0.511710588
 40
0.54925125
 40
0.5869890998
 40
0.6059103708
 40
0.6248553926
 40
0.6438159799
 40
0.6627839778
 40
0.6817514282
 40
0.7007105339
 40
0.7196535836
 40
0.7385750633
 40
0.7574717658
 40
0.7763405943
 40
0.8514877295
 40
0.8701823077
 40
0.888836658
 40
0.9260234755
 40
0.963060141
 40
1.0
 40
1.0
 40
1.0
 40
1.0
 10
5.0685326162
 20
2.8536791933
 30
0.0
 10
5.0685046568
 20
2.8544780748
 30
0.0
 10
5.0684597496
 20
2.8561432295
 30
0.0
 10
5.0684199191
 20
2.8587349782
 30
0.0
 10
5.0684020454
 20
2.8615079604
 30
0.0
 10
5.0684047856
 20
2.8655196429
 30
0.0
 10
5.0684570383
 20
2.8708755931
 30
0.0
 10
5.0685797934
 20
2.8776618115
 30
0.0
 10
5.0687529792
 20
2.8848740226
 30
0.0
 10
5.0689678203
 20
2.8924512354
 30
0.0
 10
5.0692205279
 20
2.9003438446
 30
0.0
 10
5.0695039582
 20
2.9085111798
 30
0.0
 10
5.0698067258
 20
2.9169175598
 30
0.0
 10
5.0701223199
 20
2.9255308905
 30
0.0
 10
5.070453177
 20
2.9343248196
 30
0.0
 10
5.0707989883
 20
2.9432898225
 30
0.0
 10
5.0711474966
 20
2.9524358036
 30
0.0
 10
5.0714875697
 20
2.9617936505
 30
0.0
 10
5.0718282965
 20
2.9714049278
 30
0.0
 10
5.0721810258
 20
2.981318188
 30
0.0
 10
5.0725485872
 20
2.9915819527
 30
0.0
 10
5.0729307847
 20
3.0022397762
 30
0.0
 10
5.0733393457
 20
3.0133280514
 30
0.0
 10
5.0737874271
 20
3.0248703701
 30
0.0
 10
5.0742778467
 20
3.0368759842
 30
0.0
 10
5.0747154981
 20
3.0471680469
 30
0.0
 10
5.0750756734
 20
3.0556261541
 30
0.0
 10
5.0754462132
 20
3.0643642838
 30
0.0
 10
5.0759185866
 20
3.0755271073
 30
0.0
 10
5.0764993597
 20
3.0891863275
 30
0.0
 10
5.0773065714
 20
3.1080026336
 30
0.0
 10
5.0781391885
 20
3.1271644482
 30
0.0
 10
5.0789679739
 20
3.146624912
 30
0.0
 10
5.0795838577
 20
3.1615069269
 30
0.0
 10
5.0801832646
 20
3.1765462362
 30
0.0
 10
5.0809684268
 20
3.1968618973
 30
0.0
 10
5.0819216795
 20
3.2225315213
 30
0.0
 10
5.0830028367
 20
3.2536113753
 30
0.0
 10
5.0840228285
 20
3.2849995672
 30
0.0
 10
5.0849826085
 20
3.3166228103
 30
0.0
 10
5.0857295626
 20
3.3430928619
 30
0.0
 10
5.0862878703
 20
3.3643386628
 30
0.0
 10
5.0866847666
 20
3.3803083786
 30
0.0
 10
5.0870565655
 20
3.3962918389
 30
0.0
 10
5.0874000374
 20
3.4122822408
 30
0.0
 10
5.0877144409
 20
3.4282728234
 30
0.0
 10
5.0880011764
 20
3.4442569111
 30
0.0
 10
5.088261016
 20
3.4602285335
 30
0.0
 10
5.088495676
 20
3.4761830001
 30
0.0
 10
5.0887076124
 20
3.4921169184
 30
0.0
 10
5.0890903818
 20
3.5238555638
 30
0.0
 10
5.0893798968
 20
3.5555385339
 30
0.0
 10
5.0895724925
 20
3.5871617909
 30
0.0
 10
5.0896745324
 20
3.6081143396
 30
0.0
 10
5.0897574695
 20
3.6342231754
 30
0.0
 10
5.0898042931
 20
3.6654723445
 30
0.0
 10
5.0898254813
 20
3.6862679218
 30
0.0
 10
5.089838401
 20
3.6966521014
 30
0.0
  0
SPLINE
  5
3A4
100
AcDbEntity
  8
0
100
AcDbSpline
 62
7
  6
CONTINUOUS
 70
0
 71
3
 72
15
 73
11
 74
0
 42
0.0000001
 43
0.0000001
 44
0.0000000001
 40
0.0
 40
0.0
 40
0.0
 40
0.0
 40
0.1253795578
 40
0.2507241316
 40
0.3759899231
 40
0.5011456233
 40
0.6261564979
 40
0.7509890082
 40
0.8756149646
 40
1.0
 40
1.0
 40
1.0
 40
1.0
 10
4.9235283457
 20
2.8166830966
 30
0.0
 10
4.9298203509
 20
2.8166853583
 30
0.0
 10
4.9424059992
 20
2.8170875971
 30
0.0
 10
4.9612019188
 20
2.8188683298
 30
0.0
 10
4.9798413645
 20
2.8218052924
 30
0.0
 10
4.9982483337
 20
2.825879302
 30
0.0
 10
5.0163487881
 20
2.8310725925
 30
0.0
 10
5.0340685102
 20
2.8373671994
 30
0.0
 10
5.0513304695
 20
2.8447452359
 30
0.0
 10
5.0624952984
 20
2.8503806871
 30
0.0
 10
5.0679734445
 20
2.8533729583
 30
0.0
  0
SPLINE
  5
3A5
100
AcDbEntity
  8
0
100
AcDbSpline
 62
7
  6
CONTINUOUS
 70
0
 71
3
 72
9
 73
5
 74
0
 42
0.0000001
 43
0.0000001
 44
0.0000000001
 40
0.0
 40
0.0
 40
0.0
 40
0.0
 40
0.249964009
 40
1.0
 40
1.0
 40
1.0
 40
1.0
 10
5.1083155703
 20
3.6938326208
 30
0.0
 10
5.1083802435
 20
3.7333709346
 30
0.0
 10
5.1086747954
 20
3.891546901
 30
0.0
 10
5.1091131315
 20
4.0497226004
 30
0.0
 10
5.1095235883
 20
4.1683597623
 30
0.0
  0
LINE
  5
3A6
100
AcDbEntity
  8
0
100
AcDbLine
 62
7
  6
CONTINUOUS
 10
4.3725302037
 20
5.8516180726
 11
4.4776106479
 21
5.8486672387
  0
SPLINE
  5
3A7
100
AcDbEntity
  8
0
100
AcDbSpline
 62
7
  6
CONTINUOUS
 70
0
 71
3
 72
21
 73
17
 74
0
 42
0.0000001
 43
0.0000001
 44
0.0000000001
 40
0.0
 40
0.0
 40
0.0
 40
0.0
 40
0.0618447659
 40
0.1240203357
 40
0.1864300577
 40
0.2490019626
 40
0.311683142
 40
0.3744350212
 40
0.5000000001
 40
0.6255649791
 40
0.6883168583
 40
0.7509980378
 40
0.8135699425
 40
0.8759796649
 40
0.9381552354
 40
1.0
 40
1.0
 40
1.0
 40
1.0
 10
4.6034671466
 20
5.4104006782
 30
0.0
 10
4.5956068136
 20
5.4160688345
 30
0.0
 10
4.5801521877
 20
5.4278695779
 30
0.0
 10
4.5579143645
 20
5.4468341907
 30
0.0
 10
4.5366401709
 20
5.4670407125
 30
0.0
 10
4.5164129167
 20
5.4884035451
 30
0.0
 10
4.4973022766
 20
5.5108421206
 30
0.0
 10
4.4733896801
 20
5.5420871413
 30
0.0
 10
4.4465774395
 20
5.5834323227
 30
0.0
 10
4.4241775823
 20
5.6273249947
 30
0.0
 10
4.4090748986
 20
5.663656421
 30
0.0
 10
4.3991978428
 20
5.6914260087
 30
0.0
 10
4.3908107156
 20
5.7196247415
 30
0.0
 10
4.3839484512
 20
5.7481519944
 30
0.0
 10
4.3786435121
 20
5.7768928182
 30
0.0
 10
4.3761510921
 20
5.79617729
 30
0.0
 10
4.3751724936
 20
5.8058186162
 30
0.0
  0
SPLINE
  5
3A8
100
AcDbEntity
  8
0
100
AcDbSpline
 62
7
  6
CONTINUOUS
 70
0
 71
3
 72
46
 73
42
 74
0
 42
0.0000001
 43
0.0000001
 44
0.0000000001
 40
0.0
 40
0.0
 40
0.0
 40
0.0
 40
0.0098901563
 40
0.0151305314
 40
0.0205561671
 40
0.0319280967
 40
0.043936223
 40
0.0565137731
 40
0.0695968719
 40
0.0831282776
 40
0.0970534329
 40
0.1258808609
 40
0.1557199018
 40
0.1862959358
 40
0.2017949993
 40
0.2174097813
 40
0.2489484547
 40
0.2808437419
 40
0.2969088889
 40
0.3130442342
 40
0.345499033
 40
0.3781549976
 40
0.4109624231
 40
0.4768559386
 40
0.5098712477
 40
0.5263831612
 40
0.5428935245
 40
0.5759013296
 40
0.6088794391
 40
0.6746997337
 40
0.707525765
 40
0.7402891164
 40
0.7729876157
 40
0.8056197852
 40
0.8381869228
 40
0.8706877059
 40
0.8869136945
 40
0.9031226565
 40
0.9354882201
 40
0.9677828669
 40
1.0
 40
1.0
 40
1.0
 40
1.0
 10
4.6887587102
 20
5.4707511331
 30
0.0
 10
4.6887733077
 20
5.4696792432
 30
0.0
 10
4.6887883707
 20
5.4680393145
 30
0.0
 10
4.6888118163
 20
5.4658113645
 30
0.0
 10
4.6888443427
 20
5.4634229006
 30
0.0
 10
4.68890526
 20
5.4603012153
 30
0.0
 10
4.6890202722
 20
5.4564054152
 30
0.0
 10
4.6891831742
 20
5.4523256911
 30
0.0
 10
4.6893967783
 20
5.4480829843
 30
0.0
 10
4.6896607608
 20
5.4436967781
 30
0.0
 10
4.6900840456
 20
5.437610812
 30
0.0
 10
4.6907264769
 20
5.4297686098
 30
0.0
 10
4.6916326414
 20
5.4201380463
 30
0.0
 10
4.6924727157
 20
5.4119526818
 30
0.0
 10
4.6931800257
 20
5.4053036594
 30
0.0
 10
4.6939129776
 20
5.3985524476
 30
0.0
 10
4.694867382
 20
5.3900376823
 30
0.0
 10
4.6958713428
 20
5.381479442
 30
0.0
 10
4.6967160921
 20
5.374583665
 30
0.0
 10
4.6975947486
 20
5.367630996
 30
0.0
 10
4.6987517812
 20
5.358900997
 30
0.0
 10
4.7002400795
 20
5.3483924044
 30
0.0
 10
4.7023669223
 20
5.334314282
 30
0.0
 10
4.7046990138
 20
5.3202283832
 30
0.0
 10
4.7069113688
 20
5.3079150302
 30
0.0
 10
4.7082222476
 20
5.3008782869
 30
0.0
 10
4.7095623554
 20
5.293847884
 30
0.0
 10
4.711286269
 20
5.2850738291
 30
0.0
 10
4.7141232245
 20
5.2710718659
 30
0.0
 10
4.7170427743
 20
5.2571070145
 30
0.0
 10
4.7199599895
 20
5.2431655298
 30
0.0
 10
4.7221044126
 20
5.2327301626
 30
0.0
 10
4.7241692879
 20
5.2223000793
 30
0.0
 10
4.7261044918
 20
5.2118665556
 30
0.0
 10
4.7278569861
 20
5.2014222631
 30
0.0
 10
4.7291244275
 20
5.1927015122
 30
0.0
 10
4.7299983417
 20
5.1857174144
 30
0.0
 10
4.7307729598
 20
5.1787363698
 30
0.0
 10
4.7315440693
 20
5.1700034386
 30
0.0
 10
4.7321333952
 20
5.1595177645
 30
0.0
 10
4.7322944386
 20
5.1525256646
 30
0.0
 10
4.7323160055
 20
5.1490337317
 30
0.0
  0
SPLINE
  5
3A9
100
AcDbEntity
  8
0
100
AcDbSpline
 62
7
  6
CONTINUOUS
 70
0
 71
3
 72
20
 73
16
 74
0
 42
0.0000001
 43
0.0000001
 44
0.0000000001
 40
0.0
 40
0.0
 40
0.0
 40
0.0
 40
0.04521351
 40
0.0936697619
 40
0.1451718339
 40
0.1995195979
 40
0.2565109509
 40
0.315942684
 40
0.3776111295
 40
0.4413126694
 40
0.5068441581
 40
0.5740032962
 40
0.7124008299
 40
0.8549170919
 40
1.0
 40
1.0
 40
1.0
 40
1.0
 10
4.6127766756
 20
5.0855364241
 30
0.0
 10
4.6125431527
 20
5.0914536603
 30
0.0
 10
4.6121601646
 20
5.103716557
 30
0.0
 10
4.6117861976
 20
5.1227270207
 30
0.0
 10
4.6115551868
 20
5.142936116
 30
0.0
 10
4.6114298482
 20
5.1642639442
 30
0.0
 10
4.6113728063
 20
5.1866306138
 30
0.0
 10
4.6113465674
 20
5.2099561477
 30
0.0
 10
4.6113135673
 20
5.2341605459
 30
0.0
 10
4.6112361949
 20
5.2591637787
 30
0.0
 10
4.6110767741
 20
5.2848858354
 30
0.0
 10
4.6107009126
 20
5.3203897065
 30
0.0
 10
4.6098292347
 20
5.3659717706
 30
0.0
 10
4.6078660884
 20
5.421734971
 30
0.0
 10
4.6057514794
 20
5.4593481875
 30
0.0
 10
4.6044363833
 20
5.4783048689
 30
0.0
  0
LINE
  5
3AA
100
AcDbEntity
  8
0
100
AcDbLine
 62
7
  6
CONTINUOUS
 10
5.4745194817
 20
5.8516181211
 11
5.3694390443
 21
5.8486672392
  0
SPLINE
  5
3AB
100
AcDbEntity
  8
0
100
AcDbSpline
 62
7
  6
CONTINUOUS
 70
0
 71
3
 72
21
 73
17
 74
0
 42
0.0000001
 43
0.0000001
 44
0.0000000001
 40
0.0
 40
0.0
 40
0.0
 40
0.0
 40
0.0618447647
 40
0.1240203352
 40
0.1864300575
 40
0.2490019623
 40
0.3116831417
 40
0.3744350209
 40
0.4999999999
 40
0.6255649788
 40
0.688316858
 40
0.7509980375
 40
0.8135699423
 40
0.8759796644
 40
0.9381552342
 40
1.0
 40
1.0
 40
1.0
 40
1.0
 10
5.4718771958
 20
5.8058186162
 30
0.0
 10
5.4708985971
 20
5.79617729
 30
0.0
 10
5.4684061763
 20
5.7768928183
 30
0.0
 10
5.4631012384
 20
5.7481519944
 30
0.0
 10
5.456238974
 20
5.7196247414
 30
0.0
 10
5.4478518466
 20
5.6914260087
 30
0.0
 10
5.4379747908
 20
5.663656421
 30
0.0
 10
5.422872107
 20
5.6273249947
 30
0.0
 10
5.4004722499
 20
5.5834323226
 30
0.0
 10
5.3736600095
 20
5.5420871411
 30
0.0
 10
5.3497474128
 20
5.5108421206
 30
0.0
 10
5.3306367727
 20
5.4884035451
 30
0.0
 10
5.3104095185
 20
5.4670407126
 30
0.0
 10
5.2891353248
 20
5.4468341907
 30
0.0
 10
5.2668975023
 20
5.4278695772
 30
0.0
 10
5.251442876
 20
5.4160688343
 30
0.0
 10
5.2435825428
 20
5.4104006782
 30
0.0
  0
SPLINE
  5
3AC
100
AcDbEntity
  8
0
100
AcDbSpline
 62
7
  6
CONTINUOUS
 70
0
 71
3
 72
13
 73
9
 74
0
 42
0.0000001
 43
0.0000001
 44
0.0000000001
 40
0.0
 40
0.0
 40
0.0
 40
0.0
 40
0.1159812983
 40
0.2349237753
 40
0.3568835133
 40
0.4817033718
 40
0.7380090349
 40
1.0
 40
1.0
 40
1.0
 40
1.0
 10
4.6887586873
 20
5.4707512258
 30
0.0
 10
4.6894101806
 20
5.4697868362
 30
0.0
 10
4.6908744733
 20
5.4679275607
 30
0.0
 10
4.6934616737
 20
5.4654369488
 30
0.0
 10
4.6964222286
 20
5.4632508779
 30
0.0
 10
4.7008328923
 20
5.4607725622
 30
0.0
 10
4.7069886047
 20
5.4586439428
 30
0.0
 10
4.7122047534
 20
5.4580631963
 30
0.0
 10
4.7148337164
 20
5.4580553881
 30
0.0
  0
LINE
  5
3AD
100
AcDbEntity
  8
0
100
AcDbLine
 62
7
  6
CONTINUOUS
 10
5.1320911122
 20
5.4828336446
 11
5.1582909171
 21
5.4707512205
  0
LINE
  5
3AE
100
AcDbEntity
  8
0
100
AcDbLine
 62
7
  6
CONTINUOUS
 10
5.1320911122
 20
5.4828336446
 11
5.1322158531
 21
5.4580554523
  0
LINE
  5
3AF
100
AcDbEntity
  8
0
100
AcDbLine
 62
7
  6
CONTINUOUS
 10
4.7149584495
 20
5.4828334732
 11
4.7148337164
 21
5.4580553881
  0
LINE
  5
3B0
100
AcDbEntity
  8
0
100
AcDbLine
 62
7
  6
CONTINUOUS
 10
4.7149584495
 20
5.4828334732
 11
4.6887586873
 21
5.4707512258
  0
SPLINE
  5
3B1
100
AcDbEntity
  8
0
100
AcDbSpline
 62
7
  6
CONTINUOUS
 70
0
 71
3
 72
23
 73
19
 74
0
 42
0.0000001
 43
0.0000001
 44
0.0000000001
 40
0.0
 40
0.0
 40
0.0
 40
0.0
 40
0.0114972818
 40
0.023706415
 40
0.0368393031
 40
0.051063559
 40
0.0832399857
 40
0.1209417393
 40
0.1644965232
 40
0.2140207014
 40
0.2694942802
 40
0.3308072894
 40
0.3977744047
 40
0.4701608485
 40
0.5476831398
 40
0.6300204616
 40
0.8076778355
 40
1.0
 40
1.0
 40
1.0
 40
1.0
 10
5.2495228929
 20
5.3923217973
 30
0.0
 10
5.2495721985
 20
5.3923781315
 30
0.0
 10
5.2496642929
 20
5.3925029331
 30
0.0
 10
5.2497772692
 20
5.3927153314
 30
0.0
 10
5.2498685674
 20
5.3929569036
 30
0.0
 10
5.2499652727
 20
5.3933329477
 30
0.0
 10
5.25002493
 20
5.3938799539
 30
0.0
 10
5.2500085469
 20
5.3946196911
 30
0.0
 10
5.2499073371
 20
5.3954662914
 30
0.0
 10
5.2497216327
 20
5.3964162601
 30
0.0
 10
5.249452139
 20
5.397465625
 30
0.0
 10
5.2490999122
 20
5.3986094859
 30
0.0
 10
5.2486665684
 20
5.3998424601
 30
0.0
 10
5.2481540336
 20
5.4011585798
 30
0.0
 10
5.2475647747
 20
5.4025515086
 30
0.0
 10
5.2466571786
 20
5.4045532837
 30
0.0
 10
5.2453483411
 20
5.4071927434
 30
0.0
 10
5.2441979096
 20
5.409310009
 30
0.0
 10
5.2435825423
 20
5.4104006786
 30
0.0
  0
SPLINE
  5
3B2
100
AcDbEntity
  8
0
100
AcDbSpline
 62
7
  6
CONTINUOUS
 70
0
 71
3
 72
23
 73
19
 74
0
 42
0.0000001
 43
0.0000001
 44
0.0000000001
 40
0.0
 40
0.0
 40
0.0
 40
0.0
 40
0.0114972801
 40
0.0237063837
 40
0.0368392197
 40
0.051063406
 40
0.0832396578
 40
0.1209412132
 40
0.1644957956
 40
0.2140197842
 40
0.2694931974
 40
0.3308060753
 40
0.3977731029
 40
0.4701595116
 40
0.5476818287
 40
0.630019245
 40
0.8076770452
 40
1.0
 40
1.0
 40
1.0
 40
1.0
 10
5.4905036923
 20
5.8097136015
 30
0.0
 10
5.4904795602
 20
5.8096427355
 30
0.0
 10
5.4904175303
 20
5.8095005804
 30
0.0
 10
5.490290083
 20
5.8092965432
 30
0.0
 10
5.490126532
 20
5.8090966926
 30
0.0
 10
5.4898492323
 20
5.8088249239
 30
0.0
 10
5.4894053553
 20
5.8084997586
 30
0.0
 10
5.4887565529
 20
5.8081440805
 30
0.0
 10
5.4879727934
 20
5.807808432
 30
0.0
 10
5.487057269
 20
5.8074942731
 30
0.0
 10
5.4860137721
 20
5.8072029788
 30
0.0
 10
5.4848470744
 20
5.8069360846
 30
0.0
 10
5.483562645
 20
5.8066948824
 30
0.0
 10
5.4821666151
 20
5.8064806879
 30
0.0
 10
5.4806657055
 20
5.806294533
 30
0.0
 10
5.478478362
 20
5.8060796405
 30
0.0
 10
5.4755381573
 20
5.8058933876
 30
0.0
 10
5.473129378
 20
5.8058310486
 30
0.0
 10
5.4718771676
 20
5.8058186325
 30
0.0
  0
SPLINE
  5
3B3
100
AcDbEntity
  8
0
100
AcDbSpline
 62
7
  6
CONTINUOUS
 70
0
 71
3
 72
22
 73
18
 74
0
 42
0.0000001
 43
0.0000001
 44
0.0000000001
 40
0.0
 40
0.0
 40
0.0
 40
0.0
 40
0.029511993
 40
0.0616460792
 40
0.0975597295
 40
0.137944604
 40
0.1832239953
 40
0.2336332119
 40
0.2892548184
 40
0.3500656162
 40
0.4159585294
 40
0.4867684355
 40
0.5622755034
 40
0.6422198985
 40
0.7263018015
 40
0.8142007813
 40
1.0
 40
1.0
 40
1.0
 40
1.0
 10
5.4920434539
 20
5.8587980394
 30
0.0
 10
5.4920085923
 20
5.8586080223
 30
0.0
 10
5.491884519
 20
5.8582194134
 30
0.0
 10
5.4915618963
 20
5.8576639613
 30
0.0
 10
5.4911036766
 20
5.8571181864
 30
0.0
 10
5.4905121645
 20
5.8565828633
 30
0.0
 10
5.4897899196
 20
5.8560591827
 30
0.0
 10
5.4889400555
 20
5.8555485434
 30
0.0
 10
5.4879660703
 20
5.8550527803
 30
0.0
 10
5.486872126
 20
5.854574109
 30
0.0
 10
5.4856631215
 20
5.8541145834
 30
0.0
 10
5.4843445156
 20
5.8536763914
 30
0.0
 10
5.4829223212
 20
5.8532616629
 30
0.0
 10
5.4814031158
 20
5.852872489
 30
0.0
 10
5.479793967
 20
5.8525105345
 30
0.0
 10
5.4774956511
 20
5.8520587919
 30
0.0
 10
5.4757245974
 20
5.8517821936
 30
0.0
 10
5.4745194557
 20
5.8516181105
 30
0.0
  0
SPLINE
  5
3B4
100
AcDbEntity
  8
0
100
AcDbSpline
 62
7
  6
CONTINUOUS
 70
0
 71
3
 72
22
 73
18
 74
0
 42
0.0000001
 43
0.0000001
 44
0.0000000001
 40
0.0
 40
0.0
 40
0.0
 40
0.0
 40
0.0295118515
 40
0.0616458325
 40
0.0975594155
 40
0.1379442473
 40
0.1832236143
 40
0.2336328257
 40
0.2892544437
 40
0.3500652666
 40
0.4159582157
 40
0.4867681657
 40
0.5622752826
 40
0.6422197288
 40
0.7263016819
 40
0.8142007078
 40
1.0
 40
1.0
 40
1.0
 40
1.0
 10
5.4920434539
 20
5.8587980394
 30
0.0
 10
5.4920085923
 20
5.8589880563
 30
0.0
 10
5.4918845187
 20
5.8593766653
 30
0.0
 10
5.4915618947
 20
5.8599321176
 30
0.0
 10
5.491103673
 20
5.8604778929
 30
0.0
 10
5.490512158
 20
5.8610132167
 30
0.0
 10
5.4897899093
 20
5.861536898
 30
0.0
 10
5.4889400408
 20
5.8620475379
 30
0.0
 10
5.4879660502
 20
5.8625433015
 30
0.0
 10
5.4868721
 20
5.8630219733
 30
0.0
 10
5.4856630889
 20
5.8634814993
 30
0.0
 10
5.4843444758
 20
5.8639196916
 30
0.0
 10
5.4829222737
 20
5.8643344201
 30
0.0
 10
5.4814030603
 20
5.8647235939
 30
0.0
 10
5.479793903
 20
5.8650855482
 30
0.0
 10
5.4774955755
 20
5.8655372899
 30
0.0
 10
5.475724513
 20
5.865813887
 30
0.0
 10
5.4745193654
 20
5.86597797
 30
0.0
  0
SPLINE
  5
3B5
100
AcDbEntity
  8
0
100
AcDbSpline
 62
7
  6
CONTINUOUS
 70
0
 71
3
 72
23
 73
19
 74
0
 42
0.0000001
 43
0.0000001
 44
0.0000000001
 40
0.0
 40
0.0
 40
0.0
 40
0.0
 40
0.011497286
 40
0.0237064234
 40
0.0368393157
 40
0.0510635753
 40
0.0832400075
 40
0.1209417637
 40
0.1644965471
 40
0.214020722
 40
0.2694942954
 40
0.3308072975
 40
0.3977744047
 40
0.4701608406
 40
0.5476831247
 40
0.6300204413
 40
0.8076778148
 40
1.0
 40
1.0
 40
1.0
 40
1.0
 10
5.4905040947
 20
5.9078825034
 30
0.0
 10
5.4904799607
 20
5.9079533703
 30
0.0
 10
5.4904179265
 20
5.908095527
 30
0.0
 10
5.4902904726
 20
5.9082995662
 30
0.0
 10
5.4901269144
 20
5.9084994185
 30
0.0
 10
5.4898496039
 20
5.9087711894
 30
0.0
 10
5.4894057121
 20
5.9090963567
 30
0.0
 10
5.4887568907
 20
5.9094520367
 30
0.0
 10
5.4879731102
 20
5.9097876863
 30
0.0
 10
5.487057563
 20
5.9101018456
 30
0.0
 10
5.4860140418
 20
5.9103931395
 30
0.0
 10
5.4848473185
 20
5.9106600325
 30
0.0
 10
5.4835628623
 20
5.9109012328
 30
0.0
 10
5.4821668048
 20
5.9111154247
 30
0.0
 10
5.4806658669
 20
5.9113015762
 30
0.0
 10
5.4784784853
 20
5.9115164628
 30
0.0
 10
5.4755382333
 20
5.9117027069
 30
0.0
 10
5.4731294165
 20
5.9117650377
 30
0.0
 10
5.4718771877
 20
5.9117774492
 30
0.0
  0
SPLINE
  5
3B6
100
AcDbEntity
  8
0
100
AcDbSpline
 62
7
  6
CONTINUOUS
 70
0
 71
3
 72
23
 73
19
 74
0
 42
0.0000001
 43
0.0000001
 44
0.0000000001
 40
0.0
 40
0.0
 40
0.0
 40
0.0
 40
0.0114972795
 40
0.0237063834
 40
0.0368392202
 40
0.0510634077
 40
0.0832396634
 40
0.1209412238
 40
0.1644958118
 40
0.2140198061
 40
0.2694932247
 40
0.3308061074
 40
0.3977731387
 40
0.4701595497
 40
0.5476818672
 40
0.6300192818
 40
0.8076770703
 40
1.0
 40
1.0
 40
1.0
 40
1.0
 10
5.2495226466
 20
6.3252739206
 30
0.0
 10
5.2495719524
 20
6.3252175885
 30
0.0
 10
5.2496640474
 20
6.3250927913
 30
0.0
 10
5.2497770252
 20
6.3248803998
 30
0.0
 10
5.2498683253
 20
6.3246388349
 30
0.0
 10
5.249965034
 20
6.3242628015
 30
0.0
 10
5.2500246967
 20
6.3237158096
 30
0.0
 10
5.2500083216
 20
6.3229760904
 30
0.0
 10
5.2499071215
 20
6.3221295097
 30
0.0
 10
5.2497214285
 20
6.3211795619
 30
0.0
 10
5.2494519477
 20
6.3201302189
 30
0.0
 10
5.2490997354
 20
6.3189863809
 30
0.0
 10
5.2486664073
 20
6.3177534302
 30
0.0
 10
5.2481538895
 20
6.3164373345
 30
0.0
 10
5.2475646487
 20
6.3150444299
 30
0.0
 10
5.2466570781
 20
6.3130426872
 30
0.0
 10
5.2453482739
 20
6.3104032668
 30
0.0
 10
5.2441978701
 20
6.3082860317
 30
0.0
 10
5.2435825168
 20
6.3071953769
 30
0.0
  0
SPLINE
  5
3B7
100
AcDbEntity
  8
0
100
AcDbSpline
 62
7
  6
CONTINUOUS
 70
0
 71
3
 72
22
 73
18
 74
0
 42
0.0000001
 43
0.0000001
 44
0.0000000001
 40
0.0
 40
0.0
 40
0.0
 40
0.0
 40
0.0295130735
 40
0.0616477315
 40
0.0975615308
 40
0.1379464373
 40
0.1832258568
 40
0.2336350528
 40
0.2892565878
 40
0.3500672799
 40
0.4159600581
 40
0.4867698021
 40
0.5622766847
 40
0.6422208745
 40
0.7263025545
 40
0.814201296
 40
1.0
 40
1.0
 40
1.0
 40
1.0
 10
5.2077841153
 20
6.3511496174
 30
0.0
 10
5.2079312501
 20
6.3510244135
 30
0.0
 10
5.2082057692
 20
6.3507226525
 30
0.0
 10
5.2085255046
 20
6.350165518
 30
0.0
 10
5.2087690515
 20
6.3494957944
 30
0.0
 10
5.2089368984
 20
6.3487158655
 30
0.0
 10
5.2090292975
 20
6.3478285409
 30
0.0
 10
5.209046592
 20
6.346837216
 30
0.0
 10
5.2089889418
 20
6.3457458378
 30
0.0
 10
5.2088565101
 20
6.3445591187
 30
0.0
 10
5.2086499676
 20
6.3432823277
 30
0.0
 10
5.2083701489
 20
6.3419212863
 30
0.0
 10
5.208018216
 20
6.3404822668
 30
0.0
 10
5.207595647
 20
6.3389720109
 30
0.0
 10
5.207104534
 20
6.3373974714
 30
0.0
 10
5.2063465967
 20
6.3351812024
 30
0.0
 10
5.2057006122
 20
6.3335091271
 30
0.0
 10
5.2052401427
 20
6.332383403
 30
0.0
  0
SPLINE
  5
3B8
100
AcDbEntity
  8
0
100
AcDbSpline
 62
7
  6
CONTINUOUS
 70
0
 71
3
 72
22
 73
18
 74
0
 42
0.0000001
 43
0.0000001
 44
0.0000000001
 40
0.0
 40
0.0
 40
0.0
 40
0.0
 40
0.0295118824
 40
0.0616459135
 40
0.097559553
 40
0.1379444388
 40
0.1832238521
 40
0.2336330985
 40
0.289254739
 40
0.3500655711
 40
0.4159585165
 40
0.4867684502
 40
0.5622755396
 40
0.6422199481
 40
0.7263018549
 40
0.8142008279
 40
1.0
 40
1.0
 40
1.0
 40
1.0
 10
5.2077841153
 20
6.3511496174
 30
0.0
 10
5.2076021248
 20
6.3512144338
 30
0.0
 10
5.2072035426
 20
6.3513012854
 30
0.0
 10
5.2065611954
 20
6.3512996086
 30
0.0
 10
5.2058594299
 20
6.3511756629
 30
0.0
 10
5.2051000695
 20
6.3509310567
 30
0.0
 10
5.2042854251
 20
6.350567411
 30
0.0
 10
5.2034182653
 20
6.3500867232
 30
0.0
 10
5.2025019279
 20
6.3494911049
 30
0.0
 10
5.201540413
 20
6.3487830532
 30
0.0
 10
5.2005379484
 20
6.3479657833
 30
0.0
 10
5.1994991587
 20
6.347042929
 30
0.0
 10
5.1984288948
 20
6.3460186327
 30
0.0
 10
5.1973322564
 20
6.344897545
 30
0.0
 10
5.196214219
 20
6.3436849543
 30
0.0
 10
5.1946738392
 20
6.3419204201
 30
0.0
 10
5.1935487703
 20
6.3405249377
 30
0.0
 10
5.1928040984
 20
6.3395632934
 30
0.0
  0
SPLINE
  5
3B9
100
AcDbEntity
  8
0
100
AcDbSpline
 62
7
  6
CONTINUOUS
 70
0
 71
3
 72
23
 73
19
 74
0
 42
0.0000001
 43
0.0000001
 44
0.0000000001
 40
0.0
 40
0.0
 40
0.0
 40
0.0
 40
0.0114972795
 40
0.023706411
 40
0.0368392983
 40
0.0510635538
 40
0.0832399816
 40
0.1209417374
 40
0.1644965269
 40
0.2140207116
 40
0.269494299
 40
0.330807317
 40
0.3977744415
 40
0.4701608951
 40
0.5476831911
 40
0.6300205206
 40
0.8076778992
 40
1.0
 40
1.0
 40
1.0
 40
1.0
 10
5.1645060732
 20
6.3743587031
 30
0.0
 10
5.1644326335
 20
6.3743732359
 30
0.0
 10
5.1642785049
 20
6.3743905912
 30
0.0
 10
5.1640380745
 20
6.3743822323
 30
0.0
 10
5.1637832177
 20
6.3743405127
 30
0.0
 10
5.1634092013
 20
6.3742362399
 30
0.0
 10
5.1629056513
 20
6.3740144013
 30
0.0
 10
5.1622732116
 20
6.3736303442
 30
0.0
 10
5.1615906391
 20
6.3731193936
 30
0.0
 10
5.1608607942
 20
6.3724835843
 30
0.0
 10
5.1600867642
 20
6.3717255131
 30
0.0
 10
5.1592722648
 20
6.3708485451
 30
0.0
 10
5.1584211495
 20
6.3698567708
 30
0.0
 10
5.1575376236
 20
6.3687548425
 30
0.0
 10
5.156625941
 20
6.3675480648
 30
0.0
 10
5.1553461507
 20
6.3657611756
 30
0.0
 10
5.1537147302
 20
6.3633079592
 30
0.0
 10
5.1524563401
 20
6.3612530236
 30
0.0
 10
5.1518194764
 20
6.3601747653
 30
0.0
  0
SPLINE
  5
3BA
100
AcDbEntity
  8
0
100
AcDbSpline
 62
7
  6
CONTINUOUS
 70
0
 71
3
 72
15
 73
11
 74
0
 42
0.0000001
 43
0.0000001
 44
0.0000000001
 40
0.0
 40
0.0
 40
0.0
 40
0.0
 40
0.1256159179
 40
0.2511932109
 40
0.3766865373
 40
0.5020384316
 40
0.6271715692
 40
0.7519812832
 40
0.8763207925
 40
1.0
 40
1.0
 40
1.0
 40
1.0
 10
4.9235248447
 20
6.4085100644
 30
0.0
 10
4.9333674549
 20
6.4085097681
 30
0.0
 10
4.9530533953
 20
6.4079993004
 30
0.0
 10
4.9824923245
 20
6.4057103348
 30
0.0
 10
5.0117527008
 20
6.4018951653
 30
0.0
 10
5.0407397665
 20
6.3965644425
 30
0.0
 10
5.0693544014
 20
6.3897286283
 30
0.0
 10
5.097490419
 20
6.3814069925
 30
0.0
 10
5.1250338577
 20
6.3716326696
 30
0.0
 10
5.1429796139
 20
6.3641460964
 30
0.0
 10
5.1518186223
 20
6.3601731013
 30
0.0
  0
SPLINE
  5
3BB
100
AcDbEntity
  8
0
100
AcDbSpline
 62
7
  6
CONTINUOUS
 70
0
 71
3
 72
15
 73
11
 74
0
 42
0.0000001
 43
0.0000001
 44
0.0000000001
 40
0.0
 40
0.0
 40
0.0
 40
0.0
 40
0.1236791738
 40
0.2480186473
 40
0.3728283236
 40
0.4979614195
 40
0.6233133176
 40
0.7488066395
 40
0.874384007
 40
1.0
 40
1.0
 40
1.0
 40
1.0
 10
4.6952310587
 20
6.3601731192
 30
0.0
 10
4.7040700641
 20
6.3641461149
 30
0.0
 10
4.7220158219
 20
6.3716326717
 30
0.0
 10
4.7495592555
 20
6.3814069819
 30
0.0
 10
4.7776952573
 20
6.3897286423
 30
0.0
 10
4.8063098953
 20
6.3965644181
 30
0.0
 10
4.8352969512
 20
6.4018951779
 30
0.0
 10
4.8645573398
 20
6.4057103033
 30
0.0
 10
4.893996276
 20
6.4079993083
 30
0.0
 10
4.9136822285
 20
6.4085098058
 30
0.0
 10
4.9235248447
 20
6.4085100973
 30
0.0
  0
SPLINE
  5
3BC
100
AcDbEntity
  8
0
100
AcDbSpline
 62
7
  6
CONTINUOUS
 70
0
 71
3
 72
23
 73
19
 74
0
 42
0.0000001
 43
0.0000001
 44
0.0000000001
 40
0.0
 40
0.0
 40
0.0
 40
0.0
 40
0.011496959
 40
0.023705724
 40
0.036838221
 40
0.0510620807
 40
0.0832377475
 40
0.1209388386
 40
0.1644930883
 40
0.2140168764
 40
0.2694902151
 40
0.330803136
 40
0.397770312
 40
0.4701569614
 40
0.5476795992
 40
0.630017397
 40
0.8076760751
 40
1.0
 40
1.0
 40
1.0
 40
1.0
 10
4.6825444413
 20
6.3743569382
 30
0.0
 10
4.6826178779
 20
6.3743714747
 30
0.0
 10
4.6827720008
 20
6.3743888374
 30
0.0
 10
4.683012424
 20
6.3743804891
 30
0.0
 10
4.6832672741
 20
6.3743387796
 30
0.0
 10
4.6836412828
 20
6.3742345201
 30
0.0
 10
4.684144825
 20
6.3740126966
 30
0.0
 10
4.6847772573
 20
6.3736286557
 30
0.0
 10
4.6854598249
 20
6.3731177196
 30
0.0
 10
4.6861896672
 20
6.372481923
 30
0.0
 10
4.6869636968
 20
6.3717238625
 30
0.0
 10
4.6877781979
 20
6.3708469032
 30
0.0
 10
4.688629317
 20
6.3698551356
 30
0.0
 10
4.6895128486
 20
6.3687532118
 30
0.0
 10
4.6904245384
 20
6.3675464365
 30
0.0
 10
4.6917043414
 20
6.3657595469
 30
0.0
 10
4.693335781
 20
6.3633063247
 30
0.0
 10
4.6945941865
 20
6.3612513823
 30
0.0
 10
4.6952310587
 20
6.3601731192
 30
0.0
  0
SPLINE
  5
3BD
100
AcDbEntity
  8
0
100
AcDbSpline
 62
7
  6
CONTINUOUS
 70
0
 71
3
 72
22
 73
18
 74
0
 42
0.0000001
 43
0.0000001
 44
0.0000000001
 40
0.0
 40
0.0
 40
0.0
 40
0.0
 40
0.0295131749
 40
0.0616478898
 40
0.0975617086
 40
0.1379466225
 40
0.1832260472
 40
0.2336352425
 40
0.2892567711
 40
0.3500674526
 40
0.4159602169
 40
0.4867699438
 40
0.5622768067
 40
0.6422209747
 40
0.7263026313
 40
0.8142013479
 40
1.0
 40
1.0
 40
1.0
 40
1.0
 10
4.6392654994
 20
6.3511495745
 30
0.0
 10
4.6394474972
 20
6.3512143953
 30
0.0
 10
4.6398460904
 20
6.3513012559
 30
0.0
 10
4.6404884519
 20
6.3512995881
 30
0.0
 10
4.6411902236
 20
6.3511756441
 30
0.0
 10
4.6419495855
 20
6.3509310393
 30
0.0
 10
4.6427642308
 20
6.3505673971
 30
0.0
 10
4.6436313907
 20
6.3500867122
 30
0.0
 10
4.6445477267
 20
6.3494910967
 30
0.0
 10
4.6455092396
 20
6.348783048
 30
0.0
 10
4.6465117016
 20
6.3479657816
 30
0.0
 10
4.6475504883
 20
6.3470429309
 30
0.0
 10
4.6486207489
 20
6.3460186385
 30
0.0
 10
4.649717384
 20
6.3448975553
 30
0.0
 10
4.6508354184
 20
6.3436849694
 30
0.0
 10
4.6523757945
 20
6.3419204424
 30
0.0
 10
4.6535008614
 20
6.3405249661
 30
0.0
 10
4.6542455322
 20
6.339563326
 30
0.0
  0
SPLINE
  5
3BE
100
AcDbEntity
  8
0
100
AcDbSpline
 62
7
  6
CONTINUOUS
 70
0
 71
3
 72
22
 73
18
 74
0
 42
0.0000001
 43
0.0000001
 44
0.0000000001
 40
0.0
 40
0.0
 40
0.0
 40
0.0
 40
0.0295118899
 40
0.0616459297
 40
0.0975595778
 40
0.137944471
 40
0.1832238899
 40
0.2336331401
 40
0.2892547823
 40
0.3500656142
 40
0.4159585576
 40
0.4867684878
 40
0.5622755723
 40
0.6422199749
 40
0.7263018751
 40
0.814200841
 40
1.0
 40
1.0
 40
1.0
 40
1.0
 10
4.6392654994
 20
6.3511495745
 30
0.0
 10
4.6391183716
 20
6.3510243743
 30
0.0
 10
4.6388438651
 20
6.3507226177
 30
0.0
 10
4.6385241438
 20
6.3501654903
 30
0.0
 10
4.6382806014
 20
6.3494957708
 30
0.0
 10
4.6381127565
 20
6.3487158425
 30
0.0
 10
4.6380203608
 20
6.3478285173
 30
0.0
 10
4.6380030687
 20
6.3468371913
 30
0.0
 10
4.6380607205
 20
6.3457458112
 30
0.0
 10
4.6381931537
 20
6.3445590895
 30
0.0
 10
4.6383996976
 20
6.3432822955
 30
0.0
 10
4.6386795178
 20
6.3419212507
 30
0.0
 10
4.6390314522
 20
6.3404822275
 30
0.0
 10
4.639454023
 20
6.3389719678
 30
0.0
 10
4.6399451382
 20
6.3373974244
 30
0.0
 10
4.6407030791
 20
6.3351811504
 30
0.0
 10
4.6413490676
 20
6.3335090719
 30
0.0
 10
4.6418095395
 20
6.3323833455
 30
0.0
  0
SPLINE
  5
3BF
100
AcDbEntity
  8
0
100
AcDbSpline
 62
7
  6
CONTINUOUS
 70
0
 71
3
 72
23
 73
19
 74
0
 42
0.0000001
 43
0.0000001
 44
0.0000000001
 40
0.0
 40
0.0
 40
0.0
 40
0.0
 40
0.0114972818
 40
0.023706415
 40
0.0368393033
 40
0.0510635592
 40
0.0832399861
 40
0.1209417399
 40
0.164496524
 40
0.2140207022
 40
0.2694942811
 40
0.3308072903
 40
0.3977744055
 40
0.4701608492
 40
0.5476831404
 40
0.6300204621
 40
0.8076778357
 40
1.0
 40
1.0
 40
1.0
 40
1.0
 10
4.5975267968
 20
6.3252742726
 30
0.0
 10
4.5974774912
 20
6.3252179384
 30
0.0
 10
4.5973853968
 20
6.3250931367
 30
0.0
 10
4.5972724205
 20
6.3248807385
 30
0.0
 10
4.5971811223
 20
6.3246391663
 30
0.0
 10
4.5970844169
 20
6.3242631222
 30
0.0
 10
4.5970247597
 20
6.323716116
 30
0.0
 10
4.5970411428
 20
6.3229763788
 30
0.0
 10
4.5971423526
 20
6.3221297785
 30
0.0
 10
4.597328057
 20
6.3211798098
 30
0.0
 10
4.5975975507
 20
6.3201304449
 30
0.0
 10
4.5979497774
 20
6.3189865841
 30
0.0
 10
4.5983831213
 20
6.3177536098
 30
0.0
 10
4.5988956561
 20
6.3164374901
 30
0.0
 10
4.5994849149
 20
6.3150445614
 30
0.0
 10
4.600392511
 20
6.3130427863
 30
0.0
 10
4.6017013485
 20
6.3104033267
 30
0.0
 10
4.60285178
 20
6.3082860611
 30
0.0
 10
4.6034671472
 20
6.3071953915
 30
0.0
  0
SPLINE
  5
3C0
100
AcDbEntity
  8
0
100
AcDbSpline
 62
7
  6
CONTINUOUS
 70
0
 71
3
 72
23
 73
19
 74
0
 42
0.0000001
 43
0.0000001
 44
0.0000000001
 40
0.0
 40
0.0
 40
0.0
 40
0.0
 40
0.0114972801
 40
0.0237063837
 40
0.0368392197
 40
0.051063406
 40
0.0832396578
 40
0.1209412132
 40
0.1644957956
 40
0.2140197842
 40
0.2694931974
 40
0.3308060753
 40
0.3977731029
 40
0.4701595116
 40
0.5476818287
 40
0.630019245
 40
0.8076770452
 40
1.0
 40
1.0
 40
1.0
 40
1.0
 10
4.3565459971
 20
5.9078824686
 30
0.0
 10
4.3565701292
 20
5.9079533347
 30
0.0
 10
4.3566321591
 20
5.9080954897
 30
0.0
 10
4.3567596064
 20
5.908299527
 30
0.0
 10
4.3569231575
 20
5.9084993776
 30
0.0
 10
4.3572004572
 20
5.9087711463
 30
0.0
 10
4.3576443342
 20
5.9090963115
 30
0.0
 10
4.3582931365
 20
5.9094519897
 30
0.0
 10
4.359076896
 20
5.9097876381
 30
0.0
 10
4.3599924204
 20
5.9101017971
 30
0.0
 10
4.3610359174
 20
5.9103930914
 30
0.0
 10
4.3622026151
 20
5.9106599855
 30
0.0
 10
4.3634870445
 20
5.9109011878
 30
0.0
 10
4.3648830743
 20
5.9111153823
 30
0.0
 10
4.366383984
 20
5.9113015372
 30
0.0
 10
4.3685713274
 20
5.9115164296
 30
0.0
 10
4.3715115321
 20
5.9117026826
 30
0.0
 10
4.3739203114
 20
5.9117650216
 30
0.0
 10
4.3751725218
 20
5.9117774377
 30
0.0
  0
SPLINE
  5
3C1
100
AcDbEntity
  8
0
100
AcDbSpline
 62
7
  6
CONTINUOUS
 70
0
 71
3
 72
22
 73
18
 74
0
 42
0.0000001
 43
0.0000001
 44
0.0000000001
 40
0.0
 40
0.0
 40
0.0
 40
0.0
 40
0.0295119794
 40
0.0616460588
 40
0.0975597081
 40
0.137944583
 40
0.1832239744
 40
0.2336331916
 40
0.289254799
 40
0.350065598
 40
0.4159585126
 40
0.4867684204
 40
0.5622754902
 40
0.6422198874
 40
0.7263017927
 40
0.8142007751
 40
1.0
 40
1.0
 40
1.0
 40
1.0
 10
4.3550062357
 20
5.8587980314
 30
0.0
 10
4.3550410973
 20
5.8589880483
 30
0.0
 10
4.3551651706
 20
5.859376657
 30
0.0
 10
4.3554877932
 20
5.8599321089
 30
0.0
 10
4.3559460129
 20
5.8604778837
 30
0.0
 10
4.3565375248
 20
5.8610132067
 30
0.0
 10
4.3572597697
 20
5.8615368873
 30
0.0
 10
4.3581096336
 20
5.8620475266
 30
0.0
 10
4.3590836188
 20
5.8625432897
 30
0.0
 10
4.3601775629
 20
5.8630219609
 30
0.0
 10
4.3613865673
 20
5.8634814866
 30
0.0
 10
4.362705173
 20
5.8639196786
 30
0.0
 10
4.3641273673
 20
5.8643344071
 30
0.0
 10
4.3656465725
 20
5.864723581
 30
0.0
 10
4.3672557212
 20
5.8650855356
 30
0.0
 10
4.3695540369
 20
5.8655372781
 30
0.0
 10
4.3713250903
 20
5.8658138764
 30
0.0
 10
4.3725302319
 20
5.8659779596
 30
0.0
  0
SPLINE
  5
3C2
100
AcDbEntity
  8
0
100
AcDbSpline
 62
7
  6
CONTINUOUS
 70
0
 71
3
 72
22
 73
18
 74
0
 42
0.0000001
 43
0.0000001
 44
0.0000000001
 40
0.0
 40
0.0
 40
0.0
 40
0.0
 40
0.0295118536
 40
0.0616458362
 40
0.0975594206
 40
0.1379442532
 40
0.1832236205
 40
0.2336328318
 40
0.2892544494
 40
0.3500652717
 40
0.41595822
 40
0.486768169
 40
0.562275285
 40
0.6422197303
 40
0.7263016826
 40
0.814200708
 40
1.0
 40
1.0
 40
1.0
 40
1.0
 10
4.3550062357
 20
5.8587980314
 30
0.0
 10
4.3550410972
 20
5.8586080144
 30
0.0
 10
4.3551651708
 20
5.8582194055
 30
0.0
 10
4.3554877948
 20
5.8576639532
 30
0.0
 10
4.3559460164
 20
5.8571181779
 30
0.0
 10
4.3565375313
 20
5.8565828541
 30
0.0
 10
4.3572597798
 20
5.8560591729
 30
0.0
 10
4.3581096483
 20
5.855548533
 30
0.0
 10
4.3590836386
 20
5.8550527694
 30
0.0
 10
4.3601775886
 20
5.8545740976
 30
0.0
 10
4.3613865996
 20
5.8541145716
 30
0.0
 10
4.3627052125
 20
5.8536763793
 30
0.0
 10
4.3641274143
 20
5.8532616508
 30
0.0
 10
4.3656466275
 20
5.852872477
 30
0.0
 10
4.3672557845
 20
5.8525105227
 30
0.0
 10
4.3695541117
 20
5.8520587809
 30
0.0
 10
4.371325174
 20
5.8517821838
 30
0.0
 10
4.3725303214
 20
5.8516181008
 30
0.0
  0
SPLINE
  5
3C3
100
AcDbEntity
  8
0
100
AcDbSpline
 62
7
  6
CONTINUOUS
 70
0
 71
3
 72
23
 73
19
 74
0
 42
0.0000001
 43
0.0000001
 44
0.0000000001
 40
0.0
 40
0.0
 40
0.0
 40
0.0
 40
0.0114972826
 40
0.0237064166
 40
0.0368393053
 40
0.0510635617
 40
0.0832399889
 40
0.1209417425
 40
0.1644965259
 40
0.2140207032
 40
0.2694942808
 40
0.3308072886
 40
0.3977744024
 40
0.4701608449
 40
0.5476831351
 40
0.6300204564
 40
0.8076778309
 40
1.0
 40
1.0
 40
1.0
 40
1.0
 10
4.3565455561
 20
5.8097135634
 30
0.0
 10
4.3565696902
 20
5.8096426964
 30
0.0
 10
4.3566317244
 20
5.8095005395
 30
0.0
 10
4.3567591785
 20
5.8092965001
 30
0.0
 10
4.3569227369
 20
5.8090966475
 30
0.0
 10
4.3572000479
 20
5.8088248762
 30
0.0
 10
4.3576439404
 20
5.8084997084
 30
0.0
 10
4.3582927629
 20
5.8081440281
 30
0.0
 10
4.3590765449
 20
5.8078083782
 30
0.0
 10
4.3599920937
 20
5.8074942187
 30
0.0
 10
4.3610356169
 20
5.8072029246
 30
0.0
 10
4.3622023423
 20
5.8069360315
 30
0.0
 10
4.3634868008
 20
5.8066948312
 30
0.0
 10
4.3648828608
 20
5.8064806395
 30
0.0
 10
4.3663838014
 20
5.8062944881
 30
0.0
 10
4.3685711868
 20
5.8060796018
 30
0.0
 10
4.3715114437
 20
5.8058933584
 30
0.0
 10
4.3739202645
 20
5.8058310284
 30
0.0
 10
4.3751724953
 20
5.8058186172
 30
0.0
  0
SPLINE
  5
3C4
100
AcDbEntity
  8
0
100
AcDbSpline
 62
7
  6
CONTINUOUS
 70
0
 71
3
 72
23
 73
19
 74
0
 42
0.0000001
 43
0.0000001
 44
0.0000000001
 40
0.0
 40
0.0
 40
0.0
 40
0.0
 40
0.0114972796
 40
0.0237063834
 40
0.0368392203
 40
0.0510634078
 40
0.0832396635
 40
0.1209412239
 40
0.1644958119
 40
0.2140198062
 40
0.2694932248
 40
0.3308061075
 40
0.3977731388
 40
0.4701595498
 40
0.5476818674
 40
0.630019282
 40
0.8076770705
 40
1.0
 40
1.0
 40
1.0
 40
1.0
 10
4.5975270428
 20
5.3923221496
 30
0.0
 10
4.597477737
 20
5.3923784817
 30
0.0
 10
4.5973856421
 20
5.3925032788
 30
0.0
 10
4.5972726642
 20
5.3927156704
 30
0.0
 10
4.5971813641
 20
5.3929572353
 30
0.0
 10
4.5970846554
 20
5.3933332687
 30
0.0
 10
4.5970249927
 20
5.3938802606
 30
0.0
 10
4.5970413679
 20
5.3946199798
 30
0.0
 10
4.5971425679
 20
5.3954665605
 30
0.0
 10
4.5973282609
 20
5.3964165083
 30
0.0
 10
4.5975977417
 20
5.3974658513
 30
0.0
 10
4.597949954
 20
5.3986096893
 30
0.0
 10
4.5983832821
 20
5.39984264
 30
0.0
 10
4.5988958
 20
5.4011587357
 30
0.0
 10
4.5994850408
 20
5.4025516402
 30
0.0
 10
4.6003926114
 20
5.404553383
 30
0.0
 10
4.6017014155
 20
5.4071928034
 30
0.0
 10
4.6028518194
 20
5.4093100385
 30
0.0
 10
4.6034671726
 20
5.4104006933
 30
0.0
  0
LINE
  5
3C5
100
AcDbEntity
  8
0
100
AcDbLine
 62
7
  6
CONTINUOUS
 10
4.9287916963
 20
4.1237113857
 11
4.927975057
 21
4.1230314704
  0
LINE
  5
3C6
100
AcDbEntity
  8
0
100
AcDbLine
 62
7
  6
CONTINUOUS
 10
4.927975057
 20
4.1230314704
 11
4.9272490712
 21
4.1227161295
  0
SPLINE
  5
3C7
100
AcDbEntity
  8
0
100
AcDbSpline
 62
7
  6
CONTINUOUS
 70
0
 71
3
 72
14
 73
10
 74
0
 42
0.0000001
 43
0.0000001
 44
0.0000000001
 40
0.0
 40
0.0
 40
0.0
 40
0.0
 40
0.3401050661
 40
0.4840874172
 40
0.6117425183
 40
0.7244682975
 40
0.8244390544
 40
0.9148507286
 40
1.0
 40
1.0
 40
1.0
 40
1.0
 10
5.0685342081
 20
2.8536767385
 30
0.0
 10
5.068540365
 20
2.8535673816
 30
0.0
 10
5.068542437
 20
2.8534109152
 30
0.0
 10
5.0685216712
 20
2.8532147851
 30
0.0
 10
5.068496749
 20
2.8530932846
 30
0.0
 10
5.0684615373
 20
2.8529891139
 30
0.0
 10
5.0684157384
 20
2.8529023083
 30
0.0
 10
5.0683590311
 20
2.8528331591
 30
0.0
 10
5.0683131812
 20
2.8527988878
 30
0.0
 10
5.0682892756
 20
2.852785453
 30
0.0
  0
SPLINE
  5
3C8
100
AcDbEntity
  8
0
100
AcDbSpline
 62
7
  6
CONTINUOUS
 70
0
 71
3
 72
13
 73
9
 74
0
 42
0.0000001
 43
0.0000001
 44
0.0000000001
 40
0.0
 40
0.0
 40
0.0
 40
0.0
 40
0.3272335877
 40
0.5943677217
 40
0.7084861084
 40
0.8121039745
 40
0.9080799379
 40
1.0
 40
1.0
 40
1.0
 40
1.0
 10
4.778231971
 20
2.8537504016
 30
0.0
 10
4.7782323702
 20
2.8536438967
 30
0.0
 10
4.778242508
 20
2.8534502543
 30
0.0
 10
4.7782907762
 20
2.8532229164
 30
0.0
 10
4.7783526295
 20
2.853077194
 30
0.0
 10
4.7784067147
 20
2.8529900121
 30
0.0
 10
4.7784710073
 20
2.8529194415
 30
0.0
 10
4.7785211715
 20
2.8528834925
 30
0.0
 10
4.7785472557
 20
2.8528688409
 30
0.0
  0
LINE
  5
3C9
100
AcDbEntity
  8
0
100
AcDbLine
 62
7
  6
CONTINUOUS
 10
5.1520704103
 20
5.8552231813
 11
5.1255813116
 21
5.8563479626
  0
SPLINE
  5
3CA
100
AcDbEntity
  8
0
100
AcDbSpline
 62
7
  6
CONTINUOUS
 70
0
 71
3
 72
12
 73
8
 74
0
 42
0.0000001
 43
0.0000001
 44
0.0000000001
 40
0.0
 40
0.0
 40
0.0
 40
0.0
 40
0.2499986019
 40
0.4999987532
 40
0.7499983084
 40
0.874998748
 40
1.0
 40
1.0
 40
1.0
 40
1.0
 10
5.1520704103
 20
5.8552231813
 30
0.0
 10
5.1482748881
 20
5.8482169341
 30
0.0
 10
5.140667249
 20
5.8342133541
 30
0.0
 10
5.1291774296
 20
5.813250707
 30
0.0
 10
5.1195136958
 20
5.7958307112
 30
0.0
 10
5.1117149815
 20
5.7819325472
 30
0.0
 10
5.1077913804
 20
5.7749970783
 30
0.0
 10
5.105823508
 20
5.7715327824
 30
0.0
  0
SPLINE
  5
3CB
100
AcDbEntity
  8
0
100
AcDbSpline
 62
7
  6
CONTINUOUS
 70
0
 71
3
 72
11
 73
7
 74
0
 42
0.0000001
 43
0.0000001
 44
0.0000000001
 40
0.0
 40
0.0
 40
0.0
 40
0.0
 40
0.2500011558
 40
0.500000313
 40
0.7500005737
 40
1.0
 40
1.0
 40
1.0
 40
1.0
 10
5.0909536706
 20
5.7456247774
 30
0.0
 10
5.0868760566
 20
5.7385939057
 30
0.0
 10
5.0786686804
 20
5.7245623868
 30
0.0
 10
5.0661945259
 20
5.7036114563
 30
0.0
 10
5.0535896935
 20
5.6827390497
 30
0.0
 10
5.0451228741
 20
5.6688627419
 30
0.0
 10
5.0408792598
 20
5.6619308651
 30
0.0
  0
LINE
  5
3CC
100
AcDbEntity
  8
0
100
AcDbLine
 62
7
  6
CONTINUOUS
 10
5.1520704401
 20
5.862372891
 11
5.1255813104
 21
5.8612481078
  0
LINE
  5
3CD
100
AcDbEntity
  8
0
100
AcDbLine
 62
7
  6
CONTINUOUS
 10
5.040895134
 20
6.0556849069
 11
5.0405711075
 21
6.055263622
  0
SPLINE
  5
3CE
100
AcDbEntity
  8
0
100
AcDbSpline
 62
7
  6
CONTINUOUS
 70
0
 71
3
 72
11
 73
7
 74
0
 42
0.0000001
 43
0.0000001
 44
0.0000000001
 40
0.0
 40
0.0
 40
0.0
 40
0.0
 40
0.2499993381
 40
0.5000000749
 40
0.749999558
 40
1.0
 40
1.0
 40
1.0
 40
1.0
 10
5.040895134
 20
6.0556849069
 30
0.0
 10
5.0451416087
 20
6.0487484593
 30
0.0
 10
5.0536102722
 20
6.0348606105
 30
0.0
 10
5.0662128545
 20
6.0139679136
 30
0.0
 10
5.0786879228
 20
5.9929987094
 30
0.0
 10
5.0869000235
 20
5.9789574789
 30
0.0
 10
5.0909799824
 20
5.9719217577
 30
0.0
  0
SPLINE
  5
3CF
100
AcDbEntity
  8
0
100
AcDbSpline
 62
7
  6
CONTINUOUS
 70
0
 71
3
 72
11
 73
7
 74
0
 42
0.0000001
 43
0.0000001
 44
0.0000000001
 40
0.0
 40
0.0
 40
0.0
 40
0.0
 40
0.2500012748
 40
0.5000008769
 40
0.7500011415
 40
1.0
 40
1.0
 40
1.0
 40
1.0
 10
5.105778616
 20
5.9461390623
 30
0.0
 10
5.1097185378
 20
5.9392044509
 30
0.0
 10
5.117549371
 20
5.9253073816
 30
0.0
 10
5.1291570041
 20
5.9043843928
 30
0.0
 10
5.1406570884
 20
5.8834022501
 30
0.0
 10
5.1482714196
 20
5.869385596
 30
0.0
 10
5.1520704401
 20
5.862372891
 30
0.0
  0
SPLINE
  5
3D0
100
AcDbEntity
  8
0
100
AcDbSpline
 62
7
  6
CONTINUOUS
 70
0
 71
3
 72
13
 73
9
 74
0
 42
0.0000001
 43
0.0000001
 44
0.0000000001
 40
0.0
 40
0.0
 40
0.0
 40
0.0
 40
0.2499998058
 40
0.3750002211
 40
0.5000003095
 40
0.6250004483
 40
0.7500004723
 40
1.0
 40
1.0
 40
1.0
 40
1.0
 10
4.9235248447
 20
6.0611732669
 30
0.0
 10
4.9327509488
 20
6.061173276
 30
0.0
 10
4.9465902441
 20
6.0610998303
 30
0.0
 10
4.9650410523
 20
6.0608672828
 30
0.0
 10
4.9788782616
 20
6.0606303196
 30
0.0
 10
4.9927143809
 20
6.0603379593
 30
0.0
 10
5.0111610097
 20
6.0598828746
 30
0.0
 10
5.0249943843
 20
6.059480774
 30
0.0
 10
5.0342161229
 20
6.0591973249
 30
0.0
  0
SPLINE
  5
3D1
100
AcDbEntity
  8
0
100
AcDbSpline
 62
7
  6
CONTINUOUS
 70
0
 71
3
 72
13
 73
9
 74
0
 42
0.0000001
 43
0.0000001
 44
0.0000000001
 40
0.0
 40
0.0
 40
0.0
 40
0.0
 40
0.2499995278
 40
0.3749995517
 40
0.4999996906
 40
0.624999779
 40
0.7500001942
 40
1.0
 40
1.0
 40
1.0
 40
1.0
 10
4.8128335719
 20
6.0591973151
 30
0.0
 10
4.8220553101
 20
6.0594807641
 30
0.0
 10
4.8358886839
 20
6.0598828699
 30
0.0
 10
4.8543353117
 20
6.0603379606
 30
0.0
 10
4.8681714304
 20
6.0606303224
 30
0.0
 10
4.8820086391
 20
6.0608672852
 30
0.0
 10
4.9004594465
 20
6.0610998309
 30
0.0
 10
4.9142987411
 20
6.0611732752
 30
0.0
 10
4.9235248447
 20
6.0611732669
 30
0.0
  0
LINE
  5
3D2
100
AcDbEntity
  8
0
100
AcDbLine
 62
7
  6
CONTINUOUS
 10
4.7214683794
 20
5.861248108
 11
4.6949792543
 21
5.8623728897
  0
SPLINE
  5
3D3
100
AcDbEntity
  8
0
100
AcDbSpline
 62
7
  6
CONTINUOUS
 70
0
 71
3
 72
12
 73
8
 74
0
 42
0.0000001
 43
0.0000001
 44
0.0000000001
 40
0.0
 40
0.0
 40
0.0
 40
0.0
 40
0.2499986008
 40
0.4999987496
 40
0.749998305
 40
0.8749987465
 40
1.0
 40
1.0
 40
1.0
 40
1.0
 10
4.6949792543
 20
5.8623728897
 30
0.0
 10
4.6987747956
 20
5.8693791716
 30
0.0
 10
4.7063824746
 20
5.8833828202
 30
0.0
 10
4.7178723589
 20
5.9043455674
 30
0.0
 10
4.7275361492
 20
5.9217656454
 30
0.0
 10
4.7353349105
 20
5.9356638742
 30
0.0
 10
4.7392585323
 20
5.9425993771
 30
0.0
 10
4.7412264147
 20
5.9460636902
 30
0.0
  0
SPLINE
  5
3D4
100
AcDbEntity
  8
0
100
AcDbSpline
 62
7
  6
CONTINUOUS
 70
0
 71
3
 72
11
 73
7
 74
0
 42
0.0000001
 43
0.0000001
 44
0.0000000001
 40
0.0
 40
0.0
 40
0.0
 40
0.0
 40
0.2500011494
 40
0.5000003056
 40
0.7500005711
 40
1.0
 40
1.0
 40
1.0
 40
1.0
 10
4.7560952586
 20
5.9719699851
 30
0.0
 10
4.7601729315
 20
5.9790009679
 30
0.0
 10
4.7683804333
 20
5.9930327048
 30
0.0
 10
4.7808547872
 20
6.013983956
 30
0.0
 10
4.7934598031
 20
6.0348566931
 30
0.0
 10
4.8019267489
 20
6.0487332189
 30
0.0
 10
4.8061704288
 20
6.0556652033
 30
0.0
  0
LINE
  5
3D5
100
AcDbEntity
  8
0
100
AcDbLine
 62
7
  6
CONTINUOUS
 10
4.7214683782
 20
5.8563479624
 11
4.6949792841
 21
5.8552231833
  0
LINE
  5
3D6
100
AcDbEntity
  8
0
100
AcDbLine
 62
7
  6
CONTINUOUS
 10
4.8061545557
 20
5.6619111627
 11
4.8064785825
 21
5.6623324484
  0
SPLINE
  5
3D7
100
AcDbEntity
  8
0
100
AcDbSpline
 62
7
  6
CONTINUOUS
 70
0
 71
3
 72
11
 73
7
 74
0
 42
0.0000001
 43
0.0000001
 44
0.0000000001
 40
0.0
 40
0.0
 40
0.0
 40
0.0
 40
0.2499993358
 40
0.5000000682
 40
0.7499995506
 40
1.0
 40
1.0
 40
1.0
 40
1.0
 10
4.8061545557
 20
5.6619111627
 30
0.0
 10
4.8019080942
 20
5.6688475887
 30
0.0
 10
4.7934394535
 20
5.6827353919
 30
0.0
 10
4.780836904
 20
5.7036280197
 30
0.0
 10
4.7683618808
 20
5.7245971624
 30
0.0
 10
4.7601498184
 20
5.7386383569
 30
0.0
 10
4.7560698749
 20
5.7456740581
 30
0.0
  0
SPLINE
  5
3D8
100
AcDbEntity
  8
0
100
AcDbSpline
 62
7
  6
CONTINUOUS
 70
0
 71
3
 72
11
 73
7
 74
0
 42
0.0000001
 43
0.0000001
 44
0.0000000001
 40
0.0
 40
0.0
 40
0.0
 40
0.0
 40
0.2500012875
 40
0.5000008892
 40
0.7500011459
 40
1.0
 40
1.0
 40
1.0
 40
1.0
 10
4.7412712749
 20
5.7714566969
 30
0.0
 10
4.7373313356
 20
5.778391333
 30
0.0
 10
4.7295004567
 20
5.7922884452
 30
0.0
 10
4.7178927821
 20
5.8132115133
 30
0.0
 10
4.7063926729
 20
5.8341937434
 30
0.0
 10
4.6987783201
 20
5.8482104529
 30
0.0
 10
4.6949792841
 20
5.8552231833
 30
0.0
  0
LINE
  5
3D9
100
AcDbEntity
  8
0
100
AcDbLine
 62
7
  6
CONTINUOUS
 10
4.9198006182
 20
4.1227161295
 11
4.9190746302
 21
4.1230314717
  0
LINE
  5
3DA
100
AcDbEntity
  8
0
100
AcDbLine
 62
7
  6
CONTINUOUS
 10
4.9190746302
 20
4.1230314717
 11
4.9182579931
 21
4.1237113857
  0
SPLINE
  5
3DB
100
AcDbEntity
  8
0
100
AcDbSpline
 62
7
  6
CONTINUOUS
 70
0
 71
3
 72
23
 73
19
 74
0
 42
0.0000001
 43
0.0000001
 44
0.0000000001
 40
0.0
 40
0.0
 40
0.0
 40
0.0
 40
0.0853007548
 40
0.1677051446
 40
0.2471453683
 40
0.3235579341
 40
0.3968907296
 40
0.4671051503
 40
0.5341762131
 40
0.5980959681
 40
0.6588647686
 40
0.7164915137
 40
0.7710058462
 40
0.8224689728
 40
0.8709669738
 40
0.916615495
 40
0.9595634463
 40
1.0
 40
1.0
 40
1.0
 40
1.0
 10
5.1147336091
 20
5.1490338092
 30
0.0
 10
5.1184754324
 20
5.147946338
 30
0.0
 10
5.125812909
 20
5.1457417259
 30
0.0
 10
5.136560121
 20
5.1422810509
 30
0.0
 10
5.1468483039
 20
5.1387269972
 30
0.0
 10
5.1566644333
 20
5.13508363
 30
0.0
 10
5.1659962815
 20
5.1313550964
 30
0.0
 10
5.1748326295
 20
5.1275455204
 30
0.0
 10
5.1831634279
 20
5.1236590636
 30
0.0
 10
5.1909798348
 20
5.1197008614
 30
0.0
 10
5.1982731299
 20
5.1156756631
 30
0.0
 10
5.2050343679
 20
5.1115876443
 30
0.0
 10
5.2112552594
 20
5.107440816
 30
0.0
 10
5.2169293865
 20
5.1032401454
 30
0.0
 10
5.2220509709
 20
5.0989899874
 30
0.0
 10
5.2266151957
 20
5.0946949743
 30
0.0
 10
5.230616739
 20
5.0903600774
 30
0.0
 10
5.2329732114
 20
5.0873604136
 30
0.0
 10
5.2340460815
 20
5.0858567289
 30
0.0
  0
SPLINE
  5
3DC
100
AcDbEntity
  8
0
100
AcDbSpline
 62
7
  6
CONTINUOUS
 70
0
 71
3
 72
15
 73
11
 74
0
 42
0.0000001
 43
0.0000001
 44
0.0000000001
 40
0.0
 40
0.0
 40
0.0
 40
0.0
 40
0.1251837297
 40
0.2503047203
 40
0.3753581207
 40
0.5003505118
 40
0.6252953816
 40
0.7502074484
 40
0.8751035295
 40
1.0
 40
1.0
 40
1.0
 40
1.0
 10
5.2017878034
 20
3.6450823259
 30
0.0
 10
5.2019348557
 20
3.6937811083
 30
0.0
 10
5.2024293211
 20
3.7911537782
 30
0.0
 10
5.2037679883
 20
3.9371699343
 30
0.0
 10
5.2057006359
 20
4.083105012
 30
0.0
 10
5.2082140721
 20
4.2289626884
 30
0.0
 10
5.2112902056
 20
4.3747545664
 30
0.0
 10
5.2149136512
 20
4.5204963791
 30
0.0
 10
5.2190730952
 20
4.6662050089
 30
0.0
 10
5.2221946979
 20
4.7633294583
 30
0.0
 10
5.2238416434
 20
4.8118887922
 30
0.0
  0
SPLINE
  5
3DD
100
AcDbEntity
  8
0
100
AcDbSpline
 62
7
  6
CONTINUOUS
 70
0
 71
3
 72
27
 73
23
 74
0
 42
0.0000001
 43
0.0000001
 44
0.0000000001
 40
0.0
 40
0.0
 40
0.0
 40
0.0
 40
0.0618375171
 40
0.0928884449
 40
0.1240077635
 40
0.1864063166
 40
0.2489691199
 40
0.2802981645
 40
0.311649834
 40
0.37439741
 40
0.4371885605
 40
0.4999999999
 40
0.5628114392
 40
0.6256025905
 40
0.6883501654
 40
0.7197018353
 40
0.7510308807
 40
0.813593684
 40
0.8759922346
 40
0.9071115538
 40
0.9381624828
 40
1.0
 40
1.0
 40
1.0
 40
1.0
 10
5.4905041429
 20
5.8097135625
 30
0.0
 10
5.4897216623
 20
5.7994727844
 30
0.0
 10
5.4881137898
 20
5.7841182336
 30
0.0
 10
5.4851117905
 20
5.7637397427
 30
0.0
 10
5.4815244504
 20
5.7433608939
 30
0.0
 10
5.47595817
 20
5.7180273179
 30
0.0
 10
5.468974003
 20
5.6930112071
 30
0.0
 10
5.4625447456
 20
5.6732254283
 30
0.0
 10
5.4555548952
 20
5.6535981399
 30
0.0
 10
5.4457859719
 20
5.6294246667
 30
0.0
 10
5.4324575582
 20
5.6011053306
 30
0.0
 10
5.4175650736
 20
5.573563776
 30
0.0
 10
5.4011596294
 20
5.546895729
 30
0.0
 10
5.383298573
 20
5.5211933153
 30
0.0
 10
5.3672481918
 20
5.5006464436
 30
0.0
 10
5.3537453868
 20
5.4847794113
 30
0.0
 10
5.3398250287
 20
5.4693186211
 30
0.0
 10
5.3216525249
 20
5.4507620999
 30
0.0
 10
5.3024961443
 20
5.4332747726
 30
0.0
 10
5.286641214
 20
5.4199786203
 30
0.0
 10
5.2704939229
 20
5.4071895666
 30
0.0
 10
5.2580004273
 20
5.3981198336
 30
0.0
 10
5.249522894
 20
5.3923217957
 30
0.0
  0
SPLINE
  5
3DE
100
AcDbEntity
  8
0
100
AcDbSpline
 62
7
  6
CONTINUOUS
 70
0
 71
3
 72
9
 73
5
 74
0
 42
0.0000001
 43
0.0000001
 44
0.0000000001
 40
0.0
 40
0.0
 40
0.0
 40
0.0
 40
0.5078075074
 40
1.0
 40
1.0
 40
1.0
 40
1.0
 10
5.0001543538
 20
4.2414098529
 30
0.0
 10
5.0007737661
 20
4.2412684574
 30
0.0
 10
5.0020098604
 20
4.2410564887
 30
0.0
 10
5.0032628105
 20
4.2409906516
 30
0.0
 10
5.0038785803
 20
4.2409976042
 30
0.0
  0
SPLINE
  5
3DF
100
AcDbEntity
  8
0
100
AcDbSpline
 62
7
  6
CONTINUOUS
 70
0
 71
3
 72
27
 73
23
 74
0
 42
0.0000001
 43
0.0000001
 44
0.0000000001
 40
0.0
 40
0.0
 40
0.0
 40
0.0
 40
0.0618375172
 40
0.0928884464
 40
0.1240077657
 40
0.1864063161
 40
0.2489691192
 40
0.2802981649
 40
0.3116498349
 40
0.3743974095
 40
0.437188561
 40
0.5000000003
 40
0.5628114397
 40
0.62560259
 40
0.6883501663
 40
0.7197018357
 40
0.75103088
 40
0.8135936834
 40
0.8759922369
 40
0.9071115553
 40
0.9381624829
 40
1.0
 40
1.0
 40
1.0
 40
1.0
 10
5.249522894
 20
6.3252742745
 30
0.0
 10
5.2580004272
 20
6.3194762365
 30
0.0
 10
5.2704939229
 20
6.3104065036
 30
0.0
 10
5.286641214
 20
6.2976174498
 30
0.0
 10
5.3024961444
 20
6.2843212974
 30
0.0
 10
5.3216525249
 20
6.2668339702
 30
0.0
 10
5.3398250288
 20
6.2482774491
 30
0.0
 10
5.3537453868
 20
6.2328166588
 30
0.0
 10
5.3672481918
 20
6.2169496264
 30
0.0
 10
5.3832985732
 20
6.1964027549
 30
0.0
 10
5.4011596293
 20
6.170700341
 30
0.0
 10
5.4175650737
 20
6.1440322941
 30
0.0
 10
5.4324575584
 20
6.1164907396
 30
0.0
 10
5.4457859717
 20
6.0881714033
 30
0.0
 10
5.4555548954
 20
6.0639979302
 30
0.0
 10
5.4625447457
 20
6.0443706418
 30
0.0
 10
5.4689740029
 20
6.024584863
 30
0.0
 10
5.47595817
 20
5.9995687522
 30
0.0
 10
5.4815244505
 20
5.9742351762
 30
0.0
 10
5.4851117905
 20
5.9538563274
 30
0.0
 10
5.4881137898
 20
5.9334778366
 30
0.0
 10
5.4897216624
 20
5.9181232858
 30
0.0
 10
5.4905041429
 20
5.9078825076
 30
0.0
  0
SPLINE
  5
3E0
100
AcDbEntity
  8
0
100
AcDbSpline
 62
7
  6
CONTINUOUS
 70
0
 71
3
 72
15
 73
11
 74
0
 42
0.0000001
 43
0.0000001
 44
0.0000000001
 40
0.0
 40
0.0
 40
0.0
 40
0.0
 40
0.1256259116
 40
0.251211347
 40
0.376709759
 40
0.5020620364
 40
0.6271904092
 40
0.7519912856
 40
0.8763215881
 40
1.0
 40
1.0
 40
1.0
 40
1.0
 10
4.9235248447
 20
6.4289753299
 30
0.0
 10
4.9339572304
 20
6.428975161
 30
0.0
 10
4.954823336
 20
6.4283933083
 30
0.0
 10
4.9860123846
 20
6.4257759811
 30
0.0
 10
5.0169853208
 20
6.4214257533
 30
0.0
 10
5.0476294491
 20
6.4153596477
 30
0.0
 10
5.0778304947
 20
6.4076046233
 30
0.0
 10
5.1074698546
 20
6.398198176
 30
0.0
 10
5.1364227802
 20
6.3871908459
 30
0.0
 10
5.1552460022
 20
6.3788013973
 30
0.0
 10
5.1645060937
 20
6.374358747
 30
0.0
  0
SPLINE
  5
3E1
100
AcDbEntity
  8
0
100
AcDbSpline
 62
7
  6
CONTINUOUS
 70
0
 71
3
 72
15
 73
11
 74
0
 42
0.0000001
 43
0.0000001
 44
0.0000000001
 40
0.0
 40
0.0
 40
0.0
 40
0.0
 40
0.1126993277
 40
0.2312484166
 40
0.3547973145
 40
0.4821636478
 40
0.6119333367
 40
0.7425548949
 40
0.8724295664
 40
1.0
 40
1.0
 40
1.0
 40
1.0
 10
5.0038785803
 20
4.2409976042
 30
0.0
 10
5.0043938622
 20
4.2413986382
 30
0.0
 10
5.0053903251
 20
4.2423019079
 30
0.0
 10
5.0067232576
 20
4.2438732653
 30
0.0
 10
5.0079066486
 20
4.2456627448
 30
0.0
 10
5.0089138813
 20
4.2476297093
 30
0.0
 10
5.0097226721
 20
4.2497299793
 30
0.0
 10
5.0103148673
 20
4.2519163374
 30
0.0
 10
5.0106771439
 20
4.2541391854
 30
0.0
 10
5.0107609555
 20
4.2556318594
 30
0.0
 10
5.0107609555
 20
4.2563709687
 30
0.0
  0
LINE
  5
3E2
100
AcDbEntity
  8
0
100
AcDbLine
 62
7
  6
CONTINUOUS
 10
4.9182579931
 20
4.1237113857
 11
4.9198006182
 21
4.124706642
  0
SPLINE
  5
3E3
100
AcDbEntity
  8
0
100
AcDbSpline
 62
7
  6
CONTINUOUS
 70
0
 71
3
 72
9
 73
5
 74
0
 42
0.0000001
 43
0.0000001
 44
0.0000000001
 40
0.0
 40
0.0
 40
0.0
 40
0.0
 40
0.4921924606
 40
1.0
 40
1.0
 40
1.0
 40
1.0
 10
4.9198006182
 20
4.124706642
 30
0.0
 10
4.9204163879
 20
4.1246996894
 30
0.0
 10
4.921669338
 20
4.1247655265
 30
0.0
 10
4.9229054324
 20
4.1249774951
 30
0.0
 10
4.9235248447
 20
4.1251188906
 30
0.0
  0
LINE
  5
3E4
100
AcDbEntity
  8
0
100
AcDbLine
 62
7
  6
CONTINUOUS
 10
4.9272490712
 20
4.124706642
 11
4.9287916963
 21
4.1237113857
  0
SPLINE
  5
3E5
100
AcDbEntity
  8
0
100
AcDbSpline
 62
7
  6
CONTINUOUS
 70
0
 71
3
 72
9
 73
5
 74
0
 42
0.0000001
 43
0.0000001
 44
0.0000000001
 40
0.0
 40
0.0
 40
0.0
 40
0.0
 40
0.5078075403
 40
1.0
 40
1.0
 40
1.0
 40
1.0
 10
4.9235248447
 20
4.1251188906
 30
0.0
 10
4.9241442571
 20
4.1249774951
 30
0.0
 10
4.9253803514
 20
4.1247655265
 30
0.0
 10
4.9266333015
 20
4.1246996894
 30
0.0
 10
4.9272490712
 20
4.124706642
 30
0.0
  0
LINE
  5
3E6
100
AcDbEntity
  8
0
100
AcDbLine
 62
7
  6
CONTINUOUS
 10
4.7348006182
 20
4.1690896466
 11
4.7340746303
 21
4.1694049889
  0
LINE
  5
3E7
100
AcDbEntity
  8
0
100
AcDbLine
 62
7
  6
CONTINUOUS
 10
4.7340746303
 20
4.1694049889
 11
4.7335714719
 21
4.1697755818
  0
LINE
  5
3E8
100
AcDbEntity
  8
0
100
AcDbLine
 62
7
  6
CONTINUOUS
 10
4.7335714719
 20
4.1697755818
 11
4.7332579931
 21
4.1700849029
  0
SPLINE
  5
3E9
100
AcDbEntity
  8
0
100
AcDbSpline
 62
7
  6
CONTINUOUS
 70
0
 71
3
 72
15
 73
11
 74
0
 42
0.0000001
 43
0.0000001
 44
0.0000000001
 40
0.0
 40
0.0
 40
0.0
 40
0.0
 40
0.1271349435
 40
0.2536770426
 40
0.3795412934
 40
0.5047037523
 40
0.6292044845
 40
0.7531449326
 40
0.876679125
 40
1.0
 40
1.0
 40
1.0
 40
1.0
 10
4.7332579931
 20
4.1700849029
 30
0.0
 10
4.7325507651
 20
4.1703404678
 30
0.0
 10
4.7311749165
 20
4.1709551905
 30
0.0
 10
4.729276664
 20
4.1721685262
 30
0.0
 10
4.7275892821
 20
4.1736445531
 30
0.0
 10
4.7261521575
 20
4.1753494711
 30
0.0
 10
4.7249982772
 20
4.1772443687
 30
0.0
 10
4.7241543873
 20
4.1792860367
 30
0.0
 10
4.7236400658
 20
4.1814268977
 30
0.0
 10
4.7235248447
 20
4.182889605
 30
0.0
 10
4.7235248447
 20
4.1836190325
 30
0.0
  0
SPLINE
  5
3EA
100
AcDbEntity
  8
0
100
AcDbSpline
 62
7
  6
CONTINUOUS
 70
0
 71
3
 72
29
 73
25
 74
0
 42
0.0000001
 43
0.0000001
 44
0.0000000001
 40
0.0
 40
0.0
 40
0.0
 40
0.0
 40
0.0817737264
 40
0.1629180103
 40
0.2429497512
 40
0.321402744
 40
0.3978184149
 40
0.4717567312
 40
0.5427975096
 40
0.6105457521
 40
0.6746361751
 40
0.7347388533
 40
0.7632046191
 40
0.7905696763
 40
0.8168057797
 40
0.8418891713
 40
0.8658001585
 40
0.8885241329
 40
0.9100524864
 40
0.9303828511
 40
0.9495215382
 40
0.9674835082
 40
0.9842961415
 40
1.0
 40
1.0
 40
1.0
 40
1.0
 10
4.9202133989
 20
5.5407764007
 30
0.0
 10
4.9166243154
 20
5.5407529234
 30
0.0
 10
4.9094740335
 20
5.5406300109
 30
0.0
 10
4.8988178163
 20
5.5402176674
 30
0.0
 10
4.8883186213
 20
5.5395802523
 30
0.0
 10
4.8780433869
 20
5.5387219375
 30
0.0
 10
4.8680572944
 20
5.5376482275
 30
0.0
 10
4.8584238206
 20
5.5363660824
 30
0.0
 10
4.8492040942
 20
5.534883781
 30
0.0
 10
4.8404565045
 20
5.5332109364
 30
0.0
 10
4.8322365252
 20
5.5313583412
 30
0.0
 10
4.8257567952
 20
5.5296452016
 30
0.0
 10
4.8208815917
 20
5.5281861647
 30
0.0
 10
4.8174550399
 20
5.5270744674
 30
0.0
 10
4.8141971778
 20
5.5259272298
 30
0.0
 10
4.811113135
 20
5.524746299
 30
0.0
 10
4.8082077644
 20
5.5235335414
 30
0.0
 10
4.8054856266
 20
5.5222908546
 30
0.0
 10
4.8029509498
 20
5.521020244
 30
0.0
 10
4.8006076913
 20
5.5197235937
 30
0.0
 10
4.7984594217
 20
5.5184030073
 30
0.0
 10
4.7965094368
 20
5.5170602863
 30
0.0
 10
4.7947607666
 20
5.5156976184
 30
0.0
 10
4.7936956458
 20
5.5147454101
 30
0.0
 10
4.7932006079
 20
5.514265804
 30
0.0
  0
SPLINE
  5
3EB
100
AcDbEntity
  8
0
100
AcDbSpline
 62
7
  6
CONTINUOUS
 70
0
 71
3
 72
14
 73
10
 74
0
 42
0.0000001
 43
0.0000001
 44
0.0000000001
 40
0.0
 40
0.0
 40
0.0
 40
0.0
 40
0.2525212371
 40
0.3784677167
 40
0.5040394141
 40
0.6291122987
 40
0.7535666269
 40
0.87724682
 40
1.0
 40
1.0
 40
1.0
 40
1.0
 10
4.9211391129
 20
5.6572288015
 30
0.0
 10
4.9181779501
 20
5.6572523812
 30
0.0
 10
4.9137399148
 20
5.6573590402
 30
0.0
 10
4.9078364497
 20
5.6576571126
 30
0.0
 10
4.9034305267
 20
5.6579625917
 30
0.0
 10
4.8990493315
 20
5.6583583388
 30
0.0
 10
4.894700219
 20
5.6588512749
 30
0.0
 10
4.8903923576
 20
5.6594540549
 30
0.0
 10
4.8875429566
 20
5.6599395323
 30
0.0
 10
4.8861283129
 20
5.6602058706
 30
0.0
  0
LINE
  5
3EC
100
AcDbEntity
  8
0
100
AcDbLine
 62
7
  6
CONTINUOUS
 10
4.7332579931
 20
4.211041594
 11
4.7348006182
 21
4.2120368502
  0
SPLINE
  5
3ED
100
AcDbEntity
  8
0
100
AcDbSpline
 62
7
  6
CONTINUOUS
 70
0
 71
3
 72
15
 73
11
 74
0
 42
0.0000001
 43
0.0000001
 44
0.0000000001
 40
0.0
 40
0.0
 40
0.0
 40
0.0
 40
0.1126993218
 40
0.231248453
 40
0.354797357
 40
0.4821637205
 40
0.6119334625
 40
0.7425550864
 40
0.872429678
 40
1.0
 40
1.0
 40
1.0
 40
1.0
 10
4.7348006182
 20
4.2120368502
 30
0.0
 10
4.7342853363
 20
4.2124378842
 30
0.0
 10
4.7332888732
 20
4.213341154
 30
0.0
 10
4.7319559406
 20
4.2149125116
 30
0.0
 10
4.7307725494
 20
4.2167019915
 30
0.0
 10
4.7297653165
 20
4.2186689566
 30
0.0
 10
4.7289565256
 20
4.2207692274
 30
0.0
 10
4.7283643307
 20
4.2229555859
 30
0.0
 10
4.7280020544
 20
4.2251784331
 30
0.0
 10
4.727918243
 20
4.226671106
 30
0.0
 10
4.727918243
 20
4.2274102146
 30
0.0
  0
SPLINE
  5
3EE
100
AcDbEntity
  8
0
100
AcDbSpline
 62
7
  6
CONTINUOUS
 70
0
 71
3
 72
31
 73
27
 74
0
 42
0.0000001
 43
0.0000001
 44
0.0000000001
 40
0.0
 40
0.0
 40
0.0
 40
0.0
 40
0.1041890247
 40
0.2042724396
 40
0.2996990132
 40
0.3900233166
 40
0.474861751
 40
0.5539067923
 40
0.6269364726
 40
0.6938042804
 40
0.7544357218
 40
0.7824052827
 40
0.8088080312
 40
0.8569119688
 40
0.8786132424
 40
0.8987383648
 40
0.9172794297
 40
0.934207302
 40
0.9494914467
 40
0.9631035441
 40
0.9749875647
 40
0.9850909632
 40
0.9894737197
 40
0.9934112247
 40
0.9969115346
 40
1.0
 40
1.0
 40
1.0
 40
1.0
 10
4.8875296323
 20
5.616728054
 30
0.0
 10
4.8861574558
 20
5.6173109783
 30
0.0
 10
4.8834542368
 20
5.6184235128
 30
0.0
 10
4.8794629646
 20
5.6199923642
 30
0.0
 10
4.8756437702
 20
5.6214560789
 30
0.0
 10
4.8720271176
 20
5.6228386668
 30
0.0
 10
4.8686385221
 20
5.6241613175
 30
0.0
 10
4.8654989974
 20
5.6254407719
 30
0.0
 10
4.8626249819
 20
5.6266887705
 30
0.0
 10
4.8600298284
 20
5.6279142999
 30
0.0
 10
4.8580573645
 20
5.6289449636
 30
0.0
 10
4.8566297707
 20
5.6297639476
 30
0.0
 10
4.8553788206
 20
5.6305292004
 30
0.0
 10
4.8542372182
 20
5.6313009682
 30
0.0
 10
4.8532148931
 20
5.6320829954
 30
0.0
 10
4.8525512356
 20
5.6326363776
 30
0.0
 10
4.8519647088
 20
5.6331742719
 30
0.0
 10
4.8514554991
 20
5.6336925988
 30
0.0
 10
4.8510241083
 20
5.634186987
 30
0.0
 10
4.8506714509
 20
5.6346526301
 30
0.0
 10
4.8503981894
 20
5.6350832521
 30
0.0
 10
4.8502295625
 20
5.6354220748
 30
0.0
 10
4.8501393996
 20
5.6356700896
 30
0.0
 10
4.8500959005
 20
5.6358338413
 30
0.0
 10
4.8500734416
 20
5.6359831193
 30
0.0
 10
4.8500727636
 20
5.6360779138
 30
0.0
 10
4.8500768039
 20
5.6361219222
 30
0.0
  0
SPLINE
  5
3EF
100
AcDbEntity
  8
0
100
AcDbSpline
 62
7
  6
CONTINUOUS
 70
0
 71
3
 72
15
 73
11
 74
0
 42
0.0000001
 43
0.0000001
 44
0.0000000001
 40
0.0
 40
0.0
 40
0.0
 40
0.0
 40
0.1350570275
 40
0.2688641375
 40
0.4005619937
 40
0.5293153653
 40
0.6542851606
 40
0.7747138929
 40
0.8900338504
 40
1.0
 40
1.0
 40
1.0
 40
1.0
 10
4.9214919795
 20
5.6115248763
 30
0.0
 10
4.9199371144
 20
5.6115545295
 30
0.0
 10
4.9168423118
 20
5.611648014
 30
0.0
 10
4.9122361184
 20
5.6118952127
 30
0.0
 10
4.9077103722
 20
5.6122601546
 30
0.0
 10
4.903299703
 20
5.6127608559
 30
0.0
 10
4.8990408906
 20
5.613421456
 30
0.0
 10
4.8949725031
 20
5.6142702675
 30
0.0
 10
4.8911338551
 20
5.6153366558
 30
0.0
 10
4.8886949834
 20
5.6162327742
 30
0.0
 10
4.8875296323
 20
5.616728054
 30
0.0
  0
SPLINE
  5
3F0
100
AcDbEntity
  8
0
100
AcDbSpline
 62
7
  6
CONTINUOUS
 70
0
 71
3
 72
15
 73
11
 74
0
 42
0.0000001
 43
0.0000001
 44
0.0000000001
 40
0.0
 40
0.0
 40
0.0
 40
0.0
 40
0.1091801068
 40
0.2241866027
 40
0.3446677304
 40
0.4699251348
 40
0.599066237
 40
0.73111736
 40
0.8651017466
 40
1.0
 40
1.0
 40
1.0
 40
1.0
 10
4.9605225367
 20
5.616235146
 30
0.0
 10
4.9592556641
 20
5.6157273813
 30
0.0
 10
4.9565994686
 20
5.6148188642
 30
0.0
 10
4.9524185221
 20
5.6137634391
 30
0.0
 10
4.9479808491
 20
5.6129467598
 30
0.0
 10
4.9433330171
 20
5.6123353948
 30
0.0
 10
4.9385206654
 20
5.611900079
 30
0.0
 10
4.933587934
 20
5.6116178966
 30
0.0
 10
4.9285773797
 20
5.6114749168
 30
0.0
 10
4.9252156192
 20
5.6114702176
 30
0.0
 10
4.92352942
 20
5.6114919377
 30
0.0
  0
LINE
  5
3F1
100
AcDbEntity
  8
0
100
AcDbLine
 62
7
  6
CONTINUOUS
 10
4.7301628451
 20
5.5114158404
 11
4.8097872345
 21
5.6468821504
  0
SPLINE
  5
3F2
100
AcDbEntity
  8
0
100
AcDbSpline
 62
7
  6
CONTINUOUS
 70
0
 71
3
 72
9
 73
5
 74
0
 42
0.0000001
 43
0.0000001
 44
0.0000000001
 40
0.0
 40
0.0
 40
0.0
 40
0.0
 40
0.2353300446
 40
1.0
 40
1.0
 40
1.0
 40
1.0
 10
4.8097872345
 20
5.6468821504
 30
0.0
 10
4.8097889529
 20
5.6468850881
 30
0.0
 10
4.8097969104
 20
5.6468971766
 30
0.0
 10
4.8098061265
 20
5.6469084253
 30
0.0
 10
4.8098137969
 20
5.6469163917
 30
0.0
  0
LINE
  5
3F3
100
AcDbEntity
  8
0
100
AcDbLine
 62
7
  6
CONTINUOUS
 10
4.8500554857
 20
5.6470026818
 11
4.8098137969
 21
5.6469163917
  0
LINE
  5
3F4
100
AcDbEntity
  8
0
100
AcDbLine
 62
7
  6
CONTINUOUS
 10
5.0372358925
 20
5.6469163918
 11
4.9971585864
 21
5.6470023825
  0
SPLINE
  5
3F5
100
AcDbEntity
  8
0
100
AcDbSpline
 62
7
  6
CONTINUOUS
 70
0
 71
3
 72
9
 73
5
 74
0
 42
0.0000001
 43
0.0000001
 44
0.0000000001
 40
0.0
 40
0.0
 40
0.0
 40
0.0
 40
0.2343974918
 40
1.0
 40
1.0
 40
1.0
 40
1.0
 10
5.0372624549
 20
5.6468821504
 30
0.0
 10
5.0372607415
 20
5.646885076
 30
0.0
 10
5.0372529283
 20
5.6468972603
 30
0.0
 10
5.037243582
 20
5.6469084226
 30
0.0
 10
5.0372358925
 20
5.6469163918
 30
0.0
  0
LINE
  5
3F6
100
AcDbEntity
  8
0
100
AcDbLine
 62
7
  6
CONTINUOUS
 10
5.1168868465
 20
5.5114158364
 11
5.0372624549
 21
5.6468821504
  0
LINE
  5
3F7
100
AcDbEntity
  8
0
100
AcDbLine
 62
7
  6
CONTINUOUS
 10
5.3210476575
 20
5.8525633413
 11
5.1639591722
 21
5.8513400436
  0
LINE
  5
3F8
100
AcDbEntity
  8
0
100
AcDbLine
 62
7
  6
CONTINUOUS
 10
5.1276856527
 20
5.5176505301
 11
5.0501805769
 21
5.6543404381
  0
LINE
  5
3F9
100
AcDbEntity
  8
0
100
AcDbLine
 62
7
  6
CONTINUOUS
 10
5.3188987812
 20
5.8650484227
 11
5.1639592119
 21
5.8662560179
  0
SPLINE
  5
3FA
100
AcDbEntity
  8
0
100
AcDbSpline
 62
7
  6
CONTINUOUS
 70
0
 71
3
 72
9
 73
5
 74
0
 42
0.0000001
 43
0.0000001
 44
0.0000000001
 40
0.0
 40
0.0
 40
0.0
 40
0.0
 40
0.2353183448
 40
1.0
 40
1.0
 40
1.0
 40
1.0
 10
5.0372624549
 20
6.0707139198
 30
0.0
 10
5.0372607366
 20
6.0707109822
 30
0.0
 10
5.0372527809
 20
6.0706988925
 30
0.0
 10
5.0372435631
 20
6.0706876449
 30
0.0
 10
5.0372358924
 20
6.0706796784
 30
0.0
  0
SPLINE
  5
3FB
100
AcDbEntity
  8
0
100
AcDbSpline
 62
7
  6
CONTINUOUS
 70
0
 71
3
 72
9
 73
5
 74
0
 42
0.0000001
 43
0.0000001
 44
0.0000000001
 40
0.0
 40
0.0
 40
0.0
 40
0.0
 40
0.2343940303
 40
1.0
 40
1.0
 40
1.0
 40
1.0
 10
4.8097872345
 20
6.0707139198
 30
0.0
 10
4.8097889479
 20
6.0707109942
 30
0.0
 10
4.8097967606
 20
6.0706988096
 30
0.0
 10
4.8098061073
 20
6.0706876476
 30
0.0
 10
4.8098137969
 20
6.0706796785
 30
0.0
  0
LINE
  5
3FC
100
AcDbEntity
  8
0
100
AcDbLine
 62
7
  6
CONTINUOUS
 10
4.6830905151
 20
5.8513400463
 11
4.5260020324
 21
5.8525633414
  0
LINE
  5
3FD
100
AcDbEntity
  8
0
100
AcDbLine
 62
7
  6
CONTINUOUS
 10
4.7193640393
 20
5.5176505341
 11
4.7968691316
 21
5.6543404921
  0
LINE
  5
3FE
100
AcDbEntity
  8
0
100
AcDbLine
 62
7
  6
CONTINUOUS
 10
4.6830904766
 20
5.866256017
 11
4.5281509143
 21
5.8650484225
  0
SPLINE
  5
3FF
100
AcDbEntity
  8
0
100
AcDbSpline
 62
7
  6
CONTINUOUS
 70
0
 71
3
 72
15
 73
11
 74
0
 42
0.0000001
 43
0.0000001
 44
0.0000000001
 40
0.0
 40
0.0
 40
0.0
 40
0.0
 40
0.1271349436
 40
0.2536770428
 40
0.3795412937
 40
0.5047037527
 40
0.6292044849
 40
0.753144933
 40
0.8766791251
 40
1.0
 40
1.0
 40
1.0
 40
1.0
 10
4.7332579931
 20
4.211041594
 30
0.0
 10
4.7325507651
 20
4.2112971589
 30
0.0
 10
4.7311749165
 20
4.2119118816
 30
0.0
 10
4.729276664
 20
4.2131252173
 30
0.0
 10
4.727589282
 20
4.2146012442
 30
0.0
 10
4.7261521574
 20
4.2163061622
 30
0.0
 10
4.7249982772
 20
4.2182010599
 30
0.0
 10
4.7241543873
 20
4.2202427278
 30
0.0
 10
4.7236400658
 20
4.2223835888
 30
0.0
 10
4.7235248447
 20
4.2238462961
 30
0.0
 10
4.7235248447
 20
4.2245757236
 30
0.0
  0
LINE
  5
400
100
AcDbEntity
  8
0
100
AcDbLine
 62
7
  6
CONTINUOUS
 10
5.1137916963
 20
4.1700849029
 11
5.1134782176
 21
4.1697755818
  0
LINE
  5
401
100
AcDbEntity
  8
0
100
AcDbLine
 62
7
  6
CONTINUOUS
 10
5.1134782176
 20
4.1697755818
 11
5.1123951375
 21
4.1691348847
  0
LINE
  5
402
100
AcDbEntity
  8
0
100
AcDbLine
 62
7
  6
CONTINUOUS
 10
4.8098137969
 20
6.0706796785
 11
4.8125539118
 21
6.0602301509
  0
LINE
  5
403
100
AcDbEntity
  8
0
100
AcDbLine
 62
7
  6
CONTINUOUS
 10
5.0372358924
 20
6.0706796784
 11
5.0344957767
 21
6.06023015
  0
LINE
  5
404
100
AcDbEntity
  8
0
100
AcDbLine
 62
7
  6
CONTINUOUS
 10
5.1639592179
 20
5.8662560077
 11
5.1520704361
 21
5.8623729005
  0
LINE
  5
405
100
AcDbEntity
  8
0
100
AcDbLine
 62
7
  6
CONTINUOUS
 10
5.0500968001
 20
6.0631987927
 11
5.0408951345
 21
6.0556849072
  0
LINE
  5
406
100
AcDbEntity
  8
0
100
AcDbLine
 62
7
  6
CONTINUOUS
 10
5.0501805462
 20
6.0632556134
 11
5.0500968001
 21
6.0631987927
  0
LINE
  5
407
100
AcDbEntity
  8
0
100
AcDbLine
 62
7
  6
CONTINUOUS
 10
5.1639591884
 20
5.8513400716
 11
5.1520704109
 21
5.8552231815
  0
LINE
  5
408
100
AcDbEntity
  8
0
100
AcDbLine
 62
7
  6
CONTINUOUS
 10
5.0501805755
 20
5.6543404357
 11
5.0500968001
 21
5.6543972775
  0
LINE
  5
409
100
AcDbEntity
  8
0
100
AcDbLine
 62
7
  6
CONTINUOUS
 10
5.0500968001
 20
5.6543972775
 11
5.0408764587
 21
5.6619262288
  0
LINE
  5
40A
100
AcDbEntity
  8
0
100
AcDbLine
 62
7
  6
CONTINUOUS
 10
5.0372358926
 20
5.6469163917
 11
5.0344957768
 21
5.6573659144
  0
LINE
  5
40B
100
AcDbEntity
  8
0
100
AcDbLine
 62
7
  6
CONTINUOUS
 10
4.8098137969
 20
5.6469163917
 11
4.8125539111
 21
5.6573659185
  0
LINE
  5
40C
100
AcDbEntity
  8
0
100
AcDbLine
 62
7
  6
CONTINUOUS
 10
4.6949792841
 20
5.8552231837
 11
4.6830905005
 21
5.8513400714
  0
LINE
  5
40D
100
AcDbEntity
  8
0
100
AcDbLine
 62
7
  6
CONTINUOUS
 10
4.7969528892
 20
5.6543972774
 11
4.8061545551
 21
5.6619111625
  0
LINE
  5
40E
100
AcDbEntity
  8
0
100
AcDbLine
 62
7
  6
CONTINUOUS
 10
4.7968691494
 20
5.6543404612
 11
4.7969528892
 21
5.6543972774
  0
LINE
  5
40F
100
AcDbEntity
  8
0
100
AcDbLine
 62
7
  6
CONTINUOUS
 10
4.6949792593
 20
5.8623728998
 11
4.6830904713
 21
5.8662560077
  0
LINE
  5
410
100
AcDbEntity
  8
0
100
AcDbLine
 62
7
  6
CONTINUOUS
 10
4.796869147
 20
6.0632556105
 11
4.7969528893
 21
6.0631987928
  0
LINE
  5
411
100
AcDbEntity
  8
0
100
AcDbLine
 62
7
  6
CONTINUOUS
 10
4.7969528893
 20
6.0631987928
 11
4.8061732299
 21
6.05566984
  0
SPLINE
  5
412
100
AcDbEntity
  8
0
100
AcDbSpline
 62
7
  6
CONTINUOUS
 70
0
 71
3
 72
15
 73
11
 74
0
 42
0.0000001
 43
0.0000001
 44
0.0000000001
 40
0.0
 40
0.0
 40
0.0
 40
0.0
 40
0.1271349436
 40
0.2536770428
 40
0.3795412937
 40
0.5047037527
 40
0.6292044849
 40
0.753144933
 40
0.8766791251
 40
1.0
 40
1.0
 40
1.0
 40
1.0
 10
5.1137916963
 20
4.1700849029
 30
0.0
 10
5.1144989244
 20
4.1703404678
 30
0.0
 10
5.115874773
 20
4.1709551905
 30
0.0
 10
5.1177730254
 20
4.1721685262
 30
0.0
 10
5.1194604074
 20
4.1736445531
 30
0.0
 10
5.120897532
 20
4.1753494711
 30
0.0
 10
5.1220514122
 20
4.1772443687
 30
0.0
 10
5.1228953021
 20
4.1792860367
 30
0.0
 10
5.1234096237
 20
4.1814268977
 30
0.0
 10
5.1235248447
 20
4.182889605
 30
0.0
 10
5.1235248447
 20
4.1836190325
 30
0.0
  0
SPLINE
  5
413
100
AcDbEntity
  8
0
100
AcDbSpline
 62
7
  6
CONTINUOUS
 70
0
 71
3
 72
15
 73
11
 74
0
 42
0.0000001
 43
0.0000001
 44
0.0000000001
 40
0.0
 40
0.0
 40
0.0
 40
0.0
 40
0.1126993219
 40
0.2312484532
 40
0.3547973573
 40
0.4821637209
 40
0.6119334629
 40
0.7425550868
 40
0.8724296782
 40
1.0
 40
1.0
 40
1.0
 40
1.0
 10
4.8431711092
 20
4.2409976042
 30
0.0
 10
4.8426558272
 20
4.2413986382
 30
0.0
 10
4.8416593642
 20
4.242301908
 30
0.0
 10
4.8403264316
 20
4.2438732657
 30
0.0
 10
4.8391430404
 20
4.2456627456
 30
0.0
 10
4.8381358075
 20
4.2476297106
 30
0.0
 10
4.8373270165
 20
4.2497299814
 30
0.0
 10
4.8367348217
 20
4.2519163399
 30
0.0
 10
4.8363725454
 20
4.2541391871
 30
0.0
 10
4.836288734
 20
4.25563186
 30
0.0
 10
4.836288734
 20
4.2563709687
 30
0.0
  0
SPLINE
  5
414
100
AcDbEntity
  8
0
100
AcDbSpline
 62
7
  6
CONTINUOUS
 70
0
 71
3
 72
9
 73
5
 74
0
 42
0.0000001
 43
0.0000001
 44
0.0000000001
 40
0.0
 40
0.0
 40
0.0
 40
0.0
 40
0.4921924606
 40
1.0
 40
1.0
 40
1.0
 40
1.0
 10
4.8431711092
 20
4.2409976042
 30
0.0
 10
4.8437868789
 20
4.2409906516
 30
0.0
 10
4.845039829
 20
4.2410564887
 30
0.0
 10
4.8462759234
 20
4.2412684574
 30
0.0
 10
4.8468953357
 20
4.2414098529
 30
0.0
  0
SPLINE
  5
415
100
AcDbEntity
  8
0
100
AcDbSpline
 62
7
  6
CONTINUOUS
 70
0
 71
3
 72
15
 73
11
 74
0
 42
0.0000001
 43
0.0000001
 44
0.0000000001
 40
0.0
 40
0.0
 40
0.0
 40
0.0
 40
0.1126993219
 40
0.2312484532
 40
0.3547973573
 40
0.4821637209
 40
0.6119334629
 40
0.7425550868
 40
0.8724296782
 40
1.0
 40
1.0
 40
1.0
 40
1.0
 10
5.1122490712
 20
4.2120368502
 30
0.0
 10
5.1127643532
 20
4.2124378842
 30
0.0
 10
5.1137608162
 20
4.213341154
 30
0.0
 10
5.1150937488
 20
4.2149125116
 30
0.0
 10
5.11627714
 20
4.2167019916
 30
0.0
 10
5.1172843729
 20
4.2186689566
 30
0.0
 10
5.1180931639
 20
4.2207692274
 30
0.0
 10
5.1186853587
 20
4.2229555859
 30
0.0
 10
5.119047635
 20
4.2251784331
 30
0.0
 10
5.1191314464
 20
4.226671106
 30
0.0
 10
5.1191314464
 20
4.2274102147
 30
0.0
  0
LINE
  5
416
100
AcDbEntity
  8
0
100
AcDbLine
 62
7
  6
CONTINUOUS
 10
5.1122490712
 20
4.2120368502
 11
5.1137916963
 21
4.211041594
  0
SPLINE
  5
417
100
AcDbEntity
  8
0
100
AcDbSpline
 62
7
  6
CONTINUOUS
 70
0
 71
3
 72
15
 73
11
 74
0
 42
0.0000001
 43
0.0000001
 44
0.0000000001
 40
0.0
 40
0.0
 40
0.0
 40
0.0
 40
0.1271349435
 40
0.2536770426
 40
0.3795412934
 40
0.5047037523
 40
0.6292044845
 40
0.7531449326
 40
0.876679125
 40
1.0
 40
1.0
 40
1.0
 40
1.0
 10
5.1137916963
 20
4.211041594
 30
0.0
 10
5.1144989244
 20
4.2112971589
 30
0.0
 10
5.115874773
 20
4.2119118816
 30
0.0
 10
5.1177730254
 20
4.2131252173
 30
0.0
 10
5.1194604074
 20
4.2146012442
 30
0.0
 10
5.120897532
 20
4.2163061622
 30
0.0
 10
5.1220514122
 20
4.2182010598
 30
0.0
 10
5.1228953021
 20
4.2202427278
 30
0.0
 10
5.1234096237
 20
4.2223835888
 30
0.0
 10
5.1235248447
 20
4.2238462961
 30
0.0
 10
5.1235248447
 20
4.2245757236
 30
0.0
  0
SPLINE
  5
418
100
AcDbEntity
  8
0
100
AcDbSpline
 62
7
  6
CONTINUOUS
 70
0
 71
3
 72
18
 73
14
 74
0
 42
0.0000001
 43
0.0000001
 44
0.0000000001
 40
0.0
 40
0.0
 40
0.0
 40
0.0
 40
0.0358789916
 40
0.072871524
 40
0.1537477564
 40
0.1993069591
 40
0.2489072092
 40
0.3028825429
 40
0.3614535223
 40
0.4928097802
 40
0.6433592219
 40
0.8127453273
 40
1.0
 40
1.0
 40
1.0
 40
1.0
 10
4.7235248447
 20
4.2531039964
 30
0.0
 10
4.7235248447
 20
4.2531698154
 30
0.0
 10
4.7235373744
 20
4.2533038073
 30
0.0
 10
4.7236137666
 20
4.2535766257
 30
0.0
 10
4.723767011
 20
4.253840126
 30
0.0
 10
4.7239761438
 20
4.2540864472
 30
0.0
 10
4.7241740733
 20
4.2542760661
 30
0.0
 10
4.7244061835
 20
4.2544625415
 30
0.0
 10
4.7247749736
 20
4.2547165014
 30
0.0
 10
4.7253224405
 20
4.2550200683
 30
0.0
 10
4.726081003
 20
4.2553536666
 30
0.0
 10
4.7269580595
 20
4.2556661993
 30
0.0
 10
4.7275863756
 20
4.2558497997
 30
0.0
 10
4.727918243
 20
4.2559384875
 30
0.0
  0
SPLINE
  5
419
100
AcDbEntity
  8
0
100
AcDbSpline
 62
7
  6
CONTINUOUS
 70
0
 71
3
 72
18
 73
14
 74
0
 42
0.0000001
 43
0.0000001
 44
0.0000000001
 40
0.0
 40
0.0
 40
0.0
 40
0.0
 40
0.1872546727
 40
0.3566407781
 40
0.5071902197
 40
0.6385464776
 40
0.6971174571
 40
0.7510927908
 40
0.8006930409
 40
0.8462522435
 40
0.927128476
 40
0.9641210084
 40
1.0
 40
1.0
 40
1.0
 40
1.0
 10
4.727918243
 20
4.2274102147
 30
0.0
 10
4.7275863756
 20
4.2273215269
 30
0.0
 10
4.7269580595
 20
4.2271379265
 30
0.0
 10
4.726081003
 20
4.2268253938
 30
0.0
 10
4.7253224405
 20
4.2264917955
 30
0.0
 10
4.7247749736
 20
4.2261882286
 30
0.0
 10
4.7244061835
 20
4.2259342687
 30
0.0
 10
4.7241740733
 20
4.2257477933
 30
0.0
 10
4.7239761438
 20
4.2255581744
 30
0.0
 10
4.723767011
 20
4.2253118532
 30
0.0
 10
4.7236137666
 20
4.2250483529
 30
0.0
 10
4.7235373744
 20
4.2247755345
 30
0.0
 10
4.7235248447
 20
4.2246415426
 30
0.0
 10
4.7235248447
 20
4.2245757236
 30
0.0
  0
SPLINE
  5
41A
100
AcDbEntity
  8
0
100
AcDbSpline
 62
7
  6
CONTINUOUS
 70
0
 71
3
 72
13
 73
9
 74
0
 42
0.0000001
 43
0.0000001
 44
0.0000000001
 40
0.0
 40
0.0
 40
0.0
 40
0.0
 40
0.1048935026
 40
0.2175753299
 40
0.3370956031
 40
0.4624732196
 40
0.726359242
 40
1.0
 40
1.0
 40
1.0
 40
1.0
 10
4.836288734
 20
4.2848992415
 30
0.0
 10
4.836650105
 20
4.2849958137
 30
0.0
 10
4.8374048077
 20
4.2851772033
 30
0.0
 10
4.8385845197
 20
4.2854094898
 30
0.0
 10
4.8398440538
 20
4.2856100534
 30
0.0
 10
4.8416444924
 20
4.2858363404
 30
0.0
 10
4.8440023483
 20
4.2860237197
 30
0.0
 10
4.8459195269
 20
4.2860733261
 30
0.0
 10
4.8468953357
 20
4.2860733261
 30
0.0
  0
SPLINE
  5
41B
100
AcDbEntity
  8
0
100
AcDbSpline
 62
7
  6
CONTINUOUS
 70
0
 71
3
 72
13
 73
9
 74
0
 42
0.0000001
 43
0.0000001
 44
0.0000000001
 40
0.0
 40
0.0
 40
0.0
 40
0.0
 40
0.273640758
 40
0.5375267804
 40
0.662904397
 40
0.7824246701
 40
0.8951064975
 40
1.0
 40
1.0
 40
1.0
 40
1.0
 10
4.8468953357
 20
4.2575450533
 30
0.0
 10
4.8459195269
 20
4.2575450533
 30
0.0
 10
4.8440023483
 20
4.2574954469
 30
0.0
 10
4.8416444924
 20
4.2573080676
 30
0.0
 10
4.8398440538
 20
4.2570817806
 30
0.0
 10
4.8385845197
 20
4.256881217
 30
0.0
 10
4.8374048077
 20
4.2566489305
 30
0.0
 10
4.836650105
 20
4.2564675409
 30
0.0
 10
4.836288734
 20
4.2563709687
 30
0.0
  0
SPLINE
  5
41C
100
AcDbEntity
  8
0
100
AcDbSpline
 62
7
  6
CONTINUOUS
 70
0
 71
3
 72
13
 73
9
 74
0
 42
0.0000001
 43
0.0000001
 44
0.0000000001
 40
0.0
 40
0.0
 40
0.0
 40
0.0
 40
0.273640758
 40
0.5375267804
 40
0.6629043969
 40
0.7824246701
 40
0.8951064974
 40
1.0
 40
1.0
 40
1.0
 40
1.0
 10
5.0001543538
 20
4.2860733261
 30
0.0
 10
5.0011301625
 20
4.2860733261
 30
0.0
 10
5.0030473412
 20
4.2860237197
 30
0.0
 10
5.005405197
 20
4.2858363404
 30
0.0
 10
5.0072056356
 20
4.2856100534
 30
0.0
 10
5.0084651697
 20
4.2854094898
 30
0.0
 10
5.0096448817
 20
4.2851772033
 30
0.0
 10
5.0103995844
 20
4.2849958137
 30
0.0
 10
5.0107609555
 20
4.2848992415
 30
0.0
  0
SPLINE
  5
41D
100
AcDbEntity
  8
0
100
AcDbSpline
 62
7
  6
CONTINUOUS
 70
0
 71
3
 72
13
 73
9
 74
0
 42
0.0000001
 43
0.0000001
 44
0.0000000001
 40
0.0
 40
0.0
 40
0.0
 40
0.0
 40
0.1048935026
 40
0.2175753299
 40
0.3370956031
 40
0.4624732196
 40
0.726359242
 40
1.0
 40
1.0
 40
1.0
 40
1.0
 10
5.0107609555
 20
4.2563709687
 30
0.0
 10
5.0103995844
 20
4.2564675409
 30
0.0
 10
5.0096448817
 20
4.2566489305
 30
0.0
 10
5.0084651697
 20
4.256881217
 30
0.0
 10
5.0072056356
 20
4.2570817806
 30
0.0
 10
5.005405197
 20
4.2573080676
 30
0.0
 10
5.0030473412
 20
4.2574954469
 30
0.0
 10
5.0011301625
 20
4.2575450533
 30
0.0
 10
5.0001543538
 20
4.2575450533
 30
0.0
  0
SPLINE
  5
41E
100
AcDbEntity
  8
0
100
AcDbSpline
 62
7
  6
CONTINUOUS
 70
0
 71
3
 72
11
 73
7
 74
0
 42
0.0000001
 43
0.0000001
 44
0.0000000001
 40
0.0
 40
0.0
 40
0.0
 40
0.0
 40
0.2493090793
 40
0.5011185756
 40
0.752364988
 40
1.0
 40
1.0
 40
1.0
 40
1.0
 10
4.8064785837
 20
5.6623324492
 30
0.0
 10
4.8069639679
 20
5.6619426215
 30
0.0
 10
4.8079646538
 20
5.6611897502
 30
0.0
 10
4.809532518
 20
5.6601526915
 30
0.0
 10
4.8111562746
 20
5.6592138513
 30
0.0
 10
4.8122716912
 20
5.658656958
 30
0.0
 10
4.8128335631
 20
5.6583987412
 30
0.0
  0
SPLINE
  5
41F
100
AcDbEntity
  8
0
100
AcDbSpline
 62
7
  6
CONTINUOUS
 70
0
 71
3
 72
11
 73
7
 74
0
 42
0.0000001
 43
0.0000001
 44
0.0000000001
 40
0.0
 40
0.0
 40
0.0
 40
0.0
 40
0.2513357934
 40
0.5039989107
 40
0.754646984
 40
1.0
 40
1.0
 40
1.0
 40
1.0
 10
4.8061545556
 20
5.6619111626
 30
0.0
 10
4.8066369436
 20
5.6614615516
 30
0.0
 10
4.807635163
 20
5.6605925325
 30
0.0
 10
4.8092117103
 20
5.6593924522
 30
0.0
 10
4.8108507234
 20
5.6583073479
 30
0.0
 10
4.8119830877
 20
5.657663491
 30
0.0
 10
4.8125539109
 20
5.657365912
 30
0.0
  0
SPLINE
  5
420
100
AcDbEntity
  8
0
100
AcDbSpline
 62
7
  6
CONTINUOUS
 70
0
 71
3
 72
15
 73
11
 74
0
 42
0.0000001
 43
0.0000001
 44
0.0000000001
 40
0.0
 40
0.0
 40
0.0
 40
0.0
 40
0.1251012608
 40
0.2502666102
 40
0.3754283898
 40
0.5005598824
 40
0.625615249
 40
0.7505537313
 40
0.8753633036
 40
1.0
 40
1.0
 40
1.0
 40
1.0
 10
4.7969528976
 20
5.6543972823
 30
0.0
 10
4.797280547
 20
5.6538379236
 30
0.0
 10
4.7980089681
 20
5.6527598731
 30
0.0
 10
4.7992991146
 20
5.6512969862
 30
0.0
 10
4.8007663985
 20
5.6500111193
 30
0.0
 10
4.8023857551
 20
5.6489241285
 30
0.0
 10
4.8041301331
 20
5.648054338
 30
0.0
 10
4.8059702603
 20
5.6474162234
 30
0.0
 10
4.8078747903
 20
5.6470207692
 30
0.0
 10
4.8091679832
 20
5.6469231461
 30
0.0
 10
4.8098137969
 20
5.6469163923
 30
0.0
  0
SPLINE
  5
421
100
AcDbEntity
  8
0
100
AcDbSpline
 62
7
  6
CONTINUOUS
 70
0
 71
3
 72
11
 73
7
 74
0
 42
0.0000001
 43
0.0000001
 44
0.0000000001
 40
0.0
 40
0.0
 40
0.0
 40
0.0
 40
0.2476350084
 40
0.4988814208
 40
0.7506909185
 40
1.0
 40
1.0
 40
1.0
 40
1.0
 10
5.0342161245
 20
5.6583987417
 30
0.0
 10
5.0347779964
 20
5.6586569585
 30
0.0
 10
5.035893413
 20
5.6592138519
 30
0.0
 10
5.0375171698
 20
5.6601526918
 30
0.0
 10
5.0390850339
 20
5.6611897508
 30
0.0
 10
5.04008572
 20
5.661942622
 30
0.0
 10
5.0405711042
 20
5.6623324495
 30
0.0
  0
SPLINE
  5
422
100
AcDbEntity
  8
0
100
AcDbSpline
 62
7
  6
CONTINUOUS
 70
0
 71
3
 72
11
 73
7
 74
0
 42
0.0000001
 43
0.0000001
 44
0.0000000001
 40
0.0
 40
0.0
 40
0.0
 40
0.0
 40
0.245353326
 40
0.4960013556
 40
0.7486643519
 40
1.0
 40
1.0
 40
1.0
 40
1.0
 10
5.0344957775
 20
5.6573658887
 30
0.0
 10
5.0350666028
 20
5.6576634677
 30
0.0
 10
5.0361989689
 20
5.6583073274
 30
0.0
 10
5.037837975
 20
5.6593924481
 30
0.0
 10
5.0394145251
 20
5.6605925279
 30
0.0
 10
5.0404127441
 20
5.6614615496
 30
0.0
 10
5.0408951323
 20
5.6619111612
 30
0.0
  0
SPLINE
  5
423
100
AcDbEntity
  8
0
100
AcDbSpline
 62
7
  6
CONTINUOUS
 70
0
 71
3
 72
15
 73
11
 74
0
 42
0.0000001
 43
0.0000001
 44
0.0000000001
 40
0.0
 40
0.0
 40
0.0
 40
0.0
 40
0.1246367334
 40
0.2494463649
 40
0.3743849176
 40
0.4994403416
 40
0.6245718562
 40
0.7497336074
 40
0.8748988716
 40
1.0
 40
1.0
 40
1.0
 40
1.0
 10
5.0372358925
 20
5.6469182362
 30
0.0
 10
5.0378815866
 20
5.6469250064
 30
0.0
 10
5.0391745387
 20
5.6470226706
 30
0.0
 10
5.0410786878
 20
5.6474182069
 30
0.0
 10
5.0429184058
 20
5.6480564119
 30
0.0
 10
5.0446623432
 20
5.6489262835
 30
0.0
 10
5.046281232
 20
5.6500133261
 30
0.0
 10
5.0477480329
 20
5.651299196
 30
0.0
 10
5.0490377008
 20
5.6527620216
 30
0.0
 10
5.0497658216
 20
5.6538399819
 30
0.0
 10
5.0500933303
 20
5.6543992831
 30
0.0
  0
SPLINE
  5
424
100
AcDbEntity
  8
0
100
AcDbSpline
 62
7
  6
CONTINUOUS
 70
0
 71
3
 72
15
 73
11
 74
0
 42
0.0000001
 43
0.0000001
 44
0.0000000001
 40
0.0
 40
0.0
 40
0.0
 40
0.0
 40
0.1251012612
 40
0.2502666109
 40
0.3754283906
 40
0.5005598833
 40
0.6256152498
 40
0.750553732
 40
0.8753633039
 40
1.0
 40
1.0
 40
1.0
 40
1.0
 10
5.0500967917
 20
6.0631987878
 30
0.0
 10
5.0497691423
 20
6.0637581464
 30
0.0
 10
5.0490407211
 20
6.064836197
 30
0.0
 10
5.0477505746
 20
6.0662990839
 30
0.0
 10
5.0462832907
 20
6.0675849508
 30
0.0
 10
5.0446639342
 20
6.0686719416
 30
0.0
 10
5.0429195562
 20
6.0695417321
 30
0.0
 10
5.041079429
 20
6.0701798467
 30
0.0
 10
5.039174899
 20
6.0705753009
 30
0.0
 10
5.037881706
 20
6.070672924
 30
0.0
 10
5.0372358924
 20
6.0706796778
 30
0.0
  0
SPLINE
  5
425
100
AcDbEntity
  8
0
100
AcDbSpline
 62
7
  6
CONTINUOUS
 70
0
 71
3
 72
11
 73
7
 74
0
 42
0.0000001
 43
0.0000001
 44
0.0000000001
 40
0.0
 40
0.0
 40
0.0
 40
0.0
 40
0.2513357887
 40
0.503998905
 40
0.75464698
 40
1.0
 40
1.0
 40
1.0
 40
1.0
 10
5.040895134
 20
6.0556849071
 30
0.0
 10
5.0404127459
 20
6.056134518
 30
0.0
 10
5.0394145262
 20
6.0570035369
 30
0.0
 10
5.0378379784
 20
6.058203617
 30
0.0
 10
5.0361989648
 20
6.0592887209
 30
0.0
 10
5.0350666003
 20
6.0599325777
 30
0.0
 10
5.0344957769
 20
6.0602301565
 30
0.0
  0
SPLINE
  5
426
100
AcDbEntity
  8
0
100
AcDbSpline
 62
7
  6
CONTINUOUS
 70
0
 71
3
 72
11
 73
7
 74
0
 42
0.0000001
 43
0.0000001
 44
0.0000000001
 40
0.0
 40
0.0
 40
0.0
 40
0.0
 40
0.2493090783
 40
0.5011185746
 40
0.7523649875
 40
1.0
 40
1.0
 40
1.0
 40
1.0
 10
5.0405711063
 20
6.0552636212
 30
0.0
 10
5.0400857221
 20
6.0556534489
 30
0.0
 10
5.039085036
 20
6.0564063202
 30
0.0
 10
5.0375171717
 20
6.057443379
 30
0.0
 10
5.0358934149
 20
6.0583822192
 30
0.0
 10
5.0347779982
 20
6.0589391126
 30
0.0
 10
5.0342161262
 20
6.0591973294
 30
0.0
  0
SPLINE
  5
427
100
AcDbEntity
  8
0
100
AcDbSpline
 62
7
  6
CONTINUOUS
 70
0
 71
3
 72
18
 73
14
 74
0
 42
0.0000001
 43
0.0000001
 44
0.0000000001
 40
0.0
 40
0.0
 40
0.0
 40
0.0
 40
0.1872546727
 40
0.3566407781
 40
0.5071902198
 40
0.6385464777
 40
0.6971174571
 40
0.7510927908
 40
0.8006930409
 40
0.8462522436
 40
0.927128476
 40
0.9641210084
 40
1.0
 40
1.0
 40
1.0
 40
1.0
 10
5.1191314464
 20
4.2559384875
 30
0.0
 10
5.1194633138
 20
4.2558497997
 30
0.0
 10
5.12009163
 20
4.2556661993
 30
0.0
 10
5.1209686865
 20
4.2553536666
 30
0.0
 10
5.1217272489
 20
4.2550200683
 30
0.0
 10
5.1222747158
 20
4.2547165014
 30
0.0
 10
5.1226435059
 20
4.2544625415
 30
0.0
 10
5.1228756161
 20
4.2542760661
 30
0.0
 10
5.1230735456
 20
4.2540864472
 30
0.0
 10
5.1232826785
 20
4.253840126
 30
0.0
 10
5.1234359228
 20
4.2535766257
 30
0.0
 10
5.123512315
 20
4.2533038073
 30
0.0
 10
5.1235248447
 20
4.2531698154
 30
0.0
 10
5.1235248447
 20
4.2531039964
 30
0.0
  0
SPLINE
  5
428
100
AcDbEntity
  8
0
100
AcDbSpline
 62
7
  6
CONTINUOUS
 70
0
 71
3
 72
18
 73
14
 74
0
 42
0.0000001
 43
0.0000001
 44
0.0000000001
 40
0.0
 40
0.0
 40
0.0
 40
0.0
 40
0.0358789916
 40
0.072871524
 40
0.1537477564
 40
0.1993069591
 40
0.2489072092
 40
0.3028825429
 40
0.3614535223
 40
0.4928097802
 40
0.643359222
 40
0.8127453273
 40
1.0
 40
1.0
 40
1.0
 40
1.0
 10
5.1235248447
 20
4.2245757236
 30
0.0
 10
5.1235248447
 20
4.2246415426
 30
0.0
 10
5.123512315
 20
4.2247755345
 30
0.0
 10
5.1234359228
 20
4.2250483529
 30
0.0
 10
5.1232826785
 20
4.2253118532
 30
0.0
 10
5.1230735456
 20
4.2255581744
 30
0.0
 10
5.1228756161
 20
4.2257477933
 30
0.0
 10
5.1226435059
 20
4.2259342687
 30
0.0
 10
5.1222747158
 20
4.2261882286
 30
0.0
 10
5.1217272489
 20
4.2264917955
 30
0.0
 10
5.1209686865
 20
4.2268253938
 30
0.0
 10
5.12009163
 20
4.2271379265
 30
0.0
 10
5.1194633138
 20
4.2273215269
 30
0.0
 10
5.1191314464
 20
4.2274102147
 30
0.0
  0
SPLINE
  5
429
100
AcDbEntity
  8
0
100
AcDbSpline
 62
7
  6
CONTINUOUS
 70
0
 71
3
 72
11
 73
7
 74
0
 42
0.0000001
 43
0.0000001
 44
0.0000000001
 40
0.0
 40
0.0
 40
0.0
 40
0.0
 40
0.2476350113
 40
0.4988814247
 40
0.7506909215
 40
1.0
 40
1.0
 40
1.0
 40
1.0
 10
4.8128335633
 20
6.0591973293
 30
0.0
 10
4.8122716913
 20
6.0589391124
 30
0.0
 10
4.8111562748
 20
6.058382219
 30
0.0
 10
4.8095325179
 20
6.0574433791
 30
0.0
 10
4.8079646537
 20
6.05640632
 30
0.0
 10
4.8069639677
 20
6.0556534487
 30
0.0
 10
4.8064785835
 20
6.0552636212
 30
0.0
  0
SPLINE
  5
42A
100
AcDbEntity
  8
0
100
AcDbSpline
 62
7
  6
CONTINUOUS
 70
0
 71
3
 72
11
 73
7
 74
0
 42
0.0000001
 43
0.0000001
 44
0.0000000001
 40
0.0
 40
0.0
 40
0.0
 40
0.0
 40
0.2453533384
 40
0.4960013711
 40
0.7486643628
 40
1.0
 40
1.0
 40
1.0
 40
1.0
 10
4.812553911
 20
6.0602301766
 30
0.0
 10
4.8119830858
 20
6.0599325978
 30
0.0
 10
4.8108507197
 20
6.0592887386
 30
0.0
 10
4.8092117136
 20
6.0582036187
 30
0.0
 10
4.8076351635
 20
6.0570035397
 30
0.0
 10
4.8066369444
 20
6.0561345187
 30
0.0
 10
4.8061545562
 20
6.0556849074
 30
0.0
  0
SPLINE
  5
42B
100
AcDbEntity
  8
0
100
AcDbSpline
 62
7
  6
CONTINUOUS
 70
0
 71
3
 72
15
 73
11
 74
0
 42
0.0000001
 43
0.0000001
 44
0.0000000001
 40
0.0
 40
0.0
 40
0.0
 40
0.0
 40
0.1246367337
 40
0.2494463653
 40
0.3743849181
 40
0.4994403421
 40
0.6245718567
 40
0.7497336078
 40
0.8748988718
 40
1.0
 40
1.0
 40
1.0
 40
1.0
 10
4.809813797
 20
6.070677834
 30
0.0
 10
4.8091681029
 20
6.0706710638
 30
0.0
 10
4.8078751508
 20
6.0705733996
 30
0.0
 10
4.8059710017
 20
6.0701778633
 30
0.0
 10
4.8041312836
 20
6.0695396583
 30
0.0
 10
4.8023873462
 20
6.0686697868
 30
0.0
 10
4.8007684575
 20
6.0675827442
 30
0.0
 10
4.7993016565
 20
6.0662968743
 30
0.0
 10
4.7980119886
 20
6.0648340487
 30
0.0
 10
4.7972838678
 20
6.0637560884
 30
0.0
 10
4.7969563591
 20
6.0631967872
 30
0.0
  0
SPLINE
  5
42C
100
AcDbEntity
  8
0
100
AcDbSpline
 62
7
  6
CONTINUOUS
 70
0
 71
3
 72
15
 73
11
 74
0
 42
0.0000001
 43
0.0000001
 44
0.0000000001
 40
0.0
 40
0.0
 40
0.0
 40
0.0
 40
0.1236784061
 40
0.2480087191
 40
0.3728095997
 40
0.4979379581
 40
0.6232902514
 40
0.7487886501
 40
0.8743740892
 40
1.0
 40
1.0
 40
1.0
 40
1.0
 10
4.6825435958
 20
6.374358747
 30
0.0
 10
4.6918036861
 20
6.3788013984
 30
0.0
 10
4.7106269091
 20
6.3871908459
 30
0.0
 10
4.7395798356
 20
6.3981981759
 30
0.0
 10
4.7692191959
 20
6.4076046213
 30
0.0
 10
4.7994202409
 20
6.4153596507
 30
0.0
 10
4.8300643696
 20
6.4214257486
 30
0.0
 10
4.8610373051
 20
6.4257759847
 30
0.0
 10
4.8922263534
 20
6.4283933051
 30
0.0
 10
4.9130924592
 20
6.428975164
 30
0.0
 10
4.9235248447
 20
6.4289753299
 30
0.0
  0
SPLINE
  5
42D
100
AcDbEntity
  8
0
100
AcDbSpline
 62
7
  6
CONTINUOUS
 70
0
 71
3
 72
27
 73
23
 74
0
 42
0.0000001
 43
0.0000001
 44
0.0000000001
 40
0.0
 40
0.0
 40
0.0
 40
0.0
 40
0.0618375171
 40
0.0928884449
 40
0.1240077635
 40
0.1864063166
 40
0.2489691199
 40
0.2802981645
 40
0.311649834
 40
0.37439741
 40
0.4371885605
 40
0.4999999999
 40
0.5628114392
 40
0.6256025905
 40
0.6883501654
 40
0.7197018353
 40
0.7510308807
 40
0.813593684
 40
0.8759922346
 40
0.9071115538
 40
0.9381624828
 40
1.0
 40
1.0
 40
1.0
 40
1.0
 10
4.3565455465
 20
5.9078825076
 30
0.0
 10
4.3573280272
 20
5.9181232858
 30
0.0
 10
4.3589358996
 20
5.9334778366
 30
0.0
 10
4.361937899
 20
5.9538563275
 30
0.0
 10
4.3655252391
 20
5.9742351763
 30
0.0
 10
4.3710915195
 20
5.9995687522
 30
0.0
 10
4.3780756864
 20
6.024584863
 30
0.0
 10
4.3845049438
 20
6.0443706419
 30
0.0
 10
4.3914947942
 20
6.0639979303
 30
0.0
 10
4.4012637175
 20
6.0881714035
 30
0.0
 10
4.4145921313
 20
6.1164907396
 30
0.0
 10
4.4294846158
 20
6.1440322942
 30
0.0
 10
4.44589006
 20
6.1707003412
 30
0.0
 10
4.4637511165
 20
6.1964027548
 30
0.0
 10
4.4798014976
 20
6.2169496265
 30
0.0
 10
4.4933043027
 20
6.2328166589
 30
0.0
 10
4.5072246608
 20
6.2482774491
 30
0.0
 10
4.5253971646
 20
6.2668339703
 30
0.0
 10
4.5445535451
 20
6.2843212975
 30
0.0
 10
4.5604084755
 20
6.2976174498
 30
0.0
 10
4.5765557666
 20
6.3104065035
 30
0.0
 10
4.5890492622
 20
6.3194762366
 30
0.0
 10
4.5975267955
 20
6.3252742745
 30
0.0
  0
SPLINE
  5
42E
100
AcDbEntity
  8
0
100
AcDbSpline
 62
7
  6
CONTINUOUS
 70
0
 71
3
 72
27
 73
23
 74
0
 42
0.0000001
 43
0.0000001
 44
0.0000000001
 40
0.0
 40
0.0
 40
0.0
 40
0.0
 40
0.0618375172
 40
0.0928884464
 40
0.1240077657
 40
0.1864063161
 40
0.2489691192
 40
0.2802981649
 40
0.3116498349
 40
0.3743974095
 40
0.437188561
 40
0.5000000003
 40
0.5628114397
 40
0.62560259
 40
0.6883501663
 40
0.7197018357
 40
0.75103088
 40
0.8135936834
 40
0.8759922369
 40
0.9071115553
 40
0.9381624829
 40
1.0
 40
1.0
 40
1.0
 40
1.0
 10
4.5975267955
 20
5.3923217957
 30
0.0
 10
4.5890492622
 20
5.3981198336
 30
0.0
 10
4.5765557665
 20
5.4071895666
 30
0.0
 10
4.5604084754
 20
5.4199786204
 30
0.0
 10
4.5445535451
 20
5.4332747727
 30
0.0
 10
4.5253971646
 20
5.4507620999
 30
0.0
 10
4.5072246607
 20
5.469318621
 30
0.0
 10
4.4933043027
 20
5.4847794114
 30
0.0
 10
4.4798014977
 20
5.5006464438
 30
0.0
 10
4.4637511162
 20
5.5211933153
 30
0.0
 10
4.4458900602
 20
5.5468957292
 30
0.0
 10
4.4294846158
 20
5.5735637761
 30
0.0
 10
4.414592131
 20
5.6011053306
 30
0.0
 10
4.4012637177
 20
5.6294246668
 30
0.0
 10
4.3914947941
 20
5.6535981399
 30
0.0
 10
4.3845049437
 20
5.6732254283
 30
0.0
 10
4.3780756865
 20
5.6930112072
 30
0.0
 10
4.3710915194
 20
5.718027318
 30
0.0
 10
4.365525239
 20
5.7433608939
 30
0.0
 10
4.3619378989
 20
5.7637397427
 30
0.0
 10
4.3589358997
 20
5.7841182336
 30
0.0
 10
4.3573280271
 20
5.7994727844
 30
0.0
 10
4.3565455465
 20
5.8097135625
 30
0.0
  0
SPLINE
  5
42F
100
AcDbEntity
  8
0
100
AcDbSpline
 62
7
  6
CONTINUOUS
 70
0
 71
3
 72
13
 73
9
 74
0
 42
0.0000001
 43
0.0000001
 44
0.0000000001
 40
0.0
 40
0.0
 40
0.0
 40
0.0
 40
0.2499963627
 40
0.3749953924
 40
0.4999960412
 40
0.6249969825
 40
0.7500024766
 40
1.0
 40
1.0
 40
1.0
 40
1.0
 10
5.1320912307
 20
5.4828334367
 30
0.0
 10
5.1363753088
 20
5.4921232452
 30
0.0
 10
5.1428582211
 20
5.5060321951
 30
0.0
 10
5.1517127367
 20
5.5244774704
 30
0.0
 10
5.1584830096
 20
5.5382488142
 30
0.0
 10
5.1654079999
 20
5.5519435468
 30
0.0
 10
5.1748790764
 20
5.5700803177
 30
0.0
 10
5.1822909213
 20
5.5835217379
 30
0.0
 10
5.1874064822
 20
5.5923809635
 30
0.0
  0
SPLINE
  5
430
100
AcDbEntity
  8
0
100
AcDbSpline
 62
7
  6
CONTINUOUS
 70
0
 71
3
 72
13
 73
9
 74
0
 42
0.0000001
 43
0.0000001
 44
0.0000000001
 40
0.0
 40
0.0
 40
0.0
 40
0.0
 40
0.249997523
 40
0.3750030177
 40
0.5000039595
 40
0.6250046078
 40
0.7500036367
 40
1.0
 40
1.0
 40
1.0
 40
1.0
 10
4.6596436153
 20
5.5923802568
 30
0.0
 10
4.6647591324
 20
5.5835210857
 30
0.0
 10
4.6721709147
 20
5.5700797494
 30
0.0
 10
4.6816419214
 20
5.5519430978
 30
0.0
 10
4.6885668634
 20
5.5382484566
 30
0.0
 10
4.6953370853
 20
5.5244772032
 30
0.0
 10
4.7041915206
 20
5.5060320425
 30
0.0
 10
4.7106743713
 20
5.4921231782
 30
0.0
 10
4.7149584205
 20
5.4828334323
 30
0.0
  0
SPLINE
  5
431
100
AcDbEntity
  8
0
100
AcDbSpline
 62
7
  6
CONTINUOUS
 70
0
 71
3
 72
37
 73
33
 74
0
 42
0.0000001
 43
0.0000001
 44
0.0000000001
 40
0.0
 40
0.0
 40
0.0
 40
0.0
 40
0.0907401968
 40
0.180667777
 40
0.2689838429
 40
0.3549048321
 40
0.3967316726
 40
0.4376801218
 40
0.4776623059
 40
0.5165933418
 40
0.5543918386
 40
0.5909804353
 40
0.6262859051
 40
0.660239859
 40
0.6927793796
 40
0.7238473014
 40
0.7533932981
 40
0.7813748114
 40
0.8077578813
 40
0.832519067
 40
0.8556473163
 40
0.8771463186
 40
0.8970385323
 40
0.9153697816
 40
0.9322154879
 40
0.9476893724
 40
0.9619529282
 40
0.975224882
 40
0.9815801538
 40
0.9877981316
 40
0.993922715
 40
1.0
 40
1.0
 40
1.0
 40
1.0
 10
4.9235248447
 20
4.3462805757
 30
0.0
 10
4.9315303302
 20
4.3462805757
 30
0.0
 10
4.9474704049
 20
4.3460722446
 30
0.0
 10
4.9711855526
 20
4.345136403
 30
0.0
 10
4.9944426158
 20
4.3435868876
 30
0.0
 10
5.0134219968
 20
4.3417812234
 30
0.0
 10
5.0282025499
 20
4.3400327374
 30
0.0
 10
5.0389368005
 20
4.3385907619
 30
0.0
 10
5.0493932045
 20
4.3370100731
 30
0.0
 10
5.0595466312
 20
4.3352944559
 30
0.0
 10
5.0693726621
 20
4.3334480649
 30
0.0
 10
5.0788476917
 20
4.3314754094
 30
0.0
 10
5.0879489626
 20
4.3293812494
 30
0.0
 10
5.0966546389
 20
4.3271706575
 30
0.0
 10
5.1049438691
 20
4.3248490279
 30
0.0
 10
5.1127968202
 20
4.322421954
 30
0.0
 10
5.1201947558
 20
4.3198953082
 30
0.0
 10
5.1271200985
 20
4.3172752215
 30
0.0
 10
5.1335564508
 20
4.3145679431
 30
0.0
 10
5.1394886927
 20
4.3117799268
 30
0.0
 10
5.1449030376
 20
4.3089177469
 30
0.0
 10
5.1497870236
 20
4.3059878984
 30
0.0
 10
5.1541296088
 20
4.3029968389
 30
0.0
 10
5.1579211244
 20
4.2999506975
 30
0.0
 10
5.1611529843
 20
4.2968550721
 30
0.0
 10
5.163817446
 20
4.2937145641
 30
0.0
 10
5.1659065074
 20
4.2905341975
 30
0.0
 10
5.1671784477
 20
4.2878136508
 30
0.0
 10
5.167880761
 20
4.2856418092
 30
0.0
 10
5.1682521537
 20
4.2840323026
 30
0.0
 10
5.1684751735
 20
4.2824204864
 30
0.0
 10
5.1685248447
 20
4.2813433374
 30
0.0
 10
5.1685248447
 20
4.2808071735
 30
0.0
  0
SPLINE
  5
432
100
AcDbEntity
  8
0
100
AcDbSpline
 62
7
  6
CONTINUOUS
 70
0
 71
3
 72
22
 73
18
 74
0
 42
0.0000001
 43
0.0000001
 44
0.0000000001
 40
0.0
 40
0.0
 40
0.0
 40
0.0
 40
0.0448346306
 40
0.0918486289
 40
0.1411175439
 40
0.1927027532
 40
0.2466537121
 40
0.3030090754
 40
0.3617918402
 40
0.4230135813
 40
0.4866792948
 40
0.5527884855
 40
0.6213360358
 40
0.6923114687
 40
0.7656937787
 40
0.8414566513
 40
1.0
 40
1.0
 40
1.0
 40
1.0
 10
5.2017878031
 20
3.6450822467
 30
0.0
 10
5.200674867
 20
3.6462160931
 30
0.0
 10
5.1983287315
 20
3.648474665
 30
0.0
 10
5.1945550846
 20
3.6517586515
 30
0.0
 10
5.1904479321
 20
3.6550153358
 30
0.0
 10
5.1860100086
 20
3.6582424292
 30
0.0
 10
5.181243884
 20
3.6614378044
 30
0.0
 10
5.1761523823
 20
3.6645990141
 30
0.0
 10
5.1707391142
 20
3.667724089
 30
0.0
 10
5.1650081042
 20
3.6708110244
 30
0.0
 10
5.1589634633
 20
3.6738576795
 30
0.0
 10
5.152609323
 20
3.6768619144
 30
0.0
 10
5.1459498666
 20
3.6798215635
 30
0.0
 10
5.1389895773
 20
3.6827343119
 30
0.0
 10
5.1317335409
 20
3.6855984172
 30
0.0
 10
5.121516617
 20
3.6894075292
 30
0.0
 10
5.1136586859
 20
3.6920960198
 30
0.0
 10
5.1083155694
 20
3.6938325625
 30
0.0
  0
SPLINE
  5
433
100
AcDbEntity
  8
0
100
AcDbSpline
 62
7
  6
CONTINUOUS
 70
0
 71
3
 72
37
 73
33
 74
0
 42
0.0000001
 43
0.0000001
 44
0.0000000001
 40
0.0
 40
0.0
 40
0.0
 40
0.0
 40
0.0907401968
 40
0.180667777
 40
0.2689838429
 40
0.3549048321
 40
0.3967316726
 40
0.4376801218
 40
0.4776623059
 40
0.5165933418
 40
0.5543918386
 40
0.5909804353
 40
0.6262859051
 40
0.660239859
 40
0.6927793796
 40
0.7238473014
 40
0.7533932981
 40
0.7813748114
 40
0.8077578813
 40
0.832519067
 40
0.8556473163
 40
0.8771463186
 40
0.8970385323
 40
0.9153697816
 40
0.9322154879
 40
0.9476893724
 40
0.9619529282
 40
0.975224882
 40
0.9815801538
 40
0.9877981316
 40
0.993922715
 40
1.0
 40
1.0
 40
1.0
 40
1.0
 10
4.9235248447
 20
4.3125535098
 30
0.0
 10
4.9315303302
 20
4.3125535098
 30
0.0
 10
4.9474704049
 20
4.3123451787
 30
0.0
 10
4.9711855526
 20
4.3114093371
 30
0.0
 10
4.9944426158
 20
4.3098598217
 30
0.0
 10
5.0134219968
 20
4.3080541576
 30
0.0
 10
5.0282025499
 20
4.3063056716
 30
0.0
 10
5.0389368005
 20
4.304863696
 30
0.0
 10
5.0493932045
 20
4.3032830072
 30
0.0
 10
5.0595466312
 20
4.3015673901
 30
0.0
 10
5.0693726621
 20
4.299720999
 30
0.0
 10
5.0788476917
 20
4.2977483435
 30
0.0
 10
5.0879489626
 20
4.2956541836
 30
0.0
 10
5.0966546389
 20
4.2934435916
 30
0.0
 10
5.1049438691
 20
4.2911219621
 30
0.0
 10
5.1127968202
 20
4.2886948881
 30
0.0
 10
5.1201947558
 20
4.2861682423
 30
0.0
 10
5.1271200985
 20
4.2835481556
 30
0.0
 10
5.1335564508
 20
4.2808408773
 30
0.0
 10
5.1394886927
 20
4.2780528609
 30
0.0
 10
5.1449030376
 20
4.2751906811
 30
0.0
 10
5.1497870236
 20
4.2722608326
 30
0.0
 10
5.1541296088
 20
4.2692697731
 30
0.0
 10
5.1579211244
 20
4.2662236316
 30
0.0
 10
5.1611529843
 20
4.2631280062
 30
0.0
 10
5.163817446
 20
4.2599874983
 30
0.0
 10
5.1659065074
 20
4.2568071316
 30
0.0
 10
5.1671784477
 20
4.254086585
 30
0.0
 10
5.167880761
 20
4.2519147433
 30
0.0
 10
5.1682521537
 20
4.2503052367
 30
0.0
 10
5.1684751735
 20
4.2486934205
 30
0.0
 10
5.1685248447
 20
4.2476162716
 30
0.0
 10
5.1685248447
 20
4.2470801077
 30
0.0
  0
SPLINE
  5
434
100
AcDbEntity
  8
0
100
AcDbSpline
 62
7
  6
CONTINUOUS
 70
0
 71
3
 72
57
 73
53
 74
0
 42
0.0000001
 43
0.0000001
 44
0.0000000001
 40
0.0
 40
0.0
 40
0.0
 40
0.0
 40
0.0511226845
 40
0.1020453337
 40
0.152563815
 40
0.2024817278
 40
0.2516025094
 40
0.2997351591
 40
0.3466935751
 40
0.3922981757
 40
0.436376983
 40
0.4787668831
 40
0.5193149825
 40
0.5578801248
 40
0.5943346715
 40
0.6285666678
 40
0.6448200954
 40
0.660484621
 40
0.6755519875
 40
0.6900156777
 40
0.703871167
 40
0.7171158062
 40
0.7297497184
 40
0.7417754513
 40
0.7531990754
 40
0.7640302563
 40
0.7742830875
 40
0.7839770114
 40
0.7931373388
 40
0.8017968742
 40
0.8099964344
 40
0.8177864155
 40
0.8252273075
 40
0.832390024
 40
0.8393552995
 40
0.8462116192
 40
0.8530522317
 40
0.8599710664
 40
0.8670586132
 40
0.8743984349
 40
0.8820649022
 40
0.8901219153
 40
0.8986232476
 40
0.9076127224
 40
0.9171257238
 40
0.9271899463
 40
0.9378266213
 40
0.9490516311
 40
0.9608759151
 40
0.9733067952
 40
0.9863478495
 40
1.0
 40
1.0
 40
1.0
 40
1.0
 10
4.9235248447
 20
4.2940904774
 30
0.0
 10
4.9285218813
 20
4.2940904774
 30
0.0
 10
4.9384966218
 20
4.2940036794
 30
0.0
 10
4.9534047432
 20
4.2936134467
 30
0.0
 10
4.9681860524
 20
4.2929648674
 30
0.0
 10
4.9827774939
 20
4.292060798
 30
0.0
 10
4.9971172554
 20
4.2909050649
 30
0.0
 10
5.0111443575
 20
4.2895026553
 30
0.0
 10
5.024799268
 20
4.2878595768
 30
0.0
 10
5.0380240259
 20
4.2859828895
 30
0.0
 10
5.0507625365
 20
4.2838806621
 30
0.0
 10
5.0629608184
 20
4.2815619374
 30
0.0
 10
5.0745672222
 20
4.2790366899
 30
0.0
 10
5.0855327586
 20
4.2763157938
 30
0.0
 10
5.0958110288
 20
4.273410926
 30
0.0
 10
5.1039019223
 20
4.2708042507
 30
0.0
 10
5.10999093
 20
4.2686276615
 30
0.0
 10
5.1142803213
 20
4.2669853464
 30
0.0
 10
5.1183671229
 20
4.2653066376
 30
0.0
 10
5.1222470319
 20
4.2635932694
 30
0.0
 10
5.1259159901
 20
4.2618471122
 30
0.0
 10
5.1293701273
 20
4.2600699119
 30
0.0
 10
5.1326058768
 20
4.2582636235
 30
0.0
 10
5.1356198416
 20
4.2564300206
 30
0.0
 10
5.1384089305
 20
4.2545710372
 30
0.0
 10
5.1409702662
 20
4.2526885151
 30
0.0
 10
5.1433011893
 20
4.2507842631
 30
0.0
 10
5.1453993496
 20
4.2488601608
 30
0.0
 10
5.1472624538
 20
4.2469178547
 30
0.0
 10
5.1488885631
 20
4.2449591572
 30
0.0
 10
5.1502756561
 20
4.242985634
 30
0.0
 10
5.1514219143
 20
4.2409990145
 30
0.0
 10
5.1523254745
 20
4.239001071
 30
0.0
 10
5.1529844299
 20
4.2369938343
 30
0.0
 10
5.1533972582
 20
4.234979812
 30
0.0
 10
5.1535625191
 20
4.2329619125
 30
0.0
 10
5.1534798503
 20
4.2309434542
 30
0.0
 10
5.1531493795
 20
4.2289277874
 30
0.0
 10
5.1525722396
 20
4.2269179992
 30
0.0
 10
5.1517499874
 20
4.224916702
 30
0.0
 10
5.1506843482
 20
4.2229261181
 30
0.0
 10
5.1493773043
 20
4.2209480252
 30
0.0
 10
5.1478305879
 20
4.218984221
 30
0.0
 10
5.1460462262
 20
4.2170362595
 30
0.0
 10
5.1440261325
 20
4.215105901
 30
0.0
 10
5.1417724909
 20
4.2131948464
 30
0.0
 10
5.139287642
 20
4.2113048667
 30
0.0
 10
5.1365741082
 20
4.2094378548
 30
0.0
 10
5.1336347341
 20
4.2075955712
 30
0.0
 10
5.130472494
 20
4.2057799872
 30
0.0
 10
5.1270907481
 20
4.2039928954
 30
0.0
 10
5.1247457284
 20
4.2028478896
 30
0.0
 10
5.1235383549
 20
4.2022795704
 30
0.0
  0
SPLINE
  5
435
100
AcDbEntity
  8
0
100
AcDbSpline
 62
7
  6
CONTINUOUS
 70
0
 71
3
 72
57
 73
53
 74
0
 42
0.0000001
 43
0.0000001
 44
0.0000000001
 40
0.0
 40
0.0
 40
0.0
 40
0.0
 40
0.0136521505
 40
0.0266932048
 40
0.0391240849
 40
0.0509483689
 40
0.0621733787
 40
0.0728100537
 40
0.0828742762
 40
0.0923872776
 40
0.1013767524
 40
0.1098780847
 40
0.1179350978
 40
0.1256015651
 40
0.1329413868
 40
0.1400289336
 40
0.1469477683
 40
0.1537883808
 40
0.1606447005
 40
0.167609976
 40
0.1747726925
 40
0.1822135845
 40
0.1900035656
 40
0.1982031258
 40
0.2068626612
 40
0.2160229886
 40
0.2257169125
 40
0.2359697437
 40
0.2468009246
 40
0.2582245487
 40
0.2702502816
 40
0.2828841938
 40
0.296128833
 40
0.3099843223
 40
0.3244480125
 40
0.339515379
 40
0.3551799046
 40
0.3714333322
 40
0.4056653285
 40
0.4421198752
 40
0.4806850175
 40
0.5212331169
 40
0.563623017
 40
0.6077018243
 40
0.6533064249
 40
0.7002648409
 40
0.7483974906
 40
0.7975182721
 40
0.847436185
 40
0.8979546663
 40
0.9488773155
 40
1.0
 40
1.0
 40
1.0
 40
1.0
 10
4.7235113345
 20
4.2022795704
 30
0.0
 10
4.7223039611
 20
4.2028478896
 30
0.0
 10
4.7199589413
 20
4.2039928954
 30
0.0
 10
4.7165771954
 20
4.2057799872
 30
0.0
 10
4.7134149554
 20
4.2075955712
 30
0.0
 10
4.7104755813
 20
4.2094378548
 30
0.0
 10
4.7077620475
 20
4.2113048667
 30
0.0
 10
4.7052771985
 20
4.2131948464
 30
0.0
 10
4.703023557
 20
4.215105901
 30
0.0
 10
4.7010034632
 20
4.2170362595
 30
0.0
 10
4.6992191015
 20
4.218984221
 30
0.0
 10
4.6976723852
 20
4.2209480252
 30
0.0
 10
4.6963653412
 20
4.2229261181
 30
0.0
 10
4.6952997021
 20
4.224916702
 30
0.0
 10
4.6944774498
 20
4.2269179992
 30
0.0
 10
4.69390031
 20
4.2289277874
 30
0.0
 10
4.6935698391
 20
4.2309434542
 30
0.0
 10
4.6934871703
 20
4.2329619125
 30
0.0
 10
4.6936524313
 20
4.234979812
 30
0.0
 10
4.6940652595
 20
4.2369938343
 30
0.0
 10
4.6947242149
 20
4.239001071
 30
0.0
 10
4.6956277751
 20
4.2409990145
 30
0.0
 10
4.6967740333
 20
4.242985634
 30
0.0
 10
4.6981611264
 20
4.2449591572
 30
0.0
 10
4.6997872357
 20
4.2469178547
 30
0.0
 10
4.7016503398
 20
4.2488601608
 30
0.0
 10
4.7037485001
 20
4.2507842631
 30
0.0
 10
4.7060794232
 20
4.2526885151
 30
0.0
 10
4.7086407589
 20
4.2545710372
 30
0.0
 10
4.7114298479
 20
4.2564300206
 30
0.0
 10
4.7144438127
 20
4.2582636235
 30
0.0
 10
4.7176795621
 20
4.2600699119
 30
0.0
 10
4.7211336994
 20
4.2618471122
 30
0.0
 10
4.7248026576
 20
4.2635932694
 30
0.0
 10
4.7286825665
 20
4.2653066376
 30
0.0
 10
4.7327693681
 20
4.2669853464
 30
0.0
 10
4.7370587594
 20
4.2686276615
 30
0.0
 10
4.7431477672
 20
4.2708042507
 30
0.0
 10
4.7512386607
 20
4.273410926
 30
0.0
 10
4.7615169308
 20
4.2763157938
 30
0.0
 10
4.7724824673
 20
4.2790366899
 30
0.0
 10
4.7840888711
 20
4.2815619374
 30
0.0
 10
4.796287153
 20
4.2838806621
 30
0.0
 10
4.8090256636
 20
4.2859828895
 30
0.0
 10
4.8222504215
 20
4.2878595768
 30
0.0
 10
4.8359053319
 20
4.2895026553
 30
0.0
 10
4.8499324341
 20
4.2909050649
 30
0.0
 10
4.8642721955
 20
4.292060798
 30
0.0
 10
4.878863637
 20
4.2929648674
 30
0.0
 10
4.8936449462
 20
4.2936134467
 30
0.0
 10
4.9085530677
 20
4.2940036794
 30
0.0
 10
4.9185278081
 20
4.2940904774
 30
0.0
 10
4.9235248447
 20
4.2940904774
 30
0.0
  0
SPLINE
  5
436
100
AcDbEntity
  8
0
100
AcDbSpline
 62
7
  6
CONTINUOUS
 70
0
 71
3
 72
27
 73
23
 74
0
 42
0.0000001
 43
0.0000001
 44
0.0000000001
 40
0.0
 40
0.0
 40
0.0
 40
0.0
 40
0.0634578604
 40
0.0951461148
 40
0.1268002519
 40
0.158421431
 40
0.1900102392
 40
0.2215660125
 40
0.2530878547
 40
0.3160216793
 40
0.3788180304
 40
0.4414755023
 40
0.5039944011
 40
0.5352060116
 40
0.5663841304
 40
0.6286361308
 40
0.6907675385
 40
0.7527897473
 40
0.8147130534
 40
0.8765485213
 40
0.9383056034
 40
1.0
 40
1.0
 40
1.0
 40
1.0
 10
5.0688035346
 20
2.8538290242
 30
0.0
 10
5.0739815636
 20
2.8567577927
 30
0.0
 10
5.0816077368
 20
2.8613986289
 30
0.0
 10
5.0914685802
 20
2.8680388579
 30
0.0
 10
5.0986992959
 20
2.8732347617
 30
0.0
 10
5.1057605273
 20
2.8786431701
 30
0.0
 10
5.112646312
 20
2.8842586988
 30
0.0
 10
5.1193510668
 20
2.8900750721
 30
0.0
 10
5.1280362195
 20
2.8980845558
 30
0.0
 10
5.1384136327
 20
2.9085688838
 30
0.0
 10
5.1500555185
 20
2.9218634874
 30
0.0
 10
5.1608347027
 20
2.9358177442
 30
0.0
 10
5.1690646929
 20
2.9479631587
 30
0.0
 10
5.1751674615
 20
2.9579588152
 30
0.0
 10
5.1809372545
 20
2.968121514
 30
0.0
 10
5.1875345425
 20
2.9811388813
 30
0.0
 10
5.1944497579
 20
2.9971991669
 30
0.0
 10
5.200345525
 20
3.0136285267
 30
0.0
 10
5.2052066291
 20
3.0303641043
 30
0.0
 10
5.2090173491
 20
3.0473444452
 30
0.0
 10
5.2117610979
 20
3.0645071625
 30
0.0
 10
5.2128672482
 20
3.0760364624
 30
0.0
 10
5.2132358516
 20
3.0818083085
 30
0.0
  0
SPLINE
  5
437
100
AcDbEntity
  8
0
100
AcDbSpline
 62
7
  6
CONTINUOUS
 70
0
 71
3
 72
64
 73
60
 74
0
 42
0.0000001
 43
0.0000001
 44
0.0000000001
 40
0.0
 40
0.0
 40
0.0
 40
0.0
 40
0.0061615461
 40
0.01315198
 40
0.0208263364
 40
0.0290753073
 40
0.0378156081
 40
0.0469789424
 40
0.0565144611
 40
0.0663768683
 40
0.076526986
 40
0.0869302828
 40
0.0975613999
 40
0.1084047912
 40
0.1194780521
 40
0.1308096961
 40
0.1424475986
 40
0.1544467675
 40
0.1668553183
 40
0.1797168569
 40
0.1930676716
 40
0.2069358294
 40
0.2213264216
 40
0.2362285173
 40
0.2438617466
 40
0.2516107013
 40
0.2674377828
 40
0.2836723414
 40
0.3002695265
 40
0.3343665258
 40
0.3517819706
 40
0.3693977763
 40
0.4051310604
 40
0.4414153181
 40
0.4597258331
 40
0.4781309332
 40
0.5151827188
 40
0.5524911999
 40
0.5712187778
 40
0.589983781
 40
0.6087778551
 40
0.6275928739
 40
0.6464210926
 40
0.6652548577
 40
0.684086851
 40
0.7029101458
 40
0.7217178033
 40
0.74050395
 40
0.7592647643
 40
0.7779966242
 40
0.7966963123
 40
0.8153615303
 40
0.8525803796
 40
0.8896425902
 40
0.9081146534
 40
0.9265494997
 40
0.9449499469
 40
0.9633209136
 40
1.0
 40
1.0
 40
1.0
 40
1.0
 10
5.0688035346
 20
2.8538290242
 30
0.0
 10
5.0689034789
 20
2.8555541319
 30
0.0
 10
5.0691286253
 20
2.8592357334
 30
0.0
 10
5.0695064851
 20
2.8650642338
 30
0.0
 10
5.0699419917
 20
2.8714756154
 30
0.0
 10
5.0704309166
 20
2.8783752158
 30
0.0
 10
5.0709671938
 20
2.8856900667
 30
0.0
 10
5.0715472164
 20
2.8933634713
 30
0.0
 10
5.0721711617
 20
2.9013491237
 30
0.0
 10
5.0728371618
 20
2.9096090478
 30
0.0
 10
5.0735375803
 20
2.9181103375
 30
0.0
 10
5.074270018
 20
2.9268252962
 30
0.0
 10
5.075048642
 20
2.9357314573
 30
0.0
 10
5.0758866291
 20
2.9448209346
 30
0.0
 10
5.0767749004
 20
2.9541029963
 30
0.0
 10
5.0777054833
 20
2.963604818
 30
0.0
 10
5.0786782865
 20
2.9733634017
 30
0.0
 10
5.0796962911
 20
2.9834209789
 30
0.0
 10
5.0807511639
 20
2.993819744
 30
0.0
 10
5.0818300579
 20
3.0045970815
 30
0.0
 10
5.0829278057
 20
3.0157839045
 30
0.0
 10
5.0840398336
 20
3.0274001807
 30
0.0
 10
5.0851560241
 20
3.0394530525
 30
0.0
 10
5.0860717674
 20
3.049768362
 30
0.0
 10
5.0867931344
 20
3.0582308811
 30
0.0
 10
5.0875143365
 20
3.0669537383
 30
0.0
 10
5.088395578
 20
3.0780837903
 30
0.0
 10
5.089421256
 20
3.0916915425
 30
0.0
 10
5.0907740436
 20
3.1104128613
 30
0.0
 10
5.0920785043
 20
3.1294696378
 30
0.0
 10
5.0933399588
 20
3.1488155257
 30
0.0
 10
5.094582155
 20
3.1686224897
 30
0.0
 10
5.0960560133
 20
3.1937169411
 30
0.0
 10
5.0974371037
 20
3.2190117673
 30
0.0
 10
5.0984863952
 20
3.2394576292
 30
0.0
 10
5.0995007702
 20
3.2601207663
 30
0.0
 10
5.100692003
 20
3.2861095323
 30
0.0
 10
5.1017810892
 20
3.3121932835
 30
0.0
 10
5.1025969991
 20
3.3331553161
 30
0.0
 10
5.1031802809
 20
3.3489300921
 30
0.0
 10
5.1037335487
 20
3.3647304868
 30
0.0
 10
5.1042540889
 20
3.3805497353
 30
0.0
 10
5.1047351695
 20
3.3963813757
 30
0.0
 10
5.1051696057
 20
3.4122191327
 30
0.0
 10
5.1055549807
 20
3.4280567749
 30
0.0
 10
5.1058984309
 20
3.4438880513
 30
0.0
 10
5.1062053915
 20
3.4597072133
 30
0.0
 10
5.1064818985
 20
3.4755094075
 30
0.0
 10
5.1067341061
 20
3.4912907451
 30
0.0
 10
5.1069685981
 20
3.5070481034
 30
0.0
 10
5.1071902983
 20
3.5227788342
 30
0.0
 10
5.1074656723
 20
3.5436939757
 30
0.0
 10
5.1077701374
 20
3.5697589245
 30
0.0
 10
5.1080078565
 20
3.5957704146
 30
0.0
 10
5.1081468623
 20
3.6165145364
 30
0.0
 10
5.1082217801
 20
3.6320252679
 30
0.0
 10
5.1082660159
 20
3.6475077621
 30
0.0
 10
5.1082965182
 20
3.668106874
 30
0.0
 10
5.108299166
 20
3.6835456225
 30
0.0
 10
5.1083161288
 20
3.6938322276
 30
0.0
  0
LINE
  5
438
100
AcDbEntity
  8
0
100
AcDbLine
 62
7
  6
CONTINUOUS
 10
5.213770736
 20
3.0961565047
 11
5.2137696226
 21
3.0964668978
  0
SPLINE
  5
439
100
AcDbEntity
  8
0
100
AcDbSpline
 62
7
  6
CONTINUOUS
 70
0
 71
3
 72
40
 73
36
 74
0
 42
0.0000001
 43
0.0000001
 44
0.0000000001
 40
0.0
 40
0.0
 40
0.0
 40
0.0
 40
0.0117313949
 40
0.0258592411
 40
0.0420012395
 40
0.0599144139
 40
0.079476316
 40
0.1006319294
 40
0.1233473216
 40
0.1352929441
 40
0.1476384824
 40
0.1735866726
 40
0.2012836573
 40
0.2307599746
 40
0.2619634662
 40
0.2781725247
 40
0.2947598717
 40
0.3289394293
 40
0.3642123244
 40
0.4003147059
 40
0.4370362309
 40
0.4742062791
 40
0.5116992742
 40
0.5494178016
 40
0.625227383
 40
0.6631997739
 40
0.7011531376
 40
0.7390483381
 40
0.7768491841
 40
0.8145187467
 40
0.852016557
 40
0.8893017023
 40
0.9263666351
 40
0.9632483662
 40
1.0
 40
1.0
 40
1.0
 40
1.0
 10
5.2137687692
 20
3.0966857053
 30
0.0
 10
5.2137601313
 20
3.0988309269
 30
0.0
 10
5.2137247893
 20
3.103559524
 30
0.0
 10
5.2136312932
 20
3.111239453
 30
0.0
 10
5.2134848716
 20
3.1200491621
 30
0.0
 10
5.213278131
 20
3.1298515982
 30
0.0
 10
5.2130037487
 20
3.1405695126
 30
0.0
 10
5.2126532502
 20
3.1521637953
 30
0.0
 10
5.2122941247
 20
3.1623643271
 30
0.0
 10
5.2119570352
 20
3.1709534875
 30
0.0
 10
5.2115718891
 20
3.1801323429
 30
0.0
 10
5.211027631
 20
3.1921873517
 30
0.0
 10
5.2103102947
 20
3.2073702672
 30
0.0
 10
5.2095457484
 20
3.2235130254
 30
0.0
 10
5.2089005633
 20
3.2375583609
 30
0.0
 10
5.2083861479
 20
3.249250273
 30
0.0
 10
5.2078691357
 20
3.2614867925
 30
0.0
 10
5.2072501559
 20
3.2772081569
 30
0.0
 10
5.2065633989
 20
3.2964980591
 30
0.0
 10
5.2059286676
 20
3.3162548188
 30
0.0
 10
5.2053494102
 20
3.3363603405
 30
0.0
 10
5.2048185114
 20
3.356721568
 30
0.0
 10
5.2043350523
 20
3.3772663426
 30
0.0
 10
5.2037506626
 20
3.4048763621
 30
0.0
 10
5.2032545513
 20
3.4325758631
 30
0.0
 10
5.2028392561
 20
3.4603195557
 30
0.0
 10
5.2025621615
 20
3.4811313713
 30
0.0
 10
5.2023175829
 20
3.5019122213
 30
0.0
 10
5.2021082928
 20
3.5226415621
 30
0.0
 10
5.2019439374
 20
3.5432986423
 30
0.0
 10
5.2018279191
 20
3.5638617494
 30
0.0
 10
5.201764064
 20
3.5843145206
 30
0.0
 10
5.2017452484
 20
3.6046547118
 30
0.0
 10
5.2017462698
 20
3.6248973448
 30
0.0
 10
5.20176737
 20
3.6383621652
 30
0.0
 10
5.2017872558
 20
3.6450826528
 30
0.0
  0
LINE
  5
43A
100
AcDbEntity
  8
0
100
AcDbLine
 62
7
  6
CONTINUOUS
 10
5.2052401931
 20
6.3323834615
 11
5.1552547564
 21
6.2399043128
  0
SPLINE
  5
43B
100
AcDbEntity
  8
0
100
AcDbSpline
 62
7
  6
CONTINUOUS
 70
0
 71
3
 72
21
 73
17
 74
0
 42
0.0000001
 43
0.0000001
 44
0.0000000001
 40
0.0
 40
0.0
 40
0.0
 40
0.0
 40
0.0618447659
 40
0.1240203357
 40
0.1864300577
 40
0.2490019626
 40
0.311683142
 40
0.3744350212
 40
0.5000000001
 40
0.6255649791
 40
0.6883168583
 40
0.7509980378
 40
0.8135699425
 40
0.8759796649
 40
0.9381552354
 40
1.0
 40
1.0
 40
1.0
 40
1.0
 10
5.2435825428
 20
6.3071953919
 30
0.0
 10
5.2514428758
 20
6.3015272357
 30
0.0
 10
5.2668975017
 20
6.2897264922
 30
0.0
 10
5.2891353249
 20
6.2707618795
 30
0.0
 10
5.3104095186
 20
6.2505553576
 30
0.0
 10
5.3306367728
 20
6.229192525
 30
0.0
 10
5.3497474128
 20
6.2067539496
 30
0.0
 10
5.3736600094
 20
6.1755089289
 30
0.0
 10
5.4004722499
 20
6.1341637475
 30
0.0
 10
5.4228721072
 20
6.0902710755
 30
0.0
 10
5.4379747909
 20
6.0539396492
 30
0.0
 10
5.4478518466
 20
6.0261700615
 30
0.0
 10
5.4562389738
 20
5.9979713287
 30
0.0
 10
5.4631012383
 20
5.9694440757
 30
0.0
 10
5.4684061773
 20
5.940703252
 30
0.0
 10
5.4708985973
 20
5.9214187801
 30
0.0
 10
5.4718771958
 20
5.9117774539
 30
0.0
  0
ENDSEC
  0
SECTION
  2
OBJECTS
  0
DICTIONARY
  5
C
100
AcDbDictionary
280
0
281
1
  3
ACAD_GROUP
350
D
  3
ACAD_MLINESTYLE
350
17
  3
ACAD_LAYOUT
350
1A
  3
ACAD_PLOTSETTINGS
350
19
  3
ACAD_PLOTSTYLENAME
350
E
  0
DICTIONARY
  5
D
102
{ACAD_REACTORS
330
C
102
}
100
AcDbDictionary
280
0
281
1
  0
ACDBDICTIONARYWDFLT
  5
E
102
{ACAD_REACTORS
330
C
102
}
100
AcDbDictionary
281
1
  3
Normal
350
F
100
AcDbDictionaryWithDefault
340
F
  0
DICTIONARY
  5
17
102
{ACAD_REACTORS
330
C
102
}
100
AcDbDictionary
280
0
281
1
  3
Standard
350
18
  0
DICTIONARY
  5
19
102
{ACAD_REACTORS
330
C
102
}
100
AcDbDictionary
281
1
  0
DICTIONARY
  5
1A
102
{ACAD_REACTORS
330
C
102
}
100
AcDbDictionary
281
1
  3
Model
350
43C
  3
Layout1
350
43D
  0
ACDBPLACEHOLDER
  5
F
102
{ACAD_REACTORS
330
E
102
}
  0
MLINESTYLE
  5
18
102
{ACAD_REACTORS
330
17
102
}
100
AcDbMlineStyle
  2
STANDARD
 70
0
  3

 62
256
 51
90.0
 52
90.0
 71
2
 49
0.5
 62
256
  6
BYLAYER
 49
-0.5
 62
256
  6
BYLAYER
  0
LAYOUT
  5
43C
102
{ACAD_REACTORS
330
1A
102
}
100
AcDbPlotSettings
  1

  2
none_device
  4
ANSI_A_(11.00_x_8.50_Inches)
  6

 40
0.0
 41
0.0
 42
0.0
 43
0.0
 44
279.4
 45
215.9
 46
0.0
 47
0.0
 48
0.0
 49
0.0
140
0.0
141
0.0
142
1.0
143
1.0
 70
1024
 72
0
 73
0
 74
0
  7

 75
0
147
1.0
148
0.0
149
0.0
100
AcDbLayout
  1
Model
 70
0
 71
0
 10
0.0
 20
0.0
 11
11.0
 21
8.5
 12
0.0
 22
0.0
 32
0.0
 14
0.0
 24
0.0
 34
0.0
 15
0.0
 25
0.0
 35
0.0
146
0.0
 13
0.0
 23
0.0
 33
0.0
 16
1.0
 26
0.0
 36
0.0
 17
0.0
 27
1.0
 37
0.0
 76
0
330
202
345
0
346
0
  0
LAYOUT
  5
43D
102
{ACAD_REACTORS
330
1A
102
}
100
AcDbPlotSettings
  1

  2
none_device
  4
ANSI_A_(11.00_x_8.50_Inches)
  6

 40
0.0
 41
0.0
 42
0.0
 43
0.0
 44
279.4
 45
215.9
 46
0.0
 47
0.0
 48
0.0
 49
0.0
140
0.0
141
0.0
142
1.0
143
1.0
 70
0
 72
0
 73
0
 74
0
  7

 75
0
147
1.0
148
0.0
149
0.0
100
AcDbLayout
  1
Layout1
 70
0
 71
1
 10
0.0
 20
0.0
 11
11.0
 21
8.5
 12
0.0
 22
0.0
 32
0.0
 14
0.0
 24
0.0
 34
0.0
 15
0.0
 25
0.0
 35
0.0
146
0.0
 13
0.0
 23
0.0
 33
0.0
 16
1.0
 26
0.0
 36
0.0
 17
0.0
 27
1.0
 37
0.0
 76
0
330
203
345
0
346
0
  0
ENDSEC
  0
EOF
