999
DXF file: E:\BT Custom\CADOUTPUT\_RIGHT.dxf
999
Pro/ENGINEER 2018400 by Parametric Technology Corporation
  0
SECTION
  2
HEADER
  9
$ACADVER
  1
AC1018
  9
$DWGCODEPAGE
  3
ANSI_1252
  9
$EXTMAX
 10
22.0
 20
17.0
 30
0.0
  9
$EXTMIN
 10
0.0
 20
0.0
 30
0.0
  9
$LIMMIN
 10
0.0
 20
0.0
  9
$LIMMAX
 10
22.0
 20
17.0
  9
$VIEWCTR
 10
11.0
 20
8.5
  9
$VIEWSIZE
 40
17.0
  9
$CLAYER
  8
0
  9
$LTSCALE
 40
1.21
  9
$CELTYPE
  6
BYLAYER
  9
$DIMSCALE
 40
1.0
  9
$DIMASZ
 40
0.1
  9
$DIMEXO
 40
0.0625
  9
$DIMDLI
 40
0.836
  9
$DIMEXE
 40
0.125
  9
$DIMCEN
 40
0.198
  9
$DIMLFAC
 40
1.0
  9
$DIMBLK
  1
_FILLED
  9
$DIMALT
 70
1
  9
$DIMALTD
 70
2
  9
$DIMALTTD
 70
2
  9
$DIMALTF
 40
25.4
  9
$DIMTXT
 40
0.08
  9
$DIMTOL
 70
1
  9
$DIMLIM
 70
0
  9
$DIMTFAC
 40
1.0
  9
$DIMTP
 40
0.001
  9
$DIMTM
 40
0.001
  9
$DIMGAP
 40
0.09
  9
$DIMDSEP
 70
46
  9
$AUNITS
 70
0
  9
$PDMODE
 70
3
  9
$PDSIZE
 40
0.06
  9
$HANDSEED
  5
30D
  9
$TILEMODE
 70
1
  9
$MEASUREMENT
 70
0
  9
$INSUNITS
 70
1
  0
ENDSEC
  0
SECTION
  2
CLASSES
  0
CLASS
  1
ACDBDICTIONARYWDFLT
  2
AcDbDictionaryWithDefault
  3
AutoCAD 2000
 90
0
 91
1
280
0
281
0
  0
CLASS
  1
ACDBPLACEHOLDER
  2
AcDbPlaceHolder
  3
AutoCAD 2000
 90
0
 91
1
280
0
281
0
  0
CLASS
  1
LAYOUT
  2
AcDbLayout
  3
AutoCAD 2000
 90
0
 91
0
280
0
281
0
  0
ENDSEC
  0
SECTION
  2
TABLES
  0
TABLE
  2
VPORT
  5
8
100
AcDbSymbolTable
 70
2
  0
VPORT
  5
1F4
100
AcDbSymbolTableRecord
100
AcDbViewportTableRecord
  2
*ACTIVE
 70
0
 10
0.0
 20
0.0
 11
1.0
 21
1.0
 12
11.0
 22
8.5
 13
0.0
 23
0.0
 14
1.0
 24
1.0
 15
0.0
 25
0.0
 16
0.0
 26
0.0
 36
1.0
 17
0.0
 27
0.0
 37
0.0
 40
17.0
 41
1.2941176471
 42
50.0
 43
0.0
 44
0.0
 50
0.0
 51
0.0
 71
0
 72
100
 73
1
 74
1
 75
0
 76
0
 77
0
 78
0
  0
ENDTAB
  0
TABLE
  2
LTYPE
  5
5
100
AcDbSymbolTable
 70
6
  0
LTYPE
  5
14
100
AcDbSymbolTableRecord
100
AcDbLinetypeTableRecord
  2
BYBLOCK
 70
0
  3

 72
65
 73
0
 40
0.0
  0
LTYPE
  5
15
100
AcDbSymbolTableRecord
100
AcDbLinetypeTableRecord
  2
BYLAYER
 70
0
  3

 72
65
 73
0
 40
0.0
  0
LTYPE
  5
16
100
AcDbSymbolTableRecord
100
AcDbLinetypeTableRecord
  2
CONTINUOUS
 70
64
  3
Solid line
 72
65
 73
0
 40
0.0
  0
LTYPE
  5
1F5
100
AcDbSymbolTableRecord
100
AcDbLinetypeTableRecord
  2
CENTER
 70
64
  3
____ _ ____ _ ____ _ ____ _ ____ _ ____ _ ____
 72
65
 73
4
 40
0.6
 49
0.375
 74
0
 49
-0.075
 74
0
 49
0.075
 74
0
 49
-0.075
 74
0
  0
LTYPE
  5
1F6
100
AcDbSymbolTableRecord
100
AcDbLinetypeTableRecord
  2
HIDDEN
 70
64
  3
- - - - - - - - - - - - - - - - - - - -
 72
65
 73
2
 40
0.2
 49
0.1
 74
0
 49
-0.1
 74
0
  0
LTYPE
  5
1F7
100
AcDbSymbolTableRecord
100
AcDbLinetypeTableRecord
  2
PHANTOM
 70
64
  3
_____ _ _ _____ _ _ _____ _ _ _____
 72
65
 73
6
 40
0.8
 49
0.45
 74
0
 49
-0.05
 74
0
 49
0.1
 74
0
 49
-0.05
 74
0
 49
0.1
 74
0
 49
-0.05
 74
0
  0
LTYPE
  5
1F8
100
AcDbSymbolTableRecord
100
AcDbLinetypeTableRecord
  2
DOT
 70
64
  3
. . . . . . . . . . . . . . . . . . . .
 72
65
 73
2
 40
0.2
 49
0.1
 74
0
 49
-0.1
 74
0
  0
LTYPE
  5
1F9
100
AcDbSymbolTableRecord
100
AcDbLinetypeTableRecord
  2
DASHED
 70
64
  3
- - - - - - - - - - - - - - - - - - - -
 72
65
 73
2
 40
0.2
 49
0.1
 74
0
 49
-0.1
 74
0
  0
ENDTAB
  0
TABLE
  2
LAYER
  5
2
100
AcDbSymbolTable
 70
36
  0
LAYER
  5
10
100
AcDbSymbolTableRecord
100
AcDbLayerTableRecord
  2
0
 70
0
 62
7
  6
CONTINUOUS
370
-3
390
F
  0
LAYER
  5
1FA
100
AcDbSymbolTableRecord
100
AcDbLayerTableRecord
  2
DEFAULT_1
 70
0
 62
7
  6
CENTER
370
-3
390
F
  0
LAYER
  5
1FB
100
AcDbSymbolTableRecord
100
AcDbLayerTableRecord
  2
DEFAULT_2
 70
0
 62
8
  6
HIDDEN
370
-3
390
F
  0
LAYER
  5
1FC
100
AcDbSymbolTableRecord
100
AcDbLayerTableRecord
  2
DEFAULT_3
 70
0
 62
7
  6
PHANTOM
370
-3
390
F
  0
LAYER
  5
1FD
100
AcDbSymbolTableRecord
100
AcDbLayerTableRecord
  2
ALL_FEATURES
 70
0
 62
7
  6
CONTINUOUS
370
-3
390
F
  0
LAYER
  5
1FE
100
AcDbSymbolTableRecord
100
AcDbLayerTableRecord
  2
AXES_FEATURES
 70
0
 62
7
  6
CONTINUOUS
370
-3
390
F
  0
LAYER
  5
1FF
100
AcDbSymbolTableRecord
100
AcDbLayerTableRecord
  2
DIMENSIONS
 70
0
 62
7
  6
CONTINUOUS
370
-3
390
F
  0
ENDTAB
  0
TABLE
  2
STYLE
  5
3
100
AcDbSymbolTable
 70
1
  0
STYLE
  5
11
100
AcDbSymbolTableRecord
100
AcDbTextStyleTableRecord
  2
STANDARD
 70
0
 40
0.0
 41
0.8
 50
0.0
 71
0
 42
0.2
  3
txt
  4

  0
STYLE
  5
200
100
AcDbSymbolTableRecord
100
AcDbTextStyleTableRecord
  2
TEXTSTYLE_1
 70
0
 40
0.0
 41
0.8
 50
0.0
 71
0
 42
0.2
  3
gdt
  4

  0
ENDTAB
  0
TABLE
  2
VIEW
  5
6
100
AcDbSymbolTable
 70
0
  0
ENDTAB
  0
TABLE
  2
UCS
  5
7
100
AcDbSymbolTable
 70
0
  0
ENDTAB
  0
TABLE
  2
APPID
  5
9
100
AcDbSymbolTable
 70
1
  0
APPID
  5
201
100
AcDbSymbolTableRecord
100
AcDbRegAppTableRecord
  2
ACAD
 70
0
  0
ENDTAB
  0
TABLE
  2
BLOCK_RECORD
  5
1
100
AcDbSymbolTable
 70
0
  0
BLOCK_RECORD
  5
202
100
AcDbSymbolTableRecord
100
AcDbBlockTableRecord
  2
*Model_Space
  0
BLOCK_RECORD
  5
203
100
AcDbSymbolTableRecord
100
AcDbBlockTableRecord
  2
*Paper_Space
  0
BLOCK_RECORD
  5
204
100
AcDbSymbolTableRecord
100
AcDbBlockTableRecord
  2
_FILLED
  0
ENDTAB
  0
TABLE
  2
DIMSTYLE
  5
A
100
AcDbSymbolTable
 70
1
100
AcDbDimStyleTable
 71
0
  0
DIMSTYLE
105
205
100
AcDbSymbolTableRecord
100
AcDbDimStyleTableRecord
  2
STANDARD
 70
0
  3

  4

 40
1.0
 41
0.1
 42
0.0625
 43
0.38
 44
0.125
 45
0.0
 46
0.0
 47
0.001
 48
0.001
140
0.08
141
0.09
142
0.0
143
25.4
144
1.0
145
0.0
146
1.0
147
0.09
 71
1.0
 72
0.0
 73
1
 74
1
 75
0
 76
0
 77
0
 78
4
 79
1
170
1
171
2
172
0
173
0
174
0
175
0
176
0
177
0
178
0
270
2
179
3
271
3
272
3
273
2
274
2
275
0
280
0
281
0
282
0
283
1
284
4
285
0
286
0
287
3
288
0
340
11
278
46
341
204
342
204
343
204
344
204
  0
ENDTAB
  0
ENDSEC
  0
SECTION
  2
BLOCKS
  0
BLOCK
  5
20
100
AcDbEntity
  8
0
100
AcDbBlockBegin
  2
*Model_Space
 70
0
 10
0.0
 20
0.0
 30
0.0
  3
*Model_Space
  1

  0
ENDBLK
  5
21
100
AcDbEntity
  8
0
100
AcDbBlockEnd
  0
BLOCK
  5
1C
100
AcDbEntity
  8
0
100
AcDbBlockBegin
  2
*Paper_Space
 70
0
 10
0.0
 20
0.0
 30
0.0
  3
*Paper_Space
  1

  0
ENDBLK
  5
1D
100
AcDbEntity
  8
0
100
AcDbBlockEnd
  0
BLOCK
  5
206
100
AcDbEntity
  8
0
100
AcDbBlockBegin
  2
_FILLED
 70
64
 10
0.0
 20
0.0
  3
_FILLED
  1

  0
SOLID
  5
207
100
AcDbEntity
  8
0
  6
BYBLOCK
 62
0
100
AcDbTrace
 10
0.0
 20
0.0
 11
-1.0
 21
0.2
 12
-1.0
 22
-0.2
 13
-1.0
 23
-0.2
  0
ENDBLK
  5
208
100
AcDbEntity
  8
0
  6
BYBLOCK
 62
0
100
AcDbBlockEnd
  0
ENDSEC
  0
SECTION
  2
ENTITIES
  0
LINE
  5
209
100
AcDbEntity
  8
0
100
AcDbLine
 62
7
  6
CONTINUOUS
 10
-0.3911700934
 20
6.833391804
 11
-0.3911700934
 21
6.913391804
  0
LINE
  5
20A
100
AcDbEntity
  8
0
100
AcDbLine
 62
7
  6
CONTINUOUS
 10
0.5338299066
 20
6.833391804
 11
0.5338299066
 21
6.913391804
  0
LINE
  5
20B
100
AcDbEntity
  8
0
100
AcDbLine
 62
7
  6
CONTINUOUS
 10
3.4913299066
 20
7.263391804
 11
3.4913299066
 21
7.053391804
  0
LINE
  5
20C
100
AcDbEntity
  8
0
100
AcDbLine
 62
7
  6
CONTINUOUS
 10
4.6513299066
 20
7.263391804
 11
4.6513299066
 21
7.053391804
  0
LINE
  5
20D
100
AcDbEntity
  8
0
100
AcDbLine
 62
7
  6
CONTINUOUS
 10
-0.7186700934
 20
6.333391804
 11
0.8613299066
 21
6.333391804
  0
LINE
  5
20E
100
AcDbEntity
  8
0
100
AcDbLine
 62
7
  6
CONTINUOUS
 10
3.4153302709
 20
6.333391804
 11
4.7273295422
 21
6.333391804
  0
LINE
  5
20F
100
AcDbEntity
  8
0
100
AcDbLine
 62
7
  6
CONTINUOUS
 10
10.8838299066
 20
6.333391804
 11
13.2588299066
 21
6.333391804
  0
LINE
  5
210
100
AcDbEntity
  8
0
100
AcDbLine
 62
7
  6
CONTINUOUS
 10
20.0607267686
 20
6.333391804
 11
22.0856928814
 21
6.333391804
  0
LINE
  5
211
100
AcDbEntity
  8
0
100
AcDbLine
 62
7
  6
CONTINUOUS
 10
4.550900804
 20
6.458391804
 11
3.5917590091
 21
6.458391804
  0
LINE
  5
212
100
AcDbEntity
  8
0
100
AcDbLine
 62
9
  6
CONTINUOUS
 10
22.085709825
 20
6.5823592717
 11
20.060709825
 21
6.5823592717
  0
LINE
  5
213
100
AcDbEntity
  8
0
100
AcDbLine
 62
7
  6
CONTINUOUS
 10
4.3648299066
 20
6.583391804
 11
3.7778299066
 21
6.583391804
  0
LINE
  5
214
100
AcDbEntity
  8
0
100
AcDbLine
 62
9
  6
CONTINUOUS
 10
3.7321623264
 20
6.6192800031
 11
4.4104974868
 21
6.6192800031
  0
LINE
  5
215
100
AcDbEntity
  8
0
100
AcDbLine
 62
7
  6
CONTINUOUS
 10
22.048209825
 20
6.653391804
 11
20.098209825
 21
6.653391804
  0
LINE
  5
216
100
AcDbEntity
  8
0
100
AcDbLine
 62
9
  6
CONTINUOUS
 10
13.241041552
 20
6.6551599308
 11
10.9016182612
 21
6.6551599308
  0
LINE
  5
217
100
AcDbEntity
  8
0
100
AcDbLine
 62
7
  6
CONTINUOUS
 10
0.5663294373
 20
6.833391804
 11
-0.4236696241
 21
6.833391804
  0
LINE
  5
218
100
AcDbEntity
  8
0
100
AcDbLine
 62
9
  6
CONTINUOUS
 10
0.5338299066
 20
6.913391804
 11
-0.3911700934
 21
6.913391804
  0
LINE
  5
219
100
AcDbEntity
  8
0
100
AcDbLine
 62
7
  6
CONTINUOUS
 10
3.4913299066
 20
7.053391804
 11
4.6513299066
 21
7.053391804
  0
LINE
  5
21A
100
AcDbEntity
  8
0
100
AcDbLine
 62
9
  6
CONTINUOUS
 10
-0.3559581805
 20
7.0774943681
 11
0.4986179936
 21
7.0774943681
  0
LINE
  5
21B
100
AcDbEntity
  8
0
100
AcDbLine
 62
7
  6
CONTINUOUS
 10
-0.3468384783
 20
7.083391804
 11
0.4894979648
 21
7.083391804
  0
LINE
  5
21C
100
AcDbEntity
  8
0
100
AcDbLine
 62
7
  6
CONTINUOUS
 10
4.6513299066
 20
7.263391804
 11
3.4913299066
 21
7.263391804
  0
LINE
  5
21D
100
AcDbEntity
  8
0
100
AcDbLine
 62
7
  6
CONTINUOUS
 10
4.0788096774
 20
7.4434206477
 11
4.0637347482
 21
7.4434206477
  0
LINE
  5
21E
100
AcDbEntity
  8
0
100
AcDbLine
 62
9
  6
CONTINUOUS
 10
11.4067882226
 20
7.4675836538
 11
12.7358715906
 21
7.4675836538
  0
LINE
  5
21F
100
AcDbEntity
  8
0
100
AcDbLine
 62
9
  6
CONTINUOUS
 10
20.3650176275
 20
7.4941369442
 11
21.7814020226
 21
7.4941369442
  0
LINE
  5
220
100
AcDbEntity
  8
0
100
AcDbLine
 62
7
  6
CONTINUOUS
 10
12.3039820349
 20
8.1101279178
 11
12.27636562
 21
8.108391804
  0
LINE
  5
221
100
AcDbEntity
  8
0
100
AcDbLine
 62
7
  6
CONTINUOUS
 10
12.2556102478
 20
8.0900916676
 11
12.2832391211
 21
8.0917977043
  0
LINE
  5
222
100
AcDbEntity
  8
0
100
AcDbLine
 62
9
  6
CONTINUOUS
 10
20.4163392216
 20
7.6367325769
 11
21.7300804284
 21
7.6367325769
  0
LINE
  5
223
100
AcDbEntity
  8
0
100
AcDbLine
 62
7
  6
CONTINUOUS
 10
11.4939796374
 20
7.860391804
 11
12.6486801758
 21
7.860391804
  0
LINE
  5
224
100
AcDbEntity
  8
0
100
AcDbLine
 62
7
  6
CONTINUOUS
 10
12.5013299066
 20
7.980391804
 11
11.6413299066
 21
7.980391804
  0
LINE
  5
225
100
AcDbEntity
  8
0
100
AcDbLine
 62
7
  6
CONTINUOUS
 10
12.2556102478
 20
8.0900916676
 11
11.8870495653
 21
8.0900916676
  0
LINE
  5
226
100
AcDbEntity
  8
0
100
AcDbLine
 62
7
  6
CONTINUOUS
 10
12.27636562
 20
8.108391804
 11
11.8662941932
 21
8.108391804
  0
LINE
  5
227
100
AcDbEntity
  8
0
100
AcDbLine
 62
7
  6
CONTINUOUS
 10
12.2245889247
 20
8.203391804
 11
11.9180708885
 21
8.203391804
  0
LINE
  5
228
100
AcDbEntity
  8
0
100
AcDbLine
 62
9
  6
CONTINUOUS
 10
11.9180708885
 20
8.2228581008
 11
12.2245889247
 21
8.2228581008
  0
LINE
  5
229
100
AcDbEntity
  8
0
100
AcDbLine
 62
7
  6
CONTINUOUS
 10
11.5813308555
 20
8.290391804
 11
11.658413892
 21
8.290391804
  0
LINE
  5
22A
100
AcDbEntity
  8
0
100
AcDbLine
 62
7
  6
CONTINUOUS
 10
12.4842459212
 20
8.290391804
 11
12.5613289577
 21
8.290391804
  0
LINE
  5
22B
100
AcDbEntity
  8
0
100
AcDbLine
 62
7
  6
CONTINUOUS
 10
11.8870495653
 20
8.0900916676
 11
11.859420692
 21
8.0917977043
  0
LINE
  5
22C
100
AcDbEntity
  8
0
100
AcDbLine
 62
7
  6
CONTINUOUS
 10
11.8386777782
 20
8.1101279178
 11
11.8662941932
 21
8.108391804
  0
LINE
  5
22D
100
AcDbEntity
  8
0
100
AcDbLine
 62
7
  6
CONTINUOUS
 10
11.8386777782
 20
9.0966556903
 11
11.8662941932
 21
9.098391804
  0
LINE
  5
22E
100
AcDbEntity
  8
0
100
AcDbLine
 62
7
  6
CONTINUOUS
 10
11.8870495653
 20
9.1166919405
 11
11.859420692
 21
9.1149859038
  0
LINE
  5
22F
100
AcDbEntity
  8
0
100
AcDbLine
 62
9
  6
CONTINUOUS
 10
11.6713299066
 20
8.450132786
 11
11.6907962033
 21
8.450132786
  0
LINE
  5
230
100
AcDbEntity
  8
0
100
AcDbLine
 62
9
  6
CONTINUOUS
 10
12.4518636098
 20
8.450132786
 11
12.4713299066
 21
8.450132786
  0
LINE
  5
231
100
AcDbEntity
  8
0
100
AcDbLine
 62
9
  6
CONTINUOUS
 10
12.4713299066
 20
8.7566508221
 11
12.4518636098
 21
8.7566508221
  0
LINE
  5
232
100
AcDbEntity
  8
0
100
AcDbLine
 62
9
  6
CONTINUOUS
 10
11.6907962033
 20
8.7566508221
 11
11.6713299066
 21
8.7566508221
  0
LINE
  5
233
100
AcDbEntity
  8
0
100
AcDbLine
 62
7
  6
CONTINUOUS
 10
12.5613299066
 20
8.915391804
 11
12.4852459212
 21
8.915391804
  0
LINE
  5
234
100
AcDbEntity
  8
0
100
AcDbLine
 62
7
  6
CONTINUOUS
 10
11.657413892
 20
8.915391804
 11
11.5813299066
 21
8.915391804
  0
LINE
  5
235
100
AcDbEntity
  8
0
100
AcDbLine
 62
9
  6
CONTINUOUS
 10
12.2245889247
 20
8.9839255073
 11
11.9180708885
 21
8.9839255073
  0
LINE
  5
236
100
AcDbEntity
  8
0
100
AcDbLine
 62
7
  6
CONTINUOUS
 10
11.9180708885
 20
9.003391804
 11
12.2245889246
 21
9.003391804
  0
LINE
  5
237
100
AcDbEntity
  8
0
100
AcDbLine
 62
7
  6
CONTINUOUS
 10
11.8662941932
 20
9.098391804
 11
12.27636562
 21
9.098391804
  0
LINE
  5
238
100
AcDbEntity
  8
0
100
AcDbLine
 62
7
  6
CONTINUOUS
 10
13.2588299066
 20
6.6401390468
 11
13.241041552
 21
6.6551599308
  0
LINE
  5
239
100
AcDbEntity
  8
0
100
AcDbLine
 62
7
  6
CONTINUOUS
 10
11.8870495653
 20
8.0900916676
 11
11.8662941932
 21
8.108391804
  0
LINE
  5
23A
100
AcDbEntity
  8
0
100
AcDbLine
 62
7
  6
CONTINUOUS
 10
11.859420692
 20
8.0917977043
 11
11.8386777782
 21
8.1101279178
  0
LINE
  5
23B
100
AcDbEntity
  8
0
100
AcDbLine
 62
7
  6
CONTINUOUS
 10
11.5780660203
 20
8.3707396757
 11
11.5763299066
 21
8.3983560907
  0
LINE
  5
23C
100
AcDbEntity
  8
0
100
AcDbLine
 62
7
  6
CONTINUOUS
 10
11.5597358068
 20
8.3914825895
 11
11.5580297701
 21
8.4191114628
  0
LINE
  5
23D
100
AcDbEntity
  8
0
100
AcDbLine
 62
7
  6
CONTINUOUS
 10
10.8838299066
 20
6.333391804
 11
10.8838299066
 21
6.6401390468
  0
LINE
  5
23E
100
AcDbEntity
  8
0
100
AcDbLine
 62
7
  6
CONTINUOUS
 10
11.5580297701
 20
8.4191114628
 11
11.5580297701
 21
8.7876721453
  0
LINE
  5
23F
100
AcDbEntity
  8
0
100
AcDbLine
 62
7
  6
CONTINUOUS
 10
11.5763299066
 20
8.3983560907
 11
11.5763299066
 21
8.8084275174
  0
LINE
  5
240
100
AcDbEntity
  8
0
100
AcDbLine
 62
7
  6
CONTINUOUS
 10
11.5813299066
 20
8.290391804
 11
11.5813299066
 21
8.3674757895
  0
LINE
  5
241
100
AcDbEntity
  8
0
100
AcDbLine
 62
7
  6
CONTINUOUS
 10
11.5813299066
 20
8.8393078186
 11
11.5813299066
 21
8.915391804
  0
LINE
  5
242
100
AcDbEntity
  8
0
100
AcDbLine
 62
7
  6
CONTINUOUS
 10
11.5597358068
 20
8.8153010186
 11
11.5580297701
 21
8.7876721453
  0
LINE
  5
243
100
AcDbEntity
  8
0
100
AcDbLine
 62
7
  6
CONTINUOUS
 10
11.5780660203
 20
8.8360439324
 11
11.5763299066
 21
8.8084275174
  0
LINE
  5
244
100
AcDbEntity
  8
0
100
AcDbLine
 62
7
  6
CONTINUOUS
 10
11.5580297701
 20
8.7876721453
 11
11.5763299066
 21
8.8084275174
  0
LINE
  5
245
100
AcDbEntity
  8
0
100
AcDbLine
 62
7
  6
CONTINUOUS
 10
11.5597358068
 20
8.8153010186
 11
11.5780660203
 21
8.8360439324
  0
LINE
  5
246
100
AcDbEntity
  8
0
100
AcDbLine
 62
7
  6
CONTINUOUS
 10
11.5780660203
 20
8.8360439324
 11
11.8386777782
 21
9.0966556903
  0
LINE
  5
247
100
AcDbEntity
  8
0
100
AcDbLine
 62
7
  6
CONTINUOUS
 10
11.5763299066
 20
8.8084275174
 11
11.8662941932
 21
9.098391804
  0
LINE
  5
248
100
AcDbEntity
  8
0
100
AcDbLine
 62
7
  6
CONTINUOUS
 10
11.6801167031
 20
8.7778640255
 11
11.896857685
 21
8.9946050075
  0
LINE
  5
249
100
AcDbEntity
  8
0
100
AcDbLine
 62
9
  6
CONTINUOUS
 10
11.9106224355
 20
8.980840257
 11
11.6938814536
 21
8.7640992751
  0
LINE
  5
24A
100
AcDbEntity
  8
0
100
AcDbLine
 62
7
  6
CONTINUOUS
 10
11.859420692
 20
9.1149859038
 11
11.8386777782
 21
9.0966556903
  0
LINE
  5
24B
100
AcDbEntity
  8
0
100
AcDbLine
 62
7
  6
CONTINUOUS
 10
11.8870495653
 20
9.1166919405
 11
11.8662941932
 21
9.098391804
  0
LINE
  5
24C
100
AcDbEntity
  8
0
100
AcDbLine
 62
7
  6
CONTINUOUS
 10
11.8870495653
 20
9.1166919405
 11
12.2556102478
 21
9.1166919405
  0
LINE
  5
24D
100
AcDbEntity
  8
0
100
AcDbLine
 62
7
  6
CONTINUOUS
 10
20.3332107977
 20
9.801391804
 11
21.8132088524
 21
9.801391804
  0
LINE
  5
24E
100
AcDbEntity
  8
0
100
AcDbLine
 62
9
  6
CONTINUOUS
 10
20.313209825
 20
9.8762249518
 11
21.833209825
 21
9.8762249518
  0
LINE
  5
24F
100
AcDbEntity
  8
0
100
AcDbLine
 62
7
  6
CONTINUOUS
 10
12.2556102478
 20
9.1166919405
 11
12.2832391211
 21
9.1149859038
  0
LINE
  5
250
100
AcDbEntity
  8
0
100
AcDbLine
 62
7
  6
CONTINUOUS
 10
12.3039820349
 20
9.0966556903
 11
12.27636562
 21
9.098391804
  0
LINE
  5
251
100
AcDbEntity
  8
0
100
AcDbLine
 62
9
  6
CONTINUOUS
 10
11.6907962033
 20
8.7566508221
 11
12.0607962033
 21
8.603391804
  0
LINE
  5
252
100
AcDbEntity
  8
0
100
AcDbLine
 62
9
  6
CONTINUOUS
 10
12.0787783596
 20
8.595943351
 11
12.4487783596
 21
8.442684333
  0
LINE
  5
253
100
AcDbEntity
  8
0
100
AcDbLine
 62
9
  6
CONTINUOUS
 10
12.4518636098
 20
8.450132786
 11
12.0818636098
 21
8.603391804
  0
LINE
  5
254
100
AcDbEntity
  8
0
100
AcDbLine
 62
9
  6
CONTINUOUS
 10
12.0638814536
 20
8.610840257
 11
11.6938814536
 21
8.7640992751
  0
LINE
  5
255
100
AcDbEntity
  8
0
100
AcDbLine
 62
7
  6
CONTINUOUS
 10
11.8386777782
 20
8.1101279178
 11
11.5780660203
 21
8.3707396757
  0
LINE
  5
256
100
AcDbEntity
  8
0
100
AcDbLine
 62
7
  6
CONTINUOUS
 10
11.8662941932
 20
8.108391804
 11
11.5763299066
 21
8.3983560907
  0
LINE
  5
257
100
AcDbEntity
  8
0
100
AcDbLine
 62
7
  6
CONTINUOUS
 10
11.8968576851
 20
8.2121786006
 11
11.6801167032
 21
8.4289195825
  0
LINE
  5
258
100
AcDbEntity
  8
0
100
AcDbLine
 62
9
  6
CONTINUOUS
 10
11.6938814536
 20
8.442684333
 11
11.9106224355
 21
8.225943351
  0
LINE
  5
259
100
AcDbEntity
  8
0
100
AcDbLine
 62
9
  6
CONTINUOUS
 10
11.6801167031
 20
8.7778640256
 11
11.6938814536
 21
8.7640992751
  0
LINE
  5
25A
100
AcDbEntity
  8
0
100
AcDbLine
 62
9
  6
CONTINUOUS
 10
12.2320373777
 20
8.225943351
 11
12.2458021281
 21
8.2121786006
  0
LINE
  5
25B
100
AcDbEntity
  8
0
100
AcDbLine
 62
9
  6
CONTINUOUS
 10
12.46254311
 20
8.4289195825
 11
12.4487783596
 21
8.442684333
  0
LINE
  5
25C
100
AcDbEntity
  8
0
100
AcDbLine
 62
9
  6
CONTINUOUS
 10
11.9106224355
 20
8.980840257
 11
11.8968576851
 21
8.9946050075
  0
LINE
  5
25D
100
AcDbEntity
  8
0
100
AcDbLine
 62
7
  6
CONTINUOUS
 10
11.5597358068
 20
8.3914825895
 11
11.5780660203
 21
8.3707396757
  0
LINE
  5
25E
100
AcDbEntity
  8
0
100
AcDbLine
 62
7
  6
CONTINUOUS
 10
11.5580297701
 20
8.4191114628
 11
11.5763299066
 21
8.3983560907
  0
LINE
  5
25F
100
AcDbEntity
  8
0
100
AcDbLine
 62
7
  6
CONTINUOUS
 10
12.6650799066
 20
6.6401390468
 11
12.6561857293
 21
6.6551599308
  0
LINE
  5
260
100
AcDbEntity
  8
0
100
AcDbLine
 62
7
  6
CONTINUOUS
 10
11.6413299066
 20
7.980391804
 11
11.6413299066
 21
7.860391804
  0
LINE
  5
261
100
AcDbEntity
  8
0
100
AcDbLine
 62
7
  6
CONTINUOUS
 10
11.6713299066
 20
8.4501327859
 11
11.6713299066
 21
8.7566508221
  0
LINE
  5
262
100
AcDbEntity
  8
0
100
AcDbLine
 62
9
  6
CONTINUOUS
 10
11.6907962033
 20
8.7566508221
 11
11.6907962033
 21
8.450132786
  0
LINE
  5
263
100
AcDbEntity
  8
0
100
AcDbLine
 62
7
  6
CONTINUOUS
 10
11.7588299066
 20
7.980391804
 11
11.7588299066
 21
8.1899757895
  0
LINE
  5
264
100
AcDbEntity
  8
0
100
AcDbLine
 62
9
  6
CONTINUOUS
 10
11.9180708885
 20
9.003391804
 11
11.9180708885
 21
8.9839255073
  0
LINE
  5
265
100
AcDbEntity
  8
0
100
AcDbLine
 62
9
  6
CONTINUOUS
 10
11.9180708885
 20
8.2228581008
 11
11.9180708885
 21
8.203391804
  0
LINE
  5
266
100
AcDbEntity
  8
0
100
AcDbLine
 62
9
  6
CONTINUOUS
 10
12.2245889247
 20
8.203391804
 11
12.2245889247
 21
8.2228581008
  0
LINE
  5
267
100
AcDbEntity
  8
0
100
AcDbLine
 62
9
  6
CONTINUOUS
 10
12.2245889247
 20
8.9839255073
 11
12.2245889247
 21
9.003391804
  0
LINE
  5
268
100
AcDbEntity
  8
0
100
AcDbLine
 62
7
  6
CONTINUOUS
 10
11.7390590646
 20
7.4675836538
 11
11.782654772
 21
7.860391804
  0
LINE
  5
269
100
AcDbEntity
  8
0
100
AcDbLine
 62
7
  6
CONTINUOUS
 10
11.4067882226
 20
7.4675836538
 11
11.4939796374
 21
7.860391804
  0
LINE
  5
26A
100
AcDbEntity
  8
0
100
AcDbLine
 62
9
  6
CONTINUOUS
 10
12.2245889247
 20
8.9839255073
 11
12.0713299066
 21
8.6139255073
  0
LINE
  5
26B
100
AcDbEntity
  8
0
100
AcDbLine
 62
9
  6
CONTINUOUS
 10
12.0638814536
 20
8.595943351
 11
11.9106224355
 21
8.225943351
  0
LINE
  5
26C
100
AcDbEntity
  8
0
100
AcDbLine
 62
9
  6
CONTINUOUS
 10
11.9180708885
 20
8.2228581008
 11
12.0713299066
 21
8.5928581008
  0
LINE
  5
26D
100
AcDbEntity
  8
0
100
AcDbLine
 62
9
  6
CONTINUOUS
 10
12.0787783596
 20
8.610840257
 11
12.2320373777
 21
8.980840257
  0
LINE
  5
26E
100
AcDbEntity
  8
0
100
AcDbLine
 62
9
  6
CONTINUOUS
 10
12.2458021281
 20
8.9946050075
 11
12.2320373777
 21
8.980840257
  0
LINE
  5
26F
100
AcDbEntity
  8
0
100
AcDbLine
 62
9
  6
CONTINUOUS
 10
11.6938814536
 20
8.442684333
 11
11.6801167031
 21
8.4289195825
  0
LINE
  5
270
100
AcDbEntity
  8
0
100
AcDbLine
 62
9
  6
CONTINUOUS
 10
11.8968576851
 20
8.2121786006
 11
11.9106224355
 21
8.225943351
  0
LINE
  5
271
100
AcDbEntity
  8
0
100
AcDbLine
 62
9
  6
CONTINUOUS
 10
12.4487783596
 20
8.7640992751
 11
12.46254311
 21
8.7778640256
  0
LINE
  5
272
100
AcDbEntity
  8
0
100
AcDbLine
 62
9
  6
CONTINUOUS
 10
12.2320373777
 20
8.2259433511
 11
12.4487783596
 21
8.442684333
  0
LINE
  5
273
100
AcDbEntity
  8
0
100
AcDbLine
 62
7
  6
CONTINUOUS
 10
12.46254311
 20
8.4289195825
 11
12.2458021281
 21
8.2121786006
  0
LINE
  5
274
100
AcDbEntity
  8
0
100
AcDbLine
 62
9
  6
CONTINUOUS
 10
12.4487783596
 20
8.7640992751
 11
12.0787783596
 21
8.610840257
  0
LINE
  5
275
100
AcDbEntity
  8
0
100
AcDbLine
 62
9
  6
CONTINUOUS
 10
12.0607962033
 20
8.603391804
 11
11.6907962033
 21
8.450132786
  0
LINE
  5
276
100
AcDbEntity
  8
0
100
AcDbLine
 62
9
  6
CONTINUOUS
 10
11.6938814536
 20
8.442684333
 11
12.0638814536
 21
8.595943351
  0
LINE
  5
277
100
AcDbEntity
  8
0
100
AcDbLine
 62
9
  6
CONTINUOUS
 10
12.0818636098
 20
8.603391804
 11
12.4518636098
 21
8.7566508221
  0
LINE
  5
278
100
AcDbEntity
  8
0
100
AcDbLine
 62
9
  6
CONTINUOUS
 10
21.833209825
 20
10.4356525729
 11
20.313209825
 21
10.4356525729
  0
LINE
  5
279
100
AcDbEntity
  8
0
100
AcDbLine
 62
9
  6
CONTINUOUS
 10
20.2847410463
 20
10.5055330736
 11
21.8616786038
 21
10.5055330736
  0
LINE
  5
27A
100
AcDbEntity
  8
0
100
AcDbLine
 62
7
  6
CONTINUOUS
 10
12.2556102478
 20
9.1166919405
 11
12.27636562
 21
9.098391804
  0
LINE
  5
27B
100
AcDbEntity
  8
0
100
AcDbLine
 62
7
  6
CONTINUOUS
 10
12.2832391211
 20
9.1149859038
 11
12.3039820349
 21
9.0966556903
  0
LINE
  5
27C
100
AcDbEntity
  8
0
100
AcDbLine
 62
9
  6
CONTINUOUS
 10
12.4487783596
 20
8.7640992751
 11
12.2320373777
 21
8.980840257
  0
LINE
  5
27D
100
AcDbEntity
  8
0
100
AcDbLine
 62
7
  6
CONTINUOUS
 10
12.2458021281
 20
8.9946050075
 11
12.46254311
 21
8.7778640256
  0
LINE
  5
27E
100
AcDbEntity
  8
0
100
AcDbLine
 62
7
  6
CONTINUOUS
 10
12.27636562
 20
9.098391804
 11
12.5663299066
 21
8.8084275174
  0
LINE
  5
27F
100
AcDbEntity
  8
0
100
AcDbLine
 62
7
  6
CONTINUOUS
 10
12.3039820349
 20
9.0966556903
 11
12.5645937928
 21
8.8360439324
  0
LINE
  5
280
100
AcDbEntity
  8
0
100
AcDbLine
 62
7
  6
CONTINUOUS
 10
12.5829240063
 20
8.8153010186
 11
12.5645937928
 21
8.8360439324
  0
LINE
  5
281
100
AcDbEntity
  8
0
100
AcDbLine
 62
7
  6
CONTINUOUS
 10
12.5846300431
 20
8.7876721453
 11
12.5663299066
 21
8.8084275174
  0
LINE
  5
282
100
AcDbEntity
  8
0
100
AcDbLine
 62
9
  6
CONTINUOUS
 10
11.9106224355
 20
8.980840257
 11
12.0638814536
 21
8.610840257
  0
LINE
  5
283
100
AcDbEntity
  8
0
100
AcDbLine
 62
9
  6
CONTINUOUS
 10
12.0713299066
 20
8.5928581008
 11
12.2245889247
 21
8.2228581008
  0
LINE
  5
284
100
AcDbEntity
  8
0
100
AcDbLine
 62
9
  6
CONTINUOUS
 10
12.2320373777
 20
8.2259433511
 11
12.0787783596
 21
8.595943351
  0
LINE
  5
285
100
AcDbEntity
  8
0
100
AcDbLine
 62
9
  6
CONTINUOUS
 10
12.0713299066
 20
8.6139255073
 11
11.9180708885
 21
8.9839255073
  0
LINE
  5
286
100
AcDbEntity
  8
0
100
AcDbLine
 62
7
  6
CONTINUOUS
 10
12.7358715906
 20
7.4675836538
 11
12.6486801758
 21
7.860391804
  0
LINE
  5
287
100
AcDbEntity
  8
0
100
AcDbLine
 62
7
  6
CONTINUOUS
 10
12.4036007486
 20
7.4675836538
 11
12.3600050412
 21
7.860391804
  0
LINE
  5
288
100
AcDbEntity
  8
0
100
AcDbLine
 62
7
  6
CONTINUOUS
 10
12.5645937928
 20
8.8360439324
 11
12.5663299066
 21
8.8084275174
  0
LINE
  5
289
100
AcDbEntity
  8
0
100
AcDbLine
 62
7
  6
CONTINUOUS
 10
12.5829240063
 20
8.8153010186
 11
12.5846300431
 21
8.7876721453
  0
LINE
  5
28A
100
AcDbEntity
  8
0
100
AcDbLine
 62
7
  6
CONTINUOUS
 10
12.3838299066
 20
7.980391804
 11
12.3838299066
 21
8.1899757895
  0
LINE
  5
28B
100
AcDbEntity
  8
0
100
AcDbLine
 62
9
  6
CONTINUOUS
 10
12.4518636098
 20
8.450132786
 11
12.4518636098
 21
8.7566508221
  0
LINE
  5
28C
100
AcDbEntity
  8
0
100
AcDbLine
 62
7
  6
CONTINUOUS
 10
12.4713299066
 20
8.7566508221
 11
12.4713299066
 21
8.450132786
  0
LINE
  5
28D
100
AcDbEntity
  8
0
100
AcDbLine
 62
7
  6
CONTINUOUS
 10
12.5013299066
 20
7.980391804
 11
12.5013299066
 21
7.860391804
  0
LINE
  5
28E
100
AcDbEntity
  8
0
100
AcDbLine
 62
7
  6
CONTINUOUS
 10
12.5613299066
 20
8.290391804
 11
12.5613299066
 21
8.3674757895
  0
LINE
  5
28F
100
AcDbEntity
  8
0
100
AcDbLine
 62
7
  6
CONTINUOUS
 10
12.5613299066
 20
8.8393078186
 11
12.5613299066
 21
8.915391804
  0
LINE
  5
290
100
AcDbEntity
  8
0
100
AcDbLine
 62
7
  6
CONTINUOUS
 10
12.5663299066
 20
8.8084275174
 11
12.5663299066
 21
8.3983560907
  0
LINE
  5
291
100
AcDbEntity
  8
0
100
AcDbLine
 62
7
  6
CONTINUOUS
 10
12.5846300431
 20
8.7876721453
 11
12.5846300431
 21
8.4191114628
  0
LINE
  5
292
100
AcDbEntity
  8
0
100
AcDbLine
 62
7
  6
CONTINUOUS
 10
12.5829240063
 20
8.3914825895
 11
12.5846300431
 21
8.4191114628
  0
LINE
  5
293
100
AcDbEntity
  8
0
100
AcDbLine
 62
7
  6
CONTINUOUS
 10
12.5645937928
 20
8.3707396757
 11
12.5663299066
 21
8.3983560907
  0
LINE
  5
294
100
AcDbEntity
  8
0
100
AcDbLine
 62
7
  6
CONTINUOUS
 10
11.4775799066
 20
6.6401390468
 11
11.4864740839
 21
6.6551599308
  0
LINE
  5
295
100
AcDbEntity
  8
0
100
AcDbLine
 62
7
  6
CONTINUOUS
 10
12.5846300431
 20
8.4191114628
 11
12.5663299066
 21
8.3983560907
  0
LINE
  5
296
100
AcDbEntity
  8
0
100
AcDbLine
 62
7
  6
CONTINUOUS
 10
12.5829240063
 20
8.3914825895
 11
12.5645937928
 21
8.3707396757
  0
LINE
  5
297
100
AcDbEntity
  8
0
100
AcDbLine
 62
7
  6
CONTINUOUS
 10
12.5663299066
 20
8.3983560907
 11
12.27636562
 21
8.108391804
  0
LINE
  5
298
100
AcDbEntity
  8
0
100
AcDbLine
 62
7
  6
CONTINUOUS
 10
12.5645937928
 20
8.3707396757
 11
12.3039820349
 21
8.1101279178
  0
LINE
  5
299
100
AcDbEntity
  8
0
100
AcDbLine
 62
7
  6
CONTINUOUS
 10
12.2832391211
 20
8.0917977043
 11
12.3039820349
 21
8.1101279178
  0
LINE
  5
29A
100
AcDbEntity
  8
0
100
AcDbLine
 62
7
  6
CONTINUOUS
 10
12.2556102478
 20
8.0900916676
 11
12.27636562
 21
8.108391804
  0
LINE
  5
29B
100
AcDbEntity
  8
0
100
AcDbLine
 62
7
  6
CONTINUOUS
 10
10.8838299066
 20
6.6401390468
 11
10.9016182612
 21
6.6551599308
  0
LINE
  5
29C
100
AcDbEntity
  8
0
100
AcDbLine
 62
7
  6
CONTINUOUS
 10
20.007782592
 20
10.801391804
 11
20.2057103761
 21
10.801391804
  0
LINE
  5
29D
100
AcDbEntity
  8
0
100
AcDbLine
 62
7
  6
CONTINUOUS
 10
20.4335734777
 20
10.801391804
 11
20.911708213
 21
10.801391804
  0
LINE
  5
29E
100
AcDbEntity
  8
0
100
AcDbLine
 62
7
  6
CONTINUOUS
 10
21.2340546607
 20
10.801391804
 11
21.712311504
 21
10.801391804
  0
LINE
  5
29F
100
AcDbEntity
  8
0
100
AcDbLine
 62
7
  6
CONTINUOUS
 10
21.9403151203
 20
10.801391804
 11
22.1385376991
 21
10.801391804
  0
LINE
  5
2A0
100
AcDbEntity
  8
0
100
AcDbLine
 62
9
  6
CONTINUOUS
 10
22.1385376991
 20
11.411391804
 11
21.9403151203
 21
11.411391804
  0
LINE
  5
2A1
100
AcDbEntity
  8
0
100
AcDbLine
 62
9
  6
CONTINUOUS
 10
21.712311504
 20
11.411391804
 11
21.2340546607
 21
11.411391804
  0
LINE
  5
2A2
100
AcDbEntity
  8
0
100
AcDbLine
 62
9
  6
CONTINUOUS
 10
20.911708213
 20
11.411391804
 11
20.4335734777
 21
11.411391804
  0
LINE
  5
2A3
100
AcDbEntity
  8
0
100
AcDbLine
 62
9
  6
CONTINUOUS
 10
20.2057103761
 20
11.411391804
 11
20.007782592
 21
11.411391804
  0
LINE
  5
2A4
100
AcDbEntity
  8
0
100
AcDbLine
 62
7
  6
CONTINUOUS
 10
13.2588299066
 20
6.333391804
 11
13.2588299066
 21
6.6401390468
  0
LINE
  5
2A5
100
AcDbEntity
  8
0
100
AcDbLine
 62
7
  6
CONTINUOUS
 10
22.0006948036
 20
11.561391804
 11
20.1457248465
 21
11.561391804
  0
LINE
  5
2A6
100
AcDbEntity
  8
0
100
AcDbLine
 62
9
  6
CONTINUOUS
 10
20.164073392
 20
11.621391804
 11
21.9823462581
 21
11.621391804
  0
LINE
  5
2A7
100
AcDbEntity
  8
0
100
AcDbLine
 62
7
  6
CONTINUOUS
 10
21.8616786038
 20
10.5055330736
 11
22.0632100938
 21
10.71182515
  0
LINE
  5
2A8
100
AcDbEntity
  8
0
100
AcDbLine
 62
7
  6
CONTINUOUS
 10
20.2847410463
 20
10.5055330736
 11
20.0832095563
 21
10.71182515
  0
LINE
  5
2A9
100
AcDbEntity
  8
0
100
AcDbLine
 62
7
  6
CONTINUOUS
 10
20.007782592
 20
10.801391804
 11
20.007782592
 21
11.411391804
  0
LINE
  5
2AA
100
AcDbEntity
  8
0
100
AcDbLine
 62
7
  6
CONTINUOUS
 10
20.060709825
 20
6.5823592717
 11
20.060709825
 21
6.333391804
  0
LINE
  5
2AB
100
AcDbEntity
  8
0
100
AcDbLine
 62
7
  6
CONTINUOUS
 10
20.4344201806
 20
10.7854139009
 11
20.4335734777
 21
10.801391804
  0
LINE
  5
2AC
100
AcDbEntity
  8
0
100
AcDbLine
 62
7
  6
CONTINUOUS
 10
20.2057103761
 20
10.801391804
 11
20.2057103761
 21
11.411391804
  0
LINE
  5
2AD
100
AcDbEntity
  8
0
100
AcDbLine
 62
7
  6
CONTINUOUS
 10
20.313209825
 20
10.4356525729
 11
20.313209825
 21
9.8762249518
  0
LINE
  5
2AE
100
AcDbEntity
  8
0
100
AcDbLine
 62
7
  6
CONTINUOUS
 10
20.4335734777
 20
10.801391804
 11
20.4335734777
 21
11.411391804
  0
LINE
  5
2AF
100
AcDbEntity
  8
0
100
AcDbLine
 62
7
  6
CONTINUOUS
 10
20.911708213
 20
10.801391804
 11
20.911708213
 21
11.411391804
  0
LINE
  5
2B0
100
AcDbEntity
  8
0
100
AcDbLine
 62
7
  6
CONTINUOUS
 10
20.4976208922
 20
9.801391804
 11
20.4163392216
 21
7.6367325769
  0
LINE
  5
2B1
100
AcDbEntity
  8
0
100
AcDbLine
 62
7
  6
CONTINUOUS
 10
21.6487987578
 20
9.801391804
 11
21.7300804284
 21
7.6367325769
  0
LINE
  5
2B2
100
AcDbEntity
  8
0
100
AcDbLine
 62
7
  6
CONTINUOUS
 10
21.2340546607
 20
10.801391804
 11
21.2340546607
 21
11.411391804
  0
LINE
  5
2B3
100
AcDbEntity
  8
0
100
AcDbLine
 62
7
  6
CONTINUOUS
 10
21.712311504
 20
10.801391804
 11
21.712311504
 21
11.411391804
  0
LINE
  5
2B4
100
AcDbEntity
  8
0
100
AcDbLine
 62
7
  6
CONTINUOUS
 10
21.833209825
 20
10.4356525729
 11
21.833209825
 21
9.8762249518
  0
LINE
  5
2B5
100
AcDbEntity
  8
0
100
AcDbLine
 62
7
  6
CONTINUOUS
 10
21.9403151203
 20
10.801391804
 11
21.9403151203
 21
11.411391804
  0
LINE
  5
2B6
100
AcDbEntity
  8
0
100
AcDbLine
 62
7
  6
CONTINUOUS
 10
22.085709825
 20
6.5823592717
 11
22.085709825
 21
6.333391804
  0
LINE
  5
2B7
100
AcDbEntity
  8
0
100
AcDbLine
 62
7
  6
CONTINUOUS
 10
22.1385376991
 20
10.801391804
 11
22.1385376991
 21
11.411391804
  0
LINE
  5
2B8
100
AcDbEntity
  8
0
100
AcDbLine
 62
7
  6
CONTINUOUS
 10
21.712311504
 20
10.801391804
 11
21.7114763749
 21
10.7855195849
  0
ARC
  5
2B9
100
AcDbEntity
  8
0
100
AcDbCircle
 62
7
  6
CONTINUOUS
 10
4.078925065
 20
6.4434206477
 40
1.0
100
AcDbArc
 50
55.0819064989
 51
90.0
  0
ARC
  5
2BA
100
AcDbEntity
  8
0
100
AcDbCircle
 62
7
  6
CONTINUOUS
 10
4.0637347482
 20
6.4434206477
 40
1.0
100
AcDbArc
 50
90.0
 51
124.9180935011
  0
ARC
  5
2BB
100
AcDbEntity
  8
0
100
AcDbCircle
 62
7
  6
CONTINUOUS
 10
2.820754024
 20
6.3975168268
 40
0.938
100
AcDbArc
 50
13.675418161
 51
44.3650233311
  0
ARC
  5
2BC
100
AcDbEntity
  8
0
100
AcDbCircle
 62
7
  6
CONTINUOUS
 10
5.3219057892
 20
6.3975168268
 40
0.938
100
AcDbArc
 50
135.6349766689
 51
166.324581839
  0
ARC
  5
2BD
100
AcDbEntity
  8
0
100
AcDbCircle
 62
7
  6
CONTINUOUS
 10
0.1625503129
 20
6.1504967643
 40
0.9
100
AcDbArc
 50
130.6439171763
 51
168.2748731243
  0
ARC
  5
2BE
100
AcDbEntity
  8
0
100
AcDbCircle
 62
7
  6
CONTINUOUS
 10
-0.0198904997
 20
6.1504967643
 40
0.9
100
AcDbArc
 50
11.7251268757
 51
49.3560828237
  0
ARC
  5
2BF
100
AcDbEntity
  8
0
100
AcDbCircle
 62
7
  6
CONTINUOUS
 10
0.0088299066
 20
6.913391804
 40
0.4
100
AcDbArc
 50
155.7790568908
 51
180.0
  0
ARC
  5
2C0
100
AcDbEntity
  8
0
100
AcDbCircle
 62
7
  6
CONTINUOUS
 10
0.1338299066
 20
6.913391804
 40
0.4
100
AcDbArc
 50
0.0
 51
24.2209431092
  0
ARC
  5
2C1
100
AcDbEntity
  8
0
100
AcDbCircle
 62
7
  6
CONTINUOUS
 10
4.5509071189
 20
6.271391804
 40
0.187
100
AcDbArc
 50
19.3629299219
 51
90.0
  0
ARC
  5
2C2
100
AcDbEntity
  8
0
100
AcDbCircle
 62
7
  6
CONTINUOUS
 10
3.5917526942
 20
6.271391804
 40
0.187
100
AcDbArc
 50
90.0
 51
160.6370700781
  0
ARC
  5
2C3
100
AcDbEntity
  8
0
100
AcDbCircle
 62
7
  6
CONTINUOUS
 10
3.7790026942
 20
6.396391804
 40
0.187
100
AcDbArc
 50
90.0
 51
160.6370700781
  0
ARC
  5
2C4
100
AcDbEntity
  8
0
100
AcDbCircle
 62
7
  6
CONTINUOUS
 10
4.3636571189
 20
6.396391804
 40
0.187
100
AcDbArc
 50
19.3629299219
 51
90.0
  0
ARC
  5
2C5
100
AcDbEntity
  8
0
100
AcDbCircle
 62
7
  6
CONTINUOUS
 10
4.3648299066
 20
6.630391804
 40
0.047
100
AcDbArc
 50
270.0
 51
346.3245818389
  0
ARC
  5
2C6
100
AcDbEntity
  8
0
100
AcDbCircle
 62
7
  6
CONTINUOUS
 10
3.7778299066
 20
6.630391804
 40
0.047
100
AcDbArc
 50
193.6754181611
 51
270.0
  0
ARC
  5
2C7
100
AcDbEntity
  8
0
100
AcDbCircle
 62
7
  6
CONTINUOUS
 10
-0.3468384783
 20
7.073391804
 40
0.01
100
AcDbArc
 50
90.0
 51
155.7790568908
  0
ARC
  5
2C8
100
AcDbEntity
  8
0
100
AcDbCircle
 62
7
  6
CONTINUOUS
 10
0.4894982915
 20
7.073391804
 40
0.01
100
AcDbArc
 50
24.2209431092
 51
90.0
  0
ARC
  5
2C9
100
AcDbEntity
  8
0
100
AcDbCircle
 62
7
  6
CONTINUOUS
 10
21.073209825
 20
5.2959760049
 40
6.3904157991
100
AcDbArc
 50
81.821031102
 51
98.178968898
  0
ARC
  5
2CA
100
AcDbEntity
  8
0
100
AcDbCircle
 62
7
  6
CONTINUOUS
 10
12.0713299066
 20
7.4976823839
 40
1.5
100
AcDbArc
 50
104.8404371934
 51
109.0665801007
  0
ARC
  5
2CB
100
AcDbEntity
  8
0
100
AcDbCircle
 62
7
  6
CONTINUOUS
 10
12.0713299066
 20
7.4976823839
 40
1.5
100
AcDbArc
 50
70.9334198993
 51
75.1595628066
  0
ARC
  5
2CC
100
AcDbEntity
  8
0
100
AcDbCircle
 62
7
  6
CONTINUOUS
 10
20.749189817
 20
6.7038598012
 40
1.3
100
AcDbArc
 50
357.7751307224
 51
37.438210182
  0
ARC
  5
2CD
100
AcDbEntity
  8
0
100
AcDbCircle
 62
7
  6
CONTINUOUS
 10
21.397229833
 20
6.7038598012
 40
1.3
100
AcDbArc
 50
142.5617898181
 51
182.2248692774
  0
ARC
  5
2CE
100
AcDbEntity
  8
0
100
AcDbCircle
 62
7
  6
CONTINUOUS
 10
20.1665152802
 20
7.6461133178
 40
0.25
100
AcDbArc
 50
322.5617898181
 51
357.849587733
  0
ARC
  5
2CF
100
AcDbEntity
  8
0
100
AcDbCircle
 62
7
  6
CONTINUOUS
 10
21.9799043698
 20
7.6461133178
 40
0.25
100
AcDbArc
 50
182.150412267
 51
217.438210182
  0
ARC
  5
2D0
100
AcDbEntity
  8
0
100
AcDbCircle
 62
9
  6
CONTINUOUS
 10
11.9492062129
 20
8.3085591264
 40
0.0911815454
100
AcDbArc
 50
244.9661669657
 51
250.033833036
  0
ARC
  5
2D1
100
AcDbEntity
  8
0
100
AcDbCircle
 62
9
  6
CONTINUOUS
 10
12.1934536003
 20
8.3085591264
 40
0.0911815454
100
AcDbArc
 50
289.9661669656
 51
295.0338330361
  0
ARC
  5
2D2
100
AcDbEntity
  8
0
100
AcDbCircle
 62
7
  6
CONTINUOUS
 10
20.1467347671
 20
6.5823592717
 40
0.0860249421
100
AcDbArc
 50
124.3384233779
 51
180.0
  0
ARC
  5
2D3
100
AcDbEntity
  8
0
100
AcDbCircle
 62
7
  6
CONTINUOUS
 10
21.999684883
 20
6.5823592717
 40
0.0860249421
100
AcDbArc
 50
0.0
 51
55.6615766219
  0
ARC
  5
2D4
100
AcDbEntity
  8
0
100
AcDbCircle
 62
7
  6
CONTINUOUS
 10
11.9180708885
 20
8.233391804
 40
0.03
100
AcDbArc
 50
225.0000000194
 51
270.0
  0
ARC
  5
2D5
100
AcDbEntity
  8
0
100
AcDbCircle
 62
7
  6
CONTINUOUS
 10
12.2245889247
 20
8.233391804
 40
0.03
100
AcDbArc
 50
270.0000000191
 51
315.0
  0
CIRCLE
  5
2D6
100
AcDbEntity
  8
0
100
AcDbCircle
 62
7
  6
CONTINUOUS
 10
12.0713299066
 20
8.603391804
 40
0.49
  0
CIRCLE
  5
2D7
100
AcDbEntity
  8
0
100
AcDbCircle
 62
9
  6
CONTINUOUS
 10
12.0713299066
 20
8.603391804
 40
0.46
  0
ARC
  5
2D8
100
AcDbEntity
  8
0
100
AcDbCircle
 62
9
  6
CONTINUOUS
 10
12.0401938442
 20
8.5282227001
 40
0.0911834719
100
AcDbArc
 50
64.9662205351
 51
70.0337794666
  0
ARC
  5
2D9
100
AcDbEntity
  8
0
100
AcDbCircle
 62
9
  6
CONTINUOUS
 10
12.1024659689
 20
8.678560908
 40
0.0911834719
100
AcDbArc
 50
244.9662205351
 51
250.0337794666
  0
ARC
  5
2DA
100
AcDbEntity
  8
0
100
AcDbCircle
 62
9
  6
CONTINUOUS
 10
12.0401945705
 20
8.6785591547
 40
0.0911815759
100
AcDbArc
 50
289.9661678152
 51
295.0338321865
  0
ARC
  5
2DB
100
AcDbEntity
  8
0
100
AcDbCircle
 62
9
  6
CONTINUOUS
 10
11.9961625842
 20
8.6345271284
 40
0.0911815454
100
AcDbArc
 50
334.9661669646
 51
340.0338330359
  0
ARC
  5
2DC
100
AcDbEntity
  8
0
100
AcDbCircle
 62
9
  6
CONTINUOUS
 10
12.3661625842
 20
8.7255154977
 40
0.0911815454
100
AcDbArc
 50
19.9661669655
 51
25.033833036
  0
ARC
  5
2DD
100
AcDbEntity
  8
0
100
AcDbCircle
 62
9
  6
CONTINUOUS
 10
11.9961625842
 20
8.5722564797
 40
0.0911815454
100
AcDbArc
 50
19.9661669654
 51
25.0338330362
  0
ARC
  5
2DE
100
AcDbEntity
  8
0
100
AcDbCircle
 62
9
  6
CONTINUOUS
 10
11.776497229
 20
8.4812681103
 40
0.0911815454
100
AcDbArc
 50
199.9661669655
 51
205.033833036
  0
ARC
  5
2DF
100
AcDbEntity
  8
0
100
AcDbCircle
 62
9
  6
CONTINUOUS
 10
12.146497229
 20
8.6345271284
 40
0.0911815454
100
AcDbArc
 50
199.9661669653
 51
205.0338330363
  0
ARC
  5
2E0
100
AcDbEntity
  8
0
100
AcDbCircle
 62
9
  6
CONTINUOUS
 10
11.9492062129
 20
8.8982244817
 40
0.0911815454
100
AcDbArc
 50
109.9661669657
 51
115.0338330361
  0
ARC
  5
2E1
100
AcDbEntity
  8
0
100
AcDbCircle
 62
9
  6
CONTINUOUS
 10
12.102465231
 20
8.5282244817
 40
0.0911815454
100
AcDbArc
 50
109.9661669656
 51
115.0338330361
  0
ARC
  5
2E2
100
AcDbEntity
  8
0
100
AcDbCircle
 62
9
  6
CONTINUOUS
 10
12.3661625842
 20
8.4812681103
 40
0.0911815454
100
AcDbArc
 50
334.9661669643
 51
340.0338330361
  0
ARC
  5
2E3
100
AcDbEntity
  8
0
100
AcDbCircle
 62
9
  6
CONTINUOUS
 10
12.1934536004
 20
8.8982244819
 40
0.0911815451
100
AcDbArc
 50
64.9661669578
 51
70.0338330438
  0
ARC
  5
2E4
100
AcDbEntity
  8
0
100
AcDbCircle
 62
9
  6
CONTINUOUS
 10
11.7764972287
 20
8.7255154979
 40
0.0911815451
100
AcDbArc
 50
154.9661669584
 51
160.0338330438
  0
ARC
  5
2E5
100
AcDbEntity
  8
0
100
AcDbCircle
 62
9
  6
CONTINUOUS
 10
12.1464969445
 20
8.5722565975
 40
0.0911812378
100
AcDbArc
 50
154.9661584143
 51
160.0338415879
  0
ARC
  5
2E6
100
AcDbEntity
  8
0
100
AcDbCircle
 62
7
  6
CONTINUOUS
 10
11.7013299066
 20
8.450132786
 40
0.03
100
AcDbArc
 50
180.0000000193
 51
225.0
  0
ARC
  5
2E7
100
AcDbEntity
  8
0
100
AcDbCircle
 62
7
  6
CONTINUOUS
 10
12.4413299066
 20
8.450132786
 40
0.03
100
AcDbArc
 50
315.0000000008
 51
360.0
  0
ARC
  5
2E8
100
AcDbEntity
  8
0
100
AcDbCircle
 62
7
  6
CONTINUOUS
 10
12.4413299066
 20
8.7566508221
 40
0.03
100
AcDbArc
 50
0.0000000193
 51
45.0
  0
ARC
  5
2E9
100
AcDbEntity
  8
0
100
AcDbCircle
 62
7
  6
CONTINUOUS
 10
12.2245889247
 20
8.973391804
 40
0.03
100
AcDbArc
 50
45.0000000194
 51
90.0
  0
ARC
  5
2EA
100
AcDbEntity
  8
0
100
AcDbCircle
 62
7
  6
CONTINUOUS
 10
11.9180708885
 20
8.973391804
 40
0.03
100
AcDbArc
 50
90.0000000191
 51
135.0
  0
ARC
  5
2EB
100
AcDbEntity
  8
0
100
AcDbCircle
 62
7
  6
CONTINUOUS
 10
11.7013299066
 20
8.7566508221
 40
0.03
100
AcDbArc
 50
135.0000000184
 51
180.0
  0
ARC
  5
2EC
100
AcDbEntity
  8
0
100
AcDbCircle
 62
7
  6
CONTINUOUS
 10
21.683209825
 20
9.8762249518
 40
0.15
100
AcDbArc
 50
330.0735651336
 51
360.0
  0
ARC
  5
2ED
100
AcDbEntity
  8
0
100
AcDbCircle
 62
7
  6
CONTINUOUS
 10
20.463209825
 20
9.8762249518
 40
0.15
100
AcDbArc
 50
180.0
 51
209.9264348664
  0
ARC
  5
2EE
100
AcDbEntity
  8
0
100
AcDbCircle
 62
7
  6
CONTINUOUS
 10
20.145709825
 20
11.411391804
 40
0.15
100
AcDbArc
 50
90.0
 51
114.6244312731
  0
ARC
  5
2EF
100
AcDbEntity
  8
0
100
AcDbCircle
 62
7
  6
CONTINUOUS
 10
22.000709825
 20
11.411391804
 40
0.15
100
AcDbArc
 50
65.3755687261
 51
90.0
  0
ARC
  5
2F0
100
AcDbEntity
  8
0
100
AcDbCircle
 62
7
  6
CONTINUOUS
 10
21.933209825
 20
10.4356525729
 40
0.1
100
AcDbArc
 50
135.6687919533
 51
180.0
  0
ARC
  5
2F1
100
AcDbEntity
  8
0
100
AcDbCircle
 62
7
  6
CONTINUOUS
 10
20.213209825
 20
10.4356525729
 40
0.1
100
AcDbArc
 50
0.0
 51
44.3312080467
  0
ARC
  5
2F2
100
AcDbEntity
  8
0
100
AcDbCircle
 62
7
  6
CONTINUOUS
 10
20.1683631772
 20
11.5915451562
 40
0.0301533521
100
AcDbArc
 50
98.1789688981
 51
270.0
  0
ARC
  5
2F3
100
AcDbEntity
  8
0
100
AcDbCircle
 62
7
  6
CONTINUOUS
 10
21.9780564729
 20
11.5915451562
 40
0.0301533521
100
AcDbArc
 50
270.0
 51
81.8210311019
  0
SPLINE
  5
2F4
100
AcDbEntity
  8
0
100
AcDbSpline
 62
7
  6
CONTINUOUS
 70
0
 71
3
 72
17
 73
13
 74
0
 42
0.0000001
 43
0.0000001
 44
0.0000000001
 40
0.0
 40
0.0
 40
0.0
 40
0.0
 40
0.1249770438
 40
0.2499919467
 40
0.3125003967
 40
0.3750034916
 40
0.4999932389
 40
0.6249856049
 40
0.7499782317
 40
0.8124967258
 40
0.8750250085
 40
1.0
 40
1.0
 40
1.0
 40
1.0
 10
10.9016182612
 20
6.6551599308
 30
0.0
 10
10.9326080595
 20
6.6813284088
 30
0.0
 10
10.9927328022
 20
6.735927547
 30
0.0
 10
11.0626217271
 20
6.809561947
 30
0.0
 10
11.1150142751
 20
6.8715495576
 30
0.0
 10
11.1649481495
 20
6.9355224983
 30
0.0
 10
11.2225551564
 20
7.0191325658
 30
0.0
 10
11.2832721861
 20
7.1247531017
 30
0.0
 10
11.3263083041
 20
7.2167386848
 30
0.0
 10
11.3558863133
 20
7.2923299863
 30
0.0
 10
11.3821305211
 20
7.3691307944
 30
0.0
 10
11.3979990896
 20
7.4279875183
 30
0.0
 10
11.4067882226
 20
7.4675836538
 30
0.0
  0
SPLINE
  5
2F5
100
AcDbEntity
  8
0
100
AcDbSpline
 62
7
  6
CONTINUOUS
 70
0
 71
3
 72
17
 73
13
 74
0
 42
0.0000001
 43
0.0000001
 44
0.0000000001
 40
0.0
 40
0.0
 40
0.0
 40
0.0
 40
0.1249770438
 40
0.2499919467
 40
0.3125003967
 40
0.3750034916
 40
0.4999932389
 40
0.6249856049
 40
0.7499782317
 40
0.8124967258
 40
0.8750250085
 40
1.0
 40
1.0
 40
1.0
 40
1.0
 10
13.241041552
 20
6.6551599308
 30
0.0
 10
13.2100517537
 20
6.6813284088
 30
0.0
 10
13.149927011
 20
6.735927547
 30
0.0
 10
13.0800380861
 20
6.809561947
 30
0.0
 10
13.027645538
 20
6.8715495576
 30
0.0
 10
12.9777116637
 20
6.9355224983
 30
0.0
 10
12.9201046567
 20
7.0191325658
 30
0.0
 10
12.8593876271
 20
7.1247531017
 30
0.0
 10
12.816351509
 20
7.2167386848
 30
0.0
 10
12.7867734999
 20
7.2923299863
 30
0.0
 10
12.760529292
 20
7.3691307944
 30
0.0
 10
12.7446607236
 20
7.4279875183
 30
0.0
 10
12.7358715906
 20
7.4675836538
 30
0.0
  0
SPLINE
  5
2F6
100
AcDbEntity
  8
0
100
AcDbSpline
 62
7
  6
CONTINUOUS
 70
0
 71
3
 72
15
 73
11
 74
0
 42
0.0000001
 43
0.0000001
 44
0.0000000001
 40
0.0
 40
0.0
 40
0.0
 40
0.0
 40
0.1090055921
 40
0.2230766496
 40
0.3420584978
 40
0.4657745493
 40
0.5939097186
 40
0.726037803
 40
0.8616432247
 40
1.0
 40
1.0
 40
1.0
 40
1.0
 10
12.6561857293
 20
6.6551599308
 30
0.0
 10
12.6403224695
 20
6.6819505127
 30
0.0
 10
12.6096474054
 20
6.7378525569
 30
0.0
 10
12.5678503972
 20
6.8262191707
 30
0.0
 10
12.5295680566
 20
6.9207148535
 30
0.0
 10
12.4951509738
 20
7.020938764
 30
0.0
 10
12.4649299685
 20
7.1264163267
 30
0.0
 10
12.4392391635
 20
7.2365767452
 30
0.0
 10
12.4183850484
 20
7.3507193426
 30
0.0
 10
12.4079599119
 20
7.4283065097
 30
0.0
 10
12.4036007486
 20
7.4675836538
 30
0.0
  0
SPLINE
  5
2F7
100
AcDbEntity
  8
0
100
AcDbSpline
 62
7
  6
CONTINUOUS
 70
0
 71
3
 72
15
 73
11
 74
0
 42
0.0000001
 43
0.0000001
 44
0.0000000001
 40
0.0
 40
0.0
 40
0.0
 40
0.0
 40
0.1090055954
 40
0.2230766534
 40
0.3420584967
 40
0.4657745473
 40
0.5939097186
 40
0.7260378035
 40
0.8616432249
 40
1.0
 40
1.0
 40
1.0
 40
1.0
 10
11.4864740839
 20
6.6551599308
 30
0.0
 10
11.5023373442
 20
6.6819505135
 30
0.0
 10
11.5330124145
 20
6.7378525555
 30
0.0
 10
11.5748094253
 20
6.8262191682
 30
0.0
 10
11.6130917503
 20
6.9207148558
 30
0.0
 10
11.647508832
 20
7.0209387651
 30
0.0
 10
11.6777298461
 20
7.1264163259
 30
0.0
 10
11.7034206522
 20
7.236576745
 30
0.0
 10
11.7242747658
 20
7.3507193426
 30
0.0
 10
11.7346999013
 20
7.4283065098
 30
0.0
 10
11.7390590646
 20
7.4675836538
 30
0.0
  0
LINE
  5
2F8
100
AcDbEntity
  8
0
100
AcDbLine
 62
7
  6
CONTINUOUS
 10
22.0657032054
 20
11.5463363124
 11
22.0632102353
 21
11.5477513818
  0
SPLINE
  5
2F9
100
AcDbEntity
  8
0
100
AcDbSpline
 62
7
  6
CONTINUOUS
 70
0
 71
3
 72
11
 73
7
 74
0
 42
0.0000001
 43
0.0000001
 44
0.0000000001
 40
0.0
 40
0.0
 40
0.0
 40
0.0
 40
0.2620690643
 40
0.5197687014
 40
0.7674044947
 40
1.0
 40
1.0
 40
1.0
 40
1.0
 10
20.4335734777
 20
11.411391804
 30
0.0
 10
20.4335734777
 20
11.4172129249
 30
0.0
 10
20.4336537345
 20
11.4287581383
 30
0.0
 10
20.4339288952
 20
11.4458018016
 30
0.0
 10
20.4342805761
 20
11.4621888957
 30
0.0
 10
20.4344214598
 20
11.4728556248
 30
0.0
 10
20.4344202606
 20
11.478022074
 30
0.0
  0
SPLINE
  5
2FA
100
AcDbEntity
  8
0
100
AcDbSpline
 62
7
  6
CONTINUOUS
 70
0
 71
3
 72
31
 73
27
 74
0
 42
0.0000001
 43
0.0000001
 44
0.0000000001
 40
0.0
 40
0.0
 40
0.0
 40
0.0
 40
0.0982741304
 40
0.1961011833
 40
0.2925145012
 40
0.3866114335
 40
0.4325041785
 40
0.4774449863
 40
0.5638454763
 40
0.6445089414
 40
0.7183044709
 40
0.7842731784
 40
0.8416680583
 40
0.8902577717
 40
0.9298399652
 40
0.946285151
 40
0.9605182353
 40
0.9725465851
 40
0.9823786836
 40
0.9900279449
 40
0.9930380393
 40
0.995507101
 40
0.9974365468
 40
0.9988277268
 40
0.9996819325
 40
1.0
 40
1.0
 40
1.0
 40
1.0
 10
20.007782592
 20
11.411391804
 30
0.0
 10
20.007782592
 20
11.4167354359
 30
0.0
 10
20.0083037674
 20
11.4274048611
 30
0.0
 10
20.0105775519
 20
11.4431702646
 30
0.0
 10
20.0143021418
 20
11.4584240122
 30
0.0
 10
20.0185103627
 20
11.4705910746
 30
0.0
 10
20.0224530423
 20
11.4798449113
 30
0.0
 10
20.0266394951
 20
11.4885283224
 30
0.0
 10
20.0323242083
 20
11.498575236
 30
0.0
 10
20.0397395652
 20
11.509389302
 30
0.0
 10
20.0473233863
 20
11.5186870721
 30
0.0
 10
20.0547142107
 20
11.5264658871
 30
0.0
 10
20.0616246195
 20
11.5327748416
 30
0.0
 10
20.0677984821
 20
11.5377347504
 30
0.0
 10
20.0724156332
 20
11.5410618664
 30
0.0
 10
20.0755962441
 20
11.543178762
 30
0.0
 10
20.0775557441
 20
11.5444251344
 30
0.0
 10
20.0792284417
 20
11.5454517873
 30
0.0
 10
20.0806059621
 20
11.5462747348
 30
0.0
 10
20.0815695579
 20
11.5468342338
 30
0.0
 10
20.0821902343
 20
11.5471868651
 30
0.0
 10
20.0825417561
 20
11.5473836447
 30
0.0
 10
20.0828169314
 20
11.5475365186
 30
0.0
 10
20.0830166251
 20
11.5476446143
 30
0.0
 10
20.0831379365
 20
11.5477130439
 30
0.0
 10
20.0831949846
 20
11.5477418486
 30
0.0
 10
20.0832094148
 20
11.5477513818
 30
0.0
  0
SPLINE
  5
2FB
100
AcDbEntity
  8
0
100
AcDbSpline
 62
7
  6
CONTINUOUS
 70
0
 71
3
 72
36
 73
32
 74
0
 42
0.0000001
 43
0.0000001
 44
0.0000000001
 40
0.0
 40
0.0
 40
0.0
 40
0.0
 40
0.1908801884
 40
0.2825658961
 40
0.3712999201
 40
0.4567070365
 40
0.5383478618
 40
0.6157037424
 40
0.6881825281
 40
0.75511198
 40
0.8157309336
 40
0.8434182431
 40
0.8692115604
 40
0.892999167
 40
0.9146700715
 40
0.9341144754
 40
0.9512231755
 40
0.9658970373
 40
0.972292835
 40
0.9780463111
 40
0.9831466095
 40
0.9875858002
 40
0.9913575273
 40
0.9944554503
 40
0.9968732286
 40
0.9978250824
 40
0.9986047041
 40
0.9992120017
 40
0.9996469761
 40
0.9999096317
 40
1.0
 40
1.0
 40
1.0
 40
1.0
 10
22.1385376991
 20
10.801391804
 30
0.0
 10
22.1336276312
 20
10.795792901
 30
0.0
 10
22.1263904602
 20
10.7874770869
 30
0.0
 10
22.1169433695
 20
10.7764957719
 30
0.0
 10
22.1102089288
 20
10.768608931
 30
0.0
 10
22.1037563106
 20
10.7609968522
 30
0.0
 10
22.0976161454
 20
10.7537019194
 30
0.0
 10
22.0918239621
 20
10.7467734249
 30
0.0
 10
22.0864206389
 20
10.7402679895
 30
0.0
 10
22.0814525855
 20
10.7342498996
 30
0.0
 10
22.0776099909
 20
10.7295687396
 30
0.0
 10
22.0747923998
 20
10.7261225243
 30
0.0
 10
22.0728871183
 20
10.7237864681
 30
0.0
 10
22.0711326054
 20
10.7216303382
 30
0.0
 10
22.0695364844
 20
10.71966466
 30
0.0
 10
22.0681063366
 20
10.7178998648
 30
0.0
 10
22.0668494356
 20
10.7163460363
 30
0.0
 10
22.0659136461
 20
10.7151872319
 30
0.0
 10
22.0652566899
 20
10.7143726777
 30
0.0
 10
22.0648344147
 20
10.7138486858
 30
0.0
 10
22.0644602066
 20
10.7133839924
 30
0.0
 10
22.0641346588
 20
10.7129793858
 30
0.0
 10
22.0638582091
 20
10.7126355277
 30
0.0
 10
22.0636314033
 20
10.7123529864
 30
0.0
 10
22.0634734181
 20
10.7121561779
 30
0.0
 10
22.0633724674
 20
10.7120297368
 30
0.0
 10
22.0633150622
 20
10.7119585971
 30
0.0
 10
22.0632718814
 20
10.7119026726
 30
0.0
 10
22.0632376399
 20
10.7118636078
 30
0.0
 10
22.0632231665
 20
10.7118380511
 30
0.0
 10
22.0632099343
 20
10.7118286463
 30
0.0
 10
22.063209938
 20
10.7118251207
 30
0.0
  0
LINE
  5
2FC
100
AcDbEntity
  8
0
100
AcDbLine
 62
7
  6
CONTINUOUS
 10
20.0832097153
 20
11.5477516178
 11
20.0800417695
 21
11.5459213198
  0
SPLINE
  5
2FD
100
AcDbEntity
  8
0
100
AcDbSpline
 62
7
  6
CONTINUOUS
 70
0
 71
3
 72
40
 73
36
 74
0
 42
0.0000001
 43
0.0000001
 44
0.0000000001
 40
0.0
 40
0.0
 40
0.0
 40
0.0
 40
0.0000167668
 40
0.0000671535
 40
0.0001511928
 40
0.0002689025
 40
0.0006053983
 40
0.001076769
 40
0.0016831426
 40
0.0024246483
 40
0.0033014168
 40
0.0043135806
 40
0.006744631
 40
0.0097188947
 40
0.0132374933
 40
0.017301576
 40
0.0219123195
 40
0.0270708519
 40
0.0390353686
 40
0.0532058404
 40
0.0695976567
 40
0.0882313697
 40
0.1091321333
 40
0.1322989636
 40
0.1576957727
 40
0.2150724184
 40
0.2810869133
 40
0.3549403995
 40
0.3945098556
 40
0.4356898268
 40
0.6129206238
 40
0.7071204187
 40
0.8036436736
 40
0.90159387
 40
1.0
 40
1.0
 40
1.0
 40
1.0
 10
22.0632099348
 20
11.5477516178
 30
0.0
 10
22.0632103085
 20
11.5477524487
 30
0.0
 10
22.0632147269
 20
11.5477479604
 30
0.0
 10
22.0632208754
 20
11.5477468823
 30
0.0
 10
22.0632335921
 20
11.5477388601
 30
0.0
 10
22.063258936
 20
11.5477259013
 30
0.0
 10
22.0633033644
 20
11.5477010807
 30
0.0
 10
22.0633705412
 20
11.5476643433
 30
0.0
 10
22.0634570463
 20
11.5476162542
 30
0.0
 10
22.0635625861
 20
11.5475573801
 30
0.0
 10
22.0636872332
 20
11.547487383
 30
0.0
 10
22.0638916532
 20
11.5473719726
 30
0.0
 10
22.064194705
 20
11.5471994042
 30
0.0
 10
22.064615055
 20
11.5469575937
 30
0.0
 10
22.0651110868
 20
11.5466693833
 30
0.0
 10
22.0656825814
 20
11.5463340498
 30
0.0
 10
22.066329339
 20
11.5459509032
 30
0.0
 10
22.0673428367
 20
11.5453445148
 30
0.0
 10
22.068793046
 20
11.5444562674
 30
0.0
 10
22.0707416332
 20
11.5432135664
 30
0.0
 10
22.0729651576
 20
11.5417289394
 30
0.0
 10
22.075453541
 20
11.5399836813
 30
0.0
 10
22.0781958912
 20
11.5379609556
 30
0.0
 10
22.081175266
 20
11.5356422701
 30
0.0
 10
22.0856136055
 20
11.5319745411
 30
0.0
 10
22.0915881179
 20
11.5265167701
 30
0.0
 10
22.0989765773
 20
11.5187388235
 30
0.0
 10
22.1051466257
 20
11.5111741245
 30
0.0
 10
22.1100548836
 20
11.5043524735
 30
0.0
 10
22.1177432502
 20
11.4926280355
 30
0.0
 10
22.1254736112
 20
11.4773728784
 30
0.0
 10
22.132012249
 20
11.4584550376
 30
0.0
 10
22.1357407739
 20
11.4431911587
 30
0.0
 10
22.1380160815
 20
11.4274162625
 30
0.0
 10
22.1385376991
 20
11.4167393501
 30
0.0
 10
22.1385376991
 20
11.411391804
 30
0.0
  0
SPLINE
  5
2FE
100
AcDbEntity
  8
0
100
AcDbSpline
 62
7
  6
CONTINUOUS
 70
0
 71
3
 72
11
 73
7
 74
0
 42
0.0000001
 43
0.0000001
 44
0.0000000001
 40
0.0
 40
0.0
 40
0.0
 40
0.0
 40
0.2327191551
 40
0.4803590912
 40
0.7380033826
 40
1.0
 40
1.0
 40
1.0
 40
1.0
 10
21.7114764201
 20
11.4778129047
 30
0.0
 10
21.7114755721
 20
11.4726599466
 30
0.0
 10
21.711614219
 20
11.4620238919
 30
0.0
 10
21.711960865
 20
11.4456865786
 30
0.0
 10
21.7122324858
 20
11.4286991536
 30
0.0
 10
21.712311504
 20
11.4171930352
 30
0.0
 10
21.712311504
 20
11.411391804
 30
0.0
  0
SPLINE
  5
2FF
100
AcDbEntity
  8
0
100
AcDbSpline
 62
7
  6
CONTINUOUS
 70
0
 71
3
 72
27
 73
23
 74
0
 42
0.0000001
 43
0.0000001
 44
0.0000000001
 40
0.0
 40
0.0
 40
0.0
 40
0.0
 40
0.0004134447
 40
0.0015142185
 40
0.0033021946
 40
0.0057740862
 40
0.0089237096
 40
0.0127447719
 40
0.0223760044
 40
0.0346070311
 40
0.0493524196
 40
0.0665227066
 40
0.0860186454
 40
0.1315516959
 40
0.1850715121
 40
0.2456979614
 40
0.3126070322
 40
0.3850417834
 40
0.4623328566
 40
0.6292010401
 40
0.8093894803
 40
1.0
 40
1.0
 40
1.0
 40
1.0
 10
20.0832093868
 20
10.7118253827
 30
0.0
 10
20.0831981056
 20
10.7118369235
 30
0.0
 10
20.0831623234
 20
10.7118841953
 30
0.0
 10
20.0830793258
 20
10.7119826737
 30
0.0
 10
20.0829482982
 20
10.7121459192
 30
0.0
 10
20.0827658056
 20
10.7123702622
 30
0.0
 10
20.0825339732
 20
10.7126568257
 30
0.0
 10
20.0821261397
 20
10.7131604425
 30
0.0
 10
20.0814954364
 20
10.7139397359
 30
0.0
 10
20.0805961848
 20
10.7150502636
 30
0.0
 10
20.0795111925
 20
10.7163890559
 30
0.0
 10
20.078246763
 20
10.717947443
 30
0.0
 10
20.0762233991
 20
10.7204376561
 30
0.0
 10
20.0733005753
 20
10.7240252482
 30
0.0
 10
20.0693537896
 20
10.7288494844
 30
0.0
 10
20.0648655454
 20
10.7343087856
 30
0.0
 10
20.0598922909
 20
10.7403251346
 30
0.0
 10
20.0544855377
 20
10.7468270685
 30
0.0
 10
20.0465543339
 20
10.7563043441
 30
0.0
 10
20.035859395
 20
10.768953286
 30
0.0
 10
20.0221949853
 20
10.7848834178
 30
0.0
 10
20.0126897853
 20
10.7957990595
 30
0.0
 10
20.007782592
 20
10.801391804
 30
0.0
  0
SPLINE
  5
300
100
AcDbEntity
  8
0
100
AcDbSpline
 62
7
  6
CONTINUOUS
 70
0
 71
3
 72
24
 73
20
 74
0
 42
0.0000001
 43
0.0000001
 44
0.0000000001
 40
0.0
 40
0.0
 40
0.0
 40
0.0
 40
0.1318073347
 40
0.1968361464
 40
0.2607415973
 40
0.3233017285
 40
0.3844468674
 40
0.444225375
 40
0.4737159594
 40
0.503024365
 40
0.5613775633
 40
0.5906439632
 40
0.6200925337
 40
0.6798176718
 40
0.7410357616
 40
0.8039196712
 40
0.8683522508
 40
0.9339418618
 40
1.0
 40
1.0
 40
1.0
 40
1.0
 10
21.072904671
 20
11.5477507055
 30
0.0
 10
21.0622358282
 20
11.5477507055
 30
0.0
 10
21.0462876102
 20
11.5471045591
 30
0.0
 10
21.0253138516
 20
11.5446833608
 30
0.0
 10
21.0100354696
 20
11.5420046765
 30
0.0
 10
20.9952948943
 20
11.538285312
 30
0.0
 10
20.9812558091
 20
11.5333706438
 30
0.0
 10
20.9702393063
 20
11.5281125403
 30
0.0
 10
20.9620157384
 20
11.5231497408
 30
0.0
 10
20.9542481124
 20
11.5177006267
 30
0.0
 10
20.9470883805
 20
11.5114511224
 30
0.0
 10
20.9406763171
 20
11.5044645031
 30
0.0
 10
20.9347349305
 20
11.496930398
 30
0.0
 10
20.9282534821
 20
11.4865765187
 30
0.0
 10
20.9220511295
 20
11.4730110768
 30
0.0
 10
20.9173527492
 20
11.4584600528
 30
0.0
 10
20.914070564
 20
11.4431708929
 30
0.0
 10
20.9121324193
 20
11.4273998538
 30
0.0
 10
20.911708213
 20
11.4167387287
 30
0.0
 10
20.911708213
 20
11.411391804
 30
0.0
  0
SPLINE
  5
301
100
AcDbEntity
  8
0
100
AcDbSpline
 62
7
  6
CONTINUOUS
 70
0
 71
3
 72
30
 73
26
 74
0
 42
0.0000001
 43
0.0000001
 44
0.0000000001
 40
0.0
 40
0.0
 40
0.0
 40
0.0
 40
0.0503537209
 40
0.0984049998
 40
0.1444307701
 40
0.1669070856
 40
0.1891875183
 40
0.2114628983
 40
0.2339747938
 40
0.2570082643
 40
0.2808691076
 40
0.3058583447
 40
0.3322374558
 40
0.3601953192
 40
0.3898319506
 40
0.4211561165
 40
0.4540946361
 40
0.4885142086
 40
0.5242468165
 40
0.5988959986
 40
0.6766759705
 40
0.7564348381
 40
0.8373022332
 40
0.918651084
 40
1.0
 40
1.0
 40
1.0
 40
1.0
 10
21.7114763211
 20
10.7855179255
 30
0.0
 10
21.7114764367
 20
10.7804510631
 30
0.0
 10
21.7120088162
 20
10.7705348645
 30
0.0
 10
21.7147203395
 20
10.7562078428
 30
0.0
 10
21.7187949805
 20
10.7451294325
 30
0.0
 10
21.7232426786
 20
10.7371316795
 30
0.0
 10
21.7271744528
 20
10.7316313186
 30
0.0
 10
21.7317565408
 20
10.7266517676
 30
0.0
 10
21.737010861
 20
10.722264693
 30
0.0
 10
21.7429491952
 20
10.7185471842
 30
0.0
 10
21.749567016
 20
10.7155729278
 30
0.0
 10
21.7568424548
 20
10.7134065043
 30
0.0
 10
21.7647361796
 20
10.712098171
 30
0.0
 10
21.7731921201
 20
10.7116766079
 30
0.0
 10
21.782141019
 20
10.7121479614
 30
0.0
 10
21.7915043065
 20
10.7134966996
 30
0.0
 10
21.8011989038
 20
10.7156868
 30
0.0
 10
21.811143308
 20
10.7186648335
 30
0.0
 10
21.8248324726
 20
10.7236766307
 30
0.0
 10
21.8420709008
 20
10.7315805692
 30
0.0
 10
21.86248323
 20
10.7429838134
 30
0.0
 10
21.8826579751
 20
10.7559884025
 30
0.0
 10
21.9024259456
 20
10.7702193919
 30
0.0
 10
21.9216858766
 20
10.7853866543
 30
0.0
 10
21.9341653212
 20
10.7959893295
 30
0.0
 10
21.9403151203
 20
10.801391804
 30
0.0
  0
SPLINE
  5
302
100
AcDbEntity
  8
0
100
AcDbSpline
 62
7
  6
CONTINUOUS
 70
0
 71
3
 72
39
 73
35
 74
0
 42
0.0000001
 43
0.0000001
 44
0.0000000001
 40
0.0
 40
0.0
 40
0.0
 40
0.0
 40
0.0393974362
 40
0.0788774254
 40
0.1183584189
 40
0.1578111434
 40
0.1972504552
 40
0.2366989901
 40
0.2761274201
 40
0.2958174977
 40
0.3154719538
 40
0.3546182953
 40
0.3934337721
 40
0.4317113912
 40
0.4692984331
 40
0.5415548074
 40
0.5759171717
 40
0.6088615612
 40
0.640241416
 40
0.6699426692
 40
0.6978477179
 40
0.7238767059
 40
0.7479951816
 40
0.7702261651
 40
0.790732089
 40
0.8098558037
 40
0.8281709692
 40
0.8465360102
 40
0.865941412
 40
0.8872977967
 40
0.9111966872
 40
0.9379753447
 40
0.9676599477
 40
1.0
 40
1.0
 40
1.0
 40
1.0
 10
21.9403151203
 20
11.411391804
 30
0.0
 10
21.9403151203
 20
11.4160184656
 30
0.0
 10
21.9398110924
 20
11.4252890627
 30
0.0
 10
21.9375643369
 20
11.4390319995
 30
0.0
 10
21.9338270409
 20
11.4524562276
 30
0.0
 10
21.9286257275
 20
11.4653783508
 30
0.0
 10
21.9220219064
 20
11.4776402387
 30
0.0
 10
21.9140733707
 20
11.4890715823
 30
0.0
 10
21.9064460335
 20
11.4978112348
 30
0.0
 10
21.8998173578
 20
11.5042694039
 30
0.0
 10
21.8928750832
 20
11.5103391463
 30
0.0
 10
21.8836714923
 20
11.5172078168
 30
0.0
 10
21.8719937229
 20
11.5243122381
 30
0.0
 10
21.859899352
 20
11.5302743186
 30
0.0
 10
21.8437279814
 20
11.5367184039
 30
0.0
 10
21.8273880781
 20
11.5413637085
 30
0.0
 10
21.8112971461
 20
11.5445005123
 30
0.0
 10
21.7998225143
 20
11.5461609149
 30
0.0
 10
21.788828855
 20
11.5472333838
 30
0.0
 10
21.778388044
 20
11.5477571857
 30
0.0
 10
21.7685622918
 20
11.5477873984
 30
0.0
 10
21.7594029048
 20
11.5473073722
 30
0.0
 10
21.7509572207
 20
11.5462826589
 30
0.0
 10
21.7432581545
 20
11.5446841656
 30
0.0
 10
21.7363373374
 20
11.5424108857
 30
0.0
 10
21.730227661
 20
11.5393439688
 30
0.0
 10
21.7249775773
 20
11.5353499456
 30
0.0
 10
21.7206406932
 20
11.530328678
 30
0.0
 10
21.7172490075
 20
11.5242198307
 30
0.0
 10
21.7147769452
 20
11.517009106
 30
0.0
 10
21.7130759955
 20
11.5087061768
 30
0.0
 10
21.7120447651
 20
11.4993160769
 30
0.0
 10
21.7115496499
 20
11.4888953446
 30
0.0
 10
21.7114770452
 20
11.4816107781
 30
0.0
 10
21.7114764201
 20
11.4778129047
 30
0.0
  0
SPLINE
  5
303
100
AcDbEntity
  8
0
100
AcDbSpline
 62
7
  6
CONTINUOUS
 70
0
 71
3
 72
30
 73
26
 74
0
 42
0.0000001
 43
0.0000001
 44
0.0000000001
 40
0.0
 40
0.0
 40
0.0
 40
0.0
 40
0.0813671839
 40
0.1627317366
 40
0.2436123428
 40
0.3233818356
 40
0.4011702068
 40
0.4758259545
 40
0.5115614623
 40
0.5459835153
 40
0.5789241015
 40
0.6102500325
 40
0.6398877071
 40
0.6678454819
 40
0.6942230635
 40
0.7192091907
 40
0.7430651282
 40
0.7660919743
 40
0.7885961149
 40
0.8108630348
 40
0.8331347603
 40
0.8556026059
 40
0.9016133578
 40
0.9496533893
 40
1.0
 40
1.0
 40
1.0
 40
1.0
 10
20.2057103761
 20
10.801391804
 30
0.0
 10
20.2118577933
 20
10.7959917208
 30
0.0
 10
20.2243319703
 20
10.7853936636
 30
0.0
 10
20.2435827828
 20
10.7702323696
 30
0.0
 10
20.2633401101
 20
10.7560063316
 30
0.0
 10
20.2835027587
 20
10.7430052162
 30
0.0
 10
20.3039017426
 20
10.7316033737
 30
0.0
 10
20.3211282407
 20
10.7236981998
 30
0.0
 10
20.3348077507
 20
10.7186835481
 30
0.0
 10
20.3447450992
 20
10.7157024081
 30
0.0
 10
20.3544329227
 20
10.713508207
 30
0.0
 10
20.3637898686
 20
10.7121543502
 30
0.0
 10
20.3727329937
 20
10.7116769444
 30
0.0
 10
20.3811838059
 20
10.7120916622
 30
0.0
 10
20.3890731108
 20
10.7133925494
 30
0.0
 10
20.3963448317
 20
10.7155511548
 30
0.0
 10
20.4029595963
 20
10.7185173784
 30
0.0
 10
20.4088954062
 20
10.7222269009
 30
0.0
 10
20.4141476582
 20
10.7266061119
 30
0.0
 10
20.4187280378
 20
10.7315780165
 30
0.0
 10
20.4226583729
 20
10.737070982
 30
0.0
 10
20.4271045157
 20
10.7450592673
 30
0.0
 10
20.4311776952
 20
10.7561266123
 30
0.0
 10
20.4338880475
 20
10.7704410532
 30
0.0
 10
20.4344201174
 20
10.7803491138
 30
0.0
 10
20.4344202339
 20
10.7854120396
 30
0.0
  0
SPLINE
  5
304
100
AcDbEntity
  8
0
100
AcDbSpline
 62
7
  6
CONTINUOUS
 70
0
 71
3
 72
13
 73
9
 74
0
 42
0.0000001
 43
0.0000001
 44
0.0000000001
 40
0.0
 40
0.0
 40
0.0
 40
0.0
 40
0.1361815945
 40
0.2704471661
 40
0.4014701176
 40
0.5286525948
 40
0.7711354107
 40
1.0
 40
1.0
 40
1.0
 40
1.0
 10
21.072904671
 20
10.7118248749
 30
0.0
 10
21.0642281961
 20
10.7118248749
 30
0.0
 10
21.0469683189
 20
10.7131595876
 30
0.0
 10
21.0219660731
 20
10.7189542541
 30
0.0
 10
20.9985630919
 20
10.7279798084
 30
0.0
 10
20.9704377093
 20
10.7431795082
 30
0.0
 10
20.9401800441
 20
10.7668724164
 30
0.0
 10
20.9203283622
 20
10.7896310881
 30
0.0
 10
20.911708213
 20
10.801391804
 30
0.0
  0
SPLINE
  5
305
100
AcDbEntity
  8
0
100
AcDbSpline
 62
7
  6
CONTINUOUS
 70
0
 71
3
 72
38
 73
34
 74
0
 42
0.0000001
 43
0.0000001
 44
0.0000000001
 40
0.0
 40
0.0
 40
0.0
 40
0.0
 40
0.0323080887
 40
0.0619530022
 40
0.0886915699
 40
0.1125481204
 40
0.1338604918
 40
0.1532307968
 40
0.1715746224
 40
0.1898814462
 40
0.2089956727
 40
0.2294950175
 40
0.2517303322
 40
0.2758488405
 40
0.3018810774
 40
0.3297952332
 40
0.3595018821
 40
0.3908978504
 40
0.4582208068
 40
0.4938438458
 40
0.53057461
 40
0.5681868161
 40
0.6064936015
 40
0.6453430863
 40
0.6845184427
 40
0.7041849537
 40
0.7238857107
 40
0.7633337794
 40
0.8028004561
 40
0.8422530624
 40
0.881715959
 40
0.9212080017
 40
1.0
 40
1.0
 40
1.0
 40
1.0
 10
20.4344202606
 20
11.478022074
 30
0.0
 10
20.4344193807
 20
11.4818125667
 30
0.0
 10
20.4343459235
 20
11.4890817647
 30
0.0
 10
20.4338488744
 20
11.4994793125
 30
0.0
 10
20.43281641
 20
11.5088457888
 30
0.0
 10
20.4311141435
 20
11.5171251912
 30
0.0
 10
20.4286377521
 20
11.5243119642
 30
0.0
 10
20.4252438716
 20
11.5303980591
 30
0.0
 10
20.4209110012
 20
11.5354043419
 30
0.0
 10
20.4156617103
 20
11.5393818381
 30
0.0
 10
20.4095553553
 20
11.5424339183
 30
0.0
 10
20.4026404618
 20
11.5446970085
 30
0.0
 10
20.3949499298
 20
11.5462983261
 30
0.0
 10
20.3865098304
 20
11.5473119945
 30
0.0
 10
20.377357657
 20
11.5477825983
 30
0.0
 10
20.3675392471
 20
11.5477622597
 30
0.0
 10
20.3571047717
 20
11.5472282211
 30
0.0
 10
20.3421064977
 20
11.5457539114
 30
0.0
 10
20.3265331551
 20
11.5431280334
 30
0.0
 10
20.310643046
 20
11.5390900938
 30
0.0
 10
20.2983478589
 20
11.5351503777
 30
0.0
 10
20.2860608084
 20
11.5302494432
 30
0.0
 10
20.2739731787
 20
11.5242802877
 30
0.0
 10
20.262301615
 20
11.5171699052
 30
0.0
 10
20.2531024355
 20
11.5102991021
 30
0.0
 10
20.246164062
 20
11.5042290529
 30
0.0
 10
20.2395406575
 20
11.4977709788
 30
0.0
 10
20.2319219136
 20
11.4890310153
 30
0.0
 10
20.2239819341
 20
11.477602593
 30
0.0
 10
20.2173850059
 20
11.4653472758
 30
0.0
 10
20.2121905526
 20
11.4524297497
 30
0.0
 10
20.2072210708
 20
11.4345752805
 30
0.0
 10
20.2057103761
 20
11.4206359441
 30
0.0
 10
20.2057103761
 20
11.411391804
 30
0.0
  0
SPLINE
  5
306
100
AcDbEntity
  8
0
100
AcDbSpline
 62
7
  6
CONTINUOUS
 70
0
 71
3
 72
13
 73
9
 74
0
 42
0.0000001
 43
0.0000001
 44
0.0000000001
 40
0.0
 40
0.0
 40
0.0
 40
0.0
 40
0.1362011906
 40
0.2704771922
 40
0.4015027501
 40
0.5286825166
 40
0.7711512044
 40
1.0
 40
1.0
 40
1.0
 40
1.0
 10
21.072904671
 20
10.7118248749
 30
0.0
 10
21.081580745
 20
10.7118248749
 30
0.0
 10
21.0988392734
 20
10.7131594125
 30
0.0
 10
21.1238387259
 20
10.7189539491
 30
0.0
 10
21.1472373851
 20
10.7279794443
 30
0.0
 10
21.1753549955
 20
10.7431789593
 30
0.0
 10
21.2056009866
 20
10.7668720361
 30
0.0
 10
21.2254408823
 20
10.7896311031
 30
0.0
 10
21.2340546607
 20
10.801391804
 30
0.0
  0
SPLINE
  5
307
100
AcDbEntity
  8
0
100
AcDbSpline
 62
7
  6
CONTINUOUS
 70
0
 71
3
 72
23
 73
19
 74
0
 42
0.0000001
 43
0.0000001
 44
0.0000000001
 40
0.0
 40
0.0
 40
0.0
 40
0.0
 40
0.0661051017
 40
0.1317181847
 40
0.1961554783
 40
0.2590447747
 40
0.3202714053
 40
0.3799833128
 40
0.4386460568
 40
0.4678250944
 40
0.4970141297
 40
0.5557658572
 40
0.6155363148
 40
0.6766563522
 40
0.7392246264
 40
0.8031246916
 40
0.8681427689
 40
1.0
 40
1.0
 40
1.0
 40
1.0
 10
21.2340546607
 20
11.411391804
 30
0.0
 10
21.2340546607
 20
11.4167416515
 30
0.0
 10
21.2336300439
 20
11.4274067313
 30
0.0
 10
21.2316922995
 20
11.4431812131
 30
0.0
 10
21.2284118644
 20
11.4584711376
 30
0.0
 10
21.2237122775
 20
11.473020173
 30
0.0
 10
21.2175175727
 20
11.486587671
 30
0.0
 10
21.2097847176
 20
11.4989491459
 30
0.0
 10
21.2020202704
 20
11.5080835293
 30
0.0
 10
21.1951238124
 20
11.5145859342
 30
0.0
 10
21.1877604647
 20
11.5205667639
 30
0.0
 10
21.1776894245
 20
11.5270820261
 30
0.0
 10
21.1645474422
 20
11.5333761644
 30
0.0
 10
21.150508577
 20
11.5382845655
 30
0.0
 10
21.1357718898
 20
11.5419980674
 30
0.0
 10
21.1204981014
 20
11.5446855555
 30
0.0
 10
21.0995240883
 20
11.5470989273
 30
0.0
 10
21.0835758001
 20
11.5477507055
 30
0.0
 10
21.072904671
 20
11.5477507055
 30
0.0
  0
ELLIPSE
  5
308
100
AcDbEntity
  8
0
100
AcDbEllipse
 62
7
  6
CONTINUOUS
 10
12.0713299066
 20
7.6428905744
 30
0.0
 11
1.1875
 21
-0.0
 31
0.0
 40
0.9750549296
 41
-2.0943951024
 42
-1.0471975512
  0
ELLIPSE
  5
309
100
AcDbEntity
  8
0
100
AcDbEllipse
 62
7
  6
CONTINUOUS
 10
12.0713299066
 20
7.6428905744
 30
0.0
 11
-1.1492470711
 21
1.1162095399
 31
0.0
 40
0.2678505055
 41
-3.9342811082
 42
-2.887083557
  0
ELLIPSE
  5
30A
100
AcDbEntity
  8
0
100
AcDbEllipse
 62
7
  6
CONTINUOUS
 10
12.0713299066
 20
7.6428905744
 30
0.0
 11
1.1492470711
 21
1.1162095399
 31
0.0
 40
0.2678505055
 41
-3.3961017501
 42
-2.3489041989
  0
ENDSEC
  0
SECTION
  2
OBJECTS
  0
DICTIONARY
  5
C
100
AcDbDictionary
280
0
281
1
  3
ACAD_GROUP
350
D
  3
ACAD_MLINESTYLE
350
17
  3
ACAD_LAYOUT
350
1A
  3
ACAD_PLOTSETTINGS
350
19
  3
ACAD_PLOTSTYLENAME
350
E
  0
DICTIONARY
  5
D
102
{ACAD_REACTORS
330
C
102
}
100
AcDbDictionary
280
0
281
1
  0
ACDBDICTIONARYWDFLT
  5
E
102
{ACAD_REACTORS
330
C
102
}
100
AcDbDictionary
281
1
  3
Normal
350
F
100
AcDbDictionaryWithDefault
340
F
  0
DICTIONARY
  5
17
102
{ACAD_REACTORS
330
C
102
}
100
AcDbDictionary
280
0
281
1
  3
Standard
350
18
  0
DICTIONARY
  5
19
102
{ACAD_REACTORS
330
C
102
}
100
AcDbDictionary
281
1
  0
DICTIONARY
  5
1A
102
{ACAD_REACTORS
330
C
102
}
100
AcDbDictionary
281
1
  3
Model
350
30B
  3
Layout1
350
30C
  0
ACDBPLACEHOLDER
  5
F
102
{ACAD_REACTORS
330
E
102
}
  0
MLINESTYLE
  5
18
102
{ACAD_REACTORS
330
17
102
}
100
AcDbMlineStyle
  2
STANDARD
 70
0
  3

 62
256
 51
90.0
 52
90.0
 71
2
 49
0.5
 62
256
  6
BYLAYER
 49
-0.5
 62
256
  6
BYLAYER
  0
LAYOUT
  5
30B
102
{ACAD_REACTORS
330
1A
102
}
100
AcDbPlotSettings
  1

  2
none_device
  4
ANSI_C_(22.00_x_17.00_Inches)
  6

 40
0.0
 41
0.0
 42
0.0
 43
0.0
 44
558.8
 45
431.8
 46
0.0
 47
0.0
 48
0.0
 49
0.0
140
0.0
141
0.0
142
1.0
143
1.0
 70
1024
 72
0
 73
0
 74
0
  7

 75
0
147
1.0
148
0.0
149
0.0
100
AcDbLayout
  1
Model
 70
0
 71
0
 10
0.0
 20
0.0
 11
22.0
 21
17.0
 12
0.0
 22
0.0
 32
0.0
 14
0.0
 24
0.0
 34
0.0
 15
0.0
 25
0.0
 35
0.0
146
0.0
 13
0.0
 23
0.0
 33
0.0
 16
1.0
 26
0.0
 36
0.0
 17
0.0
 27
1.0
 37
0.0
 76
0
330
202
345
0
346
0
  0
LAYOUT
  5
30C
102
{ACAD_REACTORS
330
1A
102
}
100
AcDbPlotSettings
  1

  2
none_device
  4
ANSI_C_(22.00_x_17.00_Inches)
  6

 40
0.0
 41
0.0
 42
0.0
 43
0.0
 44
558.8
 45
431.8
 46
0.0
 47
0.0
 48
0.0
 49
0.0
140
0.0
141
0.0
142
1.0
143
1.0
 70
0
 72
0
 73
0
 74
0
  7

 75
0
147
1.0
148
0.0
149
0.0
100
AcDbLayout
  1
Layout1
 70
0
 71
1
 10
0.0
 20
0.0
 11
22.0
 21
17.0
 12
0.0
 22
0.0
 32
0.0
 14
0.0
 24
0.0
 34
0.0
 15
0.0
 25
0.0
 35
0.0
146
0.0
 13
0.0
 23
0.0
 33
0.0
 16
1.0
 26
0.0
 36
0.0
 17
0.0
 27
1.0
 37
0.0
 76
0
330
203
345
0
346
0
  0
ENDSEC
  0
EOF
