  0
SECTION
  2
HEADER
  9
$ACADVER
  1
AC1021
  9
$DWGCODEPAGE
  3
ANSI_1252
  9
$EXTMAX
 10
23.3858267717
 20
16.5354330709
 30
0.0
  9
$EXTMIN
 10
0.0
 20
0.0
 30
0.0
  9
$LIMMIN
 10
0.0
 20
0.0
  9
$LIMMAX
 10
23.3858267717
 20
16.5354330709
  9
$VIEWCTR
 10
11.6929133858
 20
8.2677165354
  9
$VIEWSIZE
 40
16.5354330709
  9
$CLAYER
  8
0
  9
$LTSCALE
 40
1.2862204724
  9
$CELTYPE
  6
BYLAYER
  9
$DIMSCALE
 40
1.0
  9
$DIMASZ
 40
0.1
  9
$DIMEXO
 40
0.1461614173
  9
$DIMDLI
 40
0.8886614173
  9
$DIMEXE
 40
0.4209448819
  9
$DIMCEN
 40
0.2104724409
  9
$DIMLFAC
 40
1.0
  9
$DIMBLK
  1
_FILLED
  9
$DIMTXT
 40
0.08
  9
$DIMTOL
 70
1
  9
$DIMLIM
 70
0
  9
$DIMTFAC
 40
1.0
  9
$DIMTP
 40
0.001
  9
$DIMTM
 40
0.001
  9
$PDMODE
 70
3
  9
$PDSIZE
 40
0.06
  9
$HANDSEED
  5
278
  9
$TILEMODE
 70
1
  9
$MEASUREMENT
 70
0
  9
$INSUNITS
 70
1
  0
ENDSEC
  0
SECTION
  2
CLASSES
  0
CLASS
  1
ACDBDICTIONARYWDFLT
  2
AcDbDictionaryWithDefault
  3
AutoCAD 2000
 90
0
 91
1
280
0
281
0
  0
CLASS
  1
ACDBPLACEHOLDER
  2
AcDbPlaceHolder
  3
AutoCAD 2000
 90
0
 91
1
280
0
281
0
  0
CLASS
  1
LAYOUT
  2
AcDbLayout
  3
AutoCAD 2000
 90
0
 91
0
280
0
281
0
  0
ENDSEC
  0
SECTION
  2
TABLES
  0
TABLE
  2
VPORT
  5
8
100
AcDbSymbolTable
 70
2
  0
VPORT
  5
1F4
100
AcDbSymbolTableRecord
100
AcDbViewportTableRecord
  2
*ACTIVE
 70
0
 10
0.0
 20
0.0
 11
1.0
 21
1.0
 12
11.6929133858
 22
8.2677165354
 13
0.0
 23
0.0
 14
1.0
 24
1.0
 15
0.0
 25
0.0
 16
0.0
 26
0.0
 36
1.0
 17
0.0
 27
0.0
 37
0.0
 40
16.5354330709
 41
1.4142857143
 42
50.0
 43
0.0
 44
0.0
 50
0.0
 51
0.0
 71
0
 72
100
 73
1
 74
1
 75
0
 76
0
 77
0
 78
0
  0
ENDTAB
  0
TABLE
  2
LTYPE
  5
5
100
AcDbSymbolTable
 70
6
  0
LTYPE
  5
14
100
AcDbSymbolTableRecord
100
AcDbLinetypeTableRecord
  2
BYBLOCK
 70
0
  3

 72
65
 73
0
 40
0.0
  0
LTYPE
  5
15
100
AcDbSymbolTableRecord
100
AcDbLinetypeTableRecord
  2
BYLAYER
 70
0
  3

 72
65
 73
0
 40
0.0
  0
LTYPE
  5
16
100
AcDbSymbolTableRecord
100
AcDbLinetypeTableRecord
  2
CONTINUOUS
 70
64
  3
Solid line
 72
65
 73
0
 40
0.0
  0
LTYPE
  5
1F5
100
AcDbSymbolTableRecord
100
AcDbLinetypeTableRecord
  2
CENTER
 70
64
  3
____ _ ____ _ ____ _ ____ _ ____ _ ____ _ ____
 72
65
 73
4
 40
0.6
 49
0.375
 74
0
 49
-0.075
 74
0
 49
0.075
 74
0
 49
-0.075
 74
0
  0
LTYPE
  5
1F6
100
AcDbSymbolTableRecord
100
AcDbLinetypeTableRecord
  2
HIDDEN
 70
64
  3
- - - - - - - - - - - - - - - - - - - -
 72
65
 73
2
 40
0.2
 49
0.1
 74
0
 49
-0.1
 74
0
  0
LTYPE
  5
1F7
100
AcDbSymbolTableRecord
100
AcDbLinetypeTableRecord
  2
PHANTOM
 70
64
  3
_____ _ _ _____ _ _ _____ _ _ _____
 72
65
 73
6
 40
0.8
 49
0.45
 74
0
 49
-0.05
 74
0
 49
0.1
 74
0
 49
-0.05
 74
0
 49
0.1
 74
0
 49
-0.05
 74
0
  0
LTYPE
  5
1F8
100
AcDbSymbolTableRecord
100
AcDbLinetypeTableRecord
  2
DOT
 70
64
  3
. . . . . . . . . . . . . . . . . . . .
 72
65
 73
2
 40
0.2
 49
0.1
 74
0
 49
-0.1
 74
0
  0
LTYPE
  5
1F9
100
AcDbSymbolTableRecord
100
AcDbLinetypeTableRecord
  2
DASHED
 70
64
  3
- - - - - - - - - - - - - - - - - - - -
 72
65
 73
2
 40
0.2
 49
0.1
 74
0
 49
-0.1
 74
0
  0
ENDTAB
  0
TABLE
  2
LAYER
  5
2
100
AcDbSymbolTable
 70
36
  0
LAYER
  5
10
100
AcDbSymbolTableRecord
100
AcDbLayerTableRecord
  2
0
 70
0
 62
7
  6
CONTINUOUS
370
-3
390
F
  0
LAYER
  5
1FA
100
AcDbSymbolTableRecord
100
AcDbLayerTableRecord
  2
DEFAULT_1
 70
0
 62
7
  6
CENTER
370
-3
390
F
  0
LAYER
  5
1FB
100
AcDbSymbolTableRecord
100
AcDbLayerTableRecord
  2
DEFAULT_2
 70
0
 62
8
  6
HIDDEN
370
-3
390
F
  0
LAYER
  5
1FC
100
AcDbSymbolTableRecord
100
AcDbLayerTableRecord
  2
DEFAULT_3
 70
0
 62
7
  6
PHANTOM
370
-3
390
F
  0
LAYER
  5
1FD
100
AcDbSymbolTableRecord
100
AcDbLayerTableRecord
  2
DEFAULT_COORDINATE_SYSTEM
 70
0
 62
7
  6
CONTINUOUS
370
-3
390
F
  0
LAYER
  5
1FE
100
AcDbSymbolTableRecord
100
AcDbLayerTableRecord
  2
DEFAULT_DATUM_AXES
 70
0
 62
7
  6
CONTINUOUS
370
-3
390
F
  0
LAYER
  5
1FF
100
AcDbSymbolTableRecord
100
AcDbLayerTableRecord
  2
DEFAULT_DATUM_CURVES
 70
0
 62
7
  6
CONTINUOUS
370
-3
390
F
  0
LAYER
  5
200
100
AcDbSymbolTableRecord
100
AcDbLayerTableRecord
  2
DEFAULT_DATUM_PLANES
 70
0
 62
7
  6
CONTINUOUS
370
-3
390
F
  0
ENDTAB
  0
TABLE
  2
STYLE
  5
3
100
AcDbSymbolTable
 70
1
  0
STYLE
  5
11
100
AcDbSymbolTableRecord
100
AcDbTextStyleTableRecord
  2
STANDARD
 70
0
 40
0.0
 41
0.8
 50
0.0
 71
0
 42
0.2
  3
txt
  4

  0
STYLE
  5
201
100
AcDbSymbolTableRecord
100
AcDbTextStyleTableRecord
  2
TEXTSTYLE_1
 70
0
 40
0.0
 41
0.8
 50
0.0
 71
0
 42
0.2
  3
gdt
  4

  0
ENDTAB
  0
TABLE
  2
VIEW
  5
6
100
AcDbSymbolTable
 70
0
  0
ENDTAB
  0
TABLE
  2
UCS
  5
7
100
AcDbSymbolTable
 70
0
  0
ENDTAB
  0
TABLE
  2
APPID
  5
9
100
AcDbSymbolTable
 70
1
  0
APPID
  5
202
100
AcDbSymbolTableRecord
100
AcDbRegAppTableRecord
  2
ACAD
 70
0
  0
ENDTAB
  0
TABLE
  2
BLOCK_RECORD
  5
1
100
AcDbSymbolTable
 70
0
  0
BLOCK_RECORD
  5
203
100
AcDbSymbolTableRecord
100
AcDbBlockTableRecord
  2
*Model_Space
  0
BLOCK_RECORD
  5
204
100
AcDbSymbolTableRecord
100
AcDbBlockTableRecord
  2
*Paper_Space
  0
ENDTAB
  0
TABLE
  2
DIMSTYLE
  5
A
100
AcDbSymbolTable
 70
1
100
AcDbDimStyleTable
 71
0
  0
DIMSTYLE
105
205
100
AcDbSymbolTableRecord
100
AcDbDimStyleTableRecord
  2
STANDARD
 70
0
  3

  4

 40
1.0
 41
0.1
 42
0.0625
 43
0.38
 44
0.18
 45
0.0
 46
0.0
 47
0.001
 48
0.001
140
0.08
141
0.09
142
0.0
143
25.4
144
1.0
145
0.0
146
1.0
147
0.09
 71
1.0
 72
0.0
 73
1
 74
1
 75
0
 76
0
 77
0
 78
4
170
0
171
2
172
0
173
0
174
0
175
0
176
0
177
0
178
0
270
2
271
3
272
3
273
2
274
2
275
0
280
0
281
0
282
0
283
1
284
4
285
0
286
0
287
3
288
0
340
11
  0
ENDTAB
  0
ENDSEC
  0
SECTION
  2
BLOCKS
  0
BLOCK
  5
20
100
AcDbEntity
  8
0
100
AcDbBlockBegin
  2
*Model_Space
 70
0
 10
0.0
 20
0.0
 30
0.0
  3
*Model_Space
  1

  0
ENDBLK
  5
21
100
AcDbEntity
  8
0
100
AcDbBlockEnd
  0
BLOCK
  5
1C
100
AcDbEntity
  8
0
100
AcDbBlockBegin
  2
*Paper_Space
 70
0
 10
0.0
 20
0.0
 30
0.0
  3
*Paper_Space
  1

  0
ENDBLK
  5
1D
100
AcDbEntity
  8
0
100
AcDbBlockEnd
  0
ENDSEC
  0
SECTION
  2
ENTITIES
  0
LINE
  5
206
100
AcDbEntity
  8
0
100
AcDbLine
 62
6
  6
CONTINUOUS
 10
1.9119324337
 20
9.6586383504
 11
1.9119324337
 21
9.5966383504
  0
LINE
  5
207
100
AcDbEntity
  8
0
100
AcDbLine
 62
6
  6
CONTINUOUS
 10
2.0279324337
 20
9.2473294143
 11
2.0279324337
 21
9.5966383504
  0
LINE
  5
208
100
AcDbEntity
  8
0
100
AcDbLine
 62
6
  6
CONTINUOUS
 10
2.6529324337
 20
9.5966383504
 11
2.6529324337
 21
9.3440172507
  0
LINE
  5
209
100
AcDbEntity
  8
0
100
AcDbLine
 62
6
  6
CONTINUOUS
 10
2.2039462953
 20
8.5262489742
 11
2.3264041049
 21
7.7068646375
  0
LINE
  5
20A
100
AcDbEntity
  8
0
100
AcDbLine
 62
7
  6
CONTINUOUS
 10
3.1398636404
 20
6.8755190989
 11
3.1398636404
 21
7.5364959668
  0
LINE
  5
20B
100
AcDbEntity
  8
0
100
AcDbLine
 62
6
  6
CONTINUOUS
 10
3.2779324337
 20
9.5966383504
 11
3.2779324337
 21
9.2473294143
  0
LINE
  5
20C
100
AcDbEntity
  8
0
100
AcDbLine
 62
6
  6
CONTINUOUS
 10
3.3939324337
 20
9.6586383504
 11
3.3939324337
 21
9.5966383504
  0
LINE
  5
20D
100
AcDbEntity
  8
0
100
AcDbLine
 62
6
  6
CONTINUOUS
 10
3.1019185722
 20
8.5262489742
 11
2.9794607626
 21
7.7068646375
  0
LINE
  5
20E
100
AcDbEntity
  8
0
100
AcDbLine
 62
6
  6
CONTINUOUS
 10
3.2234067826
 20
9.1792233639
 11
3.2233096786
 21
9.178887648
  0
LINE
  5
20F
100
AcDbEntity
  8
0
100
AcDbLine
 62
6
  6
CONTINUOUS
 10
3.2779324337
 20
9.2473294143
 11
3.2568100674
 21
9.2262070479
  0
LINE
  5
210
100
AcDbEntity
  8
0
100
AcDbLine
 62
6
  6
CONTINUOUS
 10
2.0279324337
 20
9.2473294143
 11
2.0490548001
 21
9.2262070479
  0
LINE
  5
211
100
AcDbEntity
  8
0
100
AcDbLine
 62
6
  6
CONTINUOUS
 10
3.1515320682
 20
6.8935190989
 11
20.6188327993
 21
6.8935190989
  0
LINE
  5
212
100
AcDbEntity
  8
0
100
AcDbLine
 62
6
  6
CONTINUOUS
 10
3.1515643525
 20
7.5185190989
 11
20.618800515
 21
7.5185190989
  0
LINE
  5
213
100
AcDbEntity
  8
0
100
AcDbLine
 62
7
  6
CONTINUOUS
 10
2.3279324337
 20
7.6966383504
 11
2.9779324337
 21
7.6966383504
  0
LINE
  5
214
100
AcDbEntity
  8
0
100
AcDbLine
 62
7
  6
CONTINUOUS
 10
20.7924324337
 20
7.6966383504
 11
21.4424324337
 21
7.6966383504
  0
LINE
  5
215
100
AcDbEntity
  8
0
100
AcDbLine
 62
9
  6
CONTINUOUS
 10
21.4439607626
 20
7.7068646375
 11
20.7909041049
 21
7.7068646375
  0
LINE
  5
216
100
AcDbEntity
  8
0
100
AcDbLine
 62
9
  6
CONTINUOUS
 10
2.9794607626
 20
7.7068646375
 11
2.3264041049
 21
7.7068646375
  0
LINE
  5
217
100
AcDbEntity
  8
0
100
AcDbLine
 62
9
  6
CONTINUOUS
 10
21.5664185722
 20
8.5262489742
 11
20.6684462953
 21
8.5262489742
  0
LINE
  5
218
100
AcDbEntity
  8
0
100
AcDbLine
 62
9
  6
CONTINUOUS
 10
2.2039462953
 20
8.5262489742
 11
3.1019185722
 21
8.5262489742
  0
LINE
  5
219
100
AcDbEntity
  8
0
100
AcDbLine
 62
9
  6
CONTINUOUS
 10
21.6793517741
 20
8.7754552799
 11
20.5555130934
 21
8.7754552799
  0
LINE
  5
21A
100
AcDbEntity
  8
0
100
AcDbLine
 62
9
  6
CONTINUOUS
 10
2.0910130934
 20
8.7754552799
 11
3.2148517741
 21
8.7754552799
  0
LINE
  5
21B
100
AcDbEntity
  8
0
100
AcDbLine
 62
9
  6
CONTINUOUS
 10
21.6968471004
 20
9.0137932977
 11
20.5380177671
 21
9.0137932977
  0
LINE
  5
21C
100
AcDbEntity
  8
0
100
AcDbLine
 62
9
  6
CONTINUOUS
 10
2.0735177671
 20
9.0137932977
 11
3.2323471004
 21
9.0137932977
  0
LINE
  5
21D
100
AcDbEntity
  8
0
100
AcDbLine
 62
9
  6
CONTINUOUS
 10
21.7213100674
 20
9.2262070479
 11
20.5135548001
 21
9.2262070479
  0
LINE
  5
21E
100
AcDbEntity
  8
0
100
AcDbLine
 62
9
  6
CONTINUOUS
 10
2.0490548001
 20
9.2262070479
 11
3.2568100674
 21
9.2262070479
  0
LINE
  5
21F
100
AcDbEntity
  8
0
100
AcDbLine
 62
6
  6
CONTINUOUS
 10
1.9119324337
 20
9.5966383504
 11
3.3939324337
 21
9.5966383504
  0
LINE
  5
220
100
AcDbEntity
  8
0
100
AcDbLine
 62
6
  6
CONTINUOUS
 10
20.3764324337
 20
9.5966383504
 11
21.8584324337
 21
9.5966383504
  0
LINE
  5
221
100
AcDbEntity
  8
0
100
AcDbLine
 62
9
  6
CONTINUOUS
 10
1.8399297599
 20
9.6586383504
 11
3.4659351076
 21
9.6586383504
  0
LINE
  5
222
100
AcDbEntity
  8
0
100
AcDbLine
 62
9
  6
CONTINUOUS
 10
20.3044297599
 20
9.6586383504
 11
21.9304351076
 21
9.6586383504
  0
LINE
  5
223
100
AcDbEntity
  8
0
100
AcDbLine
 62
6
  6
CONTINUOUS
 10
1.6529324337
 20
9.8466383504
 11
3.6529324337
 21
9.8466383504
  0
LINE
  5
224
100
AcDbEntity
  8
0
100
AcDbLine
 62
6
  6
CONTINUOUS
 10
20.1174324337
 20
9.8466383504
 11
22.1174324337
 21
9.8466383504
  0
LINE
  5
225
100
AcDbEntity
  8
0
100
AcDbLine
 62
6
  6
CONTINUOUS
 10
1.4729324337
 20
10.0336383504
 11
3.8329324337
 21
10.0336383504
  0
LINE
  5
226
100
AcDbEntity
  8
0
100
AcDbLine
 62
6
  6
CONTINUOUS
 10
19.9374324337
 20
10.0336383504
 11
22.2974324337
 21
10.0336383504
  0
LINE
  5
227
100
AcDbEntity
  8
0
100
AcDbLine
 62
6
  6
CONTINUOUS
 10
21.7424324337
 20
9.2473294143
 11
21.7213100674
 21
9.2262070479
  0
LINE
  5
228
100
AcDbEntity
  8
0
100
AcDbLine
 62
6
  6
CONTINUOUS
 10
20.5135548001
 20
9.2262070479
 11
20.4924324337
 21
9.2473294143
  0
LINE
  5
229
100
AcDbEntity
  8
0
100
AcDbLine
 62
6
  6
CONTINUOUS
 10
20.3764324337
 20
9.6586383504
 11
20.3764324337
 21
9.5966383504
  0
LINE
  5
22A
100
AcDbEntity
  8
0
100
AcDbLine
 62
6
  6
CONTINUOUS
 10
20.4924324337
 20
9.2473294143
 11
20.4924324337
 21
9.5966383504
  0
LINE
  5
22B
100
AcDbEntity
  8
0
100
AcDbLine
 62
7
  6
CONTINUOUS
 10
20.6305012271
 20
7.5364959668
 11
20.6305012271
 21
6.8755190989
  0
LINE
  5
22C
100
AcDbEntity
  8
0
100
AcDbLine
 62
6
  6
CONTINUOUS
 10
21.1174324337
 20
9.5966383504
 11
21.1174324337
 21
9.3440172507
  0
LINE
  5
22D
100
AcDbEntity
  8
0
100
AcDbLine
 62
6
  6
CONTINUOUS
 10
20.6684462953
 20
8.5262489742
 11
20.7909041049
 21
7.7068646375
  0
LINE
  5
22E
100
AcDbEntity
  8
0
100
AcDbLine
 62
6
  6
CONTINUOUS
 10
21.7424324337
 20
9.5966383504
 11
21.7424324337
 21
9.2473294143
  0
LINE
  5
22F
100
AcDbEntity
  8
0
100
AcDbLine
 62
6
  6
CONTINUOUS
 10
21.8584324337
 20
9.6586383504
 11
21.8584324337
 21
9.5966383504
  0
LINE
  5
230
100
AcDbEntity
  8
0
100
AcDbLine
 62
6
  6
CONTINUOUS
 10
21.5664185722
 20
8.5262489742
 11
21.4439607626
 21
7.7068646375
  0
ARC
  5
231
100
AcDbEntity
  8
0
100
AcDbCircle
 62
6
  6
CONTINUOUS
 10
2.6529324337
 20
7.2060190989
 40
0.5885
100
AcDbArc
 50
123.5216119033
 51
327.9223361058
  0
ARC
  5
232
100
AcDbEntity
  8
0
100
AcDbCircle
 62
6
  6
CONTINUOUS
 10
2.6529324337
 20
7.2060190989
 40
0.5885
100
AcDbArc
 50
32.0759569887
 51
56.4783880966
  0
ARC
  5
233
100
AcDbEntity
  8
0
100
AcDbCircle
 62
6
  6
CONTINUOUS
 10
1.7094383636
 20
8.4523442687
 40
0.5
100
AcDbArc
 50
8.5
 51
40.2573604586
  0
ARC
  5
234
100
AcDbEntity
  8
0
100
AcDbCircle
 62
6
  6
CONTINUOUS
 10
3.5964265039
 20
8.4523442687
 40
0.5
100
AcDbArc
 50
139.7426395414
 51
171.5
  0
ARC
  5
235
100
AcDbEntity
  8
0
100
AcDbCircle
 62
6
  6
CONTINUOUS
 10
2.3382722953
 20
7.7086383504
 40
0.012
100
AcDbArc
 50
188.5000000116
 51
270.0
  0
ARC
  5
236
100
AcDbEntity
  8
0
100
AcDbCircle
 62
6
  6
CONTINUOUS
 10
2.9675925722
 20
7.7086383504
 40
0.012
100
AcDbArc
 50
270.0
 51
351.4999999884
  0
ARC
  5
237
100
AcDbEntity
  8
0
100
AcDbCircle
 62
6
  6
CONTINUOUS
 10
2.2459324337
 20
8.9066383504
 40
0.203
100
AcDbArc
 50
148.1392329178
 51
220.2573604586
  0
ARC
  5
238
100
AcDbEntity
  8
0
100
AcDbCircle
 62
6
  6
CONTINUOUS
 10
1.9274324337
 20
9.1045846815
 40
0.172
100
AcDbArc
 50
328.1392329178
 51
45.0
  0
ARC
  5
239
100
AcDbEntity
  8
0
100
AcDbCircle
 62
6
  6
CONTINUOUS
 10
1.6600685449
 20
10.0336383504
 40
0.1871361111
100
AcDbArc
 50
180.0
 51
267.8145949287
  0
ARC
  5
23A
100
AcDbEntity
  8
0
100
AcDbCircle
 62
6
  6
CONTINUOUS
 10
1.8399297599
 20
9.8456383504
 40
0.187
100
AcDbArc
 50
179.6936039968
 51
270.0
  0
ARC
  5
23B
100
AcDbEntity
  8
0
100
AcDbCircle
 62
6
  6
CONTINUOUS
 10
3.0599324337
 20
8.9066383504
 40
0.203
100
AcDbArc
 50
319.7426395414
 51
31.8607670822
  0
ARC
  5
23C
100
AcDbEntity
  8
0
100
AcDbCircle
 62
6
  6
CONTINUOUS
 10
3.397898288
 20
9.1156824476
 40
0.1944629645
100
AcDbArc
 50
206.6306143144
 51
207.765305349
  0
ARC
  5
23D
100
AcDbEntity
  8
0
100
AcDbCircle
 62
6
  6
CONTINUOUS
 10
3.3961811311
 20
9.1148796322
 40
0.192568128
100
AcDbArc
 50
201.4387807025
 51
206.6460993144
  0
ARC
  5
23E
100
AcDbEntity
  8
0
100
AcDbCircle
 62
6
  6
CONTINUOUS
 10
3.3722845659
 20
9.1222702531
 40
0.1757671179
100
AcDbArc
 50
212.3096703661
 51
213.6497080108
  0
ARC
  5
23F
100
AcDbEntity
  8
0
100
AcDbCircle
 62
6
  6
CONTINUOUS
 10
3.3784324337
 20
9.1045846815
 40
0.172
100
AcDbArc
 50
135.0
 51
154.2911280181
  0
ARC
  5
240
100
AcDbEntity
  8
0
100
AcDbCircle
 62
6
  6
CONTINUOUS
 10
3.3784324337
 20
9.1045846815
 40
0.172
100
AcDbArc
 50
207.7351832489
 51
211.8607670822
  0
ARC
  5
241
100
AcDbEntity
  8
0
100
AcDbCircle
 62
6
  6
CONTINUOUS
 10
3.3592960899
 20
9.0952709023
 40
0.1607727403
100
AcDbArc
 50
149.7587796275
 51
154.9521526384
  0
ARC
  5
242
100
AcDbEntity
  8
0
100
AcDbCircle
 62
6
  6
CONTINUOUS
 10
3.3566426105
 20
9.1120331714
 40
0.1551743971
100
AcDbArc
 50
203.5426403741
 51
205.800735215
  0
ARC
  5
243
100
AcDbEntity
  8
0
100
AcDbCircle
 62
6
  6
CONTINUOUS
 10
3.345138499
 20
9.1075309234
 40
0.1428173011
100
AcDbArc
 50
194.3532224401
 51
201.3301474366
  0
ARC
  5
244
100
AcDbEntity
  8
0
100
AcDbCircle
 62
6
  6
CONTINUOUS
 10
3.3359053794
 20
9.1047772605
 40
0.1333270052
100
AcDbArc
 50
167.8575184557
 51
174.5762873154
  0
ARC
  5
245
100
AcDbEntity
  8
0
100
AcDbCircle
 62
6
  6
CONTINUOUS
 10
3.0995713043
 20
9.0677904543
 40
0.1161754066
100
AcDbArc
 50
350.9158278603
 51
351.2171545501
  0
ARC
  5
246
100
AcDbEntity
  8
0
100
AcDbCircle
 62
6
  6
CONTINUOUS
 10
3.2727595343
 20
9.0876438199
 40
0.0694321405
100
AcDbArc
 50
211.9088926804
 51
212.7805856968
  0
ARC
  5
247
100
AcDbEntity
  8
0
100
AcDbCircle
 62
6
  6
CONTINUOUS
 10
3.6457963226
 20
10.0336383504
 40
0.1871361111
100
AcDbArc
 50
272.1854050713
 51
360.0
  0
ARC
  5
248
100
AcDbEntity
  8
0
100
AcDbCircle
 62
6
  6
CONTINUOUS
 10
3.4659351076
 20
9.8456383504
 40
0.187
100
AcDbArc
 50
270.0
 51
0.3063960032
  0
ARC
  5
249
100
AcDbEntity
  8
0
100
AcDbCircle
 62
6
  6
CONTINUOUS
 10
21.1174324337
 20
7.2060190989
 40
0.5885
100
AcDbArc
 50
123.5216119034
 51
147.9240430113
  0
ARC
  5
24A
100
AcDbEntity
  8
0
100
AcDbCircle
 62
6
  6
CONTINUOUS
 10
21.1174324337
 20
7.2060190989
 40
0.5885
100
AcDbArc
 50
212.0776638942
 51
56.4783880966
  0
ARC
  5
24B
100
AcDbEntity
  8
0
100
AcDbCircle
 62
6
  6
CONTINUOUS
 10
20.1739383636
 20
8.4523442687
 40
0.5
100
AcDbArc
 50
8.5
 51
40.2573604586
  0
ARC
  5
24C
100
AcDbEntity
  8
0
100
AcDbCircle
 62
6
  6
CONTINUOUS
 10
22.0609265039
 20
8.4523442687
 40
0.5
100
AcDbArc
 50
139.7426395414
 51
171.5
  0
ARC
  5
24D
100
AcDbEntity
  8
0
100
AcDbCircle
 62
6
  6
CONTINUOUS
 10
21.4320925722
 20
7.7086383504
 40
0.012
100
AcDbArc
 50
270.0
 51
351.4999999884
  0
ARC
  5
24E
100
AcDbEntity
  8
0
100
AcDbCircle
 62
6
  6
CONTINUOUS
 10
20.8027722953
 20
7.7086383504
 40
0.012
100
AcDbArc
 50
188.5000000116
 51
270.0
  0
ARC
  5
24F
100
AcDbEntity
  8
0
100
AcDbCircle
 62
6
  6
CONTINUOUS
 10
19.8346575851
 20
9.1373872159
 40
0.7318439704
100
AcDbArc
 50
354.1800574959
 51
354.8839751763
  0
ARC
  5
250
100
AcDbEntity
  8
0
100
AcDbCircle
 62
6
  6
CONTINUOUS
 10
20.0623340281
 20
9.1144993327
 40
0.5030203011
100
AcDbArc
 50
353.9846841929
 51
354.1439421279
  0
ARC
  5
251
100
AcDbEntity
  8
0
100
AcDbCircle
 62
6
  6
CONTINUOUS
 10
20.3278657688
 20
9.0839213438
 40
0.2321317073
100
AcDbArc
 50
352.3460301295
 51
352.9877093863
  0
ARC
  5
252
100
AcDbEntity
  8
0
100
AcDbCircle
 62
6
  6
CONTINUOUS
 10
20.3735841247
 20
9.1151402491
 40
0.1932215104
100
AcDbArc
 50
332.2225850131
 51
338.5542739146
  0
ARC
  5
253
100
AcDbEntity
  8
0
100
AcDbCircle
 62
6
  6
CONTINUOUS
 10
20.3856163553
 20
9.1138483385
 40
0.1822118616
100
AcDbArc
 50
339.881891865
 51
341.3508944691
  0
ARC
  5
254
100
AcDbEntity
  8
0
100
AcDbCircle
 62
6
  6
CONTINUOUS
 10
20.3919324337
 20
9.1045846815
 40
0.172
100
AcDbArc
 50
328.1392329178
 51
332.2648167511
  0
ARC
  5
255
100
AcDbEntity
  8
0
100
AcDbCircle
 62
6
  6
CONTINUOUS
 10
20.3919324337
 20
9.1045846815
 40
0.172
100
AcDbArc
 50
25.5941705446
 51
45.0
  0
ARC
  5
256
100
AcDbEntity
  8
0
100
AcDbCircle
 62
6
  6
CONTINUOUS
 10
20.413722257
 20
9.1120331714
 40
0.1551743971
100
AcDbArc
 50
334.1992647851
 51
336.4573596258
  0
ARC
  5
257
100
AcDbEntity
  8
0
100
AcDbCircle
 62
6
  6
CONTINUOUS
 10
20.4252263685
 20
9.1075309234
 40
0.1428173011
100
AcDbArc
 50
338.6698525508
 51
345.6467775475
  0
ARC
  5
258
100
AcDbEntity
  8
0
100
AcDbCircle
 62
6
  6
CONTINUOUS
 10
20.4344594881
 20
9.1047772604
 40
0.1333270052
100
AcDbArc
 50
5.4237126964
 51
12.142481556
  0
ARC
  5
259
100
AcDbEntity
  8
0
100
AcDbCircle
 62
6
  6
CONTINUOUS
 10
20.7104324337
 20
8.9066383504
 40
0.203
100
AcDbArc
 50
148.1392329178
 51
220.2573604586
  0
ARC
  5
25A
100
AcDbEntity
  8
0
100
AcDbCircle
 62
6
  6
CONTINUOUS
 10
21.5244324337
 20
8.9066383504
 40
0.203
100
AcDbArc
 50
319.7426395414
 51
31.8607670822
  0
ARC
  5
25B
100
AcDbEntity
  8
0
100
AcDbCircle
 62
6
  6
CONTINUOUS
 10
20.1245685449
 20
10.0336383504
 40
0.1871361111
100
AcDbArc
 50
180.0
 51
267.8145949287
  0
ARC
  5
25C
100
AcDbEntity
  8
0
100
AcDbCircle
 62
6
  6
CONTINUOUS
 10
20.3044297599
 20
9.8456383504
 40
0.187
100
AcDbArc
 50
179.6936039968
 51
270.0
  0
ARC
  5
25D
100
AcDbEntity
  8
0
100
AcDbCircle
 62
6
  6
CONTINUOUS
 10
23.6797085359
 20
8.8770508997
 40
3.1217836231
100
AcDbArc
 50
175.4116110197
 51
175.5847535279
  0
ARC
  5
25E
100
AcDbEntity
  8
0
100
AcDbCircle
 62
6
  6
CONTINUOUS
 10
21.9466858165
 20
9.0176072901
 40
1.3866768821
100
AcDbArc
 50
174.9646067901
 51
175.2339873415
  0
ARC
  5
25F
100
AcDbEntity
  8
0
100
AcDbCircle
 62
6
  6
CONTINUOUS
 10
21.8429324337
 20
9.1045846815
 40
0.172
100
AcDbArc
 50
135.0
 51
211.8607670822
  0
ARC
  5
260
100
AcDbEntity
  8
0
100
AcDbCircle
 62
6
  6
CONTINUOUS
 10
22.1102963226
 20
10.0336383504
 40
0.1871361111
100
AcDbArc
 50
272.1854050713
 51
360.0
  0
ARC
  5
261
100
AcDbEntity
  8
0
100
AcDbCircle
 62
6
  6
CONTINUOUS
 10
21.9304351076
 20
9.8456383504
 40
0.187
100
AcDbArc
 50
270.0
 51
0.3063960032
  0
SPLINE
  5
262
100
AcDbEntity
  8
0
100
AcDbSpline
 62
6
  6
CONTINUOUS
 70
0
 71
3
 72
11
 73
7
 74
5
 42
0.0000001
 43
0.0000001
 44
0.0000000001
 12
-0.0135844455
 22
0.0263675401
 32
0.0
 13
-0.0094827417
 23
0.0281044826
 33
0.0
 40
0.0
 40
0.0
 40
0.0
 40
0.0
 40
0.2550265388
 40
0.5030393233
 40
0.7503222012
 40
1.0
 40
1.0
 40
1.0
 40
1.0
 10
3.2237312247
 20
9.0283236325
 30
0.0
 10
3.2225764267
 20
9.0305651067
 30
0.0
 10
3.2203735681
 20
9.0350255903
 30
0.0
 10
3.2173294031
 20
9.0417924641
 30
0.0
 10
3.214560054
 20
9.048619456
 30
0.0
 10
3.2128929497
 20
9.0532431601
 30
0.0
 10
3.2121037396
 20
9.0555821819
 30
0.0
 11
3.2237312247
 21
9.0283236325
 31
0.0
 11
3.2203844801
 21
9.0351073766
 31
0.0
 11
3.2173686368
 21
9.0418171102
 31
0.0
 11
3.2146135953
 21
9.0486147216
 31
0.0
 11
3.2121037396
 21
9.0555821819
 31
0.0
  0
SPLINE
  5
263
100
AcDbEntity
  8
0
100
AcDbSpline
 62
6
  6
CONTINUOUS
 70
0
 71
3
 72
25
 73
21
 74
19
 42
0.0000001
 43
0.0000001
 44
0.0000000001
 12
0.0028305877
 22
0.0032079922
 32
0.0
 13
0.002145094
 23
-0.003701623
 33
0.0
 40
0.0
 40
0.0
 40
0.0
 40
0.0
 40
0.2290257704
 40
0.4299545425
 40
0.5195443756
 40
0.6017050115
 40
0.6763039115
 40
0.7432243722
 40
0.8023750893
 40
0.8536729461
 40
0.8970458585
 40
0.932443059
 40
0.9471488086
 40
0.9598670304
 40
0.9706179921
 40
0.9794480097
 40
0.9864545735
 40
0.9918413671
 40
0.9960610264
 40
1.0
 40
1.0
 40
1.0
 40
1.0
 10
3.2204024794
 20
9.1762427429
 30
0.0
 10
3.2206185719
 20
9.1764876472
 30
0.0
 10
3.2210262842
 20
9.1769456196
 30
0.0
 10
3.2215251466
 20
9.1774934552
 30
0.0
 10
3.2218873749
 20
9.1778823749
 30
0.0
 10
3.2221289872
 20
9.1781374222
 30
0.0
 10
3.2223506644
 20
9.1783668029
 30
0.0
 10
3.222552019
 20
9.1785701649
 30
0.0
 10
3.2227327313
 20
9.1787471652
 30
0.0
 10
3.2228924906
 20
9.1788975202
 30
0.0
 10
3.2230310016
 20
9.1790209249
 30
0.0
 10
3.2231339228
 20
9.1791057505
 30
0.0
 10
3.2232058001
 20
9.1791592586
 30
0.0
 10
3.2232508137
 20
9.1791899162
 30
0.0
 10
3.2232903268
 20
9.1792136523
 30
0.0
 10
3.2233243589
 20
9.1792305073
 30
0.0
 10
3.2233530468
 20
9.179240505
 30
0.0
 10
3.2233767568
 20
9.179243785
 30
0.0
 10
3.2233963153
 20
9.1792392842
 30
0.0
 10
3.2234048539
 20
9.17923038
 30
0.0
 10
3.2234076704
 20
9.1792255198
 30
0.0
 11
3.2204024794
 21
9.1762427429
 31
0.0
 11
3.2210543824
 21
9.1769742408
 31
0.0
 11
3.2216336883
 21
9.1776093455
 31
0.0
 11
3.2218950076
 21
9.1778897413
 31
0.0
 11
3.222136846
 21
9.178144828
 31
0.0
 11
3.2223587603
 21
9.1783742024
 31
0.0
 11
3.2225603637
 21
9.1785774885
 31
0.0
 11
3.2227413579
 21
9.1787543537
 31
0.0
 11
3.2229014528
 21
9.178904469
 31
0.0
 11
3.223040358
 21
9.1790275054
 31
0.0
 11
3.2231577831
 21
9.179123134
 31
0.0
 11
3.22320835
 21
9.1791605677
 31
0.0
 11
3.223253438
 21
9.179191026
 31
0.0
 11
3.2232930112
 21
9.1792144681
 31
0.0
 11
3.223327046
 21
9.1792308614
 31
0.0
 11
3.2233555353
 21
9.1792401841
 31
0.0
 11
3.2233784731
 21
9.1792424154
 31
0.0
 11
3.2233958534
 21
9.1792375343
 31
0.0
 11
3.2234076704
 21
9.1792255198
 31
0.0
  0
SPLINE
  5
264
100
AcDbEntity
  8
0
100
AcDbSpline
 62
6
  6
CONTINUOUS
 70
0
 71
3
 72
9
 73
5
 74
3
 42
0.0000001
 43
0.0000001
 44
0.0000000001
 12
0.0051921525
 22
0.0311722906
 32
0.0
 13
0.0107961974
 23
0.029700375
 33
0.0
 40
0.0
 40
0.0
 40
0.0
 40
0.0
 40
0.4999929307
 40
1.0
 40
1.0
 40
1.0
 40
1.0
 10
3.2055612493
 20
9.1328217212
 30
0.0
 10
3.2064265958
 20
9.1380170295
 30
0.0
 10
3.2086670803
 20
9.1483285132
 30
0.0
 10
3.2118439035
 20
9.1583879233
 30
0.0
 10
3.2136432951
 20
9.1633380558
 30
0.0
 11
3.2055612493
 21
9.1328217212
 31
0.0
 11
3.2089011267
 21
9.1482653508
 31
0.0
 11
3.2136432951
 21
9.1633380558
 31
0.0
  0
SPLINE
  5
265
100
AcDbEntity
  8
0
100
AcDbSpline
 62
6
  6
CONTINUOUS
 70
0
 71
3
 72
21
 73
17
 74
15
 42
0.0000001
 43
0.0000001
 44
0.0000000001
 12
-0.0128919561
 22
0.04389313
 32
0.0
 13
0.0063535532
 23
0.0453038824
 33
0.0
 40
0.0
 40
0.0
 40
0.0
 40
0.0
 40
0.1032056748
 40
0.2158958582
 40
0.3378831162
 40
0.4021302761
 40
0.4682784479
 40
0.5358322033
 40
0.5699753312
 40
0.6042768142
 40
0.6730517867
 40
0.7415004861
 40
0.8089483253
 40
0.8748020129
 40
0.9386280262
 40
1.0
 40
1.0
 40
1.0
 40
1.0
 10
3.2067788584
 20
9.0721265871
 30
0.0
 10
3.2063353507
 20
9.0736365938
 30
0.0
 10
3.2054656394
 20
9.0768128343
 30
0.0
 10
3.2043122568
 20
9.0818360842
 30
0.0
 10
3.2035013967
 20
9.0863238935
 30
0.0
 10
3.2029681241
 20
9.090135799
 30
0.0
 10
3.2026342888
 20
9.0931362377
 30
0.0
 10
3.2024243847
 20
9.095687497
 30
0.0
 10
3.2023008587
 20
9.0977577371
 30
0.0
 10
3.2022088565
 20
9.0998482615
 30
0.0
 10
3.2021552438
 20
9.1024637603
 30
0.0
 10
3.2021851488
 20
9.1055851231
 30
0.0
 10
3.2023075206
 20
9.1086596778
 30
0.0
 10
3.2025185871
 20
9.1116587174
 30
0.0
 10
3.2028057324
 20
9.1145582503
 30
0.0
 10
3.2030454667
 20
9.1164525624
 30
0.0
 10
3.2031754434
 20
9.1173793587
 30
0.0
 11
3.2067788584
 21
9.0721265871
 31
0.0
 11
3.2055341797
 21
9.076680942
 31
0.0
 11
3.2043819241
 21
9.0817057859
 31
0.0
 11
3.203392685
 21
9.0871979871
 31
0.0
 11
3.2029856413
 21
9.0901087945
 31
0.0
 11
3.2026509243
 21
9.0931163219
 31
0.0
 11
3.2023979618
 21
9.0961963489
 31
0.0
 11
3.2023050531
 21
9.0977555369
 31
0.0
 11
3.2022360556
 21
9.0993232172
 31
0.0
 11
3.2021709521
 21
9.1024688083
 31
0.0
 11
3.2022011693
 21
9.1056000011
 31
0.0
 11
3.202324328
 21
9.1086830943
 31
0.0
 11
3.2025352137
 21
9.1116883282
 31
0.0
 11
3.2028228224
 21
9.1145939924
 31
0.0
 11
3.2031754434
 21
9.1173793587
 31
0.0
  0
SPLINE
  5
266
100
AcDbEntity
  8
0
100
AcDbSpline
 62
6
  6
CONTINUOUS
 70
0
 71
3
 72
9
 73
5
 74
3
 42
0.0000001
 43
0.0000001
 44
0.0000000001
 12
-0.0051725353
 22
0.0310545138
 32
0.0
 13
-0.0107362316
 23
0.0295951226
 33
0.0
 40
0.0
 40
0.0
 40
0.0
 40
0.0
 40
0.4999917933
 40
1.0
 40
1.0
 40
1.0
 40
1.0
 10
20.5648036182
 20
9.1328217212
 30
0.0
 10
20.5639415431
 20
9.1379973885
 30
0.0
 10
20.5617114549
 20
9.1482701955
 30
0.0
 10
20.558551769
 20
9.1582931128
 30
0.0
 10
20.5567623677
 20
9.1632257142
 30
0.0
 11
20.5648036182
 21
9.1328217212
 31
0.0
 11
20.5614790997
 21
9.1482075565
 31
0.0
 11
20.5567623677
 21
9.1632257142
 31
0.0
  0
SPLINE
  5
267
100
AcDbEntity
  8
0
100
AcDbSpline
 62
6
  6
CONTINUOUS
 70
0
 71
3
 72
21
 73
17
 74
15
 42
0.0000001
 43
0.0000001
 44
0.0000000001
 12
0.0128919561
 22
0.04389313
 32
0.0
 13
-0.0063535532
 23
0.0453038824
 33
0.0
 40
0.0
 40
0.0
 40
0.0
 40
0.0
 40
0.1032056748
 40
0.2158958582
 40
0.3378831162
 40
0.4021302761
 40
0.4682784479
 40
0.5358322033
 40
0.5699753312
 40
0.6042768142
 40
0.6730517867
 40
0.7415004861
 40
0.8089483253
 40
0.8748020129
 40
0.9386280262
 40
1.0
 40
1.0
 40
1.0
 40
1.0
 10
20.5635860091
 20
9.0721265871
 30
0.0
 10
20.5640295167
 20
9.0736365938
 30
0.0
 10
20.5648992281
 20
9.0768128343
 30
0.0
 10
20.5660526107
 20
9.0818360842
 30
0.0
 10
20.5668634708
 20
9.0863238935
 30
0.0
 10
20.5673967433
 20
9.090135799
 30
0.0
 10
20.5677305787
 20
9.0931362377
 30
0.0
 10
20.5679404828
 20
9.095687497
 30
0.0
 10
20.5680640087
 20
9.0977577371
 30
0.0
 10
20.568156011
 20
9.0998482615
 30
0.0
 10
20.5682096236
 20
9.1024637603
 30
0.0
 10
20.5681797187
 20
9.1055851231
 30
0.0
 10
20.5680573469
 20
9.1086596778
 30
0.0
 10
20.5678462803
 20
9.1116587174
 30
0.0
 10
20.5675591351
 20
9.1145582503
 30
0.0
 10
20.5673194008
 20
9.1164525624
 30
0.0
 10
20.5671894241
 20
9.1173793587
 30
0.0
 11
20.5635860091
 21
9.0721265871
 31
0.0
 11
20.5648306877
 21
9.076680942
 31
0.0
 11
20.5659829434
 21
9.0817057859
 31
0.0
 11
20.5669721825
 21
9.0871979871
 31
0.0
 11
20.5673792262
 21
9.0901087945
 31
0.0
 11
20.5677139432
 21
9.0931163219
 31
0.0
 11
20.5679669056
 21
9.0961963489
 31
0.0
 11
20.5680598144
 21
9.0977555369
 31
0.0
 11
20.5681288119
 21
9.0993232172
 31
0.0
 11
20.5681939154
 21
9.1024688083
 31
0.0
 11
20.5681636982
 21
9.1056000011
 31
0.0
 11
20.5680405395
 21
9.1086830943
 31
0.0
 11
20.5678296537
 21
9.1116883282
 31
0.0
 11
20.5675420451
 21
9.1145939924
 31
0.0
 11
20.5671894241
 21
9.1173793587
 31
0.0
  0
SPLINE
  5
268
100
AcDbEntity
  8
0
100
AcDbSpline
 62
6
  6
CONTINUOUS
 70
0
 71
3
 72
13
 73
9
 74
7
 42
0.0000001
 43
0.0000001
 44
0.0000000001
 12
0.007709233
 22
-0.0408053412
 32
0.0
 13
-0.0027293055
 23
-0.0414374111
 33
0.0
 40
0.0
 40
0.0
 40
0.0
 40
0.0
 40
0.2494424293
 40
0.374310303
 40
0.4992748924
 40
0.6243397804
 40
0.7495080589
 40
1.0
 40
1.0
 40
1.0
 40
1.0
 10
20.5668861846
 20
9.133671785
 30
0.0
 10
20.5675271879
 20
9.1302789238
 30
0.0
 10
20.5683347116
 20
9.1251564953
 30
0.0
 10
20.5690900595
 20
9.1182859368
 30
0.0
 10
20.5694938997
 20
9.1131112729
 30
0.0
 10
20.5697333244
 20
9.1079222144
 30
0.0
 10
20.5698307698
 20
9.1009908597
 30
0.0
 10
20.569654182
 20
9.0957891473
 30
0.0
 10
20.5694262923
 20
9.0923292348
 30
0.0
 11
20.5668861846
 21
9.133671785
 31
0.0
 11
20.5684963334
 21
9.1234390459
 31
0.0
 11
20.569062722
 21
9.1182846584
 31
0.0
 11
20.5694663684
 21
9.1131109514
 31
0.0
 11
20.5697055354
 21
9.1079228668
 31
0.0
 11
20.5697786598
 21
9.1027254934
 31
0.0
 11
20.5694262923
 21
9.0923292348
 31
0.0
  0
SPLINE
  5
269
100
AcDbEntity
  8
0
100
AcDbSpline
 62
6
  6
CONTINUOUS
 70
0
 71
3
 72
10
 73
6
 74
4
 42
0.0000001
 43
0.0000001
 44
0.0000000001
 12
0.013209493
 22
-0.0283675067
 32
0.0
 13
0.0067927789
 23
-0.0305461012
 33
0.0
 40
0.0
 40
0.0
 40
0.0
 40
0.0
 40
0.4723381255
 40
0.7304960529
 40
1.0
 40
1.0
 40
1.0
 40
1.0
 10
20.5567725733
 20
9.1632286423
 30
0.0
 10
20.5588523557
 20
9.1587622907
 30
0.0
 10
20.5617423914
 20
9.1516941682
 30
0.0
 10
20.5649123805
 20
9.1417526919
 30
0.0
 10
20.5662759577
 20
9.1364158833
 30
0.0
 10
20.5668861846
 20
9.133671785
 30
0.0
 11
20.5567725733
 21
9.1632286423
 31
0.0
 11
20.5623496058
 21
9.1495406609
 31
0.0
 11
20.564802425
 21
9.1418436891
 31
0.0
 11
20.5668861846
 21
9.133671785
 31
0.0
  0
LINE
  5
26A
100
AcDbEntity
  8
0
100
AcDbLine
 62
6
  6
CONTINUOUS
 10
20.5445397057
 20
9.0250916988
 11
20.5441710125
 21
9.0245383504
  0
SPLINE
  5
26B
100
AcDbEntity
  8
0
100
AcDbSpline
 62
6
  6
CONTINUOUS
 70
0
 71
3
 72
14
 73
10
 74
8
 42
0.0000001
 43
0.0000001
 44
0.0000000001
 12
-0.0065659868
 22
-0.0137680417
 32
0.0
 13
-0.0082664939
 23
-0.0128193695
 33
0.0
 40
0.0
 40
0.0
 40
0.0
 40
0.0
 40
0.3246777158
 40
0.469192293
 40
0.6014775022
 40
0.7212161498
 40
0.8279135956
 40
0.9210247505
 40
1.0
 40
1.0
 40
1.0
 40
1.0
 10
20.5633124096
 20
9.0634175017
 30
0.0
 10
20.5626017997
 20
9.0619274429
 30
0.0
 10
20.5615371408
 20
9.0597918221
 30
0.0
 10
20.5601018814
 20
9.0570912141
 30
0.0
 10
20.5591282351
 20
9.0553255906
 30
0.0
 10
20.5582254347
 20
9.0537407068
 30
0.0
 10
20.5574014786
 20
9.0523403211
 30
0.0
 10
20.5566647074
 20
9.0511293031
 30
0.0
 10
20.5561980291
 20
9.0503891082
 30
0.0
 10
20.5559804129
 20
9.0500516372
 30
0.0
 11
20.5633124096
 21
9.0634175017
 31
0.0
 11
20.5611020195
 21
9.0589856455
 31
0.0
 11
20.5600674827
 21
9.057039124
 31
0.0
 11
20.5590931686
 21
9.0552721175
 31
0.0
 11
20.5581887011
 21
9.0536853519
 31
0.0
 11
20.557362783
 21
9.0522829725
 31
0.0
 11
20.5566238687
 21
9.0510700455
 31
0.0
 11
20.5559804129
 21
9.0500516372
 31
0.0
  0
SPLINE
  5
26C
100
AcDbEntity
  8
0
100
AcDbSpline
 62
6
  6
CONTINUOUS
 70
0
 71
3
 72
11
 73
7
 74
5
 42
0.0000001
 43
0.0000001
 44
0.0000000001
 12
-0.0028968374
 22
-0.029463802
 32
0.0
 13
-0.009187819
 23
-0.0281441163
 33
0.0
 40
0.0
 40
0.0
 40
0.0
 40
0.0
 40
0.2614303926
 40
0.516704062
 40
0.7634915442
 40
1.0
 40
1.0
 40
1.0
 40
1.0
 10
20.5694262923
 20
9.0923292348
 30
0.0
 10
20.5691738518
 20
9.089761657
 30
0.0
 10
20.5685231633
 20
9.0847007107
 30
0.0
 10
20.5671384208
 20
9.0772905923
 30
0.0
 10
20.5654058064
 20
9.0702073748
 30
0.0
 10
20.5640367419
 20
9.0656362755
 30
0.0
 10
20.5633124096
 20
9.0634175017
 30
0.0
 11
20.5694262923
 21
9.0923292348
 31
0.0
 11
20.5684420793
 21
9.0846521936
 31
0.0
 11
20.5670539519
 21
9.0772231701
 31
0.0
 11
20.5653203394
 21
9.0701254633
 31
0.0
 11
20.5633124096
 21
9.0634175017
 31
0.0
  0
LINE
  5
26D
100
AcDbEntity
  8
0
100
AcDbLine
 62
6
  6
CONTINUOUS
 10
3.2233096786
 20
9.178887648
 11
3.2136613171
 21
9.1633475201
  0
LINE
  5
26E
100
AcDbEntity
  8
0
100
AcDbLine
 62
6
  6
CONTINUOUS
 10
20.5470551889
 20
9.178887648
 11
20.5567035504
 21
9.1633475201
  0
LINE
  5
26F
100
AcDbEntity
  8
0
100
AcDbLine
 62
6
  6
CONTINUOUS
 10
20.5567035504
 20
9.1633475201
 11
20.5567725733
 21
9.1632286423
  0
LINE
  5
270
100
AcDbEntity
  8
0
100
AcDbLine
 62
6
  6
CONTINUOUS
 10
3.2261938549
 20
9.0245383504
 11
3.2259687935
 21
9.0248752078
  0
SPLINE
  5
271
100
AcDbEntity
  8
0
100
AcDbSpline
 62
6
  6
CONTINUOUS
 70
0
 71
3
 72
33
 73
29
 74
27
 42
0.0000001
 43
0.0000001
 44
0.0000000001
 12
0.5732352008
 22
-0.3309574975
 32
0.0
 13
0.5732352008
 23
0.3309574975
 33
0.0
 40
0.0
 40
0.0
 40
0.0
 40
0.0
 40
0.0635251701
 40
0.0951801604
 40
0.1267577069
 40
0.1896643416
 40
0.2209967592
 40
0.2522507803
 40
0.3145163638
 40
0.3455486622
 40
0.3765194658
 40
0.4074372351
 40
0.4383150386
 40
0.4691650516
 40
0.500000062
 40
0.5308350667
 40
0.5616850729
 40
0.5925628765
 40
0.6234806374
 40
0.6544514264
 40
0.6854837191
 40
0.7477492687
 40
0.7790032744
 40
0.8103356816
 40
0.8732422939
 40
0.9048198354
 40
0.9364748259
 40
1.0
 40
1.0
 40
1.0
 40
1.0
 10
2.0279324337
 20
9.3440172507
 30
0.0
 10
2.0400707216
 20
9.337009207
 30
0.0
 10
2.0584586584
 20
9.3268492712
 30
0.0
 10
2.0833742151
 20
9.3141401257
 30
0.0
 10
2.1084603738
 20
9.3020835404
 30
0.0
 10
2.1339349156
 20
9.2910122592
 30
0.0
 10
2.1597933285
 20
9.2811016444
 30
0.0
 10
2.1858146298
 20
9.2720509464
 30
0.0
 10
2.2122133139
 20
9.2643172322
 30
0.0
 10
2.2389210956
 20
9.258091085
 30
0.0
 10
2.2590587863
 20
9.2542141841
 30
0.0
 10
2.2793030049
 20
9.2511582611
 30
0.0
 10
2.2996316172
 20
9.2489581185
 30
0.0
 10
2.3200174274
 20
9.2476279426
 30
0.0
 10
2.3404324735
 20
9.2471801895
 30
0.0
 10
2.3608475191
 20
9.2476279304
 30
0.0
 10
2.3812333245
 20
9.2489581372
 30
0.0
 10
2.4015619341
 20
9.2511582697
 30
0.0
 10
2.4218061491
 20
9.2542141852
 30
0.0
 10
2.44194383
 20
9.2580911031
 30
0.0
 10
2.4686516006
 20
9.2643172439
 30
0.0
 10
2.4950502737
 20
9.2720509538
 30
0.0
 10
2.5210715602
 20
9.2811016541
 30
0.0
 10
2.5469299629
 20
9.2910122657
 30
0.0
 10
2.5724044975
 20
9.3020835426
 30
0.0
 10
2.5974906511
 20
9.3141401246
 30
0.0
 10
2.6224062076
 20
9.3268492701
 30
0.0
 10
2.6407941451
 20
9.3370092065
 30
0.0
 10
2.6529324337
 20
9.3440172507
 30
0.0
 11
2.0279324337
 21
9.3440172507
 31
0.0
 11
2.0647585513
 21
9.3237220922
 31
0.0
 11
2.0834261443
 21
9.314206551
 31
0.0
 11
2.1022677028
 21
9.3051580865
 31
0.0
 11
2.1404782285
 21
9.2886127211
 31
0.0
 11
2.1598465423
 21
9.2811971288
 31
0.0
 11
2.1793881817
 21
9.2744076368
 31
0.0
 11
2.2189566202
 21
9.2628761313
 31
0.0
 11
2.2389622542
 21
9.2582181535
 31
0.0
 11
2.2590936715
 21
9.2543480569
 31
0.0
 11
2.2793302189
 21
9.2512991684
 31
0.0
 11
2.2996502899
 21
9.2491023009
 31
0.0
 11
2.3200271789
 21
9.2477747784
 31
0.0
 11
2.3404324749
 21
9.2473294143
 31
0.0
 11
2.3608377674
 21
9.2477747734
 31
0.0
 11
2.3812146508
 21
9.2491023127
 31
0.0
 11
2.4015347221
 21
9.2512991777
 31
0.0
 11
2.4217712643
 21
9.2543480623
 31
0.0
 11
2.4419026702
 21
9.2582181677
 31
0.0
 11
2.4619083003
 21
9.2628761455
 31
0.0
 11
2.5014767171
 21
9.2744076451
 31
0.0
 11
2.5210183456
 21
9.2811971373
 31
0.0
 11
2.5403866526
 21
9.2886127282
 31
0.0
 11
2.5785971651
 21
9.3051580869
 31
0.0
 11
2.5974387208
 21
9.3142065495
 31
0.0
 11
2.6161063139
 21
9.3237220908
 31
0.0
 11
2.6529324337
 21
9.3440172507
 31
0.0
  0
LINE
  5
272
100
AcDbEntity
  8
0
100
AcDbLine
 62
6
  6
CONTINUOUS
 10
3.2166093958
 20
9.0433533627
 11
3.2169370546
 21
9.0444946552
  0
SPLINE
  5
273
100
AcDbEntity
  8
0
100
AcDbSpline
 62
6
  6
CONTINUOUS
 70
0
 71
3
 72
33
 73
29
 74
27
 42
0.0000001
 43
0.0000001
 44
0.0000000001
 12
0.5732352008
 22
-0.3309574975
 32
0.0
 13
0.5732352008
 23
0.3309574975
 33
0.0
 40
0.0
 40
0.0
 40
0.0
 40
0.0
 40
0.0635251701
 40
0.0951801604
 40
0.1267577069
 40
0.1896643416
 40
0.2209967592
 40
0.2522507803
 40
0.3145163638
 40
0.3455486622
 40
0.3765194658
 40
0.4074372351
 40
0.4383150386
 40
0.4691650516
 40
0.500000062
 40
0.5308350667
 40
0.5616850729
 40
0.5925628765
 40
0.6234806374
 40
0.6544514264
 40
0.6854837191
 40
0.7477492687
 40
0.7790032744
 40
0.8103356816
 40
0.8732422939
 40
0.9048198354
 40
0.9364748259
 40
1.0
 40
1.0
 40
1.0
 40
1.0
 10
21.1174324337
 20
9.3440172507
 30
0.0
 10
21.1295707216
 20
9.337009207
 30
0.0
 10
21.1479586584
 20
9.3268492712
 30
0.0
 10
21.1728742151
 20
9.3141401257
 30
0.0
 10
21.1979603738
 20
9.3020835404
 30
0.0
 10
21.2234349156
 20
9.2910122592
 30
0.0
 10
21.2492933285
 20
9.2811016444
 30
0.0
 10
21.2753146298
 20
9.2720509464
 30
0.0
 10
21.3017133139
 20
9.2643172322
 30
0.0
 10
21.3284210956
 20
9.258091085
 30
0.0
 10
21.3485587863
 20
9.2542141841
 30
0.0
 10
21.3688030049
 20
9.2511582611
 30
0.0
 10
21.3891316172
 20
9.2489581185
 30
0.0
 10
21.4095174274
 20
9.2476279426
 30
0.0
 10
21.4299324735
 20
9.2471801895
 30
0.0
 10
21.4503475191
 20
9.2476279304
 30
0.0
 10
21.4707333245
 20
9.2489581372
 30
0.0
 10
21.4910619341
 20
9.2511582697
 30
0.0
 10
21.5113061491
 20
9.2542141852
 30
0.0
 10
21.53144383
 20
9.2580911031
 30
0.0
 10
21.5581516006
 20
9.2643172439
 30
0.0
 10
21.5845502737
 20
9.2720509538
 30
0.0
 10
21.6105715602
 20
9.2811016541
 30
0.0
 10
21.6364299629
 20
9.2910122657
 30
0.0
 10
21.6619044975
 20
9.3020835426
 30
0.0
 10
21.6869906511
 20
9.3141401246
 30
0.0
 10
21.7119062076
 20
9.3268492701
 30
0.0
 10
21.7302941451
 20
9.3370092065
 30
0.0
 10
21.7424324337
 20
9.3440172507
 30
0.0
 11
21.1174324337
 21
9.3440172507
 31
0.0
 11
21.1542585513
 21
9.3237220922
 31
0.0
 11
21.1729261443
 21
9.314206551
 31
0.0
 11
21.1917677028
 21
9.3051580865
 31
0.0
 11
21.2299782285
 21
9.2886127211
 31
0.0
 11
21.2493465423
 21
9.2811971288
 31
0.0
 11
21.2688881817
 21
9.2744076368
 31
0.0
 11
21.3084566202
 21
9.2628761313
 31
0.0
 11
21.3284622542
 21
9.2582181535
 31
0.0
 11
21.3485936715
 21
9.2543480569
 31
0.0
 11
21.3688302189
 21
9.2512991684
 31
0.0
 11
21.3891502899
 21
9.2491023009
 31
0.0
 11
21.4095271789
 21
9.2477747784
 31
0.0
 11
21.4299324749
 21
9.2473294143
 31
0.0
 11
21.4503377674
 21
9.2477747734
 31
0.0
 11
21.4707146508
 21
9.2491023127
 31
0.0
 11
21.4910347221
 21
9.2512991777
 31
0.0
 11
21.5112712643
 21
9.2543480623
 31
0.0
 11
21.5314026702
 21
9.2582181677
 31
0.0
 11
21.5514083003
 21
9.2628761455
 31
0.0
 11
21.5909767171
 21
9.2744076451
 31
0.0
 11
21.6105183456
 21
9.2811971373
 31
0.0
 11
21.6298866526
 21
9.2886127282
 31
0.0
 11
21.6680971651
 21
9.3051580869
 31
0.0
 11
21.6869387208
 21
9.3142065495
 31
0.0
 11
21.7056063139
 21
9.3237220908
 31
0.0
 11
21.7424324337
 21
9.3440172507
 31
0.0
  0
SPLINE
  5
274
100
AcDbEntity
  8
0
100
AcDbSpline
 62
6
  6
CONTINUOUS
 70
0
 71
3
 72
33
 73
29
 74
27
 42
0.0000001
 43
0.0000001
 44
0.0000000001
 12
0.5732352008
 22
-0.3309574975
 32
0.0
 13
0.5732352008
 23
0.3309574975
 33
0.0
 40
0.0
 40
0.0
 40
0.0
 40
0.0
 40
0.0635251701
 40
0.0951801604
 40
0.1267577069
 40
0.1896643416
 40
0.2209967592
 40
0.2522507803
 40
0.3145163638
 40
0.3455486622
 40
0.3765194658
 40
0.4074372351
 40
0.4383150386
 40
0.4691650516
 40
0.500000062
 40
0.5308350667
 40
0.5616850729
 40
0.5925628765
 40
0.6234806374
 40
0.6544514264
 40
0.6854837191
 40
0.7477492687
 40
0.7790032744
 40
0.8103356816
 40
0.8732422939
 40
0.9048198354
 40
0.9364748259
 40
1.0
 40
1.0
 40
1.0
 40
1.0
 10
20.4924324337
 20
9.3440172507
 30
0.0
 10
20.5045707216
 20
9.337009207
 30
0.0
 10
20.5229586584
 20
9.3268492712
 30
0.0
 10
20.5478742151
 20
9.3141401257
 30
0.0
 10
20.5729603738
 20
9.3020835404
 30
0.0
 10
20.5984349156
 20
9.2910122592
 30
0.0
 10
20.6242933285
 20
9.2811016444
 30
0.0
 10
20.6503146298
 20
9.2720509464
 30
0.0
 10
20.6767133139
 20
9.2643172322
 30
0.0
 10
20.7034210956
 20
9.258091085
 30
0.0
 10
20.7235587863
 20
9.2542141841
 30
0.0
 10
20.7438030049
 20
9.2511582611
 30
0.0
 10
20.7641316172
 20
9.2489581185
 30
0.0
 10
20.7845174274
 20
9.2476279426
 30
0.0
 10
20.8049324735
 20
9.2471801895
 30
0.0
 10
20.8253475191
 20
9.2476279304
 30
0.0
 10
20.8457333245
 20
9.2489581372
 30
0.0
 10
20.8660619341
 20
9.2511582697
 30
0.0
 10
20.8863061491
 20
9.2542141852
 30
0.0
 10
20.90644383
 20
9.2580911031
 30
0.0
 10
20.9331516006
 20
9.2643172439
 30
0.0
 10
20.9595502737
 20
9.2720509538
 30
0.0
 10
20.9855715602
 20
9.2811016541
 30
0.0
 10
21.0114299629
 20
9.2910122657
 30
0.0
 10
21.0369044975
 20
9.3020835426
 30
0.0
 10
21.0619906511
 20
9.3141401246
 30
0.0
 10
21.0869062076
 20
9.3268492701
 30
0.0
 10
21.1052941451
 20
9.3370092065
 30
0.0
 10
21.1174324337
 20
9.3440172507
 30
0.0
 11
20.4924324337
 21
9.3440172507
 31
0.0
 11
20.5292585513
 21
9.3237220922
 31
0.0
 11
20.5479261443
 21
9.314206551
 31
0.0
 11
20.5667677028
 21
9.3051580865
 31
0.0
 11
20.6049782285
 21
9.2886127211
 31
0.0
 11
20.6243465423
 21
9.2811971288
 31
0.0
 11
20.6438881817
 21
9.2744076368
 31
0.0
 11
20.6834566202
 21
9.2628761313
 31
0.0
 11
20.7034622542
 21
9.2582181535
 31
0.0
 11
20.7235936715
 21
9.2543480569
 31
0.0
 11
20.7438302189
 21
9.2512991684
 31
0.0
 11
20.7641502899
 21
9.2491023009
 31
0.0
 11
20.7845271789
 21
9.2477747784
 31
0.0
 11
20.8049324749
 21
9.2473294143
 31
0.0
 11
20.8253377674
 21
9.2477747734
 31
0.0
 11
20.8457146508
 21
9.2491023127
 31
0.0
 11
20.8660347221
 21
9.2512991777
 31
0.0
 11
20.8862712643
 21
9.2543480623
 31
0.0
 11
20.9064026702
 21
9.2582181677
 31
0.0
 11
20.9264083003
 21
9.2628761455
 31
0.0
 11
20.9659767171
 21
9.2744076451
 31
0.0
 11
20.9855183456
 21
9.2811971373
 31
0.0
 11
21.0048866526
 21
9.2886127282
 31
0.0
 11
21.0430971651
 21
9.3051580869
 31
0.0
 11
21.0619387208
 21
9.3142065495
 31
0.0
 11
21.0806063139
 21
9.3237220908
 31
0.0
 11
21.1174324337
 21
9.3440172507
 31
0.0
  0
SPLINE
  5
275
100
AcDbEntity
  8
0
100
AcDbSpline
 62
6
  6
CONTINUOUS
 70
0
 71
3
 72
33
 73
29
 74
27
 42
0.0000001
 43
0.0000001
 44
0.0000000001
 12
0.5732352008
 22
-0.3309574975
 32
0.0
 13
0.5732352008
 23
0.3309574975
 33
0.0
 40
0.0
 40
0.0
 40
0.0
 40
0.0
 40
0.0635251701
 40
0.0951801604
 40
0.1267577069
 40
0.1896643416
 40
0.2209967592
 40
0.2522507803
 40
0.3145163638
 40
0.3455486622
 40
0.3765194658
 40
0.4074372351
 40
0.4383150386
 40
0.4691650516
 40
0.500000062
 40
0.5308350667
 40
0.5616850729
 40
0.5925628765
 40
0.6234806374
 40
0.6544514264
 40
0.6854837191
 40
0.7477492687
 40
0.7790032744
 40
0.8103356816
 40
0.8732422939
 40
0.9048198354
 40
0.9364748259
 40
1.0
 40
1.0
 40
1.0
 40
1.0
 10
2.6529324337
 20
9.3440172507
 30
0.0
 10
2.6650707216
 20
9.337009207
 30
0.0
 10
2.6834586584
 20
9.3268492712
 30
0.0
 10
2.7083742151
 20
9.3141401257
 30
0.0
 10
2.7334603738
 20
9.3020835404
 30
0.0
 10
2.7589349156
 20
9.2910122592
 30
0.0
 10
2.7847933285
 20
9.2811016444
 30
0.0
 10
2.8108146298
 20
9.2720509464
 30
0.0
 10
2.8372133139
 20
9.2643172322
 30
0.0
 10
2.8639210956
 20
9.258091085
 30
0.0
 10
2.8840587863
 20
9.2542141841
 30
0.0
 10
2.9043030049
 20
9.2511582611
 30
0.0
 10
2.9246316172
 20
9.2489581185
 30
0.0
 10
2.9450174274
 20
9.2476279426
 30
0.0
 10
2.9654324735
 20
9.2471801895
 30
0.0
 10
2.9858475191
 20
9.2476279304
 30
0.0
 10
3.0062333245
 20
9.2489581372
 30
0.0
 10
3.0265619341
 20
9.2511582697
 30
0.0
 10
3.0468061491
 20
9.2542141852
 30
0.0
 10
3.06694383
 20
9.2580911031
 30
0.0
 10
3.0936516006
 20
9.2643172439
 30
0.0
 10
3.1200502737
 20
9.2720509538
 30
0.0
 10
3.1460715602
 20
9.2811016541
 30
0.0
 10
3.1719299629
 20
9.2910122657
 30
0.0
 10
3.1974044975
 20
9.3020835426
 30
0.0
 10
3.2224906511
 20
9.3141401246
 30
0.0
 10
3.2474062076
 20
9.3268492701
 30
0.0
 10
3.2657941451
 20
9.3370092065
 30
0.0
 10
3.2779324337
 20
9.3440172507
 30
0.0
 11
2.6529324337
 21
9.3440172507
 31
0.0
 11
2.6897585513
 21
9.3237220922
 31
0.0
 11
2.7084261443
 21
9.314206551
 31
0.0
 11
2.7272677028
 21
9.3051580865
 31
0.0
 11
2.7654782285
 21
9.2886127211
 31
0.0
 11
2.7848465423
 21
9.2811971288
 31
0.0
 11
2.8043881817
 21
9.2744076368
 31
0.0
 11
2.8439566202
 21
9.2628761313
 31
0.0
 11
2.8639622542
 21
9.2582181535
 31
0.0
 11
2.8840936715
 21
9.2543480569
 31
0.0
 11
2.9043302189
 21
9.2512991684
 31
0.0
 11
2.9246502899
 21
9.2491023009
 31
0.0
 11
2.9450271789
 21
9.2477747784
 31
0.0
 11
2.9654324749
 21
9.2473294143
 31
0.0
 11
2.9858377674
 21
9.2477747734
 31
0.0
 11
3.0062146508
 21
9.2491023127
 31
0.0
 11
3.0265347221
 21
9.2512991777
 31
0.0
 11
3.0467712643
 21
9.2543480623
 31
0.0
 11
3.0669026702
 21
9.2582181677
 31
0.0
 11
3.0869083003
 21
9.2628761455
 31
0.0
 11
3.1264767171
 21
9.2744076451
 31
0.0
 11
3.1460183456
 21
9.2811971373
 31
0.0
 11
3.1653866526
 21
9.2886127282
 31
0.0
 11
3.2035971651
 21
9.3051580869
 31
0.0
 11
3.2224387208
 21
9.3142065495
 31
0.0
 11
3.2411063139
 21
9.3237220908
 31
0.0
 11
3.2779324337
 21
9.3440172507
 31
0.0
  0
ENDSEC
  0
SECTION
  2
OBJECTS
  0
DICTIONARY
  5
C
100
AcDbDictionary
280
0
281
1
  3
ACAD_GROUP
350
D
  3
ACAD_MLINESTYLE
350
17
  3
ACAD_LAYOUT
350
1A
  3
ACAD_PLOTSETTINGS
350
19
  3
ACAD_PLOTSTYLENAME
350
E
  0
DICTIONARY
  5
D
102
{ACAD_REACTORS
330
C
102
}
100
AcDbDictionary
280
0
281
1
  0
ACDBDICTIONARYWDFLT
  5
E
102
{ACAD_REACTORS
330
C
102
}
100
AcDbDictionary
281
1
  3
Normal
350
F
100
AcDbDictionaryWithDefault
340
F
  0
DICTIONARY
  5
17
102
{ACAD_REACTORS
330
C
102
}
100
AcDbDictionary
280
0
281
1
  3
Standard
350
18
  0
DICTIONARY
  5
19
102
{ACAD_REACTORS
330
C
102
}
100
AcDbDictionary
281
1
  0
DICTIONARY
  5
1A
102
{ACAD_REACTORS
330
C
102
}
100
AcDbDictionary
281
1
  3
Model
350
276
  3
Layout1
350
277
  0
ACDBPLACEHOLDER
  5
F
102
{ACAD_REACTORS
330
E
102
}
  0
MLINESTYLE
  5
18
102
{ACAD_REACTORS
330
17
102
}
100
AcDbMlineStyle
  2
STANDARD
 70
0
  3

 62
256
 51
90.0
 52
90.0
 71
2
 49
0.5
 62
256
  6
BYLAYER
 49
-0.5
 62
256
  6
BYLAYER
  0
LAYOUT
  5
276
102
{ACAD_REACTORS
330
1A
102
}
100
AcDbPlotSettings
  1

  2
none_device
  4
ISO_A2_(594.00_x_420.00_MM)
  6

 40
0.0
 41
0.0
 42
0.0
 43
0.0
 44
594.0
 45
420.0
 46
0.0
 47
0.0
 48
0.0
 49
0.0
140
0.0
141
0.0
142
1.0
143
1.0
 70
1024
 72
0
 73
0
 74
0
  7

 75
0
147
1.0
148
0.0
149
0.0
100
AcDbLayout
  1
Model
 70
0
 71
0
 10
0.0
 20
0.0
 11
23.3858267717
 21
16.5354330709
 12
0.0
 22
0.0
 32
0.0
 14
0.0
 24
0.0
 34
0.0
 15
0.0
 25
0.0
 35
0.0
146
0.0
 13
0.0
 23
0.0
 33
0.0
 16
1.0
 26
0.0
 36
0.0
 17
0.0
 27
1.0
 37
0.0
 76
0
330
203
345
0
346
0
  0
LAYOUT
  5
277
102
{ACAD_REACTORS
330
1A
102
}
100
AcDbPlotSettings
  1

  2
none_device
  4
ISO_A2_(594.00_x_420.00_MM)
  6

 40
0.0
 41
0.0
 42
0.0
 43
0.0
 44
594.0
 45
420.0
 46
0.0
 47
0.0
 48
0.0
 49
0.0
140
0.0
141
0.0
142
1.0
143
1.0
 70
0
 72
0
 73
0
 74
0
  7

 75
0
147
1.0
148
0.0
149
0.0
100
AcDbLayout
  1
Layout1
 70
0
 71
1
 10
0.0
 20
0.0
 11
23.3858267717
 21
16.5354330709
 12
0.0
 22
0.0
 32
0.0
 14
0.0
 24
0.0
 34
0.0
 15
0.0
 25
0.0
 35
0.0
146
0.0
 13
0.0
 23
0.0
 33
0.0
 16
1.0
 26
0.0
 36
0.0
 17
0.0
 27
1.0
 37
0.0
 76
0
330
204
345
0
346
0
  0
ENDSEC
  0
EOF
