999
DXF file: 1400-4273_top.dxf
999
Pro/ENGINEER 2019352 by Parametric Technology Corporation
  0
SECTION
  2
HEADER
  9
$ACADVER
  1
AC1032
  9
$DWGCODEPAGE
  3
ANSI_1252
  9
$EXTMAX
 10
11.0
 20
8.5
 30
0.0
  9
$EXTMIN
 10
0.0
 20
0.0
 30
0.0
  9
$LIMMIN
 10
0.0
 20
0.0
  9
$LIMMAX
 10
11.0
 20
8.5
  9
$VIEWCTR
 10
5.5
 20
4.25
  9
$VIEWSIZE
 40
8.5
  9
$CLAYER
  8
0
  9
$LTSCALE
 40
0.605
  9
$CELTYPE
  6
BYLAYER
  9
$DIMSCALE
 40
1.0
  9
$DIMASZ
 40
0.1
  9
$DIMEXO
 40
0.0625
  9
$DIMDLI
 40
0.418
  9
$DIMEXE
 40
0.125
  9
$DIMCEN
 40
0.099
  9
$DIMLFAC
 40
1.0
  9
$DIMBLK
  1
_FILLED
  9
$DIMALT
 70
1
  9
$DIMALTD
 70
2
  9
$DIMALTTD
 70
2
  9
$DIMALTF
 40
25.4
  9
$DIMTXT
 40
0.08
  9
$DIMTOL
 70
1
  9
$DIMLIM
 70
0
  9
$DIMTFAC
 40
1.0
  9
$DIMTP
 40
0.001
  9
$DIMTM
 40
0.001
  9
$DIMGAP
 40
0.09
  9
$DIMDSEP
 70
46
  9
$AUNITS
 70
0
  9
$PDMODE
 70
3
  9
$PDSIZE
 40
0.3125
  9
$HANDSEED
  5
2A0
  9
$TILEMODE
 70
1
  9
$MEASUREMENT
 70
0
  9
$INSUNITS
 70
1
  0
ENDSEC
  0
SECTION
  2
CLASSES
  0
CLASS
  1
ACDBDICTIONARYWDFLT
  2
AcDbDictionaryWithDefault
  3
AutoCAD 2000
 90
0
 91
1
280
0
281
0
  0
CLASS
  1
ACDBPLACEHOLDER
  2
AcDbPlaceHolder
  3
AutoCAD 2000
 90
0
 91
1
280
0
281
0
  0
CLASS
  1
LAYOUT
  2
AcDbLayout
  3
AutoCAD 2000
 90
0
 91
0
280
0
281
0
  0
ENDSEC
  0
SECTION
  2
TABLES
  0
TABLE
  2
VPORT
  5
8
100
AcDbSymbolTable
 70
2
  0
VPORT
  5
1F4
100
AcDbSymbolTableRecord
100
AcDbViewportTableRecord
  2
*ACTIVE
 70
0
 10
0.0
 20
0.0
 11
1.0
 21
1.0
 12
5.5
 22
4.25
 13
0.0
 23
0.0
 14
1.0
 24
1.0
 15
0.0
 25
0.0
 16
0.0
 26
0.0
 36
1.0
 17
0.0
 27
0.0
 37
0.0
 40
8.5
 41
1.2941176471
 42
50.0
 43
0.0
 44
0.0
 50
0.0
 51
0.0
 71
0
 72
100
 73
1
 74
1
 75
0
 76
0
 77
0
 78
0
  0
ENDTAB
  0
TABLE
  2
LTYPE
  5
5
100
AcDbSymbolTable
 70
6
  0
LTYPE
  5
14
100
AcDbSymbolTableRecord
100
AcDbLinetypeTableRecord
  2
BYBLOCK
 70
0
  3

 72
65
 73
0
 40
0.0
  0
LTYPE
  5
15
100
AcDbSymbolTableRecord
100
AcDbLinetypeTableRecord
  2
BYLAYER
 70
0
  3

 72
65
 73
0
 40
0.0
  0
LTYPE
  5
16
100
AcDbSymbolTableRecord
100
AcDbLinetypeTableRecord
  2
CONTINUOUS
 70
64
  3
Solid line
 72
65
 73
0
 40
0.0
  0
LTYPE
  5
1F5
100
AcDbSymbolTableRecord
100
AcDbLinetypeTableRecord
  2
CENTER
 70
64
  3
____ _ ____ _ ____ _ ____ _ ____ _ ____ _ ____
 72
65
 73
4
 40
0.6
 49
0.375
 74
0
 49
-0.075
 74
0
 49
0.075
 74
0
 49
-0.075
 74
0
  0
LTYPE
  5
1F6
100
AcDbSymbolTableRecord
100
AcDbLinetypeTableRecord
  2
HIDDEN
 70
64
  3
- - - - - - - - - - - - - - - - - - - -
 72
65
 73
2
 40
0.2
 49
0.1
 74
0
 49
-0.1
 74
0
  0
LTYPE
  5
1F7
100
AcDbSymbolTableRecord
100
AcDbLinetypeTableRecord
  2
PHANTOM
 70
64
  3
_____ _ _ _____ _ _ _____ _ _ _____
 72
65
 73
6
 40
0.8
 49
0.45
 74
0
 49
-0.05
 74
0
 49
0.1
 74
0
 49
-0.05
 74
0
 49
0.1
 74
0
 49
-0.05
 74
0
  0
LTYPE
  5
1F8
100
AcDbSymbolTableRecord
100
AcDbLinetypeTableRecord
  2
DOT
 70
64
  3
. . . . . . . . . . . . . . . . . . . .
 72
65
 73
2
 40
0.2
 49
0.1
 74
0
 49
-0.1
 74
0
  0
LTYPE
  5
1F9
100
AcDbSymbolTableRecord
100
AcDbLinetypeTableRecord
  2
DASHED
 70
64
  3
- - - - - - - - - - - - - - - - - - - -
 72
65
 73
2
 40
0.2
 49
0.1
 74
0
 49
-0.1
 74
0
  0
ENDTAB
  0
TABLE
  2
LAYER
  5
2
100
AcDbSymbolTable
 70
36
  0
LAYER
  5
10
100
AcDbSymbolTableRecord
100
AcDbLayerTableRecord
  2
0
 70
0
 62
7
  6
CONTINUOUS
370
-3
390
F
  0
LAYER
  5
1FA
100
AcDbSymbolTableRecord
100
AcDbLayerTableRecord
  2
DEFAULT_1
 70
0
 62
7
  6
CENTER
370
-3
390
F
  0
LAYER
  5
1FB
100
AcDbSymbolTableRecord
100
AcDbLayerTableRecord
  2
DEFAULT_2
 70
0
 62
8
  6
HIDDEN
370
-3
390
F
  0
LAYER
  5
1FC
100
AcDbSymbolTableRecord
100
AcDbLayerTableRecord
  2
DEFAULT_3
 70
0
 62
7
  6
PHANTOM
370
-3
390
F
  0
LAYER
  5
1FD
100
AcDbSymbolTableRecord
100
AcDbLayerTableRecord
  2
DEFAULT_COORDINATE_SYSTEM
 70
0
 62
7
  6
CONTINUOUS
370
-3
390
F
  0
LAYER
  5
1FE
100
AcDbSymbolTableRecord
100
AcDbLayerTableRecord
  2
DEFAULT_DATUM_AXES
 70
0
 62
7
  6
CONTINUOUS
370
-3
390
F
  0
LAYER
  5
1FF
100
AcDbSymbolTableRecord
100
AcDbLayerTableRecord
  2
DEFAULT_DATUM_PLANES
 70
0
 62
7
  6
CONTINUOUS
370
-3
390
F
  0
ENDTAB
  0
TABLE
  2
STYLE
  5
3
100
AcDbSymbolTable
 70
1
  0
STYLE
  5
11
100
AcDbSymbolTableRecord
100
AcDbTextStyleTableRecord
  2
STANDARD
 70
0
 40
0.0
 41
0.8
 50
0.0
 71
0
 42
0.2
  3
txt
  4

  0
STYLE
  5
200
100
AcDbSymbolTableRecord
100
AcDbTextStyleTableRecord
  2
TEXTSTYLE_1
 70
0
 40
0.0
 41
0.8
 50
0.0
 71
0
 42
0.2
  3
gdt
  4

  0
ENDTAB
  0
TABLE
  2
VIEW
  5
6
100
AcDbSymbolTable
 70
0
  0
ENDTAB
  0
TABLE
  2
UCS
  5
7
100
AcDbSymbolTable
 70
0
  0
ENDTAB
  0
TABLE
  2
APPID
  5
9
100
AcDbSymbolTable
 70
1
  0
APPID
  5
201
100
AcDbSymbolTableRecord
100
AcDbRegAppTableRecord
  2
ACAD
 70
0
  0
ENDTAB
  0
TABLE
  2
BLOCK_RECORD
  5
1
100
AcDbSymbolTable
 70
0
  0
BLOCK_RECORD
  5
202
100
AcDbSymbolTableRecord
100
AcDbBlockTableRecord
  2
*Model_Space
  0
BLOCK_RECORD
  5
203
100
AcDbSymbolTableRecord
100
AcDbBlockTableRecord
  2
*Paper_Space
  0
BLOCK_RECORD
  5
204
100
AcDbSymbolTableRecord
100
AcDbBlockTableRecord
  2
_FILLED
  0
ENDTAB
  0
TABLE
  2
DIMSTYLE
  5
A
100
AcDbSymbolTable
 70
1
100
AcDbDimStyleTable
 71
0
  0
DIMSTYLE
105
205
100
AcDbSymbolTableRecord
100
AcDbDimStyleTableRecord
  2
STANDARD
 70
0
  3

  4

 40
1.0
 41
0.1
 42
0.0625
 43
0.38
 44
0.125
 45
0.0
 46
0.0
 47
0.001
 48
0.001
140
0.08
141
0.09
142
0.0
143
25.4
144
1.0
145
0.0
146
1.0
147
0.09
 71
1.0
 72
0.0
 73
1
 74
1
 75
0
 76
0
 77
0
 78
4
 79
1
170
1
171
2
172
0
173
0
174
0
175
0
176
0
177
0
178
0
270
2
179
3
271
3
272
3
273
2
274
2
275
0
280
0
281
0
282
0
283
1
284
4
285
0
286
0
287
3
288
0
340
11
278
46
341
204
342
204
343
204
344
204
  0
ENDTAB
  0
ENDSEC
  0
SECTION
  2
BLOCKS
  0
BLOCK
  5
20
100
AcDbEntity
  8
0
100
AcDbBlockBegin
  2
*Model_Space
 70
0
 10
0.0
 20
0.0
 30
0.0
  3
*Model_Space
  1

  0
ENDBLK
  5
21
100
AcDbEntity
  8
0
100
AcDbBlockEnd
  0
BLOCK
  5
1C
100
AcDbEntity
  8
0
100
AcDbBlockBegin
  2
*Paper_Space
 70
0
 10
0.0
 20
0.0
 30
0.0
  3
*Paper_Space
  1

  0
ENDBLK
  5
1D
100
AcDbEntity
  8
0
100
AcDbBlockEnd
  0
BLOCK
  5
206
100
AcDbEntity
  8
0
100
AcDbBlockBegin
  2
_FILLED
 70
64
 10
0.0
 20
0.0
  3
_FILLED
  1

  0
SOLID
  5
207
100
AcDbEntity
  8
0
  6
BYBLOCK
 62
0
100
AcDbTrace
 10
0.0
 20
0.0
 11
-1.0
 21
0.2
 12
-1.0
 22
-0.2
 13
-1.0
 23
-0.2
  0
ENDBLK
  5
208
100
AcDbEntity
  8
0
  6
BYBLOCK
 62
0
100
AcDbBlockEnd
  0
ENDSEC
  0
SECTION
  2
ENTITIES
  0
MTEXT
  5
209
100
AcDbEntity
  8
0
100
AcDbMText
 62
2
  6
CONTINUOUS
  7
STANDARD
 71
3
 72
1
 10
5.6879026074
 20
3.0207523006
 30
0.0
 11
1.0
 21
0.0
 31
0.0
 73
2
 44
0.9
  1
SCALE 0.175
 40
0.08
 41
0.704
  0
LINE
  5
20A
100
AcDbEntity
  8
0
100
AcDbLine
 62
7
  6
CONTINUOUS
 10
0.0
 20
0.0
 11
0.0
 21
8.5
  0
LINE
  5
20B
100
AcDbEntity
  8
0
100
AcDbLine
 62
7
  6
CONTINUOUS
 10
0.0
 20
0.0
 11
11.0
 21
0.0
  0
LINE
  5
20C
100
AcDbEntity
  8
0
100
AcDbLine
 62
7
  6
CONTINUOUS
 10
0.0
 20
8.5
 11
11.0
 21
8.5
  0
LINE
  5
20D
100
AcDbEntity
  8
0
100
AcDbLine
 62
7
  6
CONTINUOUS
 10
11.0
 20
0.0
 11
11.0
 21
8.5
  0
LINE
  5
20E
100
AcDbEntity
  8
0
100
AcDbLine
 62
7
  6
CONTINUOUS
 10
4.1043860858
 20
5.1710809049
 11
4.1078860858
 21
5.1745809049
  0
LINE
  5
20F
100
AcDbEntity
  8
0
100
AcDbLine
 62
7
  6
CONTINUOUS
 10
4.1043860859
 20
5.0687059049
 11
4.1043860859
 21
5.1710809049
  0
LINE
  5
210
100
AcDbEntity
  8
0
100
AcDbLine
 62
7
  6
CONTINUOUS
 10
4.1078860859
 20
5.0652059049
 11
4.1078860859
 21
5.1745809049
  0
LINE
  5
211
100
AcDbEntity
  8
0
100
AcDbLine
 62
7
  6
CONTINUOUS
 10
4.7825110859
 20
5.0687059049
 11
4.7790110859
 21
5.0652059049
  0
LINE
  5
212
100
AcDbEntity
  8
0
100
AcDbLine
 62
7
  6
CONTINUOUS
 10
4.7790110859
 20
5.1745809049
 11
4.7790110859
 21
5.0652059049
  0
LINE
  5
213
100
AcDbEntity
  8
0
100
AcDbLine
 62
7
  6
CONTINUOUS
 10
4.7825110859
 20
5.1710809049
 11
4.7825110859
 21
5.0687059049
  0
LINE
  5
214
100
AcDbEntity
  8
0
100
AcDbLine
 62
7
  6
CONTINUOUS
 10
5.1553485859
 20
3.8511434049
 11
5.3303485859
 21
3.8511434049
  0
LINE
  5
215
100
AcDbEntity
  8
0
100
AcDbLine
 62
7
  6
CONTINUOUS
 10
4.1043860858
 20
5.0687059049
 11
4.1078860858
 21
5.0652059049
  0
LINE
  5
216
100
AcDbEntity
  8
0
100
AcDbLine
 62
7
  6
CONTINUOUS
 10
5.7031860858
 20
5.1710809049
 11
5.7066860858
 21
5.1745809049
  0
LINE
  5
217
100
AcDbEntity
  8
0
100
AcDbLine
 62
7
  6
CONTINUOUS
 10
5.1422235859
 20
4.9930184049
 11
5.1422235859
 21
4.8792684049
  0
LINE
  5
218
100
AcDbEntity
  8
0
100
AcDbLine
 62
7
  6
CONTINUOUS
 10
5.1553485859
 20
3.5448934049
 11
5.1553485859
 21
5.1198934049
  0
LINE
  5
219
100
AcDbEntity
  8
0
100
AcDbLine
 62
7
  6
CONTINUOUS
 10
5.3303485859
 20
3.5448934049
 11
5.3303485859
 21
5.1198934049
  0
LINE
  5
21A
100
AcDbEntity
  8
0
100
AcDbLine
 62
7
  6
CONTINUOUS
 10
5.3434735859
 20
4.9930184049
 11
5.3434735859
 21
4.8792684049
  0
LINE
  5
21B
100
AcDbEntity
  8
0
100
AcDbLine
 62
7
  6
CONTINUOUS
 10
6.6982472991
 20
5.1805551696
 11
6.6938787608
 21
5.1776434049
  0
LINE
  5
21C
100
AcDbEntity
  8
0
100
AcDbLine
 62
7
  6
CONTINUOUS
 10
4.7825110859
 20
5.1710809049
 11
4.7790110859
 21
5.1745809049
  0
LINE
  5
21D
100
AcDbEntity
  8
0
100
AcDbLine
 62
7
  6
CONTINUOUS
 10
6.3813110859
 20
5.0687059049
 11
6.3778110859
 21
5.0652059049
  0
LINE
  5
21E
100
AcDbEntity
  8
0
100
AcDbLine
 62
7
  6
CONTINUOUS
 10
5.7031860859
 20
5.0687059049
 11
5.7031860859
 21
5.1710809049
  0
LINE
  5
21F
100
AcDbEntity
  8
0
100
AcDbLine
 62
7
  6
CONTINUOUS
 10
5.7066860859
 20
5.0652059049
 11
5.7066860859
 21
5.1745809049
  0
LINE
  5
220
100
AcDbEntity
  8
0
100
AcDbLine
 62
7
  6
CONTINUOUS
 10
5.1553485859
 20
4.8136434049
 11
5.3303485859
 21
4.8136434049
  0
LINE
  5
221
100
AcDbEntity
  8
0
100
AcDbLine
 62
7
  6
CONTINUOUS
 10
6.5148469408
 20
5.1784361524
 11
6.5148577068
 21
5.178453074
  0
LINE
  5
222
100
AcDbEntity
  8
0
100
AcDbLine
 62
7
  6
CONTINUOUS
 10
6.5148613471
 20
5.1784587513
 11
6.5148054832
 21
5.1783722762
  0
LINE
  5
223
100
AcDbEntity
  8
0
100
AcDbLine
 62
7
  6
CONTINUOUS
 10
5.1422235859
 20
4.8792684049
 11
5.1553485859
 21
4.8792684049
  0
LINE
  5
224
100
AcDbEntity
  8
0
100
AcDbLine
 62
7
  6
CONTINUOUS
 10
5.3303485859
 20
4.8792684049
 11
5.3434735859
 21
4.8792684049
  0
LINE
  5
225
100
AcDbEntity
  8
0
100
AcDbLine
 62
7
  6
CONTINUOUS
 10
5.8582066471
 20
5.0105184049
 11
5.3609735859
 21
5.0105184049
  0
LINE
  5
226
100
AcDbEntity
  8
0
100
AcDbLine
 62
7
  6
CONTINUOUS
 10
5.1247235859
 20
5.0105184049
 11
4.6276811539
 21
5.0105184049
  0
LINE
  5
227
100
AcDbEntity
  8
0
100
AcDbLine
 62
7
  6
CONTINUOUS
 10
5.8534602508
 20
5.0106052422
 11
5.8535257023
 21
5.0106031517
  0
LINE
  5
228
100
AcDbEntity
  8
0
100
AcDbLine
 62
7
  6
CONTINUOUS
 10
6.6938787608
 20
5.0621434049
 11
6.6729708057
 21
5.0621434049
  0
LINE
  5
229
100
AcDbEntity
  8
0
100
AcDbLine
 62
7
  6
CONTINUOUS
 10
6.3778110859
 20
5.0652059049
 11
5.7066860859
 21
5.0652059049
  0
LINE
  5
22A
100
AcDbEntity
  8
0
100
AcDbLine
 62
7
  6
CONTINUOUS
 10
4.1078860859
 20
5.0652059049
 11
4.7790110859
 21
5.0652059049
  0
LINE
  5
22B
100
AcDbEntity
  8
0
100
AcDbLine
 62
7
  6
CONTINUOUS
 10
6.6938787608
 20
5.0673934049
 11
6.6772348311
 21
5.0673934049
  0
LINE
  5
22C
100
AcDbEntity
  8
0
100
AcDbLine
 62
7
  6
CONTINUOUS
 10
6.5019755114
 20
5.0708934049
 11
6.3813110859
 21
5.0708934049
  0
LINE
  5
22D
100
AcDbEntity
  8
0
100
AcDbLine
 62
7
  6
CONTINUOUS
 10
6.6797286635
 20
5.0708934049
 11
6.7384318492
 21
5.0708934049
  0
LINE
  5
22E
100
AcDbEntity
  8
0
100
AcDbLine
 62
7
  6
CONTINUOUS
 10
6.4103610859
 20
5.0717684049
 11
6.4957293596
 21
5.0717684049
  0
LINE
  5
22F
100
AcDbEntity
  8
0
100
AcDbLine
 62
7
  6
CONTINUOUS
 10
6.3813110859
 20
5.0870809049
 11
6.4103610859
 21
5.0870809049
  0
LINE
  5
230
100
AcDbEntity
  8
0
100
AcDbLine
 62
7
  6
CONTINUOUS
 10
5.7031860858
 20
5.0687059049
 11
5.7066860858
 21
5.0652059049
  0
LINE
  5
231
100
AcDbEntity
  8
0
100
AcDbLine
 62
7
  6
CONTINUOUS
 10
6.5722360859
 20
5.0387382887
 11
6.5695009452
 21
5.0310694815
  0
LINE
  5
232
100
AcDbEntity
  8
0
100
AcDbLine
 62
7
  6
CONTINUOUS
 10
6.3813110859
 20
5.1527059049
 11
6.4103610859
 21
5.1527059049
  0
LINE
  5
233
100
AcDbEntity
  8
0
100
AcDbLine
 62
7
  6
CONTINUOUS
 10
6.4103610859
 20
5.1680184049
 11
6.4957293596
 21
5.1680184049
  0
LINE
  5
234
100
AcDbEntity
  8
0
100
AcDbLine
 62
7
  6
CONTINUOUS
 10
6.5019755114
 20
5.1688934049
 11
6.3813110859
 21
5.1688934049
  0
LINE
  5
235
100
AcDbEntity
  8
0
100
AcDbLine
 62
7
  6
CONTINUOUS
 10
6.6797286635
 20
5.1688934049
 11
6.7384318492
 21
5.1688934049
  0
LINE
  5
236
100
AcDbEntity
  8
0
100
AcDbLine
 62
7
  6
CONTINUOUS
 10
6.6772348311
 20
5.1723934049
 11
6.6938787608
 21
5.1723934049
  0
LINE
  5
237
100
AcDbEntity
  8
0
100
AcDbLine
 62
7
  6
CONTINUOUS
 10
6.3778110859
 20
5.1745809049
 11
5.7066860859
 21
5.1745809049
  0
LINE
  5
238
100
AcDbEntity
  8
0
100
AcDbLine
 62
7
  6
CONTINUOUS
 10
4.1078860859
 20
5.1745809049
 11
4.7790110859
 21
5.1745809049
  0
LINE
  5
239
100
AcDbEntity
  8
0
100
AcDbLine
 62
7
  6
CONTINUOUS
 10
6.6729708057
 20
5.1776434049
 11
6.6938787608
 21
5.1776434049
  0
LINE
  5
23A
100
AcDbEntity
  8
0
100
AcDbLine
 62
7
  6
CONTINUOUS
 10
5.8580161087
 20
5.2292684049
 11
4.6274901922
 21
5.2292684049
  0
LINE
  5
23B
100
AcDbEntity
  8
0
100
AcDbLine
 62
7
  6
CONTINUOUS
 10
6.738337422
 20
5.168859828
 11
6.7384240643
 21
5.1688565316
  0
LINE
  5
23C
100
AcDbEntity
  8
0
100
AcDbLine
 62
7
  6
CONTINUOUS
 10
6.738337422
 20
5.1688598281
 11
6.7384240495
 21
5.1688561492
  0
LINE
  5
23D
100
AcDbEntity
  8
0
100
AcDbLine
 62
7
  6
CONTINUOUS
 10
6.3778110859
 20
5.1745809049
 11
6.3778110859
 21
5.0652059049
  0
LINE
  5
23E
100
AcDbEntity
  8
0
100
AcDbLine
 62
7
  6
CONTINUOUS
 10
6.3813110859
 20
5.1710809049
 11
6.3813110859
 21
5.0687059049
  0
LINE
  5
23F
100
AcDbEntity
  8
0
100
AcDbLine
 62
7
  6
CONTINUOUS
 10
6.4103610859
 20
5.0717684049
 11
6.4103610859
 21
5.1680184049
  0
LINE
  5
240
100
AcDbEntity
  8
0
100
AcDbLine
 62
7
  6
CONTINUOUS
 10
6.6317185861
 20
5.0353990365
 11
6.6285624585
 21
5.0249778162
  0
LINE
  5
241
100
AcDbEntity
  8
0
100
AcDbLine
 62
7
  6
CONTINUOUS
 10
6.6020035856
 20
5.0324450715
 11
6.5989279787
 21
5.0233275871
  0
LINE
  5
242
100
AcDbEntity
  8
0
100
AcDbLine
 62
7
  6
CONTINUOUS
 10
6.572379658
 20
5.0396362402
 11
6.5722360859
 21
5.0387382887
  0
LINE
  5
243
100
AcDbEntity
  8
0
100
AcDbLine
 62
7
  6
CONTINUOUS
 10
6.6318076188
 20
5.0359152579
 11
6.6317185861
 21
5.0353990365
  0
LINE
  5
244
100
AcDbEntity
  8
0
100
AcDbLine
 62
7
  6
CONTINUOUS
 10
6.6020241989
 20
5.0325494898
 11
6.6020035856
 21
5.0324450715
  0
LINE
  5
245
100
AcDbEntity
  8
0
100
AcDbLine
 62
7
  6
CONTINUOUS
 10
6.6614860859
 20
5.0486040179
 11
6.6583921613
 21
5.0367664256
  0
LINE
  5
246
100
AcDbEntity
  8
0
100
AcDbLine
 62
7
  6
CONTINUOUS
 10
6.5526994344
 20
5.0514696995
 11
6.5529860859
 21
5.0486040179
  0
LINE
  5
247
100
AcDbEntity
  8
0
100
AcDbLine
 62
7
  6
CONTINUOUS
 10
6.6617727373
 20
5.0514696995
 11
6.6614860859
 21
5.0486040179
  0
LINE
  5
248
100
AcDbEntity
  8
0
100
AcDbLine
 62
7
  6
CONTINUOUS
 10
6.6938787608
 20
5.1776434049
 11
6.6938787608
 21
5.1723934049
  0
LINE
  5
249
100
AcDbEntity
  8
0
100
AcDbLine
 62
7
  6
CONTINUOUS
 10
6.6938787608
 20
5.0673934049
 11
6.6938787608
 21
5.0621434049
  0
LINE
  5
24A
100
AcDbEntity
  8
0
100
AcDbLine
 62
7
  6
CONTINUOUS
 10
6.6938787608
 20
5.0621434049
 11
6.6982472991
 21
5.0592316402
  0
LINE
  5
24B
100
AcDbEntity
  8
0
100
AcDbLine
 62
7
  6
CONTINUOUS
 10
6.3813110859
 20
5.1710809049
 11
6.3778110859
 21
5.1745809049
  0
LINE
  5
24C
100
AcDbEntity
  8
0
100
AcDbLine
 62
7
  6
CONTINUOUS
 10
6.514805481
 20
5.061414537
 11
6.5148586507
 21
5.0613322564
  0
LINE
  5
24D
100
AcDbEntity
  8
0
100
AcDbLine
 62
7
  6
CONTINUOUS
 10
6.5148408047
 20
5.0613599997
 11
6.5148605462
 21
5.06132931
  0
LINE
  5
24E
100
AcDbEntity
  8
0
100
AcDbLine
 62
7
  6
CONTINUOUS
 10
6.5140008589
 20
5.0627087648
 11
6.5140215121
 21
5.0626751048
  0
LINE
  5
24F
100
AcDbEntity
  8
0
100
AcDbLine
 62
7
  6
CONTINUOUS
 10
6.5827535856
 20
5.0353990365
 11
6.5859097132
 21
5.0249778162
  0
LINE
  5
250
100
AcDbEntity
  8
0
100
AcDbLine
 62
7
  6
CONTINUOUS
 10
6.5529860859
 20
5.0486040179
 11
6.5560800105
 21
5.0367664254
  0
LINE
  5
251
100
AcDbEntity
  8
0
100
AcDbLine
 62
7
  6
CONTINUOUS
 10
6.6124479729
 20
5.0325494898
 11
6.6124685861
 21
5.0324450715
  0
LINE
  5
252
100
AcDbEntity
  8
0
100
AcDbLine
 62
7
  6
CONTINUOUS
 10
6.5826645529
 20
5.0359152579
 11
6.5827535856
 21
5.0353990365
  0
LINE
  5
253
100
AcDbEntity
  8
0
100
AcDbLine
 62
7
  6
CONTINUOUS
 10
6.6420925138
 20
5.0396362402
 11
6.6422360859
 21
5.0387382887
  0
LINE
  5
254
100
AcDbEntity
  8
0
100
AcDbLine
 62
7
  6
CONTINUOUS
 10
6.6422360859
 20
5.0387382887
 11
6.6449712266
 21
5.0310694813
  0
LINE
  5
255
100
AcDbEntity
  8
0
100
AcDbLine
 62
7
  6
CONTINUOUS
 10
6.6124685861
 20
5.0324450715
 11
6.6155441931
 21
5.0233275871
  0
ARC
  5
256
100
AcDbEntity
  8
0
100
AcDbCircle
 62
7
  6
CONTINUOUS
 10
5.2428485859
 20
3.5448934049
 40
0.0875
100
AcDbArc
 50
180.0
 51
360.0
  0
ARC
  5
257
100
AcDbEntity
  8
0
100
AcDbCircle
 62
7
  6
CONTINUOUS
 10
4.6274610859
 20
5.1198934049
 40
0.17325
100
AcDbArc
 50
198.4006244271
 51
320.8524984084
  0
ARC
  5
258
100
AcDbEntity
  8
0
100
AcDbCircle
 62
7
  6
CONTINUOUS
 10
4.6274610859
 20
5.1198934049
 40
0.17325
100
AcDbArc
 50
39.1475015916
 51
161.5993755729
  0
ARC
  5
259
100
AcDbEntity
  8
0
100
AcDbCircle
 62
7
  6
CONTINUOUS
 10
4.6274610859
 20
5.1198934049
 40
0.168
100
AcDbArc
 50
40.620641283
 51
161.0027592213
  0
ARC
  5
25A
100
AcDbEntity
  8
0
100
AcDbCircle
 62
7
  6
CONTINUOUS
 10
4.6274610859
 20
5.1198934049
 40
0.168
100
AcDbArc
 50
198.9972407788
 51
319.379358717
  0
ARC
  5
25B
100
AcDbEntity
  8
0
100
AcDbCircle
 62
7
  6
CONTINUOUS
 10
4.6274555571
 20
5.1419888813
 40
0.1314706075
100
AcDbArc
 50
270.0983069268
 51
273.8199207654
  0
ARC
  5
25C
100
AcDbEntity
  8
0
100
AcDbCircle
 62
7
  6
CONTINUOUS
 10
4.6274552878
 20
5.0981552176
 40
0.1311135091
100
AcDbArc
 50
88.0325505907
 51
89.4941677665
  0
ARC
  5
25D
100
AcDbEntity
  8
0
100
AcDbCircle
 62
7
  6
CONTINUOUS
 10
5.2428485859
 20
5.1198934049
 40
0.109375
100
AcDbArc
 50
323.1308426061
 51
216.8691573939
  0
ARC
  5
25E
100
AcDbEntity
  8
0
100
AcDbCircle
 62
7
  6
CONTINUOUS
 10
4.6274610859
 20
5.1198934049
 40
0.109375
100
AcDbArc
 50
30.0
 51
149.9999999999
  0
ARC
  5
25F
100
AcDbEntity
  8
0
100
AcDbCircle
 62
7
  6
CONTINUOUS
 10
4.6274610859
 20
5.1198934049
 40
0.109375
100
AcDbArc
 50
210.0
 51
329.9999999999
  0
ARC
  5
260
100
AcDbEntity
  8
0
100
AcDbCircle
 62
7
  6
CONTINUOUS
 10
4.6274610859
 20
5.1198934049
 40
0.104125
100
AcDbArc
 50
31.6827880746
 51
148.3172119255
  0
ARC
  5
261
100
AcDbEntity
  8
0
100
AcDbCircle
 62
7
  6
CONTINUOUS
 10
4.6274610859
 20
5.1198934049
 40
0.104125
100
AcDbArc
 50
211.6827880746
 51
328.3172119255
  0
ARC
  5
262
100
AcDbEntity
  8
0
100
AcDbCircle
 62
7
  6
CONTINUOUS
 10
5.2428485859
 20
5.1198934049
 40
0.104125
100
AcDbArc
 50
327.1773205668
 51
212.8226794329
  0
ARC
  5
263
100
AcDbEntity
  8
0
100
AcDbCircle
 62
7
  6
CONTINUOUS
 10
5.2428485859
 20
5.1198934049
 40
0.0875
100
AcDbArc
 50
0.0
 51
180.0
  0
ARC
  5
264
100
AcDbEntity
  8
0
100
AcDbCircle
 62
7
  6
CONTINUOUS
 10
5.1247235859
 20
4.9930184049
 40
0.0175
100
AcDbArc
 50
0.0
 51
90.0000000004
  0
ARC
  5
265
100
AcDbEntity
  8
0
100
AcDbCircle
 62
7
  6
CONTINUOUS
 10
5.3609727828
 20
4.9930191829
 40
0.017499881
100
AcDbArc
 50
89.9973704478
 51
180.0025474063
  0
ARC
  5
266
100
AcDbEntity
  8
0
100
AcDbCircle
 62
7
  6
CONTINUOUS
 10
5.8582513505
 20
5.0976983442
 40
0.1315705322
100
AcDbArc
 50
90.62798988
 51
93.8209832214
  0
ARC
  5
267
100
AcDbEntity
  8
0
100
AcDbCircle
 62
7
  6
CONTINUOUS
 10
5.8582360859
 20
5.1198934049
 40
0.17325
100
AcDbArc
 50
219.1475015916
 51
341.5993755729
  0
ARC
  5
268
100
AcDbEntity
  8
0
100
AcDbCircle
 62
7
  6
CONTINUOUS
 10
5.8582360859
 20
5.1198934049
 40
0.17325
100
AcDbArc
 50
18.4006244271
 51
140.8524984084
  0
ARC
  5
269
100
AcDbEntity
  8
0
100
AcDbCircle
 62
7
  6
CONTINUOUS
 10
5.8582360859
 20
5.1198934049
 40
0.168
100
AcDbArc
 50
18.9972407788
 51
139.379358717
  0
ARC
  5
26A
100
AcDbEntity
  8
0
100
AcDbCircle
 62
7
  6
CONTINUOUS
 10
5.8582360859
 20
5.1198934049
 40
0.168
100
AcDbArc
 50
220.620641283
 51
341.0027592213
  0
ARC
  5
26B
100
AcDbEntity
  8
0
100
AcDbCircle
 62
7
  6
CONTINUOUS
 10
5.858236595
 20
5.1414981031
 40
0.1309799122
100
AcDbArc
 50
267.9388134635
 51
269.6628865159
  0
ARC
  5
26C
100
AcDbEntity
  8
0
100
AcDbCircle
 62
7
  6
CONTINUOUS
 10
5.8582360859
 20
5.1198934049
 40
0.109375
100
AcDbArc
 50
210.0004819332
 51
329.9995180668
  0
ARC
  5
26D
100
AcDbEntity
  8
0
100
AcDbCircle
 62
7
  6
CONTINUOUS
 10
5.8582360859
 20
5.1198934049
 40
0.109375
100
AcDbArc
 50
30.0004819332
 51
149.9995180668
  0
ARC
  5
26E
100
AcDbEntity
  8
0
100
AcDbCircle
 62
7
  6
CONTINUOUS
 10
5.8582360859
 20
5.1198934049
 40
0.104125
100
AcDbArc
 50
211.6828470241
 51
328.3171529758
  0
ARC
  5
26F
100
AcDbEntity
  8
0
100
AcDbCircle
 62
7
  6
CONTINUOUS
 10
5.8582360859
 20
5.1198934049
 40
0.104125
100
AcDbArc
 50
31.6828470241
 51
148.3171529758
  0
ARC
  5
270
100
AcDbEntity
  8
0
100
AcDbCircle
 62
7
  6
CONTINUOUS
 10
6.5574345132
 20
5.0371204454
 40
0.0014000028
100
AcDbArc
 50
194.6474639688
 51
238.966112891
  0
ARC
  5
271
100
AcDbEntity
  8
0
100
AcDbCircle
 62
7
  6
CONTINUOUS
 10
6.5681823038
 20
5.0315397857
 40
0.0014000004
100
AcDbArc
 50
246.1537866076
 51
340.3708065034
  0
ARC
  5
272
100
AcDbEntity
  8
0
100
AcDbCircle
 62
7
  6
CONTINUOUS
 10
6.5872496123
 20
5.0253836124
 40
0.0014
100
AcDbArc
 50
196.8492439121
 51
258.0592943439
  0
ARC
  5
273
100
AcDbEntity
  8
0
100
AcDbCircle
 62
7
  6
CONTINUOUS
 10
6.4957293596
 20
5.0490184049
 40
0.02275
100
AcDbArc
 50
32.4405244247
 51
32.9883965504
  0
ARC
  5
274
100
AcDbEntity
  8
0
100
AcDbCircle
 62
7
  6
CONTINUOUS
 10
6.4957293596
 20
5.0490184049
 40
0.02275
100
AcDbArc
 50
33.0168003515
 51
90.0000000001
  0
ARC
  5
275
100
AcDbEntity
  8
0
100
AcDbCircle
 62
7
  6
CONTINUOUS
 10
6.5976014214
 20
5.0237750755
 40
0.0014
100
AcDbArc
 50
264.2788379893
 51
341.3591723378
  0
ARC
  5
276
100
AcDbEntity
  8
0
100
AcDbCircle
 62
7
  6
CONTINUOUS
 10
6.6168707503
 20
5.0237750755
 40
0.0014
100
AcDbArc
 50
198.6408276687
 51
275.724067847
  0
ARC
  5
277
100
AcDbEntity
  8
0
100
AcDbCircle
 62
7
  6
CONTINUOUS
 10
6.6272225595
 20
5.0253836124
 40
0.0014
100
AcDbArc
 50
281.9407056562
 51
343.1507561468
  0
ARC
  5
278
100
AcDbEntity
  8
0
100
AcDbCircle
 62
7
  6
CONTINUOUS
 10
6.646289868
 20
5.0315397857
 40
0.0014000004
100
AcDbArc
 50
199.6291924015
 51
293.8462133995
  0
ARC
  5
279
100
AcDbEntity
  8
0
100
AcDbCircle
 62
7
  6
CONTINUOUS
 10
6.6570376609
 20
5.0371204436
 40
0.0014
100
AcDbArc
 50
301.0338407132
 51
345.3525838163
  0
ARC
  5
27A
100
AcDbEntity
  8
0
100
AcDbCircle
 62
7
  6
CONTINUOUS
 10
6.6938787608
 20
5.0621434049
 40
0.00525
100
AcDbArc
 50
326.3153273875
 51
90.0
  0
ARC
  5
27B
100
AcDbEntity
  8
0
100
AcDbCircle
 62
7
  6
CONTINUOUS
 10
6.6072360859
 20
5.1198934049
 40
0.109375
100
AcDbArc
 50
33.6846726124
 51
326.3153273875
  0
ARC
  5
27C
100
AcDbEntity
  8
0
100
AcDbCircle
 62
7
  6
CONTINUOUS
 10
6.6072360859
 20
5.1198934049
 40
0.104125
100
AcDbArc
 50
33.684672613
 51
326.3153273869
  0
ARC
  5
27D
100
AcDbEntity
  8
0
100
AcDbCircle
 62
7
  6
CONTINUOUS
 10
6.6072291883
 20
5.1307872684
 40
0.0984817397
100
AcDbArc
 50
273.0496759783
 51
284.3987955468
  0
ARC
  5
27E
100
AcDbEntity
  8
0
100
AcDbCircle
 62
7
  6
CONTINUOUS
 10
6.6072429835
 20
5.1307872684
 40
0.0984817397
100
AcDbArc
 50
255.6012044512
 51
266.9503240197
  0
ARC
  5
27F
100
AcDbEntity
  8
0
100
AcDbCircle
 62
7
  6
CONTINUOUS
 10
6.6072367139
 20
5.1307422253
 40
0.0984361578
100
AcDbArc
 50
290.8273993918
 51
303.443346632
  0
ARC
  5
280
100
AcDbEntity
  8
0
100
AcDbCircle
 62
7
  6
CONTINUOUS
 10
6.6072354762
 20
5.1307422154
 40
0.0984361578
100
AcDbArc
 50
236.5566412456
 51
249.1725885509
  0
ARC
  5
281
100
AcDbEntity
  8
0
100
AcDbCircle
 62
7
  6
CONTINUOUS
 10
6.6072360859
 20
5.1198934049
 40
0.098
100
AcDbArc
 50
293.8462325994
 51
301.0338407167
  0
ARC
  5
282
100
AcDbEntity
  8
0
100
AcDbCircle
 62
7
  6
CONTINUOUS
 10
6.6072360859
 20
5.1198934049
 40
0.098
100
AcDbArc
 50
275.724067847
 51
281.9407056562
  0
ARC
  5
283
100
AcDbEntity
  8
0
100
AcDbCircle
 62
7
  6
CONTINUOUS
 10
6.6072360859
 20
5.1198934049
 40
0.098
100
AcDbArc
 50
258.0592943438
 51
264.2759321531
  0
ARC
  5
284
100
AcDbEntity
  8
0
100
AcDbCircle
 62
7
  6
CONTINUOUS
 10
6.6072360859
 20
5.1198934049
 40
0.098
100
AcDbArc
 50
238.9661592833
 51
246.1537674006
  0
CIRCLE
  5
285
100
AcDbEntity
  8
0
100
AcDbCircle
 62
7
  6
CONTINUOUS
 10
6.6072360859
 20
5.1198934049
 40
0.0875
  0
ARC
  5
286
100
AcDbEntity
  8
0
100
AcDbCircle
 62
7
  6
CONTINUOUS
 10
6.4957293596
 20
5.1907684049
 40
0.02275
100
AcDbArc
 50
327.0115599047
 51
327.5594755753
  0
ARC
  5
287
100
AcDbEntity
  8
0
100
AcDbCircle
 62
7
  6
CONTINUOUS
 10
6.4957293596
 20
5.1907684049
 40
0.02275
100
AcDbArc
 50
269.9999999999
 51
326.982690476
  0
ARC
  5
288
100
AcDbEntity
  8
0
100
AcDbCircle
 62
7
  6
CONTINUOUS
 10
6.7384318595
 20
5.1198934049
 40
0.049
100
AcDbArc
 50
270.0
 51
90.0
  0
ARC
  5
289
100
AcDbEntity
  8
0
100
AcDbCircle
 62
7
  6
CONTINUOUS
 10
6.7365293011
 20
5.1201926633
 40
0.0487007415
100
AcDbArc
 50
87.8722807148
 51
89.9999012175
  0
ARC
  5
28A
100
AcDbEntity
  8
0
100
AcDbCircle
 62
7
  6
CONTINUOUS
 10
6.6938787608
 20
5.1776434049
 40
0.00525
100
AcDbArc
 50
270.0
 51
33.6846726124
  0
SPLINE
  5
28B
100
AcDbEntity
  8
0
100
AcDbSpline
 62
7
  6
CONTINUOUS
 70
0
 71
3
 72
77
 73
73
 74
0
 42
0.0000001
 43
0.0000001
 44
0.0000000001
 40
0.0
 40
0.0
 40
0.0
 40
0.0
 40
0.0000092165
 40
0.0000368886
 40
0.0000831059
 40
0.0001479582
 40
0.0002315351
 40
0.0003339262
 40
0.00059551
 40
0.0009334252
 40
0.001348208
 40
0.001840057
 40
0.0024091335
 40
0.0037795842
 40
0.0054587796
 40
0.0074426245
 40
0.0097268044
 40
0.0123073504
 40
0.015180505
 40
0.0183441473
 40
0.021797332
 40
0.0295687647
 40
0.0384868624
 40
0.0485366176
 40
0.0596831211
 40
0.0718856969
 40
0.0851070082
 40
0.0993120763
 40
0.1144677013
 40
0.147499638
 40
0.1839171115
 40
0.2233470074
 40
0.2654033239
 40
0.309695218
 40
0.3558113711
 40
0.4032925845
 40
0.5005656037
 40
0.5978850675
 40
0.6453965414
 40
0.691524212
 40
0.7358104643
 40
0.7778490958
 40
0.8172527095
 40
0.8536285589
 40
0.8865806453
 40
0.9016678817
 40
0.9157838111
 40
0.9288988281
 40
0.9409863734
 40
0.9520187879
 40
0.9619620187
 40
0.9707842162
 40
0.97846949
 40
0.9818834096
 40
0.9850104312
 40
0.9878496504
 40
0.9903989754
 40
0.9926549955
 40
0.994614031
 40
0.9962717668
 40
0.9976241452
 40
0.9981855567
 40
0.9986706938
 40
0.9990797446
 40
0.9994129396
 40
0.9996708425
 40
0.9997717843
 40
0.9998541732
 40
0.999918099
 40
0.9999636521
 40
0.9999909224
 40
1.0
 40
1.0
 40
1.0
 40
1.0
 10
6.6285624585
 20
5.0249778162
 30
0.0
 10
6.6285624362
 20
5.0249777826
 30
0.0
 10
6.6285622352
 20
5.0249778176
 30
0.0
 10
6.6285619182
 20
5.0249776908
 30
0.0
 10
6.6285612974
 20
5.0249776181
 30
0.0
 10
6.6285604696
 20
5.024977451
 30
0.0
 10
6.6285593854
 20
5.0249772624
 30
0.0
 10
6.6285574599
 20
5.0249769125
 30
0.0
 10
6.6285544356
 20
5.0249763716
 30
0.0
 10
6.6285500673
 20
5.0249755884
 30
0.0
 10
6.628544706
 20
5.0249746312
 30
0.0
 10
6.6285383486
 20
5.0249734986
 30
0.0
 10
6.6285278734
 20
5.0249716367
 30
0.0
 10
6.628512281
 20
5.0249688756
 30
0.0
 10
6.6284905905
 20
5.0249650462
 30
0.0
 10
6.6284649629
 20
5.0249605201
 30
0.0
 10
6.6284354528
 20
5.024955299
 30
0.0
 10
6.6284021108
 20
5.0249493992
 30
0.0
 10
6.6283649782
 20
5.0249428353
 30
0.0
 10
6.6283240835
 20
5.0249356168
 30
0.0
 10
6.6282620783
 20
5.0249246874
 30
0.0
 10
6.6281752659
 20
5.0249094365
 30
0.0
 10
6.6280599899
 20
5.0248893817
 30
0.0
 10
6.6279301427
 20
5.0248669157
 30
0.0
 10
6.6277861191
 20
5.0248420831
 30
0.0
 10
6.6276283947
 20
5.0248150335
 30
0.0
 10
6.62745744
 20
5.0247859496
 30
0.0
 10
6.6272736972
 20
5.0247549877
 30
0.0
 10
6.6270043897
 20
5.0247101055
 30
0.0
 10
6.6266389948
 20
5.0246505205
 30
0.0
 10
6.6261685093
 20
5.0245754187
 30
0.0
 10
6.6256587458
 20
5.0244958791
 30
0.0
 10
6.6251146298
 20
5.0244130133
 30
0.0
 10
6.6245411474
 20
5.0243286918
 30
0.0
 10
6.6239438209
 20
5.0242433906
 30
0.0
 10
6.6231164775
 20
5.0241289178
 30
0.0
 10
6.6220661535
 20
5.0239912976
 30
0.0
 10
6.6210143393
 20
5.0238644892
 30
0.0
 10
6.620184129
 20
5.0237696423
 30
0.0
 10
6.6195841926
 20
5.0237037425
 30
0.0
 10
6.619007793
 20
5.0236429539
 30
0.0
 10
6.6184604279
 20
5.0235874498
 30
0.0
 10
6.6179473263
 20
5.0235371919
 30
0.0
 10
6.6174736275
 20
5.0234925694
 30
0.0
 10
6.6171057292
 20
5.0234594068
 30
0.0
 10
6.6168348081
 20
5.0234353961
 30
0.0
 10
6.616650332
 20
5.0234192811
 30
0.0
 10
6.6164789161
 20
5.023404495
 30
0.0
 10
6.6163209306
 20
5.0233910162
 30
0.0
 10
6.6161767604
 20
5.0233788813
 30
0.0
 10
6.6160468129
 20
5.0233681313
 30
0.0
 10
6.6159314507
 20
5.0233587289
 30
0.0
 10
6.6158445642
 20
5.0233516635
 30
0.0
 10
6.6157825153
 20
5.0233466398
 30
0.0
 10
6.6157416022
 20
5.0233433347
 30
0.0
 10
6.6157044601
 20
5.0233403357
 30
0.0
 10
6.615671117
 20
5.0233376449
 30
0.0
 10
6.6156416121
 20
5.0233352731
 30
0.0
 10
6.6156159949
 20
5.0233332302
 30
0.0
 10
6.6155943184
 20
5.023331514
 30
0.0
 10
6.6155787381
 20
5.0233302876
 30
0.0
 10
6.6155682729
 20
5.0233294667
 30
0.0
 10
6.6155619228
 20
5.0233289699
 30
0.0
 10
6.6155565682
 20
5.0233285513
 30
0.0
 10
6.6155522052
 20
5.0233282116
 30
0.0
 10
6.6155491855
 20
5.0233279742
 30
0.0
 10
6.6155472614
 20
5.0233278273
 30
0.0
 10
6.6155461808
 20
5.0233277369
 30
0.0
 10
6.6155453488
 20
5.0233276882
 30
0.0
 10
6.6155447408
 20
5.0233276047
 30
0.0
 10
6.6155444033
 20
5.023327642
 30
0.0
 10
6.6155442243
 20
5.0233275625
 30
0.0
 10
6.6155441931
 20
5.0233275871
 30
0.0
  0
SPLINE
  5
28C
100
AcDbEntity
  8
0
100
AcDbSpline
 62
7
  6
CONTINUOUS
 70
0
 71
3
 72
27
 73
23
 74
0
 42
0.0000001
 43
0.0000001
 44
0.0000000001
 40
0.0
 40
0.0
 40
0.0
 40
0.0
 40
0.0676195984
 40
0.1013671418
 40
0.1350357534
 40
0.1686012765
 40
0.2020412785
 40
0.2353352844
 40
0.2684649549
 40
0.3341616993
 40
0.3667116496
 40
0.3990472963
 40
0.4630427979
 40
0.526122105
 40
0.5882786186
 40
0.6495263755
 40
0.7098930265
 40
0.7694155655
 40
0.8281391422
 40
0.8861119906
 40
0.9433822731
 40
1.0
 40
1.0
 40
1.0
 40
1.0
 10
5.3697235859
 20
5.1198934049
 30
0.0
 10
5.3697235057
 20
5.1178329274
 30
0.0
 10
5.3696210785
 20
5.1147428755
 30
0.0
 10
5.3692844569
 20
5.1106414417
 30
0.0
 10
5.3689336418
 20
5.1075838426
 30
0.0
 10
5.3684854919
 20
5.1045485187
 30
0.0
 10
5.3679412395
 20
5.1015405475
 30
0.0
 10
5.3673038582
 20
5.0985644877
 30
0.0
 10
5.366337034
 20
5.0946558693
 30
0.0
 10
5.3651951791
 20
5.0908157568
 30
0.0
 10
5.3638869535
 20
5.0870574049
 30
0.0
 10
5.3624844723
 20
5.0833885943
 30
0.0
 10
5.3605498463
 20
5.0789297306
 30
0.0
 10
5.3579546574
 20
5.0737772418
 30
0.0
 10
5.3551193542
 20
5.0688493857
 30
0.0
 10
5.352068311
 20
5.0641506634
 30
0.0
 10
5.3488250363
 20
5.0596815824
 30
0.0
 10
5.3454111018
 20
5.0554400053
 30
0.0
 10
5.3418444635
 20
5.0514232581
 30
0.0
 10
5.3381417194
 20
5.0476271065
 30
0.0
 10
5.3343183642
 20
5.044046032
 30
0.0
 10
5.3316829327
 20
5.0417862396
 30
0.0
 10
5.3303495203
 20
5.0406915068
 30
0.0
  0
SPLINE
  5
28D
100
AcDbEntity
  8
0
100
AcDbSpline
 62
7
  6
CONTINUOUS
 70
0
 71
3
 72
31
 73
27
 74
0
 42
0.0000001
 43
0.0000001
 44
0.0000000001
 40
0.0
 40
0.0
 40
0.0
 40
0.0
 40
0.0312049962
 40
0.0624107961
 40
0.0936178349
 40
0.1248265363
 40
0.1872325632
 40
0.2496498823
 40
0.2808725895
 40
0.312099056
 40
0.3433295266
 40
0.3745642099
 40
0.4370289251
 40
0.4995120134
 40
0.5620136716
 40
0.6245334177
 40
0.6558086761
 40
0.687087975
 40
0.7183710755
 40
0.7496577038
 40
0.8122224496
 40
0.8747972817
 40
0.9060964215
 40
0.937396876
 40
0.9686981795
 40
1.0
 40
1.0
 40
1.0
 40
1.0
 10
6.7384240643
 20
5.1688565316
 30
0.0
 10
6.7392029383
 20
5.1688262044
 30
0.0
 10
6.740759511
 20
5.1687281215
 30
0.0
 10
6.7430844348
 20
5.1684691016
 30
0.0
 10
6.7453944407
 20
5.1680987466
 30
0.0
 10
6.7484467693
 20
5.1674578021
 30
0.0
 10
6.7521997178
 20
5.1663827718
 30
0.0
 10
6.7558326088
 20
5.1649527133
 30
0.0
 10
6.758646139
 20
5.1636041686
 30
0.0
 10
6.7607061898
 20
5.1624923419
 30
0.0
 10
6.7627108292
 20
5.161282876
 30
0.0
 10
6.7653033053
 20
5.1595440961
 30
0.0
 10
6.7683839786
 20
5.1571399207
 30
0.0
 10
6.7717877983
 20
5.1539144634
 30
0.0
 10
6.7748686759
 20
5.1503774303
 30
0.0
 10
6.777143647
 20
5.1471966668
 30
0.0
 10
6.778774913
 20
5.1445310027
 30
0.0
 10
6.7799019396
 20
5.1424747262
 30
0.0
 10
6.7809295538
 20
5.140366699
 30
0.0
 10
6.7821638719
 20
5.1374939364
 30
0.0
 10
6.7834475112
 20
5.1337967573
 30
0.0
 10
6.784372669
 20
5.1299936809
 30
0.0
 10
6.7848927027
 20
5.126909519
 30
0.0
 10
6.7851720219
 20
5.1245797271
 30
0.0
 10
6.78533986
 20
5.1222392996
 30
0.0
 10
6.7853771872
 20
5.1206752877
 30
0.0
 10
6.7853771872
 20
5.1198934049
 30
0.0
  0
SPLINE
  5
28E
100
AcDbEntity
  8
0
100
AcDbSpline
 62
7
  6
CONTINUOUS
 70
0
 71
3
 72
25
 73
21
 74
0
 42
0.0000001
 43
0.0000001
 44
0.0000000001
 40
0.0
 40
0.0
 40
0.0
 40
0.0
 40
0.0702339089
 40
0.1388792752
 40
0.172646902
 40
0.2060619048
 40
0.2718906525
 40
0.3365091182
 40
0.4000478189
 40
0.4626316127
 40
0.5243780969
 40
0.5853968985
 40
0.6457904759
 40
0.7056540681
 40
0.7650768641
 40
0.8241432536
 40
0.8829340809
 40
0.9415264436
 40
0.9707741811
 40
1.0
 40
1.0
 40
1.0
 40
1.0
 10
5.7544220426
 20
5.0652047001
 30
0.0
 10
5.7558941132
 20
5.0628784409
 30
0.0
 10
5.7589829932
 20
5.0583886834
 30
0.0
 10
5.7632275958
 20
5.053110382
 30
0.0
 10
5.7667834469
 20
5.0491466997
 30
0.0
 10
5.770399494
 20
5.0453897448
 30
0.0
 10
5.7750887662
 20
5.0409930225
 30
0.0
 10
5.780971532
 20
5.0361674894
 30
0.0
 10
5.7870468658
 20
5.0318017396
 30
0.0
 10
5.793284705
 20
5.0278798706
 30
0.0
 10
5.7996596343
 20
5.0243867568
 30
0.0
 10
5.8061497642
 20
5.0213085607
 30
0.0
 10
5.8127361774
 20
5.0186330449
 30
0.0
 10
5.8194022536
 20
5.0163494858
 30
0.0
 10
5.8261332252
 20
5.0144487671
 30
0.0
 10
5.8329158547
 20
5.0129233086
 30
0.0
 10
5.8397378819
 20
5.0117670508
 30
0.0
 10
5.8454501584
 20
5.0111070264
 30
0.0
 10
5.8500259733
 20
5.0107601302
 30
0.0
 10
5.852315445
 20
5.010646957
 30
0.0
 10
5.8534602286
 20
5.0106053017
 30
0.0
  0
SPLINE
  5
28F
100
AcDbEntity
  8
0
100
AcDbSpline
 62
7
  6
CONTINUOUS
 70
0
 71
3
 72
31
 73
27
 74
0
 42
0.0000001
 43
0.0000001
 44
0.0000000001
 40
0.0
 40
0.0
 40
0.0
 40
0.0
 40
0.0313032784
 40
0.0626060236
 40
0.0939078701
 40
0.1252083361
 40
0.1877846256
 40
0.2503503424
 40
0.281637699
 40
0.3129213712
 40
0.34420108
 40
0.3754765843
 40
0.4379954183
 40
0.5004955694
 40
0.5629766658
 40
0.6254390679
 40
0.6566730008
 40
0.6879027231
 40
0.7191284752
 40
0.7503505357
 40
0.8127659774
 40
0.8751708192
 40
0.9063797378
 40
0.9375872694
 40
0.9687938689
 40
1.0
 40
1.0
 40
1.0
 40
1.0
 10
6.7853771872
 20
5.1198934049
 30
0.0
 10
6.7853771872
 20
5.1190917254
 30
0.0
 10
6.7853379451
 20
5.1174881005
 30
0.0
 10
6.785161504
 20
5.1150886892
 30
0.0
 10
6.7848678897
 20
5.1127007412
 30
0.0
 10
6.7843213148
 20
5.1095407651
 30
0.0
 10
6.7833491269
 20
5.1056469653
 30
0.0
 10
6.7820008592
 20
5.1018672418
 30
0.0
 10
6.7807050809
 20
5.0989349487
 30
0.0
 10
6.7796266798
 20
5.0967858204
 30
0.0
 10
6.7784444316
 20
5.0946923643
 30
0.0
 10
6.7767340287
 20
5.0919828466
 30
0.0
 10
6.7743503422
 20
5.0887585951
 30
0.0
 10
6.7711260317
 20
5.0851900042
 30
0.0
 10
6.7675686024
 20
5.0819555226
 30
0.0
 10
6.7643539175
 20
5.0795639321
 30
0.0
 10
6.7616524262
 20
5.077847928
 30
0.0
 10
6.7595654647
 20
5.0766619731
 30
0.0
 10
6.7574229982
 20
5.0755801898
 30
0.0
 10
6.754500102
 20
5.0742804817
 30
0.0
 10
6.7507323571
 20
5.0729280161
 30
0.0
 10
6.7468502082
 20
5.071952631
 30
0.0
 10
6.7436998134
 20
5.0714043044
 30
0.0
 10
6.741319247
 20
5.0711097668
 30
0.0
 10
6.7389272539
 20
5.0709327705
 30
0.0
 10
6.7373285767
 20
5.070893405
 30
0.0
 10
6.7365293851
 20
5.070893405
 30
0.0
  0
SPLINE
  5
290
100
AcDbEntity
  8
0
100
AcDbSpline
 62
7
  6
CONTINUOUS
 70
0
 71
3
 72
25
 73
21
 74
0
 42
0.0000001
 43
0.0000001
 44
0.0000000001
 40
0.0
 40
0.0
 40
0.0
 40
0.0
 40
0.0291805019
 40
0.0583921432
 40
0.1169375615
 40
0.1757110359
 40
0.2347852266
 40
0.2942362452
 40
0.3541441997
 40
0.4145939361
 40
0.4756763117
 40
0.5374878514
 40
0.600132627
 40
0.6637208105
 40
0.6959091038
 40
0.7283776279
 40
0.7942086702
 40
0.861345299
 40
0.9299070641
 40
1.0
 40
1.0
 40
1.0
 40
1.0
 10
5.8494835801
 20
5.2289764122
 30
0.0
 10
5.8483809852
 20
5.2289027995
 30
0.0
 10
5.8461763622
 20
5.2287276195
 30
0.0
 10
5.8417718694
 20
5.2282649642
 30
0.0
 10
5.8362766679
 20
5.2274752554
 30
0.0
 10
5.8297191185
 20
5.2261876035
 30
0.0
 10
5.8232034036
 20
5.2245545469
 30
0.0
 10
5.816740944
 20
5.2225700614
 30
0.0
 10
5.8103440911
 20
5.2202268201
 30
0.0
 10
5.8040266462
 20
5.217516065
 30
0.0
 10
5.7978041002
 20
5.2144278315
 30
0.0
 10
5.7916941721
 20
5.2109505294
 30
0.0
 10
5.7857172712
 20
5.2070717637
 30
0.0
 10
5.7808865068
 20
5.20350746
 30
0.0
 10
5.7771155265
 20
5.2004459774
 30
0.0
 10
5.7733786759
 20
5.1972115688
 30
0.0
 10
5.7688417233
 20
5.1928841977
 30
0.0
 10
5.7636779343
 20
5.1872567022
 30
0.0
 10
5.7588145647
 20
5.1811593647
 30
0.0
 10
5.7558411907
 20
5.1768247622
 30
0.0
 10
5.754421826
 20
5.1745817418
 30
0.0
  0
SPLINE
  5
291
100
AcDbEntity
  8
0
100
AcDbSpline
 62
7
  6
CONTINUOUS
 70
0
 71
3
 72
38
 73
34
 74
0
 42
0.0000001
 43
0.0000001
 44
0.0000000001
 40
0.0
 40
0.0
 40
0.0
 40
0.0
 40
0.0279913123
 40
0.0560010959
 40
0.1121276754
 40
0.1685104414
 40
0.22527865
 40
0.2825725175
 40
0.3405471164
 40
0.3698490958
 40
0.3993888428
 40
0.4592696072
 40
0.4896806307
 40
0.5204403258
 40
0.5515804138
 40
0.5831329643
 40
0.6151311902
 40
0.647606527
 40
0.6805887284
 40
0.7141027042
 40
0.7481655818
 40
0.7827833478
 40
0.8179458036
 40
0.8357251474
 40
0.853627424
 40
0.8716449102
 40
0.889768205
 40
0.9079861689
 40
0.9262860252
 40
0.9446534671
 40
0.9630728774
 40
0.981527488
 40
1.0
 40
1.0
 40
1.0
 40
1.0
 10
5.244247514
 20
5.229261734
 30
0.0
 10
5.2459677731
 20
5.22924537
 30
0.0
 10
5.2494092039
 20
5.2291523527
 30
0.0
 10
5.2562883126
 20
5.2287242212
 30
0.0
 10
5.264875359
 20
5.2277322294
 30
0.0
 10
5.2751076385
 20
5.2258035374
 30
0.0
 10
5.2852430842
 20
5.2231185733
 30
0.0
 10
5.2952428981
 20
5.2196534817
 30
0.0
 10
5.3033982593
 20
5.2161015949
 30
0.0
 10
5.3097979257
 20
5.2128434965
 30
0.0
 10
5.3161600994
 20
5.2092676012
 30
0.0
 10
5.322346832
 20
5.2052516067
 30
0.0
 10
5.3283047877
 20
5.2007925878
 30
0.0
 10
5.3326870062
 20
5.1971858729
 30
0.0
 10
5.3369445449
 20
5.1933274722
 30
0.0
 10
5.3410602914
 20
5.1892094951
 30
0.0
 10
5.3450156712
 20
5.1848257905
 30
0.0
 10
5.3487881236
 20
5.1801697242
 30
0.0
 10
5.3523531852
 20
5.1752372691
 30
0.0
 10
5.3556830207
 20
5.170026511
 30
0.0
 10
5.3587459238
 20
5.1645386739
 30
0.0
 10
5.3615087208
 20
5.1587809633
 30
0.0
 10
5.3635227699
 20
5.153786185
 30
0.0
 10
5.3649500132
 20
5.1496719964
 30
0.0
 10
5.3659265567
 20
5.1465187599
 30
0.0
 10
5.366800444
 20
5.143313646
 30
0.0
 10
5.367567872
 20
5.1400614234
 30
0.0
 10
5.3682247725
 20
5.1367673674
 30
0.0
 10
5.3687672337
 20
5.1334373241
 30
0.0
 10
5.3691927337
 20
5.1300778367
 30
0.0
 10
5.3694983848
 20
5.126695755
 30
0.0
 10
5.3696824448
 20
5.1232984593
 30
0.0
 10
5.3697235763
 20
5.1210287195
 30
0.0
 10
5.3697235859
 20
5.1198934049
 30
0.0
  0
SPLINE
  5
292
100
AcDbEntity
  8
0
100
AcDbSpline
 62
7
  6
CONTINUOUS
 70
0
 71
3
 72
68
 73
64
 74
0
 42
0.0000001
 43
0.0000001
 44
0.0000000001
 40
0.0
 40
0.0
 40
0.0
 40
0.0
 40
0.0000108218
 40
0.0000429305
 40
0.0000963041
 40
0.0001709203
 40
0.0003837916
 40
0.0006813662
 40
0.001063469
 40
0.0015299419
 40
0.0020806328
 40
0.0027153898
 40
0.004236451
 40
0.0060916157
 40
0.0082790227
 40
0.0107948794
 40
0.0136346059
 40
0.0167944188
 40
0.0240601581
 40
0.0325575055
 40
0.042240753
 40
0.0530647564
 40
0.0649839304
 40
0.0779462372
 40
0.091898674
 40
0.1067908268
 40
0.1225699802
 40
0.1565784409
 40
0.1935174868
 40
0.2329943667
 40
0.2746214867
 40
0.3180316727
 40
0.3628756694
 40
0.4088086514
 40
0.4554844472
 40
0.5025552485
 40
0.549667982
 40
0.5964607234
 40
0.6425582352
 40
0.6875684047
 40
0.7310982483
 40
0.7727482416
 40
0.8120951106
 40
0.8487110945
 40
0.8821906242
 40
0.9121482821
 40
0.9382092316
 40
0.9496702389
 40
0.9600324284
 40
0.9692631395
 40
0.9773308178
 40
0.9842058848
 40
0.9898646383
 40
0.9922315765
 40
0.9942867425
 40
0.996028327
 40
0.9974553469
 40
0.9985669014
 40
0.9993621623
 40
0.9996409114
 40
0.9998402282
 40
0.9999599715
 40
1.0
 40
1.0
 40
1.0
 40
1.0
 10
6.6583921613
 20
5.0367664255
 30
0.0
 10
6.6583921299
 20
5.0367663832
 30
0.0
 10
6.6583919085
 20
5.0367663286
 30
0.0
 10
6.6583915276
 20
5.0367660722
 30
0.0
 10
6.6583908167
 20
5.0367657362
 30
0.0
 10
6.6583893567
 20
5.036764959
 30
0.0
 10
6.658386821
 20
5.0367636595
 30
0.0
 10
6.6583829704
 20
5.0367616566
 30
0.0
 10
6.6583780188
 20
5.0367590925
 30
0.0
 10
6.6583719763
 20
5.0367559591
 30
0.0
 10
6.6583648418
 20
5.0367522611
 30
0.0
 10
6.6583531526
 20
5.0367462026
 30
0.0
 10
6.6583358285
 20
5.0367372259
 30
0.0
 10
6.6583117959
 20
5.0367247788
 30
0.0
 10
6.6582834633
 20
5.0367101117
 30
0.0
 10
6.6582508695
 20
5.036693258
 30
0.0
 10
6.6582140604
 20
5.0366742577
 30
0.0
 10
6.6581566994
 20
5.0366446973
 30
0.0
 10
6.6580748332
 20
5.0366026089
 30
0.0
 10
6.6579647046
 20
5.036546089
 30
0.0
 10
6.6578390791
 20
5.0364818551
 30
0.0
 10
6.6576984975
 20
5.0364103087
 30
0.0
 10
6.6575435744
 20
5.0363317743
 30
0.0
 10
6.6573749132
 20
5.0362466831
 30
0.0
 10
6.6571931168
 20
5.0361555213
 30
0.0
 10
6.6569988499
 20
5.0360586604
 30
0.0
 10
6.65671696
 20
5.0359188895
 30
0.0
 10
6.6563382427
 20
5.0357329748
 30
0.0
 10
6.6558546676
 20
5.0354990811
 30
0.0
 10
6.6553362826
 20
5.035252061
 30
0.0
 10
6.6547878448
 20
5.0349949568
 30
0.0
 10
6.6542139892
 20
5.0347305941
 30
0.0
 10
6.6536191864
 20
5.034461679
 30
0.0
 10
6.6530079861
 20
5.0341905121
 30
0.0
 10
6.6523849734
 20
5.0339192988
 30
0.0
 10
6.651754739
 20
5.0336503409
 30
0.0
 10
6.6511220825
 20
5.0333856545
 30
0.0
 10
6.6504919899
 20
5.0331271488
 30
0.0
 10
6.6498695165
 20
5.0328770653
 30
0.0
 10
6.6492601641
 20
5.0326369446
 30
0.0
 10
6.6486696689
 20
5.0324080094
 30
0.0
 10
6.6481034527
 20
5.0321926954
 30
0.0
 10
6.6475673615
 20
5.0319928238
 30
0.0
 10
6.647067611
 20
5.0318092751
 30
0.0
 10
6.646609937
 20
5.0316436614
 30
0.0
 10
6.6461999277
 20
5.0314972377
 30
0.0
 10
6.6458903926
 20
5.031387956
 30
0.0
 10
6.6456705218
 20
5.0313110416
 30
0.0
 10
6.6455278684
 20
5.0312613397
 30
0.0
 10
6.6454007485
 20
5.0312172256
 30
0.0
 10
6.645289606
 20
5.031178813
 30
0.0
 10
6.6451948564
 20
5.0311461626
 30
0.0
 10
6.645126307
 20
5.031122601
 30
0.0
 10
6.6450799195
 20
5.0311066942
 30
0.0
 10
6.6450515546
 20
5.0310969756
 30
0.0
 10
6.6450275145
 20
5.031088741
 30
0.0
 10
6.6450078149
 20
5.0310819993
 30
0.0
 10
6.6449924738
 20
5.0310767409
 30
0.0
 10
6.644982409
 20
5.0310733124
 30
0.0
 10
6.6449765551
 20
5.0310712911
 30
0.0
 10
6.6449737912
 20
5.03107038
 30
0.0
 10
6.6449721594
 20
5.031069764
 30
0.0
 10
6.6449714018
 20
5.0310695663
 30
0.0
 10
6.6449712266
 20
5.0310694813
 30
0.0
  0
SPLINE
  5
293
100
AcDbEntity
  8
0
100
AcDbSpline
 62
7
  6
CONTINUOUS
 70
0
 71
3
 72
38
 73
34
 74
0
 42
0.0000001
 43
0.0000001
 44
0.0000000001
 40
0.0
 40
0.0
 40
0.0
 40
0.0
 40
0.0369207671
 40
0.0553400118
 40
0.0737072756
 40
0.0920069437
 40
0.1102247391
 40
0.1283478813
 40
0.1463652152
 40
0.164267298
 40
0.1820464357
 40
0.2172086643
 40
0.2518261227
 40
0.2858886043
 40
0.3194023282
 40
0.3523843781
 40
0.3848594736
 40
0.4168574176
 40
0.4484097672
 40
0.4795496271
 40
0.510309012
 40
0.5407198772
 40
0.570812056
 40
0.6006143186
 40
0.6301538374
 40
0.6594556328
 40
0.7174297468
 40
0.7747231404
 40
0.8314908635
 40
0.8878731708
 40
0.9439992635
 40
0.9720087647
 40
1.0
 40
1.0
 40
1.0
 40
1.0
 10
5.1159735891
 20
5.1198934049
 30
0.0
 10
5.115973692
 20
5.1221625315
 30
0.0
 10
5.1160979136
 20
5.1255653346
 30
0.0
 10
5.1165056478
 20
5.1300775743
 30
0.0
 10
5.1169301439
 20
5.1334372063
 30
0.0
 10
5.1174722209
 20
5.1367672535
 30
0.0
 10
5.1181293874
 20
5.1400612155
 30
0.0
 10
5.118897123
 20
5.1433133159
 30
0.0
 10
5.1197711404
 20
5.1465183393
 30
0.0
 10
5.1207471859
 20
5.1496716707
 30
0.0
 10
5.1221738918
 20
5.1537859927
 30
0.0
 10
5.1241886953
 20
5.1587803962
 30
0.0
 10
5.1269511038
 20
5.1645381636
 30
0.0
 10
5.1300136746
 20
5.1700260949
 30
0.0
 10
5.1333435084
 20
5.1752367631
 30
0.0
 10
5.1369086398
 20
5.1801690779
 30
0.0
 10
5.1406809887
 20
5.1848251299
 30
0.0
 10
5.1446362433
 20
5.1892088512
 30
0.0
 10
5.1487519294
 20
5.1933267737
 30
0.0
 10
5.1530094098
 20
5.19718517
 30
0.0
 10
5.1573913903
 20
5.2007918815
 30
0.0
 10
5.1618835274
 20
5.2041537908
 30
0.0
 10
5.166472653
 20
5.20727846
 30
0.0
 10
5.1711474778
 20
5.2101726624
 30
0.0
 10
5.1758980849
 20
5.2128428908
 30
0.0
 10
5.182297522
 20
5.2161009132
 30
0.0
 10
5.1904527851
 20
5.2196529074
 30
0.0
 10
5.2004524044
 20
5.2231180567
 30
0.0
 10
5.2105876825
 20
5.2258031211
 30
0.0
 10
5.2208197959
 20
5.2277319214
 30
0.0
 10
5.2294067088
 20
5.2287240181
 30
0.0
 10
5.2362857231
 20
5.2291522581
 30
0.0
 10
5.2397271129
 20
5.2292453129
 30
0.0
 10
5.2414473581
 20
5.2292617067
 30
0.0
  0
SPLINE
  5
294
100
AcDbEntity
  8
0
100
AcDbSpline
 62
7
  6
CONTINUOUS
 70
0
 71
3
 72
106
 73
102
 74
0
 42
0.0000001
 43
0.0000001
 44
0.0000000001
 40
0.0
 40
0.0
 40
0.0
 40
0.0
 40
0.0000032003
 40
0.0000127328
 40
0.0000285931
 40
0.0000507768
 40
0.0000792794
 40
0.0001140965
 40
0.0002026565
 40
0.0003164211
 40
0.000455351
 40
0.0006193887
 40
0.0008084718
 40
0.0010225376
 40
0.0012615236
 40
0.0018139858
 40
0.0024652409
 40
0.0032146424
 40
0.0040615135
 40
0.0050051369
 40
0.0060447652
 40
0.0071794567
 40
0.0097298237
 40
0.0126464023
 40
0.0159182249
 40
0.0195343356
 40
0.0234836037
 40
0.0277549775
 40
0.0323372202
 40
0.037218201
 40
0.0478290803
 40
0.0594974934
 40
0.0721404318
 40
0.0856813945
 40
0.1000515644
 40
0.1151895735
 40
0.1310412175
 40
0.1475598276
 40
0.1647046694
 40
0.200729678
 40
0.2388779933
 40
0.2789483474
 40
0.2996473081
 40
0.3207536442
 40
0.3422390236
 40
0.3640717954
 40
0.386216007
 40
0.4086306706
 40
0.4312698402
 40
0.4540825557
 40
0.4999953702
 40
0.5229864584
 40
0.5459175257
 40
0.5687302431
 40
0.5913694049
 40
0.6137840885
 40
0.6359282846
 40
0.6577610368
 40
0.6792464545
 40
0.7003527757
 40
0.7210517133
 40
0.7611220792
 40
0.7992703993
 40
0.8352953191
 40
0.8524402051
 40
0.8689588992
 40
0.884810484
 40
0.8999483648
 40
0.9143185909
 40
0.9278596
 40
0.9405026284
 40
0.9521710608
 40
0.9627818472
 40
0.9676627941
 40
0.9722450313
 40
0.9765164081
 40
0.9804656504
 40
0.9840817112
 40
0.9873535055
 40
0.9902700973
 40
0.9928205536
 40
0.9939553104
 40
0.9949949907
 40
0.9959386385
 40
0.9967855121
 40
0.9975349021
 40
0.9981861369
 40
0.9987385726
 40
0.9989775439
 40
0.9991915947
 40
0.9993806628
 40
0.9995446862
 40
0.9996836028
 40
0.9997973557
 40
0.9998859063
 40
0.9999207201
 40
0.9999492203
 40
0.9999714027
 40
0.999987263
 40
0.9999967969
 40
1.0
 40
1.0
 40
1.0
 40
1.0
 10
6.4957293596
 20
5.0717684049
 30
0.0
 10
6.4957292566
 20
5.0717684547
 30
0.0
 10
6.4957290007
 20
5.0717688641
 30
0.0
 10
6.4957282424
 20
5.0717695301
 30
0.0
 10
6.495727105
 20
5.0717708093
 30
0.0
 10
6.4957254571
 20
5.0717725196
 30
0.0
 10
6.4957233639
 20
5.07177475
 30
0.0
 10
6.4957196353
 20
5.0717786966
 30
0.0
 10
6.4957138228
 20
5.07178487
 30
0.0
 10
6.4957054615
 20
5.0717937553
 30
0.0
 10
6.4956952594
 20
5.0718046143
 30
0.0
 10
6.4956832212
 20
5.071817443
 30
0.0
 10
6.495669354
 20
5.0718322394
 30
0.0
 10
6.4956536645
 20
5.0718490004
 30
0.0
 10
6.4956291119
 20
5.071875261
 30
0.0
 10
6.4955939187
 20
5.0719129717
 30
0.0
 10
6.4955463327
 20
5.0719640784
 30
0.0
 10
6.4954916408
 20
5.0720229513
 30
0.0
 10
6.4954299069
 20
5.0720895499
 30
0.0
 10
6.495361192
 20
5.0721638264
 30
0.0
 10
6.4952855637
 20
5.0722457258
 30
0.0
 10
6.4951710896
 20
5.0723699471
 30
0.0
 10
6.4950114298
 20
5.0725437848
 30
0.0
 10
6.4948007785
 20
5.0727745352
 30
0.0
 10
6.4945654283
 20
5.0730343286
 30
0.0
 10
6.4943064945
 20
5.0733225732
 30
0.0
 10
6.4940251168
 20
5.0736386901
 30
0.0
 10
6.4937224062
 20
5.073982056
 30
0.0
 10
6.4933994953
 20
5.0743520151
 30
0.0
 10
6.4929305588
 20
5.0748953586
 30
0.0
 10
6.4923029414
 20
5.075636395
 30
0.0
 10
6.4915090045
 20
5.0766001082
 30
0.0
 10
6.4906640708
 20
5.0776573648
 30
0.0
 10
6.4897774025
 20
5.0788046953
 30
0.0
 10
6.4888577914
 20
5.080039027
 30
0.0
 10
6.4879136874
 20
5.0813577937
 30
0.0
 10
6.4869533007
 20
5.0827589581
 30
0.0
 10
6.4859842113
 20
5.0842406798
 30
0.0
 10
6.4846683553
 20
5.0863566897
 30
0.0
 10
6.4830475857
 20
5.0891927249
 30
0.0
 10
6.4812136187
 20
5.0928447608
 30
0.0
 10
6.4798151238
 20
5.0960958831
 30
0.0
 10
6.4787883714
 20
5.0988377166
 30
0.0
 10
6.4780658208
 20
5.1009825964
 30
0.0
 10
6.4774067844
 20
5.1031902008
 30
0.0
 10
6.4768183889
 20
5.1054560711
 30
0.0
 10
6.4763065979
 20
5.1077745423
 30
0.0
 10
6.4758785237
 20
5.1101392565
 30
0.0
 10
6.4755394029
 20
5.1125425707
 30
0.0
 10
6.4752104757
 20
5.1157932165
 30
0.0
 10
6.475078157
 20
5.119074011
 30
0.0
 10
6.4751442632
 20
5.1223574291
 30
0.0
 10
6.4752934315
 20
5.1248111222
 30
0.0
 10
6.4755394059
 20
5.1272442725
 30
0.0
 10
6.4758783491
 20
5.1296475796
 30
0.0
 10
6.4763067969
 20
5.1320122361
 30
0.0
 10
6.4768183915
 20
5.1343307414
 30
0.0
 10
6.477406689
 20
5.1365966434
 30
0.0
 10
6.4780659189
 20
5.1388041894
 30
0.0
 10
6.4787883918
 20
5.1409490931
 30
0.0
 10
6.4798151056
 20
5.1436909417
 30
0.0
 10
6.4812136328
 20
5.1469420511
 30
0.0
 10
6.4830476188
 20
5.150594072
 30
0.0
 10
6.4846683232
 20
5.1534301433
 30
0.0
 10
6.4859842048
 20
5.1555461397
 30
0.0
 10
6.4869533317
 20
5.1570278395
 30
0.0
 10
6.4879136985
 20
5.1584290124
 30
0.0
 10
6.488857757
 20
5.1597478063
 30
0.0
 10
6.4897773975
 20
5.1609821153
 30
0.0
 10
6.4906640717
 20
5.1621294498
 30
0.0
 10
6.4915090279
 20
5.1631866956
 30
0.0
 10
6.4923029692
 20
5.1641504057
 30
0.0
 10
6.49293057
 20
5.1648914511
 30
0.0
 10
6.4933994975
 20
5.1654347961
 30
0.0
 10
6.4937224073
 20
5.1658047544
 30
0.0
 10
6.4940251185
 20
5.1661481185
 30
0.0
 10
6.494306492
 20
5.1664642356
 30
0.0
 10
6.4945654173
 20
5.1667524828
 30
0.0
 10
6.4948007634
 20
5.167012277
 30
0.0
 10
6.4950114166
 20
5.1672430291
 30
0.0
 10
6.4951710873
 20
5.167416865
 30
0.0
 10
6.4952855751
 20
5.1675410837
 30
0.0
 10
6.4953612118
 20
5.1676229823
 30
0.0
 10
6.4954299306
 20
5.1676972589
 30
0.0
 10
6.4954916651
 20
5.1677638578
 30
0.0
 10
6.4955463552
 20
5.1678227309
 30
0.0
 10
6.4955939382
 20
5.1678738376
 30
0.0
 10
6.4956291279
 20
5.1679115486
 30
0.0
 10
6.4956536773
 20
5.1679378093
 30
0.0
 10
6.4956693645
 20
5.1679545703
 30
0.0
 10
6.4956832293
 20
5.1679693668
 30
0.0
 10
6.4956952653
 20
5.1679821955
 30
0.0
 10
6.4957054654
 20
5.1679930545
 30
0.0
 10
6.495713825
 20
5.1680019396
 30
0.0
 10
6.4957196361
 20
5.1680081132
 30
0.0
 10
6.4957233641
 20
5.1680120595
 30
0.0
 10
6.4957254568
 20
5.1680142903
 30
0.0
 10
6.495727105
 20
5.1680159995
 30
0.0
 10
6.4957282412
 20
5.1680172812
 30
0.0
 10
6.4957290016
 20
5.168017943
 30
0.0
 10
6.4957292556
 20
5.168018357
 30
0.0
 10
6.4957293596
 20
5.1680184049
 30
0.0
  0
LINE
  5
295
100
AcDbEntity
  8
0
100
AcDbLine
 62
7
  6
CONTINUOUS
 10
5.3434735859
 20
4.9930184049
 11
5.330349626
 21
5.007221836
  0
LINE
  5
296
100
AcDbEntity
  8
0
100
AcDbLine
 62
7
  6
CONTINUOUS
 10
5.1553475645
 20
5.0072219491
 11
5.1422235859
 21
4.9930184049
  0
SPLINE
  5
297
100
AcDbEntity
  8
0
100
AcDbSpline
 62
7
  6
CONTINUOUS
 70
0
 71
3
 72
25
 73
21
 74
0
 42
0.0000001
 43
0.0000001
 44
0.0000000001
 40
0.0
 40
0.0
 40
0.0
 40
0.0
 40
0.0702433929
 40
0.1388942008
 40
0.172663267
 40
0.2060789624
 40
0.2719071586
 40
0.3365231333
 40
0.4000580625
 40
0.462637355
 40
0.5243790658
 40
0.5853933162
 40
0.6457829104
 40
0.7056434187
 40
0.7650643727
 40
0.8241307637
 40
0.882923497
 40
0.9415199742
 40
0.9707705675
 40
1.0
 40
1.0
 40
1.0
 40
1.0
 10
4.7312753823
 20
5.1745817094
 30
0.0
 10
4.7297996061
 20
5.1769138453
 30
0.0
 10
4.7267025827
 20
5.1814145488
 30
0.0
 10
4.7224459617
 20
5.1867048072
 30
0.0
 10
4.7188798172
 20
5.1906767457
 30
0.0
 10
4.715253266
 20
5.1944409668
 30
0.0
 10
4.7105502078
 20
5.198845329
 30
0.0
 10
4.7046499914
 20
5.2036778508
 30
0.0
 10
4.698556633
 20
5.208048442
 30
0.0
 10
4.6923003583
 20
5.2119731152
 30
0.0
 10
4.6859067173
 20
5.2154671046
 30
0.0
 10
4.679397695
 20
5.2185443046
 30
0.0
 10
4.6727923117
 20
5.2212170445
 30
0.0
 10
4.6661072534
 20
5.2234960626
 30
0.0
 10
4.659357352
 20
5.2253905214
 30
0.0
 10
4.6525559037
 20
5.2269080085
 30
0.0
 10
4.6457152299
 20
5.2280545707
 30
0.0
 10
4.6399876764
 20
5.2287050934
 30
0.0
 10
4.6353998124
 20
5.2290434505
 30
0.0
 10
4.6331043841
 20
5.2291520529
 30
0.0
 10
4.6319566404
 20
5.2291914343
 30
0.0
  0
SPLINE
  5
298
100
AcDbEntity
  8
0
100
AcDbSpline
 62
7
  6
CONTINUOUS
 70
0
 71
3
 72
39
 73
35
 74
0
 42
0.0000001
 43
0.0000001
 44
0.0000000001
 40
0.0
 40
0.0
 40
0.0
 40
0.0
 40
0.0000303461
 40
0.0000993509
 40
0.0002068272
 40
0.000352582
 40
0.0007581531
 40
0.0013145211
 40
0.0020203494
 40
0.002875598
 40
0.003880735
 40
0.005036226
 40
0.0077995389
 40
0.0111640007
 40
0.0151259307
 40
0.0196827142
 40
0.0248324514
 40
0.0305714651
 40
0.0437941065
 40
0.0592986162
 40
0.0770282628
 40
0.0969243689
 40
0.1189267805
 40
0.1429742433
 40
0.1690012219
 40
0.2266992528
 40
0.2914332736
 40
0.3626355126
 40
0.4397667889
 40
0.5223018647
 40
0.6097424028
 40
0.7016255359
 40
0.797539088
 40
1.0
 40
1.0
 40
1.0
 40
1.0
 10
5.3609735339
 20
5.0105184324
 30
0.0
 10
5.3609731994
 20
5.0105186401
 30
0.0
 10
5.3609721761
 20
5.0105194288
 30
0.0
 10
5.3609700185
 20
5.0105210219
 30
0.0
 10
5.3609667007
 20
5.0105235692
 30
0.0
 10
5.3609599233
 20
5.0105287793
 30
0.0
 10
5.360948588
 20
5.01053762
 30
0.0
 10
5.3609315889
 20
5.0105510151
 30
0.0
 10
5.360910098
 20
5.0105681382
 30
0.0
 10
5.3608841116
 20
5.0105889641
 30
0.0
 10
5.3608536075
 20
5.0106134837
 30
0.0
 10
5.360803828
 20
5.0106535459
 30
0.0
 10
5.3607301869
 20
5.010712792
 30
0.0
 10
5.3606281563
 20
5.0107948503
 30
0.0
 10
5.3605080044
 20
5.0108915132
 30
0.0
 10
5.3603697834
 20
5.011002676
 30
0.0
 10
5.360213518
 20
5.0111281996
 30
0.0
 10
5.3599694599
 20
5.0113240017
 30
0.0
 10
5.3596204111
 20
5.0116036694
 30
0.0
 10
5.3591498144
 20
5.0119804882
 30
0.0
 10
5.3586115679
 20
5.0124113752
 30
0.0
 10
5.3580074233
 20
5.0128948731
 30
0.0
 10
5.3573391159
 20
5.01342941
 30
0.0
 10
5.3566083718
 20
5.0140132596
 30
0.0
 10
5.3555151204
 20
5.0148854923
 30
0.0
 10
5.3540081629
 20
5.0160857851
 30
0.0
 10
5.3520411167
 20
5.0176493976
 30
0.0
 10
5.3498745356
 20
5.0193672644
 30
0.0
 10
5.3475236361
 20
5.0212244743
 30
0.0
 10
5.3450034733
 20
5.023207352
 30
0.0
 10
5.3423283656
 20
5.025302878
 30
0.0
 10
5.3395117054
 20
5.0274992236
 30
0.0
 10
5.3355098101
 20
5.0306029076
 30
0.0
 10
5.3324385481
 20
5.0329609097
 30
0.0
 10
5.3303485978
 20
5.0345530872
 30
0.0
  0
SPLINE
  5
299
100
AcDbEntity
  8
0
100
AcDbSpline
 62
7
  6
CONTINUOUS
 70
0
 71
3
 72
50
 73
46
 74
0
 42
0.0000001
 43
0.0000001
 44
0.0000000001
 40
0.0
 40
0.0
 40
0.0
 40
0.0
 40
0.1029763666
 40
0.2026371843
 40
0.2986317732
 40
0.3905828453
 40
0.4780802366
 40
0.5606633549
 40
0.6378327518
 40
0.7090615126
 40
0.7422790426
 40
0.7738046281
 40
0.8035657084
 40
0.8314882488
 40
0.8574985273
 40
0.8815271016
 40
0.9035095347
 40
0.923381773
 40
0.9410805904
 40
0.9490957312
 40
0.9565446828
 40
0.9634201679
 40
0.9697152548
 40
0.9754253171
 40
0.9805468661
 40
0.9850768407
 40
0.9890124936
 40
0.9907564897
 40
0.9923506579
 40
0.9937945349
 40
0.9950876765
 40
0.9962299693
 40
0.9972215799
 40
0.9980626849
 40
0.9987534598
 40
0.9990424379
 40
0.9992936502
 40
0.9995069564
 40
0.9996822157
 40
0.9998192873
 40
0.9999180306
 40
0.9999529855
 40
0.9999783067
 40
0.9999939789
 40
1.0
 40
1.0
 40
1.0
 40
1.0
 10
5.1553486225
 20
5.0345529705
 30
0.0
 10
5.1542857119
 20
5.0337430352
 30
0.0
 10
5.1521970386
 20
5.0321453997
 30
0.0
 10
5.1491270077
 20
5.0297803727
 30
0.0
 10
5.1461775602
 20
5.0274932948
 30
0.0
 10
5.1433588975
 20
5.0252951687
 30
0.0
 10
5.1406821566
 20
5.023198085
 30
0.0
 10
5.1381605633
 20
5.0212140191
 30
0.0
 10
5.1358084802
 20
5.0193559438
 30
0.0
 10
5.1339616064
 20
5.0178917958
 30
0.0
 10
5.1325799527
 20
5.0167942811
 30
0.0
 10
5.131620111
 20
5.0160309176
 30
0.0
 10
5.1307144424
 20
5.0153098296
 30
0.0
 10
5.1298651515
 20
5.0146328387
 30
0.0
 10
5.1290744304
 20
5.0140017176
 30
0.0
 10
5.1283442939
 20
5.0134182612
 30
0.0
 10
5.1276765613
 20
5.0128843079
 30
0.0
 10
5.1270730874
 20
5.0124015217
 30
0.0
 10
5.1266112231
 20
5.0120318716
 30
0.0
 10
5.1262752993
 20
5.0117628699
 30
0.0
 10
5.1260490561
 20
5.011581605
 30
0.0
 10
5.1258402956
 20
5.0114142183
 30
0.0
 10
5.1256492313
 20
5.0112608341
 30
0.0
 10
5.1254759906
 20
5.0111216061
 30
0.0
 10
5.1253206453
 20
5.0109966764
 30
0.0
 10
5.1251832576
 20
5.0108861601
 30
0.0
 10
5.1250800062
 20
5.0108031365
 30
0.0
 10
5.1250064242
 20
5.0107440124
 30
0.0
 10
5.1249580419
 20
5.0107051511
 30
0.0
 10
5.1249142146
 20
5.0106699619
 30
0.0
 10
5.1248749559
 20
5.0106384489
 30
0.0
 10
5.1248402657
 20
5.0106106204
 30
0.0
 10
5.1248101312
 20
5.0105864874
 30
0.0
 10
5.1247845388
 20
5.0105660565
 30
0.0
 10
5.1247660312
 20
5.0105513656
 30
0.0
 10
5.1247534832
 20
5.0105414801
 30
0.0
 10
5.124745788
 20
5.010535447
 30
0.0
 10
5.1247392405
 20
5.0105303425
 30
0.0
 10
5.1247338496
 20
5.0105261618
 30
0.0
 10
5.1247296199
 20
5.0105229143
 30
0.0
 10
5.1247268283
 20
5.0105207738
 30
0.0
 10
5.1247251739
 20
5.0105195491
 30
0.0
 10
5.1247243892
 20
5.0105189379
 30
0.0
 10
5.1247238807
 20
5.0105186265
 30
0.0
 10
5.1247236631
 20
5.010518417
 30
0.0
 10
5.1247235859
 20
5.0105184049
 30
0.0
  0
SPLINE
  5
29A
100
AcDbEntity
  8
0
100
AcDbSpline
 62
7
  6
CONTINUOUS
 70
0
 71
3
 72
28
 73
24
 74
0
 42
0.0000001
 43
0.0000001
 44
0.0000000001
 40
0.0
 40
0.0
 40
0.0
 40
0.0
 40
0.0566173218
 40
0.1138867724
 40
0.1718591081
 40
0.2305825569
 40
0.2901044574
 40
0.3504702556
 40
0.4117175984
 40
0.473873956
 40
0.5369530053
 40
0.6009479153
 40
0.6332831978
 40
0.6658328912
 40
0.6985879594
 40
0.7315370558
 40
0.7646664647
 40
0.7979601946
 40
0.8313999603
 40
0.8649652709
 40
0.8986336229
 40
0.9323809004
 40
1.0
 40
1.0
 40
1.0
 40
1.0
 10
5.1553476509
 20
5.0406913851
 30
0.0
 10
5.1540142179
 20
5.0417861003
 30
0.0
 10
5.1513787717
 20
5.0440458736
 30
0.0
 10
5.1475555278
 20
5.0476270671
 30
0.0
 10
5.1438528205
 20
5.0514232585
 30
0.0
 10
5.1402859884
 20
5.0554398526
 30
0.0
 10
5.1368721207
 20
5.0596814996
 30
0.0
 10
5.1336291429
 20
5.06415079
 30
0.0
 10
5.1305780809
 20
5.0688495051
 30
0.0
 10
5.1277424777
 20
5.0737772217
 30
0.0
 10
5.1251468932
 20
5.0789295366
 30
0.0
 10
5.1232123085
 20
5.083388469
 30
0.0
 10
5.1218103745
 20
5.0870574492
 30
0.0
 10
5.120832242
 20
5.0898678501
 30
0.0
 10
5.1199343747
 20
5.0927245132
 30
0.0
 10
5.119120071
 20
5.095624487
 30
0.0
 10
5.1183929295
 20
5.0985644623
 30
0.0
 10
5.1177561043
 20
5.1015406164
 30
0.0
 10
5.1172119979
 20
5.1045486201
 30
0.0
 10
5.1167629291
 20
5.1075838094
 30
0.0
 10
5.1164115392
 20
5.1106413604
 30
0.0
 10
5.1160753287
 20
5.1147428497
 30
0.0
 10
5.1159736221
 20
5.1178329222
 30
0.0
 10
5.1159735859
 20
5.1198934049
 30
0.0
  0
SPLINE
  5
29B
100
AcDbEntity
  8
0
100
AcDbSpline
 62
7
  6
CONTINUOUS
 70
0
 71
3
 72
23
 73
19
 74
0
 42
0.0000001
 43
0.0000001
 44
0.0000000001
 40
0.0
 40
0.0
 40
0.0
 40
0.0
 40
0.0583875226
 40
0.1169326897
 40
0.1757059361
 40
0.2347801234
 40
0.2942317346
 40
0.3541406694
 40
0.4145915102
 40
0.4756749761
 40
0.5374876382
 40
0.6001335151
 40
0.6637228456
 40
0.7283727821
 40
0.7942049989
 40
0.8613428235
 40
0.929905812
 40
1.0
 40
1.0
 40
1.0
 40
1.0
 10
4.6362142356
 20
5.0108103607
 30
0.0
 10
4.6384203821
 20
5.0109577384
 30
0.0
 10
4.6428319865
 20
5.0113646681
 30
0.0
 10
4.6494207909
 20
5.0123116238
 30
0.0
 10
4.6559783147
 20
5.0135992605
 30
0.0
 10
4.6624938935
 20
5.0152323033
 30
0.0
 10
4.668956302
 20
5.0172167732
 30
0.0
 10
4.6753531323
 20
5.0195600129
 30
0.0
 10
4.6816705755
 20
5.0222707632
 30
0.0
 10
4.687893124
 20
5.0253590112
 30
0.0
 10
4.6940030346
 20
5.028836289
 30
0.0
 10
4.6999800075
 20
5.0327151402
 30
0.0
 10
4.7058002998
 20
5.0370094786
 30
0.0
 10
4.7114362976
 20
5.0417337303
 30
0.0
 10
4.7168554121
 20
5.0469025966
 30
0.0
 10
4.7220192947
 20
5.0525301667
 30
0.0
 10
4.7268826346
 20
5.058627486
 30
0.0
 10
4.7298560125
 20
5.0629620949
 30
0.0
 10
4.7312753761
 20
5.0652051161
 30
0.0
  0
SPLINE
  5
29C
100
AcDbEntity
  8
0
100
AcDbSpline
 62
7
  6
CONTINUOUS
 70
0
 71
3
 72
66
 73
62
 74
0
 42
0.0000001
 43
0.0000001
 44
0.0000000001
 40
0.0
 40
0.0
 40
0.0
 40
0.0
 40
0.000040035
 40
0.0001597793
 40
0.000359094
 40
0.0006378402
 40
0.0014330991
 40
0.0025446561
 40
0.0039716789
 40
0.0057132654
 40
0.0077684323
 40
0.0101353723
 40
0.0157941294
 40
0.0226691991
 40
0.0307368754
 40
0.0399676053
 40
0.0503298372
 40
0.0617908424
 40
0.0878517241
 40
0.1178095066
 40
0.1512890406
 40
0.1879049722
 40
0.2272516969
 40
0.3124314024
 40
0.357441902
 40
0.4035394891
 40
0.4974443163
 40
0.544515107
 40
0.5911906401
 40
0.6371235948
 40
0.6819676376
 40
0.7253790961
 40
0.7670059896
 40
0.8064814547
 40
0.8434210261
 40
0.8774299836
 40
0.8932093476
 40
0.9081016317
 40
0.9220539954
 40
0.9350161483
 40
0.9469352123
 40
0.957759412
 40
0.9674428497
 40
0.9759394752
 40
0.9832048437
 40
0.9863653759
 40
0.9892058062
 40
0.9917218704
 40
0.9939088643
 40
0.9957631483
 40
0.9972835423
 40
0.997918234
 40
0.9984690144
 40
0.9989356817
 40
0.9993180338
 40
0.9996158636
 40
0.9998289501
 40
0.9999036448
 40
0.99995707
 40
0.9999891977
 40
1.0
 40
1.0
 40
1.0
 40
1.0
 10
6.5695009452
 20
5.0310694815
 30
0.0
 10
6.5695007682
 20
5.0310695629
 30
0.0
 10
6.5695000148
 20
5.0310697692
 30
0.0
 10
6.5694983789
 20
5.0310703768
 30
0.0
 10
6.5694956172
 20
5.0310712925
 30
0.0
 10
6.5694897619
 20
5.0310733107
 30
0.0
 10
6.5694796981
 20
5.0310767412
 30
0.0
 10
6.5694643565
 20
5.0310819984
 30
0.0
 10
6.569444657
 20
5.0310887404
 30
0.0
 10
6.5694206168
 20
5.0310969746
 30
0.0
 10
6.5693922518
 20
5.0311066931
 30
0.0
 10
6.5693458643
 20
5.0311225997
 30
0.0
 10
6.569277315
 20
5.0311461618
 30
0.0
 10
6.5691825656
 20
5.0311788122
 30
0.0
 10
6.5690714251
 20
5.0312172306
 30
0.0
 10
6.5689443033
 20
5.0312613396
 30
0.0
 10
6.5688016434
 20
5.0313110233
 30
0.0
 10
6.5685817779
 20
5.031387952
 30
0.0
 10
6.5682722563
 20
5.0314972715
 30
0.0
 10
6.5678622269
 20
5.0316436385
 30
0.0
 10
6.5674045621
 20
5.0318092773
 30
0.0
 10
6.5669048149
 20
5.0319928311
 30
0.0
 10
6.5661703234
 20
5.0322667046
 30
0.0
 10
6.5654005037
 20
5.0325626554
 30
0.0
 10
6.5646026232
 20
5.0328769899
 30
0.0
 10
6.563767496
 20
5.0332125289
 30
0.0
 10
6.5629268364
 20
5.0335611125
 30
0.0
 10
6.5620872213
 20
5.0339193488
 30
0.0
 10
6.561464164
 20
5.0341904559
 30
0.0
 10
6.5608529767
 20
5.0344616474
 30
0.0
 10
6.5602581521
 20
5.0347305285
 30
0.0
 10
6.5596843538
 20
5.0349950272
 30
0.0
 10
6.559135906
 20
5.0352521033
 30
0.0
 10
6.5586174822
 20
5.0354990282
 30
0.0
 10
6.5581339307
 20
5.0357329657
 30
0.0
 10
6.5577552111
 20
5.0359188881
 30
0.0
 10
6.5574733214
 20
5.0360586678
 30
0.0
 10
6.5572790551
 20
5.0361555325
 30
0.0
 10
6.5570972579
 20
5.0362466913
 30
0.0
 10
6.5569285967
 20
5.0363317782
 30
0.0
 10
6.5567736723
 20
5.036410309
 30
0.0
 10
6.5566330912
 20
5.036481859
 30
0.0
 10
6.5565074715
 20
5.0365461002
 30
0.0
 10
6.5563973398
 20
5.0366026043
 30
0.0
 10
6.5563154672
 20
5.0366446762
 30
0.0
 10
6.5562581111
 20
5.0366742572
 30
0.0
 10
6.5562213013
 20
5.0366932733
 30
0.0
 10
6.5561887073
 20
5.0367101317
 30
0.0
 10
6.5561603765
 20
5.0367247908
 30
0.0
 10
6.556136345
 20
5.0367372192
 30
0.0
 10
6.5561190223
 20
5.0367461816
 30
0.0
 10
6.5561073353
 20
5.0367522374
 30
0.0
 10
6.5561002005
 20
5.0367559371
 30
0.0
 10
6.5560941571
 20
5.0367590744
 30
0.0
 10
6.5560892044
 20
5.0367616436
 30
0.0
 10
6.5560853523
 20
5.0367636516
 30
0.0
 10
6.556082816
 20
5.0367649551
 30
0.0
 10
6.5560813549
 20
5.0367657345
 30
0.0
 10
6.5560806445
 20
5.0367660721
 30
0.0
 10
6.5560802624
 20
5.0367663282
 30
0.0
 10
6.5560800424
 20
5.0367663838
 30
0.0
 10
6.5560800104
 20
5.0367664256
 30
0.0
  0
SPLINE
  5
29D
100
AcDbEntity
  8
0
100
AcDbSpline
 62
7
  6
CONTINUOUS
 70
0
 71
3
 72
83
 73
79
 74
0
 42
0.0000001
 43
0.0000001
 44
0.0000000001
 40
0.0
 40
0.0
 40
0.0
 40
0.0
 40
0.0000090701
 40
0.0000363362
 40
0.0000818879
 40
0.0001458145
 40
0.0002282056
 40
0.0003291505
 40
0.0005870595
 40
0.0009202565
 40
0.0013293036
 40
0.0018144345
 40
0.0023758399
 40
0.0030137105
 40
0.0037282174
 40
0.0053859741
 40
0.0073450249
 40
0.00960103
 40
0.0121503302
 40
0.0149895472
 40
0.0181165845
 40
0.0215305088
 40
0.0292157518
 40
0.0380380198
 40
0.0479812057
 40
0.059013555
 40
0.0711011398
 40
0.084216189
 40
0.0983320739
 40
0.1134193225
 40
0.1463713207
 40
0.1827471153
 40
0.2221511302
 40
0.264189194
 40
0.3084752889
 40
0.3546036613
 40
0.4021151463
 40
0.4505463345
 40
0.4994342776
 40
0.5483082358
 40
0.5967076354
 40
0.6441894135
 40
0.6903040442
 40
0.734596895
 40
0.7766532518
 40
0.8160829778
 40
0.8346931171
 40
0.8525002525
 40
0.8694589642
 40
0.8855324077
 40
0.9006880988
 40
0.9148930001
 40
0.9281143299
 40
0.9403168866
 40
0.9514634457
 40
0.9615132275
 40
0.9704310517
 40
0.9782026742
 40
0.9816559461
 40
0.9848195941
 40
0.9876926819
 40
0.9902731281
 40
0.992557272
 40
0.9945412048
 40
0.996220506
 40
0.9969445062
 40
0.9975909521
 40
0.9981599899
 40
0.9986517965
 40
0.9990665489
 40
0.9994044599
 40
0.9996660613
 40
0.9997684641
 40
0.9998520517
 40
0.9999169115
 40
0.9999631312
 40
0.9999907982
 40
1.0
 40
1.0
 40
1.0
 40
1.0
 10
6.5989279787
 20
5.0233275871
 30
0.0
 10
6.5989279635
 20
5.0233275505
 30
0.0
 10
6.5989277455
 20
5.0233276595
 30
0.0
 10
6.5989274458
 20
5.0233275935
 30
0.0
 10
6.5989268163
 20
5.0233276934
 30
0.0
 10
6.5989259938
 20
5.0233277348
 30
0.0
 10
6.5989249094
 20
5.0233278279
 30
0.0
 10
6.5989229871
 20
5.0233279734
 30
0.0
 10
6.5989199662
 20
5.0233282118
 30
0.0
 10
6.5989156037
 20
5.0233285511
 30
0.0
 10
6.5989102489
 20
5.0233289702
 30
0.0
 10
6.5989038991
 20
5.0233294674
 30
0.0
 10
6.5988965509
 20
5.023330044
 30
0.0
 10
6.5988882022
 20
5.0233307004
 30
0.0
 10
6.5988750709
 20
5.0233317349
 30
0.0
 10
6.5988561767
 20
5.0233332296
 30
0.0
 10
6.5988305593
 20
5.0233352716
 30
0.0
 10
6.5988010546
 20
5.0233376444
 30
0.0
 10
6.5987677117
 20
5.0233403366
 30
0.0
 10
6.5987305697
 20
5.0233433357
 30
0.0
 10
6.5986896565
 20
5.0233466398
 30
0.0
 10
6.5986276075
 20
5.0233516631
 30
0.0
 10
6.598540721
 20
5.0233587321
 30
0.0
 10
6.5984253581
 20
5.0233681262
 30
0.0
 10
6.5982954111
 20
5.0233788807
 30
0.0
 10
6.5981512415
 20
5.0233910203
 30
0.0
 10
6.5979932556
 20
5.0234044949
 30
0.0
 10
6.5978218392
 20
5.023419278
 30
0.0
 10
6.5976373634
 20
5.0234353982
 30
0.0
 10
6.5973664422
 20
5.0234594033
 30
0.0
 10
6.5969985446
 20
5.0234925706
 30
0.0
 10
6.5965248461
 20
5.0235372107
 30
0.0
 10
6.5960117383
 20
5.0235873983
 30
0.0
 10
6.5954643836
 20
5.0236429962
 30
0.0
 10
6.5948879866
 20
5.0237038084
 30
0.0
 10
6.5942880315
 20
5.0237695618
 30
0.0
 10
6.5936703614
 20
5.0238401119
 30
0.0
 10
6.5930410239
 20
5.0239148651
 30
0.0
 10
6.5924061
 20
5.0239930821
 30
0.0
 10
6.591771691
 20
5.0240742893
 30
0.0
 10
6.5911438398
 20
5.0241581914
 30
0.0
 10
6.5905283756
 20
5.0242435585
 30
0.0
 10
6.5899310018
 20
5.0243285301
 30
0.0
 10
6.5893575506
 20
5.0244130534
 30
0.0
 10
6.5888134271
 20
5.0244958935
 30
0.0
 10
6.5883806491
 20
5.0245633835
 30
0.0
 10
6.5880528684
 20
5.0246154904
 30
0.0
 10
6.5878222483
 20
5.0246524712
 30
0.0
 10
6.5876026493
 20
5.0246880727
 30
0.0
 10
6.5873945846
 20
5.0247223164
 30
0.0
 10
6.587198475
 20
5.0247549935
 30
0.0
 10
6.5870147311
 20
5.0247859474
 30
0.0
 10
6.5868437776
 20
5.0248150342
 30
0.0
 10
6.5866860526
 20
5.0248420825
 30
0.0
 10
6.5865420287
 20
5.0248669159
 30
0.0
 10
6.5864121835
 20
5.0248893885
 30
0.0
 10
6.5862969047
 20
5.0249094267
 30
0.0
 10
6.5862100938
 20
5.0249246865
 30
0.0
 10
6.586148088
 20
5.0249356197
 30
0.0
 10
6.5861071932
 20
5.0249428383
 30
0.0
 10
6.5860700609
 20
5.0249494003
 30
0.0
 10
6.5860367193
 20
5.0249552969
 30
0.0
 10
6.5860072091
 20
5.0249605165
 30
0.0
 10
6.5859815812
 20
5.0249650452
 30
0.0
 10
6.5859626762
 20
5.0249683861
 30
0.0
 10
6.5859495352
 20
5.0249707121
 30
0.0
 10
6.5859411786
 20
5.0249721937
 30
0.0
 10
6.5859338227
 20
5.0249735001
 30
0.0
 10
6.5859274659
 20
5.0249746315
 30
0.0
 10
6.5859221041
 20
5.0249755877
 30
0.0
 10
6.5859177373
 20
5.0249763705
 30
0.0
 10
6.5859147096
 20
5.0249769117
 30
0.0
 10
6.5859127891
 20
5.0249772619
 30
0.0
 10
6.5859116942
 20
5.0249774509
 30
0.0
 10
6.5859108937
 20
5.0249776178
 30
0.0
 10
6.5859102111
 20
5.0249776917
 30
0.0
 10
6.5859100024
 20
5.0249778167
 30
0.0
 10
6.5859096897
 20
5.0249777835
 30
0.0
 10
6.5859097132
 20
5.0249778162
 30
0.0
  0
ENDSEC
  0
SECTION
  2
OBJECTS
  0
DICTIONARY
  5
C
100
AcDbDictionary
280
0
281
1
  3
ACAD_GROUP
350
D
  3
ACAD_MLINESTYLE
350
17
  3
ACAD_LAYOUT
350
1A
  3
ACAD_PLOTSETTINGS
350
19
  3
ACAD_PLOTSTYLENAME
350
E
  0
DICTIONARY
  5
D
102
{ACAD_REACTORS
330
C
102
}
100
AcDbDictionary
280
0
281
1
  0
ACDBDICTIONARYWDFLT
  5
E
102
{ACAD_REACTORS
330
C
102
}
100
AcDbDictionary
281
1
  3
Normal
350
F
100
AcDbDictionaryWithDefault
340
F
  0
DICTIONARY
  5
17
102
{ACAD_REACTORS
330
C
102
}
100
AcDbDictionary
280
0
281
1
  3
Standard
350
18
  0
DICTIONARY
  5
19
102
{ACAD_REACTORS
330
C
102
}
100
AcDbDictionary
281
1
  0
DICTIONARY
  5
1A
102
{ACAD_REACTORS
330
C
102
}
100
AcDbDictionary
281
1
  3
Model
350
29E
  3
Layout1
350
29F
  0
ACDBPLACEHOLDER
  5
F
102
{ACAD_REACTORS
330
E
102
}
  0
MLINESTYLE
  5
18
102
{ACAD_REACTORS
330
17
102
}
100
AcDbMlineStyle
  2
STANDARD
 70
0
  3

 62
256
 51
90.0
 52
90.0
 71
2
 49
0.5
 62
256
  6
BYLAYER
 49
-0.5
 62
256
  6
BYLAYER
  0
LAYOUT
  5
29E
102
{ACAD_REACTORS
330
1A
102
}
100
AcDbPlotSettings
  1

  2
none_device
  4
ANSI_A_(11.00_x_8.50_Inches)
  6

 40
0.0
 41
0.0
 42
0.0
 43
0.0
 44
279.4
 45
215.9
 46
0.0
 47
0.0
 48
0.0
 49
0.0
140
0.0
141
0.0
142
1.0
143
1.0
 70
1024
 72
0
 73
0
 74
0
  7

 75
0
147
1.0
148
0.0
149
0.0
100
AcDbLayout
  1
Model
 70
0
 71
0
 10
0.0
 20
0.0
 11
11.0
 21
8.5
 12
0.0
 22
0.0
 32
0.0
 14
0.0
 24
0.0
 34
0.0
 15
0.0
 25
0.0
 35
0.0
146
0.0
 13
0.0
 23
0.0
 33
0.0
 16
1.0
 26
0.0
 36
0.0
 17
0.0
 27
1.0
 37
0.0
 76
0
330
202
345
0
346
0
  0
LAYOUT
  5
29F
102
{ACAD_REACTORS
330
1A
102
}
100
AcDbPlotSettings
  1

  2
none_device
  4
ANSI_A_(11.00_x_8.50_Inches)
  6

 40
0.0
 41
0.0
 42
0.0
 43
0.0
 44
279.4
 45
215.9
 46
0.0
 47
0.0
 48
0.0
 49
0.0
140
0.0
141
0.0
142
1.0
143
1.0
 70
0
 72
0
 73
0
 74
0
  7

 75
0
147
1.0
148
0.0
149
0.0
100
AcDbLayout
  1
Layout1
 70
0
 71
1
 10
0.0
 20
0.0
 11
11.0
 21
8.5
 12
0.0
 22
0.0
 32
0.0
 14
0.0
 24
0.0
 34
0.0
 15
0.0
 25
0.0
 35
0.0
146
0.0
 13
0.0
 23
0.0
 33
0.0
 16
1.0
 26
0.0
 36
0.0
 17
0.0
 27
1.0
 37
0.0
 76
0
330
203
345
0
346
0
  0
ENDSEC
  0
EOF
