999
DXF file: E:\BT Custom\CADOUTPUT\_FRONT.dxf
999
Pro/ENGINEER 2018400 by Parametric Technology Corporation
  0
SECTION
  2
HEADER
  9
$ACADVER
  1
AC1018
  9
$DWGCODEPAGE
  3
ANSI_1252
  9
$EXTMAX
 10
22.0
 20
17.0
 30
0.0
  9
$EXTMIN
 10
0.0
 20
0.0
 30
0.0
  9
$LIMMIN
 10
0.0
 20
0.0
  9
$LIMMAX
 10
22.0
 20
17.0
  9
$VIEWCTR
 10
11.0
 20
8.5
  9
$VIEWSIZE
 40
17.0
  9
$CLAYER
  8
0
  9
$LTSCALE
 40
1.21
  9
$CELTYPE
  6
BYLAYER
  9
$DIMSCALE
 40
1.0
  9
$DIMASZ
 40
0.1
  9
$DIMEXO
 40
0.0625
  9
$DIMDLI
 40
0.836
  9
$DIMEXE
 40
0.125
  9
$DIMCEN
 40
0.198
  9
$DIMLFAC
 40
1.0
  9
$DIMBLK
  1
_FILLED
  9
$DIMALT
 70
1
  9
$DIMALTD
 70
2
  9
$DIMALTTD
 70
2
  9
$DIMALTF
 40
25.4
  9
$DIMTXT
 40
0.08
  9
$DIMTOL
 70
1
  9
$DIMLIM
 70
0
  9
$DIMTFAC
 40
1.0
  9
$DIMTP
 40
0.001
  9
$DIMTM
 40
0.001
  9
$DIMGAP
 40
0.09
  9
$DIMDSEP
 70
46
  9
$AUNITS
 70
0
  9
$PDMODE
 70
3
  9
$PDSIZE
 40
0.06
  9
$HANDSEED
  5
33B
  9
$TILEMODE
 70
1
  9
$MEASUREMENT
 70
0
  9
$INSUNITS
 70
1
  0
ENDSEC
  0
SECTION
  2
CLASSES
  0
CLASS
  1
ACDBDICTIONARYWDFLT
  2
AcDbDictionaryWithDefault
  3
AutoCAD 2000
 90
0
 91
1
280
0
281
0
  0
CLASS
  1
ACDBPLACEHOLDER
  2
AcDbPlaceHolder
  3
AutoCAD 2000
 90
0
 91
1
280
0
281
0
  0
CLASS
  1
LAYOUT
  2
AcDbLayout
  3
AutoCAD 2000
 90
0
 91
0
280
0
281
0
  0
ENDSEC
  0
SECTION
  2
TABLES
  0
TABLE
  2
VPORT
  5
8
100
AcDbSymbolTable
 70
2
  0
VPORT
  5
1F4
100
AcDbSymbolTableRecord
100
AcDbViewportTableRecord
  2
*ACTIVE
 70
0
 10
0.0
 20
0.0
 11
1.0
 21
1.0
 12
11.0
 22
8.5
 13
0.0
 23
0.0
 14
1.0
 24
1.0
 15
0.0
 25
0.0
 16
0.0
 26
0.0
 36
1.0
 17
0.0
 27
0.0
 37
0.0
 40
17.0
 41
1.2941176471
 42
50.0
 43
0.0
 44
0.0
 50
0.0
 51
0.0
 71
0
 72
100
 73
1
 74
1
 75
0
 76
0
 77
0
 78
0
  0
ENDTAB
  0
TABLE
  2
LTYPE
  5
5
100
AcDbSymbolTable
 70
6
  0
LTYPE
  5
14
100
AcDbSymbolTableRecord
100
AcDbLinetypeTableRecord
  2
BYBLOCK
 70
0
  3

 72
65
 73
0
 40
0.0
  0
LTYPE
  5
15
100
AcDbSymbolTableRecord
100
AcDbLinetypeTableRecord
  2
BYLAYER
 70
0
  3

 72
65
 73
0
 40
0.0
  0
LTYPE
  5
16
100
AcDbSymbolTableRecord
100
AcDbLinetypeTableRecord
  2
CONTINUOUS
 70
64
  3
Solid line
 72
65
 73
0
 40
0.0
  0
LTYPE
  5
1F5
100
AcDbSymbolTableRecord
100
AcDbLinetypeTableRecord
  2
CENTER
 70
64
  3
____ _ ____ _ ____ _ ____ _ ____ _ ____ _ ____
 72
65
 73
4
 40
0.6
 49
0.375
 74
0
 49
-0.075
 74
0
 49
0.075
 74
0
 49
-0.075
 74
0
  0
LTYPE
  5
1F6
100
AcDbSymbolTableRecord
100
AcDbLinetypeTableRecord
  2
HIDDEN
 70
64
  3
- - - - - - - - - - - - - - - - - - - -
 72
65
 73
2
 40
0.2
 49
0.1
 74
0
 49
-0.1
 74
0
  0
LTYPE
  5
1F7
100
AcDbSymbolTableRecord
100
AcDbLinetypeTableRecord
  2
PHANTOM
 70
64
  3
_____ _ _ _____ _ _ _____ _ _ _____
 72
65
 73
6
 40
0.8
 49
0.45
 74
0
 49
-0.05
 74
0
 49
0.1
 74
0
 49
-0.05
 74
0
 49
0.1
 74
0
 49
-0.05
 74
0
  0
LTYPE
  5
1F8
100
AcDbSymbolTableRecord
100
AcDbLinetypeTableRecord
  2
DOT
 70
64
  3
. . . . . . . . . . . . . . . . . . . .
 72
65
 73
2
 40
0.2
 49
0.1
 74
0
 49
-0.1
 74
0
  0
LTYPE
  5
1F9
100
AcDbSymbolTableRecord
100
AcDbLinetypeTableRecord
  2
DASHED
 70
64
  3
- - - - - - - - - - - - - - - - - - - -
 72
65
 73
2
 40
0.2
 49
0.1
 74
0
 49
-0.1
 74
0
  0
ENDTAB
  0
TABLE
  2
LAYER
  5
2
100
AcDbSymbolTable
 70
36
  0
LAYER
  5
10
100
AcDbSymbolTableRecord
100
AcDbLayerTableRecord
  2
0
 70
0
 62
7
  6
CONTINUOUS
370
-3
390
F
  0
LAYER
  5
1FA
100
AcDbSymbolTableRecord
100
AcDbLayerTableRecord
  2
DEFAULT_1
 70
0
 62
7
  6
CENTER
370
-3
390
F
  0
LAYER
  5
1FB
100
AcDbSymbolTableRecord
100
AcDbLayerTableRecord
  2
DEFAULT_2
 70
0
 62
8
  6
HIDDEN
370
-3
390
F
  0
LAYER
  5
1FC
100
AcDbSymbolTableRecord
100
AcDbLayerTableRecord
  2
DEFAULT_3
 70
0
 62
7
  6
PHANTOM
370
-3
390
F
  0
LAYER
  5
1FD
100
AcDbSymbolTableRecord
100
AcDbLayerTableRecord
  2
ALL_FEATURES
 70
0
 62
7
  6
CONTINUOUS
370
-3
390
F
  0
LAYER
  5
1FE
100
AcDbSymbolTableRecord
100
AcDbLayerTableRecord
  2
AXES_FEATURES
 70
0
 62
7
  6
CONTINUOUS
370
-3
390
F
  0
LAYER
  5
1FF
100
AcDbSymbolTableRecord
100
AcDbLayerTableRecord
  2
DEFAULT_COORDINATE_SYSTEM
 70
0
 62
7
  6
CONTINUOUS
370
-3
390
F
  0
LAYER
  5
200
100
AcDbSymbolTableRecord
100
AcDbLayerTableRecord
  2
DEFAULT_DATUM_AXES
 70
0
 62
7
  6
CONTINUOUS
370
-3
390
F
  0
LAYER
  5
201
100
AcDbSymbolTableRecord
100
AcDbLayerTableRecord
  2
DEFAULT_DATUM_PLANES
 70
0
 62
7
  6
CONTINUOUS
370
-3
390
F
  0
LAYER
  5
202
100
AcDbSymbolTableRecord
100
AcDbLayerTableRecord
  2
DIMENSIONS
 70
0
 62
7
  6
CONTINUOUS
370
-3
390
F
  0
ENDTAB
  0
TABLE
  2
STYLE
  5
3
100
AcDbSymbolTable
 70
1
  0
STYLE
  5
11
100
AcDbSymbolTableRecord
100
AcDbTextStyleTableRecord
  2
STANDARD
 70
0
 40
0.0
 41
0.8
 50
0.0
 71
0
 42
0.2
  3
txt
  4

  0
STYLE
  5
203
100
AcDbSymbolTableRecord
100
AcDbTextStyleTableRecord
  2
TEXTSTYLE_1
 70
0
 40
0.0
 41
0.8
 50
0.0
 71
0
 42
0.2
  3
gdt
  4

  0
ENDTAB
  0
TABLE
  2
VIEW
  5
6
100
AcDbSymbolTable
 70
0
  0
ENDTAB
  0
TABLE
  2
UCS
  5
7
100
AcDbSymbolTable
 70
0
  0
ENDTAB
  0
TABLE
  2
APPID
  5
9
100
AcDbSymbolTable
 70
1
  0
APPID
  5
204
100
AcDbSymbolTableRecord
100
AcDbRegAppTableRecord
  2
ACAD
 70
0
  0
ENDTAB
  0
TABLE
  2
BLOCK_RECORD
  5
1
100
AcDbSymbolTable
 70
0
  0
BLOCK_RECORD
  5
205
100
AcDbSymbolTableRecord
100
AcDbBlockTableRecord
  2
*Model_Space
  0
BLOCK_RECORD
  5
206
100
AcDbSymbolTableRecord
100
AcDbBlockTableRecord
  2
*Paper_Space
  0
BLOCK_RECORD
  5
207
100
AcDbSymbolTableRecord
100
AcDbBlockTableRecord
  2
_FILLED
  0
ENDTAB
  0
TABLE
  2
DIMSTYLE
  5
A
100
AcDbSymbolTable
 70
1
100
AcDbDimStyleTable
 71
0
  0
DIMSTYLE
105
208
100
AcDbSymbolTableRecord
100
AcDbDimStyleTableRecord
  2
STANDARD
 70
0
  3

  4

 40
1.0
 41
0.1
 42
0.0625
 43
0.38
 44
0.125
 45
0.0
 46
0.0
 47
0.001
 48
0.001
140
0.08
141
0.09
142
0.0
143
25.4
144
1.0
145
0.0
146
1.0
147
0.09
 71
1.0
 72
0.0
 73
1
 74
1
 75
0
 76
0
 77
0
 78
4
 79
1
170
1
171
2
172
0
173
0
174
0
175
0
176
0
177
0
178
0
270
2
179
3
271
3
272
3
273
2
274
2
275
0
280
0
281
0
282
0
283
1
284
4
285
0
286
0
287
3
288
0
340
11
278
46
341
207
342
207
343
207
344
207
  0
ENDTAB
  0
ENDSEC
  0
SECTION
  2
BLOCKS
  0
BLOCK
  5
20
100
AcDbEntity
  8
0
100
AcDbBlockBegin
  2
*Model_Space
 70
0
 10
0.0
 20
0.0
 30
0.0
  3
*Model_Space
  1

  0
ENDBLK
  5
21
100
AcDbEntity
  8
0
100
AcDbBlockEnd
  0
BLOCK
  5
1C
100
AcDbEntity
  8
0
100
AcDbBlockBegin
  2
*Paper_Space
 70
0
 10
0.0
 20
0.0
 30
0.0
  3
*Paper_Space
  1

  0
ENDBLK
  5
1D
100
AcDbEntity
  8
0
100
AcDbBlockEnd
  0
BLOCK
  5
209
100
AcDbEntity
  8
0
100
AcDbBlockBegin
  2
_FILLED
 70
64
 10
0.0
 20
0.0
  3
_FILLED
  1

  0
SOLID
  5
20A
100
AcDbEntity
  8
0
  6
BYBLOCK
 62
0
100
AcDbTrace
 10
0.0
 20
0.0
 11
-1.0
 21
0.2
 12
-1.0
 22
-0.2
 13
-1.0
 23
-0.2
  0
ENDBLK
  5
20B
100
AcDbEntity
  8
0
  6
BYBLOCK
 62
0
100
AcDbBlockEnd
  0
ENDSEC
  0
SECTION
  2
ENTITIES
  0
LINE
  5
20C
100
AcDbEntity
  8
0
100
AcDbLine
 62
7
  6
CONTINUOUS
 10
10.6881923427
 20
1.3103509488
 11
8.7881923427
 21
1.3103509488
  0
LINE
  5
20D
100
AcDbEntity
  8
0
100
AcDbLine
 62
7
  6
CONTINUOUS
 10
12.505634686
 20
4.6237792145
 11
12.521129117
 21
4.6247449462
  0
LWPOLYLINE
  5
20E
100
AcDbEntity
  8
0
100
AcDbPolyline
 62
7
  6
CONTINUOUS
 90
5
 70
0
 10
12.5199518847
 20
4.6246796747
 10
12.5349768063
 20
4.625409644
 10
12.5486522383
 20
4.6258780307
 10
12.5621354832
 20
4.6261535935
 10
12.5749573502
 20
4.6262404153
  0
LINE
  5
20F
100
AcDbEntity
  8
0
100
AcDbLine
 62
7
  6
CONTINUOUS
 10
12.1498367132
 20
4.5503509488
 11
11.7231923427
 21
4.5503509488
  0
LINE
  5
210
100
AcDbEntity
  8
0
100
AcDbLine
 62
7
  6
CONTINUOUS
 10
11.6331923427
 20
4.5503509488
 11
10.7881923427
 21
4.5503509488
  0
LINE
  5
211
100
AcDbEntity
  8
0
100
AcDbLine
 62
7
  6
CONTINUOUS
 10
12.5471923427
 20
4.5503509488
 11
13.0671923427
 21
4.5503509488
  0
LINE
  5
212
100
AcDbEntity
  8
0
100
AcDbLine
 62
9
  6
CONTINUOUS
 10
12.5271923427
 20
4.5703509488
 11
13.0871923427
 21
4.5703509488
  0
LINE
  5
213
100
AcDbEntity
  8
0
100
AcDbLine
 62
7
  6
CONTINUOUS
 10
12.5749573502
 20
4.6262404153
 11
12.8031923427
 21
4.6262404153
  0
LINE
  5
214
100
AcDbEntity
  8
0
100
AcDbLine
 62
9
  6
CONTINUOUS
 10
12.5749573502
 20
4.6279651759
 11
12.8031923427
 21
4.6279651759
  0
LINE
  5
215
100
AcDbEntity
  8
0
100
AcDbLine
 62
7
  6
CONTINUOUS
 10
11.6631923427
 20
4.6453509488
 11
11.7031923427
 21
4.6453509488
  0
LINE
  5
216
100
AcDbEntity
  8
0
100
AcDbLine
 62
7
  6
CONTINUOUS
 10
11.6631923427
 20
6.2553509488
 11
11.7031923427
 21
6.2553509488
  0
LINE
  5
217
100
AcDbEntity
  8
0
100
AcDbLine
 62
7
  6
CONTINUOUS
 10
12.4656923427
 20
6.3503509488
 11
11.7231923427
 21
6.3503509488
  0
LINE
  5
218
100
AcDbEntity
  8
0
100
AcDbLine
 62
7
  6
CONTINUOUS
 10
10.7881923427
 20
6.3503509488
 11
11.6331923427
 21
6.3503509488
  0
LWPOLYLINE
  5
219
100
AcDbEntity
  8
0
100
AcDbPolyline
 62
7
  6
CONTINUOUS
 90
35
 70
0
 10
12.8036838177
 20
6.2747043025
 10
12.7925438014
 20
6.2750602759
 10
12.780918807
 20
6.2756001937
 10
12.7693102291
 20
6.276310626
 10
12.7577185396
 20
6.2771900605
 10
12.746145373
 20
6.2782373237
 10
12.7345972975
 20
6.2794499722
 10
12.7230837305
 20
6.2808248791
 10
12.7116145777
 20
6.2823584761
 10
12.7002023669
 20
6.2840456854
 10
12.688863388
 20
6.2858804395
 10
12.6776137681
 20
6.2878556126
 10
12.666471228
 20
6.2899627632
 10
12.6554570376
 20
6.2921920649
 10
12.6445921473
 20
6.2945324295
 10
12.6338975282
 20
6.2969719488
 10
12.6233950394
 20
6.2994975916
 10
12.6131087381
 20
6.3020948097
 10
12.6030621776
 20
6.3047484127
 10
12.5932777373
 20
6.3074426979
 10
12.5837781607
 20
6.3101612581
 10
12.5745873526
 20
6.3128868068
 10
12.5657277837
 20
6.3156019749
 10
12.5572193717
 20
6.3182898803
 10
12.5490789321
 20
6.3209345279
 10
12.5413216827
 20
6.3235204
 10
12.5339595399
 20
6.3260333788
 10
12.5270012145
 20
6.3284606328
 10
12.5204550067
 20
6.3307899707
 10
12.5143272443
 20
6.3330103835
 10
12.5086227312
 20
6.3351117879
 10
12.5033439419
 20
6.3370857846
 10
12.498492111
 20
6.3389247835
 10
12.4940696493
 20
6.340621506
 10
12.4900750877
 20
6.342170805
  0
LINE
  5
21A
100
AcDbEntity
  8
0
100
AcDbLine
 62
7
  6
CONTINUOUS
 10
8.7881923427
 20
1.3103509488
 11
8.7881923427
 21
7.5303509488
  0
LINE
  5
21B
100
AcDbEntity
  8
0
100
AcDbLine
 62
7
  6
CONTINUOUS
 10
10.1739864187
 20
11.673860503
 11
10.1443405632
 21
11.644902467
  0
LINE
  5
21C
100
AcDbEntity
  8
0
100
AcDbLine
 62
7
  6
CONTINUOUS
 10
9.7901110609
 20
11.7161780229
 11
9.774458044
 21
11.7012119778
  0
LINE
  5
21D
100
AcDbEntity
  8
0
100
AcDbLine
 62
7
  6
CONTINUOUS
 10
9.677234433
 20
11.6082552684
 11
9.6615814161
 21
11.5932892233
  0
LINE
  5
21E
100
AcDbEntity
  8
0
100
AcDbLine
 62
7
  6
CONTINUOUS
 10
9.8148032694
 20
11.715585788
 11
9.7991502525
 21
11.700619743
  0
LINE
  5
21F
100
AcDbEntity
  8
0
100
AcDbLine
 62
7
  6
CONTINUOUS
 10
9.7019266415
 20
11.6076630335
 11
9.6862736246
 21
11.5926969885
  0
LINE
  5
220
100
AcDbEntity
  8
0
100
AcDbLine
 62
7
  6
CONTINUOUS
 10
9.7342814811
 20
11.6234133693
 11
9.7279163191
 21
11.6173275584
  0
LINE
  5
221
100
AcDbEntity
  8
0
100
AcDbLine
 62
7
  6
CONTINUOUS
 10
9.834296628
 20
11.7223724796
 11
9.8466573078
 21
11.7321393702
  0
LINE
  5
222
100
AcDbEntity
  8
0
100
AcDbLine
 62
7
  6
CONTINUOUS
 10
9.9135585398
 20
11.7107266657
 11
9.8681317155
 21
11.6972256014
  0
LINE
  5
223
100
AcDbEntity
  8
0
100
AcDbLine
 62
7
  6
CONTINUOUS
 10
9.5859778069
 20
11.6133681424
 11
9.5405509826
 21
11.5998670781
  0
LINE
  5
224
100
AcDbEntity
  8
0
100
AcDbLine
 62
7
  6
CONTINUOUS
 10
9.9358337029
 20
11.7090079333
 11
9.8904068786
 21
11.695506869
  0
LINE
  5
225
100
AcDbEntity
  8
0
100
AcDbLine
 62
7
  6
CONTINUOUS
 10
9.60825297
 20
11.6116494099
 11
9.5628261457
 21
11.5981483456
  0
LINE
  5
226
100
AcDbEntity
  8
0
100
AcDbLine
 62
7
  6
CONTINUOUS
 10
12.4900750877
 20
6.342170805
 11
12.4833673164
 21
6.344807687
  0
LINE
  5
227
100
AcDbEntity
  8
0
100
AcDbLine
 62
7
  6
CONTINUOUS
 10
12.4833673164
 20
6.344807687
 11
12.4783600965
 21
6.3468047316
  0
LINE
  5
228
100
AcDbEntity
  8
0
100
AcDbLine
 62
7
  6
CONTINUOUS
 10
12.4783600965
 20
6.3468047316
 11
12.4732372586
 21
6.3488732123
  0
LINE
  5
229
100
AcDbEntity
  8
0
100
AcDbLine
 62
7
  6
CONTINUOUS
 10
9.1681923427
 20
9.5803509489
 11
9.1681923427
 21
16.6551083327
  0
LINE
  5
22A
100
AcDbEntity
  8
0
100
AcDbLine
 62
7
  6
CONTINUOUS
 10
8.794751961
 20
7.5958083448
 11
9.153651961
 21
9.5358083448
  0
LINE
  5
22B
100
AcDbEntity
  8
0
100
AcDbLine
 62
9
  6
CONTINUOUS
 10
10.6881923427
 20
7.5303509488
 11
8.7881923427
 21
7.5303509488
  0
LINE
  5
22C
100
AcDbEntity
  8
0
100
AcDbLine
 62
7
  6
CONTINUOUS
 10
10.6581923427
 20
7.5603509488
 11
8.8181923427
 21
7.5603509488
  0
LINE
  5
22D
100
AcDbEntity
  8
0
100
AcDbLine
 62
9
  6
CONTINUOUS
 10
8.794751961
 20
7.5958083448
 11
10.6816327245
 21
7.5958083448
  0
LINE
  5
22E
100
AcDbEntity
  8
0
100
AcDbLine
 62
7
  6
CONTINUOUS
 10
12.4732372586
 20
6.3488732123
 11
12.4732551477
 21
6.3488659152
  0
LINE
  5
22F
100
AcDbEntity
  8
0
100
AcDbLine
 62
7
  6
CONTINUOUS
 10
9.4751923427
 20
11.6897460321
 11
9.4751923427
 21
11.6840915298
  0
LINE
  5
230
100
AcDbEntity
  8
0
100
AcDbLine
 62
7
  6
CONTINUOUS
 10
9.7381923427
 20
11.6304859715
 11
9.7381923427
 21
11.6284346617
  0
LINE
  5
231
100
AcDbEntity
  8
0
100
AcDbLine
 62
7
  6
CONTINUOUS
 10
9.7381923427
 20
11.7246775107
 11
9.7381923427
 21
11.7347408682
  0
LINE
  5
232
100
AcDbEntity
  8
0
100
AcDbLine
 62
7
  6
CONTINUOUS
 10
10.0011923427
 20
11.6897460321
 11
10.0011923427
 21
11.6840915298
  0
LINE
  5
233
100
AcDbEntity
  8
0
100
AcDbLine
 62
7
  6
CONTINUOUS
 10
10.3081923427
 20
9.5803509489
 11
10.3081923427
 21
16.6551083327
  0
LINE
  5
234
100
AcDbEntity
  8
0
100
AcDbLine
 62
7
  6
CONTINUOUS
 10
10.6816327245
 20
7.5958083448
 11
10.3227327245
 21
9.5358083448
  0
LINE
  5
235
100
AcDbEntity
  8
0
100
AcDbLine
 62
7
  6
CONTINUOUS
 10
10.6881923427
 20
7.5303509488
 11
10.6881923427
 21
6.4503509488
  0
LINE
  5
236
100
AcDbEntity
  8
0
100
AcDbLine
 62
7
  6
CONTINUOUS
 10
10.6881923427
 20
4.4503509488
 11
10.6881923427
 21
1.3103509488
  0
LINE
  5
237
100
AcDbEntity
  8
0
100
AcDbLine
 62
9
  6
CONTINUOUS
 10
12.5271923427
 20
9.0303509488
 11
13.0871923427
 21
9.0303509488
  0
LINE
  5
238
100
AcDbEntity
  8
0
100
AcDbLine
 62
7
  6
CONTINUOUS
 10
12.5471923427
 20
9.0503509488
 11
13.0671923427
 21
9.0503509488
  0
LINE
  5
239
100
AcDbEntity
  8
0
100
AcDbLine
 62
9
  6
CONTINUOUS
 10
9.153651961
 20
9.5358083448
 11
10.3227327245
 21
9.5358083448
  0
LINE
  5
23A
100
AcDbEntity
  8
0
100
AcDbLine
 62
7
  6
CONTINUOUS
 10
9.1831514282
 20
9.5603509488
 11
10.2932332573
 21
9.5603509488
  0
LINE
  5
23B
100
AcDbEntity
  8
0
100
AcDbLine
 62
7
  6
CONTINUOUS
 10
9.1681923104
 20
9.5803509489
 11
10.3081923751
 21
9.5803509489
  0
LINE
  5
23C
100
AcDbEntity
  8
0
100
AcDbLine
 62
7
  6
CONTINUOUS
 10
9.3023982668
 20
11.673860503
 11
9.3320441223
 21
11.644902467
  0
LINE
  5
23D
100
AcDbEntity
  8
0
100
AcDbLine
 62
9
  6
CONTINUOUS
 10
11.6331923427
 20
6.3503509488
 11
11.6331923427
 21
4.5503509488
  0
LINE
  5
23E
100
AcDbEntity
  8
0
100
AcDbLine
 62
7
  6
CONTINUOUS
 10
11.6631923427
 20
6.3203509488
 11
11.6631923427
 21
4.5803509488
  0
LINE
  5
23F
100
AcDbEntity
  8
0
100
AcDbLine
 62
7
  6
CONTINUOUS
 10
11.7031923427
 20
4.5703509488
 11
11.7031923427
 21
6.3303509488
  0
LINE
  5
240
100
AcDbEntity
  8
0
100
AcDbLine
 62
9
  6
CONTINUOUS
 10
11.7231923427
 20
4.5503509488
 11
11.7231923427
 21
6.3503509488
  0
LINE
  5
241
100
AcDbEntity
  8
0
100
AcDbLine
 62
7
  6
CONTINUOUS
 10
9.6420880575
 20
11.7223724796
 11
9.6297273777
 21
11.7321393702
  0
LINE
  5
242
100
AcDbEntity
  8
0
100
AcDbLine
 62
7
  6
CONTINUOUS
 10
9.7421032044
 20
11.6234133693
 11
9.7484683663
 21
11.6173275584
  0
LINE
  5
243
100
AcDbEntity
  8
0
100
AcDbLine
 62
7
  6
CONTINUOUS
 10
9.6615814161
 20
11.715585788
 11
9.677234433
 21
11.700619743
  0
LINE
  5
244
100
AcDbEntity
  8
0
100
AcDbLine
 62
7
  6
CONTINUOUS
 10
9.774458044
 20
11.6076630335
 11
9.7901110609
 21
11.5926969885
  0
LINE
  5
245
100
AcDbEntity
  8
0
100
AcDbLine
 62
7
  6
CONTINUOUS
 10
9.6862736246
 20
11.7161780229
 11
9.7019266415
 21
11.7012119778
  0
LINE
  5
246
100
AcDbEntity
  8
0
100
AcDbLine
 62
7
  6
CONTINUOUS
 10
9.7991502525
 20
11.6082552684
 11
9.8148032694
 21
11.5932892233
  0
LINE
  5
247
100
AcDbEntity
  8
0
100
AcDbLine
 62
7
  6
CONTINUOUS
 10
12.5271923427
 20
9.0303509488
 11
12.5271923427
 21
6.3283939621
  0
LINE
  5
248
100
AcDbEntity
  8
0
100
AcDbLine
 62
7
  6
CONTINUOUS
 10
12.5271923427
 20
4.6250359849
 11
12.5271923427
 21
4.5703509488
  0
LINE
  5
249
100
AcDbEntity
  8
0
100
AcDbLine
 62
9
  6
CONTINUOUS
 10
12.5749573502
 20
4.6279651759
 11
12.5749573502
 21
4.6262404153
  0
LINE
  5
24A
100
AcDbEntity
  8
0
100
AcDbLine
 62
9
  6
CONTINUOUS
 10
12.8031923427
 20
4.6262404153
 11
12.8031923427
 21
6.2729969113
  0
LINE
  5
24B
100
AcDbEntity
  8
0
100
AcDbLine
 62
7
  6
CONTINUOUS
 10
12.8231923427
 20
6.2547162126
 11
12.8231923427
 21
4.6462643396
  0
LINE
  5
24C
100
AcDbEntity
  8
0
100
AcDbLine
 62
7
  6
CONTINUOUS
 10
13.0871923427
 20
9.0303509488
 11
13.0871923427
 21
4.5703509488
  0
LINE
  5
24D
100
AcDbEntity
  8
0
100
AcDbLine
 62
7
  6
CONTINUOUS
 10
9.4388670625
 20
11.6970883448
 11
9.5096210001
 21
11.6863738395
  0
LINE
  5
24E
100
AcDbEntity
  8
0
100
AcDbLine
 62
7
  6
CONTINUOUS
 10
9.9490860158
 20
11.6198241832
 11
10.0198399534
 21
11.6091096779
  0
LINE
  5
24F
100
AcDbEntity
  8
0
100
AcDbLine
 62
7
  6
CONTINUOUS
 10
9.456544732
 20
11.6997653334
 11
9.5272986697
 21
11.6890508281
  0
LINE
  5
250
100
AcDbEntity
  8
0
100
AcDbLine
 62
7
  6
CONTINUOUS
 10
9.9667636853
 20
11.6225011718
 11
10.037517623
 21
11.6117866665
  0
LINE
  5
251
100
AcDbEntity
  8
0
100
AcDbLine
 62
7
  6
CONTINUOUS
 10
9.5405509826
 20
11.7090079333
 11
9.5859778069
 21
11.695506869
  0
LINE
  5
252
100
AcDbEntity
  8
0
100
AcDbLine
 62
7
  6
CONTINUOUS
 10
9.8681317155
 20
11.6116494099
 11
9.9135585398
 21
11.5981483456
  0
LINE
  5
253
100
AcDbEntity
  8
0
100
AcDbLine
 62
7
  6
CONTINUOUS
 10
9.5628261457
 20
11.7107266657
 11
9.60825297
 21
11.6972256014
  0
LINE
  5
254
100
AcDbEntity
  8
0
100
AcDbLine
 62
7
  6
CONTINUOUS
 10
9.8904068786
 20
11.6133681424
 11
9.9358337029
 21
11.5998670781
  0
LINE
  5
255
100
AcDbEntity
  8
0
100
AcDbLine
 62
7
  6
CONTINUOUS
 10
10.037517623
 20
11.6970883448
 11
9.9667636853
 21
11.6863738395
  0
LINE
  5
256
100
AcDbEntity
  8
0
100
AcDbLine
 62
7
  6
CONTINUOUS
 10
9.5272986697
 20
11.6198241832
 11
9.456544732
 21
11.6091096779
  0
LINE
  5
257
100
AcDbEntity
  8
0
100
AcDbLine
 62
7
  6
CONTINUOUS
 10
10.0198399534
 20
11.6997653334
 11
9.9490860158
 21
11.6890508281
  0
LINE
  5
258
100
AcDbEntity
  8
0
100
AcDbLine
 62
7
  6
CONTINUOUS
 10
9.5096210001
 20
11.6225011718
 11
9.4388670625
 21
11.6117866665
  0
LINE
  5
259
100
AcDbEntity
  8
0
100
AcDbLine
 62
7
  6
CONTINUOUS
 10
10.1099014991
 20
11.6809937951
 11
10.0207463365
 21
11.6741146592
  0
LINE
  5
25A
100
AcDbEntity
  8
0
100
AcDbLine
 62
7
  6
CONTINUOUS
 10
9.4669881114
 20
11.6313871497
 11
9.3778329488
 21
11.6245080139
  0
LINE
  5
25B
100
AcDbEntity
  8
0
100
AcDbLine
 62
7
  6
CONTINUOUS
 10
10.0985517366
 20
11.6843669975
 11
10.009396574
 21
11.6774878616
  0
LINE
  5
25C
100
AcDbEntity
  8
0
100
AcDbLine
 62
7
  6
CONTINUOUS
 10
9.4556383489
 20
11.6347603521
 11
9.3664831863
 21
11.6278812163
  0
LINE
  5
25D
100
AcDbEntity
  8
0
100
AcDbLine
 62
7
  6
CONTINUOUS
 10
10.1458998932
 20
11.6622997307
 11
10.0470706342
 21
11.659929342
  0
LINE
  5
25E
100
AcDbEntity
  8
0
100
AcDbLine
 62
7
  6
CONTINUOUS
 10
9.4332249129
 20
11.6452064456
 11
9.3343956539
 21
11.642836057
  0
LINE
  5
25F
100
AcDbEntity
  8
0
100
AcDbLine
 62
7
  6
CONTINUOUS
 10
10.1419890316
 20
11.6660389544
 11
10.0431597725
 21
11.6636685657
  0
LINE
  5
260
100
AcDbEntity
  8
0
100
AcDbLine
 62
7
  6
CONTINUOUS
 10
9.4293140513
 20
11.6489456693
 11
9.3304847923
 21
11.6465752806
  0
LINE
  5
261
100
AcDbEntity
  8
0
100
AcDbLine
 62
7
  6
CONTINUOUS
 10
9.3014116403
 20
11.6826337238
 11
9.29955845
 21
11.6825892756
  0
LINE
  5
262
100
AcDbEntity
  8
0
100
AcDbLine
 62
7
  6
CONTINUOUS
 10
10.1419890316
 20
11.642836057
 11
10.0431597725
 21
11.6452064456
  0
LINE
  5
263
100
AcDbEntity
  8
0
100
AcDbLine
 62
7
  6
CONTINUOUS
 10
9.4293140513
 20
11.659929342
 11
9.3304847923
 21
11.6622997307
  0
LINE
  5
264
100
AcDbEntity
  8
0
100
AcDbLine
 62
7
  6
CONTINUOUS
 10
10.1458998932
 20
11.6465752806
 11
10.0470706342
 21
11.6489456693
  0
LINE
  5
265
100
AcDbEntity
  8
0
100
AcDbLine
 62
7
  6
CONTINUOUS
 10
9.4332249129
 20
11.6636685657
 11
9.3343956539
 21
11.6660389544
  0
LINE
  5
266
100
AcDbEntity
  8
0
100
AcDbLine
 62
7
  6
CONTINUOUS
 10
10.1749730451
 20
11.6826337238
 11
10.1768262354
 21
11.6825892756
  0
LINE
  5
267
100
AcDbEntity
  8
0
100
AcDbLine
 62
7
  6
CONTINUOUS
 10
9.3664831863
 20
11.6809937951
 11
9.4556383489
 21
11.6741146592
  0
LINE
  5
268
100
AcDbEntity
  8
0
100
AcDbLine
 62
7
  6
CONTINUOUS
 10
10.009396574
 20
11.6313871497
 11
10.0985517366
 21
11.6245080139
  0
LINE
  5
269
100
AcDbEntity
  8
0
100
AcDbLine
 62
7
  6
CONTINUOUS
 10
9.3778329488
 20
11.6843669975
 11
9.4669881114
 21
11.6774878616
  0
LINE
  5
26A
100
AcDbEntity
  8
0
100
AcDbLine
 62
7
  6
CONTINUOUS
 10
10.0207463365
 20
11.6347603521
 11
10.1099014991
 21
11.6278812163
  0
LINE
  5
26B
100
AcDbEntity
  8
0
100
AcDbLine
 62
7
  6
CONTINUOUS
 10
12.155906608
 20
4.5512942865
 11
12.1629585285
 21
4.5535277173
  0
LINE
  5
26C
100
AcDbEntity
  8
0
100
AcDbLine
 62
7
  6
CONTINUOUS
 10
12.1625713987
 20
4.5534059603
 11
12.1685724318
 21
4.555287551
  0
LINE
  5
26D
100
AcDbEntity
  8
0
100
AcDbLine
 62
7
  6
CONTINUOUS
 10
12.1679400665
 20
4.5550905163
 11
12.1759218434
 21
4.557566747
  0
LINE
  5
26E
100
AcDbEntity
  8
0
100
AcDbLine
 62
7
  6
CONTINUOUS
 10
12.1749268446
 20
4.5572597552
 11
12.1836480109
 21
4.5599323358
  0
LINE
  5
26F
100
AcDbEntity
  8
0
100
AcDbLine
 62
7
  6
CONTINUOUS
 10
12.1802744548
 20
4.5589032155
 11
12.1886916941
 21
4.5614593893
  0
LINE
  5
270
100
AcDbEntity
  8
0
100
AcDbLine
 62
7
  6
CONTINUOUS
 10
12.1850950398
 20
4.5603717019
 11
12.1942049077
 21
4.5631128668
  0
LINE
  5
271
100
AcDbEntity
  8
0
100
AcDbLine
 62
7
  6
CONTINUOUS
 10
12.1903949902
 20
4.5619719214
 11
12.2001975768
 21
4.5648914752
  0
LINE
  5
272
100
AcDbEntity
  8
0
100
AcDbLine
 62
7
  6
CONTINUOUS
 10
12.1961869786
 20
4.5637033432
 11
12.2024834637
 21
4.5655648337
  0
LINE
  5
273
100
AcDbEntity
  8
0
100
AcDbLine
 62
7
  6
CONTINUOUS
 10
12.2001975768
 20
4.5648914752
 11
12.2092960375
 21
4.5675542853
  0
LWPOLYLINE
  5
274
100
AcDbEntity
  8
0
100
AcDbPolyline
 62
7
  6
CONTINUOUS
 90
25
 70
0
 10
12.2066803128
 20
4.5667934025
 10
12.2166359198
 20
4.5696686847
 10
12.2245140125
 20
4.5719041023
 10
12.2329400081
 20
4.574255506
 10
12.2419173118
 20
4.5767151452
 10
12.2514467859
 20
4.5792735538
 10
12.2615297105
 20
4.5819206906
 10
12.2721605763
 20
4.5846438343
 10
12.2833258729
 20
4.5874272107
 10
12.2950114938
 20
4.590254458
 10
12.3071979875
 20
4.5931073526
 10
12.3198522118
 20
4.595964048
 10
12.332936485
 20
4.5988019992
 10
12.3464076341
 20
4.6015977264
 10
12.3602166074
 20
4.6043274757
 10
12.3743112149
 20
4.6069679461
 10
12.3886409857
 20
4.6094976209
 10
12.4031563295
 20
4.6118967675
 10
12.4178040973
 20
4.6141467433
 10
12.432520851
 20
4.6162298629
 10
12.4472528576
 20
4.6181322217
 10
12.4619635368
 20
4.6198446103
 10
12.4766175182
 20
4.6213596304
 10
12.4911826215
 20
4.6226720469
 10
12.505634686
 20
4.6237792145
  0
LWPOLYLINE
  5
275
100
AcDbEntity
  8
0
100
AcDbPolyline
 62
7
  6
CONTINUOUS
 90
25
 70
0
 10
12.2136644547
 20
4.5688163226
 10
12.2211608039
 20
4.5709569766
 10
12.229180151
 20
4.57321135
 10
12.2377285024
 20
4.5755733794
 10
12.2468071739
 20
4.5780347676
 10
12.2564162726
 20
4.580586013
 10
12.2665546212
 20
4.5832166431
 10
12.2772128307
 20
4.5859131265
 10
12.2883787793
 20
4.588660604
 10
12.300038618
 20
4.591443287
 10
12.312168096
 20
4.5942423157
 10
12.3247321441
 20
4.597036431
 10
12.3376915299
 20
4.5998035966
 10
12.3510023765
 20
4.6025214821
 10
12.364616261
 20
4.6051676886
 10
12.3784839498
 20
4.6077208556
 10
12.3925623109
 20
4.6101621504
 10
12.4068090851
 20
4.6124740817
 10
12.4211742728
 20
4.6146396852
 10
12.4355930586
 20
4.6166418201
 10
12.4500176493
 20
4.6184685003
 10
12.4644145655
 20
4.6201113942
 10
12.4787503863
 20
4.6215639429
 10
12.4929957715
 20
4.6228217746
 10
12.5071288512
 20
4.6238823635
  0
ARC
  5
276
100
AcDbEntity
  8
0
100
AcDbCircle
 62
7
  6
CONTINUOUS
 10
9.7368138701
 20
9.0939442326
 40
2.6227207948
100
AcDbArc
 50
91.1041670985
 51
91.6437485284
  0
ARC
  5
277
100
AcDbEntity
  8
0
100
AcDbCircle
 62
7
  6
CONTINUOUS
 10
9.7398660522
 20
9.1062536227
 40
2.6104080017
100
AcDbArc
 50
88.3549789112
 51
88.897105462
  0
ARC
  5
278
100
AcDbEntity
  8
0
100
AcDbCircle
 62
7
  6
CONTINUOUS
 10
9.7371915391
 20
9.7158574205
 40
1.9856677293
100
AcDbArc
 50
91.0176103466
 51
91.7303052803
  0
ARC
  5
279
100
AcDbEntity
  8
0
100
AcDbCircle
 62
7
  6
CONTINUOUS
 10
9.7394884091
 20
9.72816789
 40
1.9733539591
100
AcDbArc
 50
88.2674710751
 51
88.984613298
  0
ARC
  5
27A
100
AcDbEntity
  8
0
100
AcDbCircle
 62
7
  6
CONTINUOUS
 10
9.7017745732
 20
9.7647185437
 40
1.9509623976
100
AcDbArc
 50
94.0840890555
 51
94.7402131091
  0
ARC
  5
27B
100
AcDbEntity
  8
0
100
AcDbCircle
 62
7
  6
CONTINUOUS
 10
9.7768532718
 20
9.7937904008
 40
1.9218046139
100
AcDbArc
 50
85.2548094502
 51
85.9208883852
  0
ARC
  5
27C
100
AcDbEntity
  8
0
100
AcDbCircle
 62
7
  6
CONTINUOUS
 10
9.7381924341
 20
10.0972105374
 40
1.6241335948
100
AcDbArc
 50
89.8145478198
 51
90.1854521802
  0
ARC
  5
27D
100
AcDbEntity
  8
0
100
AcDbCircle
 62
7
  6
CONTINUOUS
 10
9.7109288642
 20
10.2213177476
 40
1.4794750191
100
AcDbArc
 50
93.9795386662
 51
94.8447634984
  0
ARC
  5
27E
100
AcDbEntity
  8
0
100
AcDbCircle
 62
7
  6
CONTINUOUS
 10
9.7676991775
 20
10.2503921537
 40
1.4503150417
100
AcDbArc
 50
85.146538243
 51
86.0291595924
  0
ARC
  5
27F
100
AcDbEntity
  8
0
100
AcDbCircle
 62
7
  6
CONTINUOUS
 10
9.7506196702
 20
10.3136236022
 40
1.4100257052
100
AcDbArc
 50
86.5226663651
 51
86.670404307
  0
ARC
  5
280
100
AcDbEntity
  8
0
100
AcDbCircle
 62
7
  6
CONTINUOUS
 10
9.7257650153
 20
10.3136236023
 40
1.4100257052
100
AcDbArc
 50
93.329595693
 51
93.4773336349
  0
ARC
  5
281
100
AcDbEntity
  8
0
100
AcDbCircle
 62
7
  6
CONTINUOUS
 10
9.724256213
 20
10.4403689845
 40
1.2806533937
100
AcDbArc
 50
93.4155317507
 51
93.951956851
  0
ARC
  5
282
100
AcDbEntity
  8
0
100
AcDbCircle
 62
7
  6
CONTINUOUS
 10
9.7521284725
 20
10.4403689847
 40
1.2806533935
100
AcDbArc
 50
86.048043149
 51
86.5844682494
  0
ARC
  5
283
100
AcDbEntity
  8
0
100
AcDbCircle
 62
7
  6
CONTINUOUS
 10
10.7881914281
 20
6.4503500144
 40
0.0999999066
100
AcDbArc
 50
179.9994646434
 51
270.0005240481
  0
ARC
  5
284
100
AcDbEntity
  8
0
100
AcDbCircle
 62
7
  6
CONTINUOUS
 10
10.7881913041
 20
4.450352009
 40
0.099999894
100
AcDbArc
 50
89.9994049116
 51
180.0006074962
  0
ARC
  5
285
100
AcDbEntity
  8
0
100
AcDbCircle
 62
7
  6
CONTINUOUS
 10
8.8181923427
 20
7.5303509488
 40
0.03
100
AcDbArc
 50
90.0
 51
180.0
  0
ARC
  5
286
100
AcDbEntity
  8
0
100
AcDbCircle
 62
7
  6
CONTINUOUS
 10
10.6581923427
 20
7.5303509488
 40
0.03
100
AcDbArc
 50
0.0
 51
90.0
  0
ARC
  5
287
100
AcDbEntity
  8
0
100
AcDbCircle
 62
7
  6
CONTINUOUS
 10
8.8242513988
 20
7.5903509488
 40
0.03
100
AcDbArc
 50
169.5187818559
 51
270.0
  0
ARC
  5
288
100
AcDbEntity
  8
0
100
AcDbCircle
 62
7
  6
CONTINUOUS
 10
10.6521332867
 20
7.5903509488
 40
0.03
100
AcDbArc
 50
270.0
 51
10.4812181441
  0
ARC
  5
289
100
AcDbEntity
  8
0
100
AcDbCircle
 62
7
  6
CONTINUOUS
 10
10.2932332867
 20
9.5303509488
 40
0.03
100
AcDbArc
 50
10.4812181441
 51
90.0
  0
ARC
  5
28A
100
AcDbEntity
  8
0
100
AcDbCircle
 62
7
  6
CONTINUOUS
 10
9.1831513988
 20
9.5303509488
 40
0.03
100
AcDbArc
 50
90.0
 51
169.5187818559
  0
ARC
  5
28B
100
AcDbEntity
  8
0
100
AcDbCircle
 62
7
  6
CONTINUOUS
 10
9.7381923427
 20
14.5385595891
 40
2.9347059739
100
AcDbArc
 50
269.3616955815
 51
270.6383044185
  0
ARC
  5
28C
100
AcDbEntity
  8
0
100
AcDbCircle
 62
7
  6
CONTINUOUS
 10
9.7381921316
 20
14.5289758571
 40
2.9116664313
100
AcDbArc
 50
269.7977921166
 51
270.2022078834
  0
ARC
  5
28D
100
AcDbEntity
  8
0
100
AcDbCircle
 62
7
  6
CONTINUOUS
 10
9.7395708154
 20
14.2149307787
 40
2.6227207947
100
AcDbArc
 50
271.1041670985
 51
271.6437485284
  0
ARC
  5
28E
100
AcDbEntity
  8
0
100
AcDbCircle
 62
7
  6
CONTINUOUS
 10
9.7293155991
 20
14.2231112107
 40
2.6191197324
100
AcDbArc
 50
267.0434661917
 51
268.0132331829
  0
ARC
  5
28F
100
AcDbEntity
  8
0
100
AcDbCircle
 62
7
  6
CONTINUOUS
 10
9.7470690864
 20
14.2231112107
 40
2.6191197324
100
AcDbArc
 50
271.9867668171
 51
272.9565338083
  0
ARC
  5
290
100
AcDbEntity
  8
0
100
AcDbCircle
 62
7
  6
CONTINUOUS
 10
9.7365186333
 20
14.2026213884
 40
2.6104080015
100
AcDbArc
 50
268.3549789111
 51
268.897105462
  0
ARC
  5
291
100
AcDbEntity
  8
0
100
AcDbCircle
 62
7
  6
CONTINUOUS
 10
9.7391931464
 20
13.5930175908
 40
1.9856677293
100
AcDbArc
 50
271.0176103466
 51
271.7303052803
  0
ARC
  5
292
100
AcDbEntity
  8
0
100
AcDbCircle
 62
7
  6
CONTINUOUS
 10
9.7368962763
 20
13.5807071214
 40
1.9733539591
100
AcDbArc
 50
268.2674710751
 51
268.984613298
  0
ARC
  5
293
100
AcDbEntity
  8
0
100
AcDbCircle
 62
7
  6
CONTINUOUS
 10
9.7746101123
 20
13.5441564677
 40
1.9509623975
100
AcDbArc
 50
274.0840890555
 51
274.7402131091
  0
ARC
  5
294
100
AcDbEntity
  8
0
100
AcDbCircle
 62
7
  6
CONTINUOUS
 10
9.6995314136
 20
13.5150846104
 40
1.9218046137
100
AcDbArc
 50
265.2548094501
 51
265.9208883853
  0
ARC
  5
295
100
AcDbEntity
  8
0
100
AcDbCircle
 62
7
  6
CONTINUOUS
 10
9.7988364991
 20
13.4647724876
 40
1.8589503244
100
AcDbArc
 50
274.9640994914
 51
275.6510764284
  0
ARC
  5
296
100
AcDbEntity
  8
0
100
AcDbCircle
 62
7
  6
CONTINUOUS
 10
9.6745841718
 20
13.4328673215
 40
1.8269083604
100
AcDbArc
 50
264.3428990874
 51
265.0419249928
  0
ARC
  5
297
100
AcDbEntity
  8
0
100
AcDbCircle
 62
7
  6
CONTINUOUS
 10
9.7654558213
 20
13.0875572636
 40
1.479475019
100
AcDbArc
 50
273.9795386661
 51
274.8447634985
  0
ARC
  5
298
100
AcDbEntity
  8
0
100
AcDbCircle
 62
7
  6
CONTINUOUS
 10
9.7086855079
 20
13.0584828574
 40
1.4503150415
100
AcDbArc
 50
265.1465382429
 51
266.0291595925
  0
ARC
  5
299
100
AcDbEntity
  8
0
100
AcDbCircle
 62
7
  6
CONTINUOUS
 10
9.8779451898
 20
12.6058273653
 40
1.0067672383
100
AcDbArc
 50
278.1023004932
 51
279.1198315428
  0
ARC
  5
29A
100
AcDbEntity
  8
0
100
AcDbCircle
 62
7
  6
CONTINUOUS
 10
9.5984394957
 20
10.7030476461
 40
1.0067672383
100
AcDbArc
 50
98.1023004932
 51
99.1198315428
  0
ARC
  5
29B
100
AcDbEntity
  8
0
100
AcDbCircle
 62
7
  6
CONTINUOUS
 10
9.8822637677
 20
10.7315656582
 40
0.977925262
100
AcDbArc
 50
80.8651630097
 51
81.9127049543
  0
ARC
  5
29C
100
AcDbEntity
  8
0
100
AcDbCircle
 62
7
  6
CONTINUOUS
 10
9.5941209178
 20
12.577309353
 40
0.9779252618
100
AcDbArc
 50
260.8651630097
 51
261.9127049543
  0
ARC
  5
29D
100
AcDbEntity
  8
0
100
AcDbCircle
 62
7
  6
CONTINUOUS
 10
9.9087479312
 20
12.5786348638
 40
0.9658532103
100
AcDbArc
 50
278.91711364
 51
279.7011441021
  0
ARC
  5
29E
100
AcDbEntity
  8
0
100
AcDbCircle
 62
7
  6
CONTINUOUS
 10
9.5642019128
 20
12.5576804727
 40
0.9446196741
100
AcDbArc
 50
260.2900438817
 51
261.0916983762
  0
ARC
  5
29F
100
AcDbEntity
  8
0
100
AcDbCircle
 62
7
  6
CONTINUOUS
 10
9.8455393244
 20
10.9455671481
 40
0.7506596431
100
AcDbArc
 50
80.7065823411
 51
82.0712856229
  0
ARC
  5
2A0
100
AcDbEntity
  8
0
100
AcDbCircle
 62
7
  6
CONTINUOUS
 10
9.6308453611
 20
10.9455671481
 40
0.7506596431
100
AcDbArc
 50
97.9287143772
 51
99.2934176589
  0
ARC
  5
2A1
100
AcDbEntity
  8
0
100
AcDbCircle
 62
7
  6
CONTINUOUS
 10
9.6308453611
 20
12.3633078632
 40
0.750659643
100
AcDbArc
 50
260.7065823411
 51
262.0712856229
  0
ARC
  5
2A2
100
AcDbEntity
  8
0
100
AcDbCircle
 62
7
  6
CONTINUOUS
 10
9.8455393244
 20
12.3633078632
 40
0.750659643
100
AcDbArc
 50
277.9287143771
 51
279.2934176589
  0
ARC
  5
2A3
100
AcDbEntity
  8
0
100
AcDbCircle
 62
7
  6
CONTINUOUS
 10
9.7381923427
 20
16.6551083574
 40
0.57
100
AcDbArc
 50
0.0
 51
180.0
  0
ARC
  5
2A4
100
AcDbEntity
  8
0
100
AcDbCircle
 62
7
  6
CONTINUOUS
 10
9.4542155774
 20
11.9022922619
 40
0.2880944193
100
AcDbArc
 50
252.2703194839
 51
254.6252904338
  0
ARC
  5
2A5
100
AcDbEntity
  8
0
100
AcDbCircle
 62
7
  6
CONTINUOUS
 10
10.0221691081
 20
11.9022922619
 40
0.2880944193
100
AcDbArc
 50
285.3747095662
 51
287.7296805161
  0
ARC
  5
2A6
100
AcDbEntity
  8
0
100
AcDbCircle
 62
7
  6
CONTINUOUS
 10
9.4542155774
 20
11.4065827494
 40
0.2880944193
100
AcDbArc
 50
105.3747095662
 51
107.7296805162
  0
ARC
  5
2A7
100
AcDbEntity
  8
0
100
AcDbCircle
 62
7
  6
CONTINUOUS
 10
10.0221691081
 20
11.4065827495
 40
0.2880944192
100
AcDbArc
 50
72.2703194838
 51
74.6252904339
  0
ARC
  5
2A8
100
AcDbEntity
  8
0
100
AcDbCircle
 62
7
  6
CONTINUOUS
 10
9.7381923427
 20
11.7874639663
 40
0.1640972066
100
AcDbArc
 50
268.6343638159
 51
271.3656361841
  0
ARC
  5
2A9
100
AcDbEntity
  8
0
100
AcDbCircle
 62
7
  6
CONTINUOUS
 10
11.6331923427
 20
6.3203509488
 40
0.03
100
AcDbArc
 50
0.0
 51
90.0
  0
ARC
  5
2AA
100
AcDbEntity
  8
0
100
AcDbCircle
 62
7
  6
CONTINUOUS
 10
11.6331923427
 20
4.5803509488
 40
0.03
100
AcDbArc
 50
270.0
 51
360.0
  0
ARC
  5
2AB
100
AcDbEntity
  8
0
100
AcDbCircle
 62
7
  6
CONTINUOUS
 10
12.8031923427
 20
6.2547101657
 40
0.0200000001
100
AcDbArc
 50
0.0000001745
 51
88.5919779707
  0
ARC
  5
2AC
100
AcDbEntity
  8
0
100
AcDbCircle
 62
7
  6
CONTINUOUS
 10
12.5471923427
 20
4.5703509488
 40
0.02
100
AcDbArc
 50
180.0
 51
270.0
  0
ARC
  5
2AD
100
AcDbEntity
  8
0
100
AcDbCircle
 62
7
  6
CONTINUOUS
 10
13.0671923427
 20
4.5703509488
 40
0.02
100
AcDbArc
 50
270.0
 51
360.0
  0
ARC
  5
2AE
100
AcDbEntity
  8
0
100
AcDbCircle
 62
7
  6
CONTINUOUS
 10
12.5471923427
 20
9.0303509488
 40
0.02
100
AcDbArc
 50
90.0
 51
180.0
  0
ARC
  5
2AF
100
AcDbEntity
  8
0
100
AcDbCircle
 62
7
  6
CONTINUOUS
 10
13.0671923427
 20
9.0303509488
 40
0.02
100
AcDbArc
 50
0.0
 51
90.0
  0
ARC
  5
2B0
100
AcDbEntity
  8
0
100
AcDbCircle
 62
7
  6
CONTINUOUS
 10
11.7231923427
 20
4.5703509488
 40
0.02
100
AcDbArc
 50
180.0
 51
270.0
  0
ARC
  5
2B1
100
AcDbEntity
  8
0
100
AcDbCircle
 62
7
  6
CONTINUOUS
 10
11.7231923427
 20
6.3303509488
 40
0.02
100
AcDbArc
 50
90.0
 51
180.0
  0
ARC
  5
2B2
100
AcDbEntity
  8
0
100
AcDbCircle
 62
7
  6
CONTINUOUS
 10
12.4656923427
 20
6.3303509488
 40
0.02
100
AcDbArc
 50
67.8368153256
 51
90.0
  0
ARC
  5
2B3
100
AcDbEntity
  8
0
100
AcDbCircle
 62
7
  6
CONTINUOUS
 10
12.1498367132
 20
4.5703509488
 40
0.02
100
AcDbArc
 50
270.0000000003
 51
287.66762689
  0
ARC
  5
2B4
100
AcDbEntity
  8
0
100
AcDbCircle
 62
7
  6
CONTINUOUS
 10
12.803192345
 20
4.6462404143
 40
0.0199999977
100
AcDbArc
 50
269.9999934421
 51
0.0000028462
  0
SPLINE
  5
2B5
100
AcDbEntity
  8
0
100
AcDbSpline
 62
7
  6
CONTINUOUS
 70
0
 71
3
 72
11
 73
7
 74
0
 42
0.0000001
 43
0.0000001
 44
0.0000000001
 40
0.0
 40
0.0
 40
0.0
 40
0.0
 40
0.2803853984
 40
0.5383472673
 40
0.7769213966
 40
1.0
 40
1.0
 40
1.0
 40
1.0
 10
10.1739864186
 20
11.673860503
 30
0.0
 10
10.1745530118
 20
11.6744139513
 30
0.0
 10
10.1755979381
 20
11.6755223632
 30
0.0
 10
10.1769354083
 20
11.6772680375
 30
0.0
 10
10.1779717245
 20
11.6790230577
 30
0.0
 10
10.1784735009
 20
11.6802330288
 30
0.0
 10
10.1786669811
 20
11.6808327524
 30
0.0
  0
LINE
  5
2B6
100
AcDbEntity
  8
0
100
AcDbLine
 62
7
  6
CONTINUOUS
 10
9.3320441221
 20
11.644902467
 11
9.3343956539
 21
11.642836057
  0
SPLINE
  5
2B7
100
AcDbEntity
  8
0
100
AcDbSpline
 62
7
  6
CONTINUOUS
 70
0
 71
3
 72
17
 73
13
 74
0
 42
0.0000001
 43
0.0000001
 44
0.0000000001
 40
0.0
 40
0.0
 40
0.0
 40
0.0
 40
0.1545293867
 40
0.2984185245
 40
0.4324737279
 40
0.5577126644
 40
0.6754012259
 40
0.7870784588
 40
0.8412507777
 40
0.8946199574
 40
0.9474466764
 40
1.0
 40
1.0
 40
1.0
 40
1.0
 10
10.2992717948
 20
13.9393901001
 30
0.0
 10
10.2999874331
 20
13.9399954372
 30
0.0
 10
10.3013346757
 20
13.9412066976
 30
0.0
 10
10.3031554989
 20
13.9430985977
 30
0.0
 10
10.3047008227
 20
13.9449982605
 30
0.0
 10
10.3059693824
 20
13.9469056235
 30
0.0
 10
10.3069596239
 20
13.9488203076
 30
0.0
 10
10.30755728
 20
13.9504386689
 30
0.0
 10
10.3078880247
 20
13.9517275292
 30
0.0
 10
10.3080635664
 20
13.9526851616
 30
0.0
 10
10.308168908
 20
13.9536430981
 30
0.0
 10
10.3081923411
 20
13.9542825424
 30
0.0
 10
10.3081923411
 20
13.9546013125
 30
0.0
  0
SPLINE
  5
2B8
100
AcDbEntity
  8
0
100
AcDbSpline
 62
7
  6
CONTINUOUS
 70
0
 71
3
 72
99
 73
95
 74
0
 42
0.0000001
 43
0.0000001
 44
0.0000000001
 40
0.0
 40
0.0
 40
0.0
 40
0.0
 40
0.0009010662
 40
0.0018079154
 40
0.0027261645
 40
0.0036612283
 40
0.0056008084
 40
0.0076646596
 40
0.0098829769
 40
0.0122797953
 40
0.0148738146
 40
0.0176793726
 40
0.020707347
 40
0.0239659094
 40
0.0274611182
 40
0.0311973651
 40
0.0351777132
 40
0.0394041606
 40
0.0438778347
 40
0.0485991328
 40
0.0535678407
 40
0.0587832243
 40
0.0642440949
 40
0.0699488595
 40
0.0758955721
 40
0.082081969
 40
0.0885054907
 40
0.0951633096
 40
0.1020523537
 40
0.109169321
 40
0.1240725662
 40
0.139842705
 40
0.1564462617
 40
0.1738471125
 40
0.192006695
 40
0.2108842208
 40
0.2304368418
 40
0.2506198219
 40
0.2713866914
 40
0.2926893946
 40
0.3144784432
 40
0.3367030529
 40
0.3593112953
 40
0.382250234
 40
0.4054660728
 40
0.428904295
 40
0.4525098091
 40
0.5
 40
0.5474901909
 40
0.571095705
 40
0.5945339272
 40
0.617749766
 40
0.6406887047
 40
0.6632969471
 40
0.6855215568
 40
0.7073106054
 40
0.7286133086
 40
0.7493801781
 40
0.7695631582
 40
0.7891157792
 40
0.807993305
 40
0.8261528875
 40
0.8435537383
 40
0.860157295
 40
0.8759274338
 40
0.890830679
 40
0.8979476463
 40
0.9048366904
 40
0.9114945093
 40
0.917918031
 40
0.9241044279
 40
0.9300511405
 40
0.9357559051
 40
0.9412167757
 40
0.9464321593
 40
0.9514008672
 40
0.9561221653
 40
0.9605958394
 40
0.9648222868
 40
0.9688026349
 40
0.9725388818
 40
0.9760340906
 40
0.979292653
 40
0.9823206274
 40
0.9851261854
 40
0.9877202047
 40
0.9901170231
 40
0.9923353404
 40
0.9943991916
 40
0.9963387717
 40
0.9972738355
 40
0.9981920846
 40
0.9990989338
 40
1.0
 40
1.0
 40
1.0
 40
1.0
 10
9.2931923427
 20
11.6712414527
 30
0.0
 10
9.2931923427
 20
11.6715173234
 30
0.0
 10
9.2932148535
 20
11.6720710958
 30
0.0
 10
9.2933159984
 20
11.6729004361
 30
0.0
 10
9.2934845249
 20
11.673729425
 30
0.0
 10
9.2938026715
 20
11.6748472345
 30
0.0
 10
9.2943785182
 20
11.6762512006
 30
0.0
 10
9.295329526
 20
11.6779070082
 30
0.0
 10
9.296546651
 20
11.6795550161
 30
0.0
 10
9.2980282619
 20
11.681195046
 30
0.0
 10
9.2997732286
 20
11.6828272278
 30
0.0
 10
9.3017805723
 20
11.6844513043
 30
0.0
 10
9.3040492896
 20
11.6860668254
 30
0.0
 10
9.3065782525
 20
11.6876731478
 30
0.0
 10
9.3093661641
 20
11.6892695078
 30
0.0
 10
9.3124115389
 20
11.690855064
 30
0.0
 10
9.3157127008
 20
11.6924289313
 30
0.0
 10
9.3192677908
 20
11.6939901964
 30
0.0
 10
9.323074772
 20
11.6955379322
 30
0.0
 10
9.3271314327
 20
11.6970712108
 30
0.0
 10
9.3314353944
 20
11.6985891054
 30
0.0
 10
9.335984118
 20
11.7000906934
 30
0.0
 10
9.3407749061
 20
11.70157506
 30
0.0
 10
9.345804906
 20
11.7030413023
 30
0.0
 10
9.3510711157
 20
11.704488527
 30
0.0
 10
9.3565703863
 20
11.7059158509
 30
0.0
 10
9.3622994239
 20
11.7073224066
 30
0.0
 10
9.3682547914
 20
11.7087073352
 30
0.0
 10
9.3744329174
 20
11.7100698083
 30
0.0
 10
9.3830961488
 20
11.7118833027
 30
0.0
 10
9.3944561947
 20
11.7140810065
 30
0.0
 10
9.4087142719
 20
11.7165774174
 30
0.0
 10
9.4237655608
 20
11.7189656448
 30
0.0
 10
9.4395738638
 20
11.7212398411
 30
0.0
 10
9.4561012061
 20
11.7233944206
 30
0.0
 10
9.4733078369
 20
11.725424109
 30
0.0
 10
9.4911523602
 20
11.7273239481
 30
0.0
 10
9.5095918295
 20
11.7290893027
 30
0.0
 10
9.5285818571
 20
11.730715871
 30
0.0
 10
9.5480767228
 20
11.7321996955
 30
0.0
 10
9.5680294842
 20
11.7335371655
 30
0.0
 10
9.5883920932
 20
11.7347250336
 30
0.0
 10
9.6091155101
 20
11.7357604117
 30
0.0
 10
9.6301498257
 20
11.7366407899
 30
0.0
 10
9.6514443749
 20
11.7373640259
 30
0.0
 10
9.6729478816
 20
11.7379283823
 30
0.0
 10
9.7018856151
 20
11.7384681723
 30
0.0
 10
9.7381923427
 20
11.738736913
 30
0.0
 10
9.7744990704
 20
11.7384681723
 30
0.0
 10
9.8034368038
 20
11.7379283823
 30
0.0
 10
9.8249403106
 20
11.7373640259
 30
0.0
 10
9.8462348598
 20
11.7366407899
 30
0.0
 10
9.8672691753
 20
11.7357604117
 30
0.0
 10
9.8879925923
 20
11.7347250336
 30
0.0
 10
9.9083552013
 20
11.7335371655
 30
0.0
 10
9.9283079627
 20
11.7321996955
 30
0.0
 10
9.9478028283
 20
11.730715871
 30
0.0
 10
9.966792856
 20
11.7290893027
 30
0.0
 10
9.9852323253
 20
11.7273239481
 30
0.0
 10
10.0030768485
 20
11.725424109
 30
0.0
 10
10.0202834793
 20
11.7233944206
 30
0.0
 10
10.0368108217
 20
11.7212398411
 30
0.0
 10
10.0526191247
 20
11.7189656448
 30
0.0
 10
10.0676704135
 20
11.7165774174
 30
0.0
 10
10.0819284907
 20
11.7140810065
 30
0.0
 10
10.0932885367
 20
11.7118833027
 30
0.0
 10
10.1019517681
 20
11.7100698083
 30
0.0
 10
10.108129894
 20
11.7087073352
 30
0.0
 10
10.1140852616
 20
11.7073224066
 30
0.0
 10
10.1198142991
 20
11.7059158509
 30
0.0
 10
10.1253135698
 20
11.704488527
 30
0.0
 10
10.1305797794
 20
11.7030413023
 30
0.0
 10
10.1356097794
 20
11.70157506
 30
0.0
 10
10.1404005675
 20
11.7000906934
 30
0.0
 10
10.144949291
 20
11.6985891054
 30
0.0
 10
10.1492532528
 20
11.6970712108
 30
0.0
 10
10.1533099135
 20
11.6955379322
 30
0.0
 10
10.1571168947
 20
11.6939901964
 30
0.0
 10
10.1606719847
 20
11.6924289313
 30
0.0
 10
10.1639731466
 20
11.690855064
 30
0.0
 10
10.1670185214
 20
11.6892695078
 30
0.0
 10
10.1698064329
 20
11.6876731478
 30
0.0
 10
10.1723353958
 20
11.6860668254
 30
0.0
 10
10.1746041132
 20
11.6844513043
 30
0.0
 10
10.1766114568
 20
11.6828272278
 30
0.0
 10
10.1783564235
 20
11.681195046
 30
0.0
 10
10.1798380345
 20
11.6795550161
 30
0.0
 10
10.1810551595
 20
11.6779070082
 30
0.0
 10
10.1820061673
 20
11.6762512006
 30
0.0
 10
10.182582014
 20
11.6748472345
 30
0.0
 10
10.1829001606
 20
11.673729425
 30
0.0
 10
10.1830686871
 20
11.6729004361
 30
0.0
 10
10.183169832
 20
11.6720710958
 30
0.0
 10
10.1831923427
 20
11.6715173234
 30
0.0
 10
10.1831923427
 20
11.6712414527
 30
0.0
  0
SPLINE
  5
2B9
100
AcDbEntity
  8
0
100
AcDbSpline
 62
7
  6
CONTINUOUS
 70
0
 71
3
 72
11
 73
7
 74
0
 42
0.0000001
 43
0.0000001
 44
0.0000000001
 40
0.0
 40
0.0
 40
0.0
 40
0.0
 40
0.2230786034
 40
0.4616527327
 40
0.7196146016
 40
1.0
 40
1.0
 40
1.0
 40
1.0
 10
9.2977177043
 20
11.6808327524
 30
0.0
 10
9.2979111845
 20
11.6802330288
 30
0.0
 10
9.298412961
 20
11.6790230577
 30
0.0
 10
9.2994492771
 20
11.6772680375
 30
0.0
 10
9.3007867474
 20
11.6755223632
 30
0.0
 10
9.3018316737
 20
11.6744139513
 30
0.0
 10
9.3023982669
 20
11.673860503
 30
0.0
  0
SPLINE
  5
2BA
100
AcDbEntity
  8
0
100
AcDbSpline
 62
7
  6
CONTINUOUS
 70
0
 71
3
 72
47
 73
43
 74
0
 42
0.0000001
 43
0.0000001
 44
0.0000000001
 40
0.0
 40
0.0
 40
0.0
 40
0.0
 40
0.0036129561
 40
0.0073168601
 40
0.0111960632
 40
0.0153237997
 40
0.0197604641
 40
0.0245541416
 40
0.0297422242
 40
0.0353533794
 40
0.0414093792
 40
0.047926556
 40
0.0549170281
 40
0.0623895828
 40
0.0703503382
 40
0.0788033045
 40
0.0877507239
 40
0.0971933889
 40
0.1071308896
 40
0.1175617393
 40
0.1284835632
 40
0.1398931867
 40
0.1517867044
 40
0.1641595975
 40
0.1903219896
 40
0.2183338346
 40
0.2481405653
 40
0.2796810892
 40
0.312888466
 40
0.347690444
 40
0.3840099003
 40
0.4217652491
 40
0.4608707998
 40
0.5012370826
 40
0.5427711516
 40
0.5853768962
 40
0.6289553367
 40
0.6734049109
 40
0.7186217548
 40
0.8109313228
 40
0.9050188925
 40
1.0
 40
1.0
 40
1.0
 40
1.0
 10
9.4751923427
 20
11.6840915298
 30
0.0
 10
9.4751923427
 20
11.6837646607
 30
0.0
 10
9.4752467521
 20
11.6831015003
 30
0.0
 10
9.4754899075
 20
11.6821142614
 30
0.0
 10
9.4758933732
 20
11.6811307897
 30
0.0
 10
9.4764554475
 20
11.6801520896
 30
0.0
 10
9.4771747748
 20
11.6791781265
 30
0.0
 10
9.4780504259
 20
11.6782088422
 30
0.0
 10
9.4790817214
 20
11.6772442083
 30
0.0
 10
9.4802680826
 20
11.6762843578
 30
0.0
 10
9.4816089208
 20
11.6753295685
 30
0.0
 10
9.4831035663
 20
11.6743802134
 30
0.0
 10
9.4847512533
 20
11.6734367464
 30
0.0
 10
9.4865511041
 20
11.6724996658
 30
0.0
 10
9.4885021274
 20
11.6715694912
 30
0.0
 10
9.4906032261
 20
11.6706467671
 30
0.0
 10
9.4928531947
 20
11.669732038
 30
0.0
 10
9.4952507262
 20
11.6688258517
 30
0.0
 10
9.4977944164
 20
11.6679287603
 30
0.0
 10
9.5004827632
 20
11.6670413048
 30
0.0
 10
9.5033141726
 20
11.6661640262
 30
0.0
 10
9.506286959
 20
11.6652974635
 30
0.0
 10
9.5093993487
 20
11.6644421286
 30
0.0
 10
9.5138155276
 20
11.6632959627
 30
0.0
 10
9.5196729315
 20
11.6619007084
 30
0.0
 10
9.527102663
 20
11.6603085377
 30
0.0
 10
9.5350404038
 20
11.6587728651
 30
0.0
 10
9.5434671052
 20
11.6572974673
 30
0.0
 10
9.5523625806
 20
11.6558859955
 30
0.0
 10
9.561705467
 20
11.6545419205
 30
0.0
 10
9.5714733118
 20
11.6532685402
 30
0.0
 10
9.5816426239
 20
11.6520689711
 30
0.0
 10
9.5921889373
 20
11.6509461447
 30
0.0
 10
9.603086871
 20
11.6499028006
 30
0.0
 10
9.6143101909
 20
11.6489414806
 30
0.0
 10
9.6258318756
 20
11.6480645232
 30
0.0
 10
9.6376241804
 20
11.647274065
 30
0.0
 10
9.6496587163
 20
11.6465720137
 30
0.0
 10
9.666101982
 20
11.645750522
 30
0.0
 10
9.687042476
 20
11.6449602158
 30
0.0
 10
9.7124936846
 20
11.6443912147
 30
0.0
 10
9.7295992716
 20
11.6442645607
 30
0.0
 10
9.7381923427
 20
11.6442645607
 30
0.0
  0
SPLINE
  5
2BB
100
AcDbEntity
  8
0
100
AcDbSpline
 62
7
  6
CONTINUOUS
 70
0
 71
3
 72
47
 73
43
 74
0
 42
0.0000001
 43
0.0000001
 44
0.0000000001
 40
0.0
 40
0.0
 40
0.0
 40
0.0
 40
0.0036129561
 40
0.0073168601
 40
0.0111960632
 40
0.0153237997
 40
0.0197604641
 40
0.0245541416
 40
0.0297422242
 40
0.0353533794
 40
0.0414093792
 40
0.047926556
 40
0.0549170281
 40
0.0623895828
 40
0.0703503382
 40
0.0788033045
 40
0.0877507239
 40
0.0971933889
 40
0.1071308896
 40
0.1175617393
 40
0.1284835632
 40
0.1398931867
 40
0.1517867044
 40
0.1641595975
 40
0.1903219896
 40
0.2183338346
 40
0.2481405653
 40
0.2796810892
 40
0.312888466
 40
0.347690444
 40
0.3840099003
 40
0.4217652491
 40
0.4608707998
 40
0.5012370826
 40
0.5427711516
 40
0.5853768962
 40
0.6289553367
 40
0.6734049109
 40
0.7186217548
 40
0.8109313228
 40
0.9050188925
 40
1.0
 40
1.0
 40
1.0
 40
1.0
 10
10.0011923427
 20
11.6840915298
 30
0.0
 10
10.0011923427
 20
11.6837646607
 30
0.0
 10
10.0011379333
 20
11.6831015003
 30
0.0
 10
10.000894778
 20
11.6821142614
 30
0.0
 10
10.0004913122
 20
11.6811307897
 30
0.0
 10
9.999929238
 20
11.6801520896
 30
0.0
 10
9.9992099107
 20
11.6791781265
 30
0.0
 10
9.9983342595
 20
11.6782088422
 30
0.0
 10
9.997302964
 20
11.6772442083
 30
0.0
 10
9.9961166029
 20
11.6762843578
 30
0.0
 10
9.9947757646
 20
11.6753295685
 30
0.0
 10
9.9932811192
 20
11.6743802134
 30
0.0
 10
9.9916334322
 20
11.6734367464
 30
0.0
 10
9.9898335814
 20
11.6724996658
 30
0.0
 10
9.987882558
 20
11.6715694912
 30
0.0
 10
9.9857814593
 20
11.6706467671
 30
0.0
 10
9.9835314908
 20
11.669732038
 30
0.0
 10
9.9811339592
 20
11.6688258517
 30
0.0
 10
9.978590269
 20
11.6679287603
 30
0.0
 10
9.9759019223
 20
11.6670413048
 30
0.0
 10
9.9730705129
 20
11.6661640262
 30
0.0
 10
9.9700977265
 20
11.6652974635
 30
0.0
 10
9.9669853368
 20
11.6644421286
 30
0.0
 10
9.9625691579
 20
11.6632959627
 30
0.0
 10
9.956711754
 20
11.6619007084
 30
0.0
 10
9.9492820224
 20
11.6603085377
 30
0.0
 10
9.9413442817
 20
11.6587728651
 30
0.0
 10
9.9329175802
 20
11.6572974673
 30
0.0
 10
9.9240221049
 20
11.6558859955
 30
0.0
 10
9.9146792185
 20
11.6545419205
 30
0.0
 10
9.9049113737
 20
11.6532685402
 30
0.0
 10
9.8947420616
 20
11.6520689711
 30
0.0
 10
9.8841957481
 20
11.6509461447
 30
0.0
 10
9.8732978145
 20
11.6499028006
 30
0.0
 10
9.8620744946
 20
11.6489414806
 30
0.0
 10
9.8505528098
 20
11.6480645232
 30
0.0
 10
9.8387605051
 20
11.647274065
 30
0.0
 10
9.8267259692
 20
11.6465720137
 30
0.0
 10
9.8102827035
 20
11.645750522
 30
0.0
 10
9.7893422094
 20
11.6449602158
 30
0.0
 10
9.7638910009
 20
11.6443912147
 30
0.0
 10
9.7467854139
 20
11.6442645607
 30
0.0
 10
9.7381923427
 20
11.6442645607
 30
0.0
  0
SPLINE
  5
2BC
100
AcDbEntity
  8
0
100
AcDbSpline
 62
7
  6
CONTINUOUS
 70
0
 71
3
 72
108
 73
104
 74
0
 42
0.0000001
 43
0.0000001
 44
0.0000000001
 40
0.0
 40
0.0
 40
0.0
 40
0.0
 40
0.0015327736
 40
0.0030579586
 40
0.004581287
 40
0.0060999588
 40
0.0091176174
 40
0.0121257109
 40
0.0136340232
 40
0.0151500593
 40
0.0182205797
 40
0.0197843614
 40
0.0213720765
 40
0.0246335625
 40
0.0280317931
 40
0.0315883977
 40
0.0353207189
 40
0.0392425668
 40
0.0433647124
 40
0.0476954183
 40
0.0522409685
 40
0.0570060063
 40
0.0619938012
 40
0.0672065167
 40
0.0726453964
 40
0.0783108975
 40
0.084202801
 40
0.0903203201
 40
0.0966621723
 40
0.1032266339
 40
0.1100115875
 40
0.1170145703
 40
0.1242328069
 40
0.1316632336
 40
0.147146959
 40
0.1634364869
 40
0.1804990202
 40
0.1982988078
 40
0.2167974658
 40
0.2359542538
 40
0.2557263057
 40
0.2760688389
 40
0.2969353438
 40
0.3182777594
 40
0.3400466436
 40
0.3621913327
 40
0.3846601022
 40
0.4074003186
 40
0.4303585961
 40
0.4534809448
 40
0.4767129252
 40
0.4999997963
 40
0.5232866673
 40
0.5465186475
 40
0.5696409958
 40
0.5925992728
 40
0.6153394885
 40
0.6378082573
 40
0.6599529454
 40
0.6817218287
 40
0.7030642429
 40
0.7239307466
 40
0.7442732782
 40
0.7640453288
 40
0.7832021148
 40
0.8017007713
 40
0.8195005567
 40
0.8365630883
 40
0.8528526138
 40
0.8683363373
 40
0.8757667628
 40
0.882984998
 40
0.8899879798
 40
0.8967729325
 40
0.9033373929
 40
0.9096792434
 40
0.9157967615
 40
0.9216886642
 40
0.9273541638
 40
0.9327930417
 40
0.9380057564
 40
0.9429935508
 40
0.9477585863
 40
0.952304135
 40
0.956634841
 40
0.9607569856
 40
0.96467883
 40
0.9684111521
 40
0.9719677558
 40
0.975365983
 40
0.9770125236
 40
0.9786279331
 40
0.9802156448
 40
0.981779424
 40
0.9848499424
 40
0.9863659805
 40
0.9878742936
 40
0.9908823873
 40
0.9939000426
 40
0.9954187035
 40
0.9969420391
 40
0.9984672482
 40
1.0
 40
1.0
 40
1.0
 40
1.0
 10
10.3081923427
 20
11.6811261274
 30
0.0
 10
10.3081923427
 20
11.6805195297
 30
0.0
 10
10.3081442839
 20
11.6793087699
 30
0.0
 10
10.3079284502
 20
11.6775068284
 30
0.0
 10
10.3075745461
 20
11.6757324709
 30
0.0
 10
10.3069299471
 20
11.6734206231
 30
0.0
 10
10.3058153178
 20
11.6706394557
 30
0.0
 10
10.3043504149
 20
11.6680337302
 30
0.0
 10
10.3030056534
 20
11.666059969
 30
0.0
 10
10.3015423126
 20
11.6641412901
 30
0.0
 10
10.2999237406
 20
11.6623179781
 30
0.0
 10
10.2981752618
 20
11.6605835601
 30
0.0
 10
10.2963044712
 20
11.6588676298
 30
0.0
 10
10.2937791656
 20
11.656795441
 30
0.0
 10
10.290498693
 20
11.6544284745
 30
0.0
 10
10.2869396243
 20
11.6521401621
 30
0.0
 10
10.2830991142
 20
11.6499160171
 30
0.0
 10
10.2789738142
 20
11.6477451824
 30
0.0
 10
10.2745606803
 20
11.6456199113
 30
0.0
 10
10.2698573194
 20
11.6435346524
 30
0.0
 10
10.2648621204
 20
11.6414854383
 30
0.0
 10
10.259574209
 20
11.6394695351
 30
0.0
 10
10.253993422
 20
11.6374851298
 30
0.0
 10
10.2481202578
 20
11.6355310583
 30
0.0
 10
10.2419557962
 20
11.633606654
 30
0.0
 10
10.2355016434
 20
11.6317116293
 30
0.0
 10
10.2287598807
 20
11.6298459814
 30
0.0
 10
10.2217330163
 20
11.6280099163
 30
0.0
 10
10.2144239407
 20
11.6262038018
 30
0.0
 10
10.2068358968
 20
11.6244281297
 30
0.0
 10
10.19897245
 20
11.622683483
 30
0.0
 10
10.1908374637
 20
11.6209705176
 30
0.0
 10
10.1824350704
 20
11.6192899227
 30
0.0
 10
10.1707198155
 20
11.6170626703
 30
0.0
 10
10.1554389556
 20
11.6143730546
 30
0.0
 10
10.1363525743
 20
11.6113292495
 30
0.0
 10
10.1163167289
 20
11.6084330181
 30
0.0
 10
10.0953772716
 20
11.6056906895
 30
0.0
 10
10.0735826989
 20
11.6031084457
 30
0.0
 10
10.0509840163
 20
11.6006922008
 30
0.0
 10
10.0276344964
 20
11.5984475623
 30
0.0
 10
10.0035894912
 20
11.5963797877
 30
0.0
 10
9.9789062443
 20
11.5944937552
 30
0.0
 10
9.953643712
 20
11.5927939371
 30
0.0
 10
9.9278623891
 20
11.5912843822
 30
0.0
 10
9.9016241353
 20
11.5899686953
 30
0.0
 10
9.874992006
 20
11.5888500286
 30
0.0
 10
9.8480300801
 20
11.5879310642
 30
0.0
 10
9.8208032911
 20
11.5872140121
 30
0.0
 10
9.793377256
 20
11.5867005944
 30
0.0
 10
9.765818105
 20
11.5863920496
 30
0.0
 10
9.7381923105
 20
11.5862891179
 30
0.0
 10
9.710566516
 20
11.5863920501
 30
0.0
 10
9.6830073653
 20
11.5867005953
 30
0.0
 10
9.6555813306
 20
11.5872140135
 30
0.0
 10
9.6283545422
 20
11.5879310661
 30
0.0
 10
9.6013926171
 20
11.5888500311
 30
0.0
 10
9.5747604887
 20
11.589968698
 30
0.0
 10
9.5485222361
 20
11.5912843856
 30
0.0
 10
9.5227409144
 20
11.5927939407
 30
0.0
 10
9.4974783836
 20
11.5944937595
 30
0.0
 10
9.4727951384
 20
11.5963797921
 30
0.0
 10
9.4487501349
 20
11.5984475674
 30
0.0
 10
9.4254006169
 20
11.600692206
 30
0.0
 10
9.4028019363
 20
11.6031084515
 30
0.0
 10
9.3810073659
 20
11.6056906953
 30
0.0
 10
9.3600679108
 20
11.6084330245
 30
0.0
 10
9.3400320679
 20
11.611329256
 30
0.0
 10
9.3209456892
 20
11.6143730615
 30
0.0
 10
9.3056648314
 20
11.6170626773
 30
0.0
 10
9.2939495783
 20
11.6192899299
 30
0.0
 10
9.2855471866
 20
11.6209705249
 30
0.0
 10
9.2774122016
 20
11.6226834903
 30
0.0
 10
9.2695487562
 20
11.6244281371
 30
0.0
 10
9.2619607137
 20
11.6262038093
 30
0.0
 10
9.2546516398
 20
11.6280099238
 30
0.0
 10
9.2476247768
 20
11.6298459889
 30
0.0
 10
9.2408830154
 20
11.6317116369
 30
0.0
 10
9.2344288644
 20
11.6336066617
 30
0.0
 10
9.2282644043
 20
11.6355310656
 30
0.0
 10
9.2223912414
 20
11.6374851372
 30
0.0
 10
9.2168104562
 20
11.6394695433
 30
0.0
 10
9.2115225465
 20
11.6414854456
 30
0.0
 10
9.2065273484
 20
11.6435346589
 30
0.0
 10
9.2018239898
 20
11.6456199186
 30
0.0
 10
9.1974108563
 20
11.647745193
 30
0.0
 10
9.1932855644
 20
11.6499160185
 30
0.0
 10
9.1894450238
 20
11.6521401769
 30
0.0
 10
9.185886075
 20
11.6544284555
 30
0.0
 10
9.1831238282
 20
11.6564213786
 30
0.0
 10
9.1810610939
 20
11.658062913
 30
0.0
 10
9.1796000216
 20
11.6593080302
 30
0.0
 10
9.1782094109
 20
11.6605835721
 30
0.0
 10
9.1764609542
 20
11.662317985
 30
0.0
 10
9.1748423679
 20
11.664141292
 30
0.0
 10
9.1733790345
 20
11.6660599756
 30
0.0
 10
9.1720342615
 20
11.6680337307
 30
0.0
 10
9.1705693674
 20
11.670639461
 30
0.0
 10
9.1694547427
 20
11.673420623
 30
0.0
 10
9.1688101345
 20
11.6757324655
 30
0.0
 10
9.1684562339
 20
11.6775068321
 30
0.0
 10
9.1682404045
 20
11.6793087778
 30
0.0
 10
9.1681923427
 20
11.6805195383
 30
0.0
 10
9.1681923427
 20
11.6811261274
 30
0.0
  0
SPLINE
  5
2BD
100
AcDbEntity
  8
0
100
AcDbSpline
 62
7
  6
CONTINUOUS
 70
0
 71
3
 72
108
 73
104
 74
0
 42
0.0000001
 43
0.0000001
 44
0.0000000001
 40
0.0
 40
0.0
 40
0.0
 40
0.0
 40
0.0015327736
 40
0.0030579586
 40
0.004581287
 40
0.0060999588
 40
0.0091176174
 40
0.0121257109
 40
0.0136340232
 40
0.0151500593
 40
0.0182205797
 40
0.0197843614
 40
0.0213720765
 40
0.0246335625
 40
0.0280317931
 40
0.0315883977
 40
0.0353207189
 40
0.0392425668
 40
0.0433647124
 40
0.0476954183
 40
0.0522409685
 40
0.0570060063
 40
0.0619938012
 40
0.0672065167
 40
0.0726453964
 40
0.0783108975
 40
0.084202801
 40
0.0903203201
 40
0.0966621723
 40
0.1032266339
 40
0.1100115875
 40
0.1170145703
 40
0.1242328069
 40
0.1316632336
 40
0.147146959
 40
0.1634364869
 40
0.1804990202
 40
0.1982988078
 40
0.2167974658
 40
0.2359542538
 40
0.2557263057
 40
0.2760688389
 40
0.2969353438
 40
0.3182777594
 40
0.3400466436
 40
0.3621913327
 40
0.3846601022
 40
0.4074003186
 40
0.4303585961
 40
0.4534809448
 40
0.4767129252
 40
0.4999997963
 40
0.5232866673
 40
0.5465186475
 40
0.5696409958
 40
0.5925992728
 40
0.6153394885
 40
0.6378082573
 40
0.6599529454
 40
0.6817218287
 40
0.7030642429
 40
0.7239307466
 40
0.7442732782
 40
0.7640453288
 40
0.7832021148
 40
0.8017007713
 40
0.8195005567
 40
0.8365630883
 40
0.8528526138
 40
0.8683363373
 40
0.8757667628
 40
0.882984998
 40
0.8899879798
 40
0.8967729325
 40
0.9033373929
 40
0.9096792434
 40
0.9157967615
 40
0.9216886642
 40
0.9273541638
 40
0.9327930417
 40
0.9380057564
 40
0.9429935508
 40
0.9477585863
 40
0.952304135
 40
0.956634841
 40
0.9607569856
 40
0.96467883
 40
0.9684111521
 40
0.9719677558
 40
0.975365983
 40
0.9770125236
 40
0.9786279331
 40
0.9802156448
 40
0.981779424
 40
0.9848499424
 40
0.9863659805
 40
0.9878742936
 40
0.9908823873
 40
0.9939000426
 40
0.9954187035
 40
0.9969420391
 40
0.9984672482
 40
1.0
 40
1.0
 40
1.0
 40
1.0
 10
9.1681923427
 20
13.920004951
 30
0.0
 10
9.1681923427
 20
13.9206115486
 30
0.0
 10
9.1682404016
 20
13.9218223085
 30
0.0
 10
9.1684562352
 20
13.92362425
 30
0.0
 10
9.1688101393
 20
13.9253986075
 30
0.0
 10
9.1694547384
 20
13.9277104552
 30
0.0
 10
9.1705693676
 20
13.9304916227
 30
0.0
 10
9.1720342705
 20
13.9330973482
 30
0.0
 10
9.1733790321
 20
13.9350711093
 30
0.0
 10
9.1748423729
 20
13.9369897883
 30
0.0
 10
9.1764609449
 20
13.9388131003
 30
0.0
 10
9.1782094237
 20
13.9405475182
 30
0.0
 10
9.1800802142
 20
13.9422634486
 30
0.0
 10
9.1826055199
 20
13.9443356374
 30
0.0
 10
9.1858859925
 20
13.9467026039
 30
0.0
 10
9.1894450612
 20
13.9489909162
 30
0.0
 10
9.1932855713
 20
13.9512150613
 30
0.0
 10
9.1974108713
 20
13.953385896
 30
0.0
 10
9.2018240052
 20
13.9555111671
 30
0.0
 10
9.2065273661
 20
13.9575964259
 30
0.0
 10
9.2115225651
 20
13.9596456401
 30
0.0
 10
9.2168104765
 20
13.9616615432
 30
0.0
 10
9.2223912635
 20
13.9636459486
 30
0.0
 10
9.2282644277
 20
13.96560002
 30
0.0
 10
9.2344288893
 20
13.9675244244
 30
0.0
 10
9.2408830421
 20
13.9694194491
 30
0.0
 10
9.2476248048
 20
13.971285097
 30
0.0
 10
9.2546516692
 20
13.973121162
 30
0.0
 10
9.2619607447
 20
13.9749272766
 30
0.0
 10
9.2695487887
 20
13.9767029486
 30
0.0
 10
9.2774122355
 20
13.9784475953
 30
0.0
 10
9.2855472218
 20
13.9801605608
 30
0.0
 10
9.2939496151
 20
13.9818411556
 30
0.0
 10
9.3056648699
 20
13.9840684081
 30
0.0
 10
9.3209457299
 20
13.9867580238
 30
0.0
 10
9.3400321112
 20
13.9898018288
 30
0.0
 10
9.3600679565
 20
13.9926980603
 30
0.0
 10
9.3810074139
 20
13.9954403889
 30
0.0
 10
9.4028019866
 20
13.9980226327
 30
0.0
 10
9.4254006692
 20
14.0004388775
 30
0.0
 10
9.4487501891
 20
14.002683516
 30
0.0
 10
9.4727951943
 20
14.0047512907
 30
0.0
 10
9.4974784412
 20
14.0066373231
 30
0.0
 10
9.5227409734
 20
14.0083371413
 30
0.0
 10
9.5485222964
 20
14.0098466962
 30
0.0
 10
9.5747605501
 20
14.0111623831
 30
0.0
 10
9.6013926795
 20
14.0122810497
 30
0.0
 10
9.6283546054
 20
14.0132000142
 30
0.0
 10
9.6555813944
 20
14.0139170663
 30
0.0
 10
9.6830074295
 20
14.014430484
 30
0.0
 10
9.7105665805
 20
14.0147390288
 30
0.0
 10
9.738192375
 20
14.0148419605
 30
0.0
 10
9.7658181695
 20
14.0147390283
 30
0.0
 10
9.7933773202
 20
14.014430483
 30
0.0
 10
9.8208033549
 20
14.0139170648
 30
0.0
 10
9.8480301432
 20
14.0132000123
 30
0.0
 10
9.8749920684
 20
14.0122810473
 30
0.0
 10
9.9016241968
 20
14.0111623803
 30
0.0
 10
9.9278624494
 20
14.0098466928
 30
0.0
 10
9.9536437711
 20
14.0083371377
 30
0.0
 10
9.9789063019
 20
14.0066373189
 30
0.0
 10
10.0035895471
 20
14.0047512862
 30
0.0
 10
10.0276345506
 20
14.002683511
 30
0.0
 10
10.0509840686
 20
14.0004388723
 30
0.0
 10
10.0735827492
 20
13.9980226269
 30
0.0
 10
10.0953773196
 20
13.995440383
 30
0.0
 10
10.1163167747
 20
13.9926980539
 30
0.0
 10
10.1363526175
 20
13.9898018224
 30
0.0
 10
10.1554389963
 20
13.9867580169
 30
0.0
 10
10.1707198541
 20
13.9840684011
 30
0.0
 10
10.1824351071
 20
13.9818411485
 30
0.0
 10
10.1908374989
 20
13.9801605535
 30
0.0
 10
10.1989724839
 20
13.978447588
 30
0.0
 10
10.2068359293
 20
13.9767029412
 30
0.0
 10
10.2144239717
 20
13.9749272691
 30
0.0
 10
10.2217330457
 20
13.9731211546
 30
0.0
 10
10.2287599087
 20
13.9712850895
 30
0.0
 10
10.23550167
 20
13.9694194415
 30
0.0
 10
10.2419558211
 20
13.9675244167
 30
0.0
 10
10.2481202812
 20
13.9656000128
 30
0.0
 10
10.253993444
 20
13.9636459412
 30
0.0
 10
10.2595742292
 20
13.9616615351
 30
0.0
 10
10.264862139
 20
13.9596456328
 30
0.0
 10
10.2698573371
 20
13.9575964195
 30
0.0
 10
10.2745606957
 20
13.9555111598
 30
0.0
 10
10.2789738292
 20
13.9533858854
 30
0.0
 10
10.2830991211
 20
13.9512150599
 30
0.0
 10
10.2869396616
 20
13.9489909014
 30
0.0
 10
10.2904986105
 20
13.9467026229
 30
0.0
 10
10.2932608572
 20
13.9447096998
 30
0.0
 10
10.2953235915
 20
13.9430681653
 30
0.0
 10
10.2967846639
 20
13.9418230482
 30
0.0
 10
10.2981752745
 20
13.9405475063
 30
0.0
 10
10.2999237313
 20
13.9388130933
 30
0.0
 10
10.3015423176
 20
13.9369897864
 30
0.0
 10
10.303005651
 20
13.9350711027
 30
0.0
 10
10.3043504239
 20
13.9330973477
 30
0.0
 10
10.305815318
 20
13.9304916174
 30
0.0
 10
10.3069299428
 20
13.9277104554
 30
0.0
 10
10.307574551
 20
13.9253986129
 30
0.0
 10
10.3079284516
 20
13.9236242462
 30
0.0
 10
10.308144281
 20
13.9218223006
 30
0.0
 10
10.3081923427
 20
13.92061154
 30
0.0
 10
10.3081923427
 20
13.920004951
 30
0.0
  0
SPLINE
  5
2BE
100
AcDbEntity
  8
0
100
AcDbSpline
 62
7
  6
CONTINUOUS
 70
0
 71
3
 72
17
 73
13
 74
0
 42
0.0000001
 43
0.0000001
 44
0.0000000001
 40
0.0
 40
0.0
 40
0.0
 40
0.0
 40
0.0525511881
 40
0.10537584
 40
0.1587430868
 40
0.2129136687
 40
0.3245882188
 40
0.4422754594
 40
0.5675146803
 40
0.7015719188
 40
0.8454649138
 40
1.0
 40
1.0
 40
1.0
 40
1.0
 10
9.1681923444
 20
13.9546013125
 30
0.0
 10
9.1681923444
 20
13.9542824958
 30
0.0
 10
9.1682157844
 20
13.9536429577
 30
0.0
 10
9.1683211568
 20
13.9526848809
 30
0.0
 10
9.1684967499
 20
13.9517271083
 30
0.0
 10
9.1688275923
 20
13.9504380563
 30
0.0
 10
9.1694254264
 20
13.9488194535
 30
0.0
 10
9.1704159586
 20
13.9469044914
 30
0.0
 10
9.1716848891
 20
13.9449968537
 30
0.0
 10
9.1732306631
 20
13.9430969194
 30
0.0
 10
9.1750520155
 20
13.9412047508
 30
0.0
 10
9.1763996425
 20
13.9399933255
 30
0.0
 10
9.1771154852
 20
13.9393879056
 30
0.0
  0
SPLINE
  5
2BF
100
AcDbEntity
  8
0
100
AcDbSpline
 62
7
  6
CONTINUOUS
 70
0
 71
3
 72
13
 73
9
 74
0
 42
0.0000001
 43
0.0000001
 44
0.0000000001
 40
0.0
 40
0.0
 40
0.0
 40
0.0
 40
0.2786644062
 40
0.5334893626
 40
0.6540739949
 40
0.7713010017
 40
0.8862331903
 40
1.0
 40
1.0
 40
1.0
 40
1.0
 10
9.4940973861
 20
11.6887186833
 30
0.0
 10
9.4937953388
 20
11.688353287
 30
0.0
 10
9.4932571394
 20
11.6876186888
 30
0.0
 10
9.4927385949
 20
11.6866280076
 30
0.0
 10
9.4924531156
 20
11.685838884
 30
0.0
 10
9.4923027503
 20
11.6852569283
 30
0.0
 10
9.4922124531
 20
11.6846744384
 30
0.0
 10
9.4921923443
 20
11.6842850744
 30
0.0
 10
9.4921923443
 20
11.6840915298
 30
0.0
  0
SPLINE
  5
2C0
100
AcDbEntity
  8
0
100
AcDbSpline
 62
7
  6
CONTINUOUS
 70
0
 71
3
 72
13
 73
9
 74
0
 42
0.0000001
 43
0.0000001
 44
0.0000000001
 40
0.0
 40
0.0
 40
0.0
 40
0.0
 40
0.2786644062
 40
0.5334893626
 40
0.6540739949
 40
0.7713010017
 40
0.8862331903
 40
1.0
 40
1.0
 40
1.0
 40
1.0
 10
9.9822872994
 20
11.6887186833
 30
0.0
 10
9.9825893467
 20
11.688353287
 30
0.0
 10
9.9831275461
 20
11.6876186888
 30
0.0
 10
9.9836460906
 20
11.6866280076
 30
0.0
 10
9.9839315699
 20
11.685838884
 30
0.0
 10
9.9840819352
 20
11.6852569283
 30
0.0
 10
9.9841722324
 20
11.6846744384
 30
0.0
 10
9.9841923411
 20
11.6842850744
 30
0.0
 10
9.9841923411
 20
11.6840915298
 30
0.0
  0
LINE
  5
2C1
100
AcDbEntity
  8
0
100
AcDbLine
 62
7
  6
CONTINUOUS
 10
10.1419890316
 20
11.642836057
 11
10.1443405634
 21
11.644902467
  0
SPLINE
  5
2C2
100
AcDbEntity
  8
0
100
AcDbSpline
 62
7
  6
CONTINUOUS
 70
0
 71
3
 72
11
 73
7
 74
0
 42
0.0000001
 43
0.0000001
 44
0.0000000001
 40
0.0
 40
0.0
 40
0.0
 40
0.0
 40
0.2745964201
 40
0.5321911992
 40
0.773637036
 40
1.0
 40
1.0
 40
1.0
 40
1.0
 10
9.4332249129
 20
11.6636685657
 30
0.0
 10
9.4328291014
 20
11.6633686955
 30
0.0
 10
9.4320759088
 20
11.66276874
 30
0.0
 10
9.4310323244
 20
11.6618356737
 30
0.0
 10
9.4301123305
 20
11.6608991893
 30
0.0
 10
9.4295648758
 20
11.6602528484
 30
0.0
 10
9.4293140513
 20
11.659929342
 30
0.0
  0
SPLINE
  5
2C3
100
AcDbEntity
  8
0
100
AcDbSpline
 62
7
  6
CONTINUOUS
 70
0
 71
3
 72
11
 73
7
 74
0
 42
0.0000001
 43
0.0000001
 44
0.0000000001
 40
0.0
 40
0.0
 40
0.0
 40
0.0
 40
0.226362964
 40
0.4678088008
 40
0.7254035799
 40
1.0
 40
1.0
 40
1.0
 40
1.0
 10
10.0470706342
 20
11.659929342
 30
0.0
 10
10.0468198096
 20
11.6602528484
 30
0.0
 10
10.046272355
 20
11.6608991893
 30
0.0
 10
10.0453523611
 20
11.6618356737
 30
0.0
 10
10.0443087766
 20
11.66276874
 30
0.0
 10
10.043555584
 20
11.6633686955
 30
0.0
 10
10.0431597725
 20
11.6636685657
 30
0.0
  0
LINE
  5
2C4
100
AcDbEntity
  8
0
100
AcDbLine
 62
7
  6
CONTINUOUS
 10
9.4669881114
 20
11.6774878616
 11
9.4556383489
 21
11.6741146592
  0
LINE
  5
2C5
100
AcDbEntity
  8
0
100
AcDbLine
 62
7
  6
CONTINUOUS
 10
10.0207463365
 20
11.6741146592
 11
10.009396574
 21
11.6774878616
  0
SPLINE
  5
2C6
100
AcDbEntity
  8
0
100
AcDbSpline
 62
7
  6
CONTINUOUS
 70
0
 71
3
 72
45
 73
41
 74
0
 42
0.0000001
 43
0.0000001
 44
0.0000000001
 40
0.0
 40
0.0
 40
0.0
 40
0.0
 40
0.0036129603
 40
0.0073168706
 40
0.0111960804
 40
0.0153238179
 40
0.0197604947
 40
0.0245541753
 40
0.0297422637
 40
0.0353534335
 40
0.0414094331
 40
0.0479266244
 40
0.0549171074
 40
0.0623896657
 40
0.0703504411
 40
0.0788034132
 40
0.0877508454
 40
0.0971935298
 40
0.1071310351
 40
0.1175619061
 40
0.1284837448
 40
0.1398933792
 40
0.1641592065
 40
0.1903216415
 40
0.2183335243
 40
0.2481402922
 40
0.2796808602
 40
0.3128882886
 40
0.3476903148
 40
0.3840098189
 40
0.42176522
 40
0.4608708287
 40
0.5012371682
 40
0.5427712936
 40
0.5853770974
 40
0.6289556006
 40
0.71862136
 40
0.8109310579
 40
0.9050187613
 40
1.0
 40
1.0
 40
1.0
 40
1.0
 10
9.4921923443
 20
11.6840915298
 30
0.0
 10
9.4921923443
 20
11.6837857892
 30
0.0
 10
9.4922432326
 20
11.6831654943
 30
0.0
 10
9.4924706737
 20
11.6822420695
 30
0.0
 10
9.4928480612
 20
11.6813221694
 30
0.0
 10
9.4933737995
 20
11.6804067285
 30
0.0
 10
9.4940466347
 20
11.6794957244
 30
0.0
 10
9.4948656824
 20
11.6785890915
 30
0.0
 10
9.4958303162
 20
11.6776868098
 30
0.0
 10
9.4969399941
 20
11.6767890057
 30
0.0
 10
9.4981941601
 20
11.6758959294
 30
0.0
 10
9.4995921948
 20
11.6750079417
 30
0.0
 10
9.5011333772
 20
11.6741254593
 30
0.0
 10
9.5028168871
 20
11.6732489484
 30
0.0
 10
9.5046417996
 20
11.6723789019
 30
0.0
 10
9.5066070852
 20
11.6715158196
 30
0.0
 10
9.5087116187
 20
11.6706602176
 30
0.0
 10
9.510954177
 20
11.6698126078
 30
0.0
 10
9.5133334457
 20
11.6689735005
 30
0.0
 10
9.5158480213
 20
11.668143413
 30
0.0
 10
9.5184964118
 20
11.667322831
 30
0.0
 10
9.5222822334
 20
11.6662193187
 30
0.0
 10
9.5273399529
 20
11.6648734549
 30
0.0
 10
9.5337977259
 20
11.6633350791
 30
0.0
 10
9.5407472537
 20
11.6618458467
 30
0.0
 10
9.5481718947
 20
11.660409431
 30
0.0
 10
9.5560539083
 20
11.6590294031
 30
0.0
 10
9.5643743903
 20
11.6577091671
 30
0.0
 10
9.5731133643
 20
11.6564519715
 30
0.0
 10
9.5822498269
 20
11.6552609006
 30
0.0
 10
9.591761807
 20
11.6541388701
 30
0.0
 10
9.6016264198
 20
11.6530886224
 30
0.0
 10
9.6118199247
 20
11.6521127181
 30
0.0
 10
9.6223177816
 20
11.6512135389
 30
0.0
 10
9.6330947226
 20
11.6503932572
 30
0.0
 10
9.6479425854
 20
11.6493980293
 30
0.0
 10
9.6670030227
 20
11.648370779
 30
0.0
 10
9.6903487098
 20
11.6474895947
 30
0.0
 10
9.7141548239
 20
11.6469574011
 30
0.0
 10
9.7301547174
 20
11.6468389275
 30
0.0
 10
9.7381923427
 20
11.6468389275
 30
0.0
  0
SPLINE
  5
2C7
100
AcDbEntity
  8
0
100
AcDbSpline
 62
7
  6
CONTINUOUS
 70
0
 71
3
 72
44
 73
40
 74
0
 42
0.0000001
 43
0.0000001
 44
0.0000000001
 40
0.0
 40
0.0
 40
0.0
 40
0.0
 40
0.0039104144
 40
0.0080895691
 40
0.0125838977
 40
0.0174301759
 40
0.0226570377
 40
0.0282865868
 40
0.0343356978
 40
0.0408171392
 40
0.0477404352
 40
0.0551124847
 40
0.0629381265
 40
0.0712204565
 40
0.0799611705
 40
0.0891607767
 40
0.0988187494
 40
0.1089337218
 40
0.119503526
 40
0.1305253429
 40
0.1539101728
 40
0.1790551167
 40
0.2059189682
 40
0.2344541305
 40
0.264607359
 40
0.2963203363
 40
0.3295301268
 40
0.364169563
 40
0.4001675707
 40
0.4374494815
 40
0.4759372993
 40
0.5155499686
 40
0.5562036117
 40
0.5978117784
 40
0.6402856762
 40
0.7274645517
 40
0.8169928233
 40
0.9080998778
 40
1.0
 40
1.0
 40
1.0
 40
1.0
 10
9.4927343092
 20
11.6865624235
 30
0.0
 10
9.4928660102
 20
11.686262469
 30
0.0
 10
9.4931805237
 20
11.6856598432
 30
0.0
 10
9.4937738942
 20
11.684786202
 30
0.0
 10
9.4945017743
 20
11.6839162711
 30
0.0
 10
9.4953634766
 20
11.6830502856
 30
0.0
 10
9.4963585263
 20
11.6821882545
 30
0.0
 10
9.4974864425
 20
11.6813304023
 30
0.0
 10
9.498746704
 20
11.6804770049
 30
0.0
 10
9.5001387199
 20
11.6796284148
 30
0.0
 10
9.5016618177
 20
11.6787850297
 30
0.0
 10
9.5033152347
 20
11.6779472651
 30
0.0
 10
9.5050981264
 20
11.6771155651
 30
0.0
 10
9.5070095604
 20
11.6762903718
 30
0.0
 10
9.509048525
 20
11.6754721375
 30
0.0
 10
9.511213929
 20
11.6746613153
 30
0.0
 10
9.5135046039
 20
11.6738583504
 30
0.0
 10
9.5159193077
 20
11.6730636984
 30
0.0
 10
9.5184567244
 20
11.6722777847
 30
0.0
 10
9.5220735868
 20
11.6712212134
 30
0.0
 10
9.5268935074
 20
11.6699309561
 30
0.0
 10
9.5330348003
 20
11.6684529688
 30
0.0
 10
9.5396288816
 20
11.6670197229
 30
0.0
 10
9.5466612629
 20
11.6656344568
 30
0.0
 10
9.5541165283
 20
11.6643003232
 30
0.0
 10
9.561978276
 20
11.6630203371
 30
0.0
 10
9.5702291935
 20
11.6617973855
 30
0.0
 10
9.5788510919
 20
11.6606342182
 30
0.0
 10
9.5878249527
 20
11.6595334453
 30
0.0
 10
9.5971309718
 20
11.6584975324
 30
0.0
 10
9.6067486066
 20
11.6575287967
 30
0.0
 10
9.6166566217
 20
11.6566294018
 30
0.0
 10
9.6268331352
 20
11.6558013583
 30
0.0
 10
9.6372556765
 20
11.6550464994
 30
0.0
 10
9.6515739893
 20
11.6541319728
 30
0.0
 10
9.6699124074
 20
11.6531881908
 30
0.0
 10
9.6923346909
 20
11.6523786688
 30
0.0
 10
9.715161822
 20
11.6518900265
 30
0.0
 10
9.7304934313
 20
11.6517812649
 30
0.0
 10
9.7381923427
 20
11.6517812649
 30
0.0
  0
SPLINE
  5
2C8
100
AcDbEntity
  8
0
100
AcDbSpline
 62
9
  6
CONTINUOUS
 70
0
 71
3
 72
57
 73
53
 74
0
 42
0.0000001
 43
0.0000001
 44
0.0000000001
 40
0.0
 40
0.0
 40
0.0
 40
0.0
 40
0.0000015906
 40
0.0000062801
 40
0.0000140668
 40
0.0000249488
 40
0.0000559909
 40
0.0000993914
 40
0.0001551351
 40
0.0002232069
 40
0.0003035917
 40
0.0003962744
 40
0.0006184733
 40
0.0008896832
 40
0.0012097904
 40
0.0015786847
 40
0.0019962559
 40
0.0024623938
 40
0.0035399406
 40
0.0048105774
 40
0.0062736298
 40
0.0079284
 40
0.0097740924
 40
0.0118098826
 40
0.0140344732
 40
0.0190414044
 40
0.0247775013
 40
0.0312260531
 40
0.0383709165
 40
0.0461952421
 40
0.054680467
 40
0.0638053155
 40
0.073548447
 40
0.0948078709
 40
0.1182973733
 40
0.1438535515
 40
0.1713181212
 40
0.2005432658
 40
0.2313898918
 40
0.2637291706
 40
0.297442859
 40
0.332422017
 40
0.4057870713
 40
0.4831247005
 40
0.5638377173
 40
0.6473985104
 40
0.7333138344
 40
0.8210879753
 40
0.8655090415
 40
0.9101889285
 40
0.9550478465
 40
1.0
 40
1.0
 40
1.0
 40
1.0
 10
12.1498367132
 20
4.5503509488
 30
0.0
 10
12.1498369408
 20
4.5503509822
 30
0.0
 10
12.1498377865
 20
4.5503513442
 30
0.0
 10
12.1498397422
 20
4.5503518852
 30
0.0
 10
12.1498429479
 20
4.5503529661
 30
0.0
 10
12.1498497981
 20
4.5503551431
 30
0.0
 10
12.1498615391
 20
4.5503589519
 30
0.0
 10
12.1498794614
 20
4.5503647264
 30
0.0
 10
12.1499024759
 20
4.550372165
 30
0.0
 10
12.1499305803
 20
4.5503812482
 30
0.0
 10
12.1499637663
 20
4.5503919827
 30
0.0
 10
12.1500181605
 20
4.5504095871
 30
0.0
 10
12.1500988078
 20
4.5504357129
 30
0.0
 10
12.1502107369
 20
4.5504720139
 30
0.0
 10
12.1503428385
 20
4.5505148945
 30
0.0
 10
12.1504950669
 20
4.5505643387
 30
0.0
 10
12.1506673765
 20
4.5506203319
 30
0.0
 10
12.1509371598
 20
4.5507080319
 30
0.0
 10
12.1513242691
 20
4.5508339349
 30
0.0
 10
12.1518485081
 20
4.5510044233
 30
0.0
 10
12.1524521819
 20
4.5512006182
 30
0.0
 10
12.1531350252
 20
4.5514223215
 30
0.0
 10
12.1538967706
 20
4.5516692707
 30
0.0
 10
12.1547370697
 20
4.5519411716
 30
0.0
 10
12.1560126552
 20
4.5523530787
 30
0.0
 10
12.1577980197
 20
4.5529280421
 30
0.0
 10
12.1601656499
 20
4.5536880614
 30
0.0
 10
12.1628286339
 20
4.5545397346
 30
0.0
 10
12.1657805456
 20
4.5554795409
 30
0.0
 10
12.1690147356
 20
4.5565037644
 30
0.0
 10
12.1725238482
 20
4.557608443
 30
0.0
 10
12.1762997808
 20
4.5587898084
 30
0.0
 10
12.1818423381
 20
4.5605125247
 30
0.0
 10
12.1893762916
 20
4.5628284188
 30
0.0
 10
12.1991105628
 20
4.5657703225
 30
0.0
 10
12.2097206831
 20
4.5689161297
 30
0.0
 10
12.2211456039
 20
4.5722316572
 30
0.0
 10
12.23332775
 20
4.5756826715
 30
0.0
 10
12.2462133343
 20
4.5792363522
 30
0.0
 10
12.2597524984
 20
4.5828607415
 30
0.0
 10
12.2738993882
 20
4.5865247449
 30
0.0
 10
12.2938350255
 20
4.5915027434
 30
0.0
 10
12.3199842494
 20
4.5976379009
 30
0.0
 10
12.3527296131
 20
4.6045900345
 30
0.0
 10
12.387082677
 20
4.6110268953
 30
0.0
 10
12.4228224755
 20
4.6167349247
 30
0.0
 10
12.4597306638
 20
4.6215044654
 30
0.0
 10
12.491141536
 20
4.6245156165
 30
0.0
 10
12.5166660141
 20
4.6262712814
 30
0.0
 10
12.5360193497
 20
4.6272379892
 30
0.0
 10
12.5554645532
 20
4.6278304207
 30
0.0
 10
12.5684553815
 20
4.6279651638
 30
0.0
 10
12.5749573502
 20
4.6279651759
 30
0.0
  0
SPLINE
  5
2C9
100
AcDbEntity
  8
0
100
AcDbSpline
 62
9
  6
CONTINUOUS
 70
0
 71
3
 72
105
 73
101
 74
0
 42
0.0000001
 43
0.0000001
 44
0.0000000001
 40
0.0
 40
0.0
 40
0.0
 40
0.0
 40
0.0009010667
 40
0.001807913
 40
0.0027261563
 40
0.0036612147
 40
0.0046182255
 40
0.0056019724
 40
0.007665817
 40
0.0098841258
 40
0.012280937
 40
0.0148749483
 40
0.0176804956
 40
0.0207084592
 40
0.0239670123
 40
0.0274622098
 40
0.0311984424
 40
0.0351787769
 40
0.0394052119
 40
0.0438788707
 40
0.0486001516
 40
0.053568843
 40
0.0587842103
 40
0.0642450619
 40
0.0699498071
 40
0.0758965001
 40
0.082082876
 40
0.0885063759
 40
0.0951641731
 40
0.1020531941
 40
0.1091701363
 40
0.1165114799
 40
0.1240735001
 40
0.1398435839
 40
0.1564470869
 40
0.1738478774
 40
0.1920074004
 40
0.2108848617
 40
0.2304374177
 40
0.2506203298
 40
0.2713871294
 40
0.2926897615
 40
0.3144787364
 40
0.3367032719
 40
0.359311438
 40
0.3822503
 40
0.4054660605
 40
0.4289042041
 40
0.4525096389
 40
0.4762268415
 40
0.5
 40
0.5237731585
 40
0.5474903611
 40
0.5710957959
 40
0.5945339395
 40
0.6177497
 40
0.640688562
 40
0.6632967281
 40
0.6855212636
 40
0.7073102385
 40
0.7286128706
 40
0.7493796702
 40
0.7695625823
 40
0.7891151383
 40
0.8079925996
 40
0.8261521226
 40
0.8435529131
 40
0.8601564161
 40
0.8759264999
 40
0.8834885201
 40
0.8908298637
 40
0.8979468059
 40
0.9048358269
 40
0.9114936241
 40
0.917917124
 40
0.9241034999
 40
0.9300501929
 40
0.9357549381
 40
0.9412157897
 40
0.946431157
 40
0.9513998484
 40
0.9561211293
 40
0.9605947881
 40
0.9648212231
 40
0.9688015576
 40
0.9725377902
 40
0.9760329877
 40
0.9792915408
 40
0.9823195044
 40
0.9851250517
 40
0.987719063
 40
0.9901158742
 40
0.992334183
 40
0.9943980276
 40
0.9953817745
 40
0.9963387853
 40
0.9972738437
 40
0.998192087
 40
0.9990989333
 40
1.0
 40
1.0
 40
1.0
 40
1.0
 10
10.3081923427
 20
13.920004951
 30
0.0
 10
10.3081923427
 20
13.9203583148
 30
0.0
 10
10.3081635103
 20
13.9210676412
 30
0.0
 10
10.3080339496
 20
13.9221299495
 30
0.0
 10
10.3078181011
 20
13.9231917735
 30
0.0
 10
10.3075160844
 20
13.9242527522
 30
0.0
 10
10.3071280401
 20
13.9253127332
 30
0.0
 10
10.3064860174
 20
13.9267471474
 30
0.0
 10
10.3054547588
 20
13.928543082
 30
0.0
 10
10.3038958348
 20
13.9306537171
 30
0.0
 10
10.3019980131
 20
13.9327545181
 30
0.0
 10
10.2997628942
 20
13.93484515
 30
0.0
 10
10.2971916894
 20
13.9369254374
 30
0.0
 10
10.2942856931
 20
13.9389947546
 30
0.0
 10
10.2910463455
 20
13.9410522905
 30
0.0
 10
10.2874753125
 20
13.9430970657
 30
0.0
 10
10.2835744967
 20
13.9451280042
 30
0.0
 10
10.2793460423
 20
13.9471439691
 30
0.0
 10
10.2747923303
 20
13.9491437905
 30
0.0
 10
10.2699159725
 20
13.951126284
 30
0.0
 10
10.2647198011
 20
13.9530902595
 30
0.0
 10
10.2592068613
 20
13.9550345289
 30
0.0
 10
10.2533804058
 20
13.9569579105
 30
0.0
 10
10.2472438909
 20
13.9588592345
 30
0.0
 10
10.2408009698
 20
13.9607373428
 30
0.0
 10
10.2340554877
 20
13.9625910909
 30
0.0
 10
10.2270114781
 20
13.9644193488
 30
0.0
 10
10.2196731605
 20
13.9662210039
 30
0.0
 10
10.2120449362
 20
13.9679949599
 30
0.0
 10
10.2041313835
 20
13.9697401391
 30
0.0
 10
10.1959372556
 20
13.9714554768
 30
0.0
 10
10.1874674737
 20
13.9731399457
 30
0.0
 10
10.1756477764
 20
13.9753746781
 30
0.0
 10
10.1602203954
 20
13.9780757173
 30
0.0
 10
10.1409412657
 20
13.98113482
 30
0.0
 10
10.1206924138
 20
13.9840478298
 30
0.0
 10
10.0995225639
 20
13.9868076287
 30
0.0
 10
10.0774826084
 20
13.989407455
 30
0.0
 10
10.0546255791
 20
13.9918409561
 30
0.0
 10
10.0310064834
 20
13.9941021971
 30
0.0
 10
10.0066821783
 20
13.9961856667
 30
0.0
 10
9.9817112269
 20
13.9980862953
 30
0.0
 10
9.956153757
 20
13.99979946
 30
0.0
 10
9.9300713142
 20
14.0013209978
 30
0.0
 10
9.9035267124
 20
14.0026472137
 30
0.0
 10
9.8765838821
 20
14.0037748874
 30
0.0
 10
9.8493077151
 20
14.0047012838
 30
0.0
 10
9.8217639081
 20
14.0054241536
 30
0.0
 10
9.7940188039
 20
14.0059417459
 30
0.0
 10
9.7661392311
 20
14.0062528031
 30
0.0
 10
9.7381923427
 20
14.0063565736
 30
0.0
 10
9.7102454544
 20
14.0062528031
 30
0.0
 10
9.6823658815
 20
14.0059417459
 30
0.0
 10
9.6546207773
 20
14.0054241536
 30
0.0
 10
9.6270769704
 20
14.0047012838
 30
0.0
 10
9.5998008034
 20
14.0037748874
 30
0.0
 10
9.572857973
 20
14.0026472137
 30
0.0
 10
9.5463133713
 20
14.0013209978
 30
0.0
 10
9.5202309284
 20
13.99979946
 30
0.0
 10
9.4946734586
 20
13.9980862953
 30
0.0
 10
9.4697025072
 20
13.9961856667
 30
0.0
 10
9.4453782021
 20
13.9941021971
 30
0.0
 10
9.4217591064
 20
13.9918409561
 30
0.0
 10
9.3989020771
 20
13.989407455
 30
0.0
 10
9.3768621216
 20
13.9868076287
 30
0.0
 10
9.3556922717
 20
13.9840478298
 30
0.0
 10
9.3354434197
 20
13.98113482
 30
0.0
 10
9.3161642901
 20
13.9780757173
 30
0.0
 10
9.3007369091
 20
13.9753746781
 30
0.0
 10
9.2889172117
 20
13.9731399457
 30
0.0
 10
9.2804474299
 20
13.9714554768
 30
0.0
 10
9.272253302
 20
13.9697401391
 30
0.0
 10
9.2643397493
 20
13.9679949599
 30
0.0
 10
9.256711525
 20
13.9662210039
 30
0.0
 10
9.2493732073
 20
13.9644193488
 30
0.0
 10
9.2423291977
 20
13.9625910909
 30
0.0
 10
9.2355837157
 20
13.9607373428
 30
0.0
 10
9.2291407946
 20
13.9588592345
 30
0.0
 10
9.2230042796
 20
13.9569579105
 30
0.0
 10
9.2171778242
 20
13.9550345289
 30
0.0
 10
9.2116648844
 20
13.9530902595
 30
0.0
 10
9.206468713
 20
13.951126284
 30
0.0
 10
9.2015923552
 20
13.9491437905
 30
0.0
 10
9.1970386432
 20
13.9471439691
 30
0.0
 10
9.1928101887
 20
13.9451280042
 30
0.0
 10
9.188909373
 20
13.9430970657
 30
0.0
 10
9.1853383399
 20
13.9410522905
 30
0.0
 10
9.1820989924
 20
13.9389947546
 30
0.0
 10
9.1791929961
 20
13.9369254374
 30
0.0
 10
9.1766217913
 20
13.93484515
 30
0.0
 10
9.1743866724
 20
13.9327545181
 30
0.0
 10
9.1724888506
 20
13.9306537171
 30
0.0
 10
9.1709299267
 20
13.928543082
 30
0.0
 10
9.1698986681
 20
13.9267471474
 30
0.0
 10
9.1692566454
 20
13.9253127332
 30
0.0
 10
9.1688686011
 20
13.9242527522
 30
0.0
 10
9.1685665844
 20
13.9231917735
 30
0.0
 10
9.1683507358
 20
13.9221299495
 30
0.0
 10
9.1682211752
 20
13.9210676412
 30
0.0
 10
9.1681923427
 20
13.9203583148
 30
0.0
 10
9.1681923427
 20
13.920004951
 30
0.0
  0
SPLINE
  5
2CA
100
AcDbEntity
  8
0
100
AcDbSpline
 62
7
  6
CONTINUOUS
 70
0
 71
3
 72
56
 73
52
 74
0
 42
0.0000001
 43
0.0000001
 44
0.0000000001
 40
0.0
 40
0.0
 40
0.0
 40
0.0
 40
0.0018021673
 40
0.0036158419
 40
0.0054523074
 40
0.007322421
 40
0.0092364507
 40
0.0112039469
 40
0.0153316352
 40
0.0197682518
 40
0.0245618723
 40
0.0297498958
 40
0.035360993
 40
0.0414169198
 40
0.0479340228
 40
0.054924418
 40
0.062396886
 40
0.0703575557
 40
0.0788104229
 40
0.0877577394
 40
0.0972003037
 40
0.107137688
 40
0.1175684201
 40
0.1284901221
 40
0.1398996142
 40
0.1517930019
 40
0.1641657519
 40
0.1770127503
 40
0.1903283462
 40
0.2041063897
 40
0.2183402729
 40
0.2330229582
 40
0.2481469999
 40
0.2796871685
 40
0.312894173
 40
0.347695756
 40
0.3840147996
 40
0.4217697246
 40
0.4608748342
 40
0.5012406604
 40
0.5427742585
 40
0.5853795229
 40
0.6289574729
 40
0.6734065436
 40
0.7186228759
 40
0.7645006002
 40
0.8109321205
 40
0.8578084099
 40
0.9050192763
 40
0.9524536262
 40
1.0
 40
1.0
 40
1.0
 40
1.0
 10
10.3081923411
 20
13.9546013125
 30
0.0
 10
10.3081923411
 20
13.954954683
 30
0.0
 10
10.3081635145
 20
13.9556640128
 30
0.0
 10
10.3080339495
 20
13.9567263198
 30
0.0
 10
10.3078180975
 20
13.9577881343
 30
0.0
 10
10.3075160869
 20
13.9588491115
 30
0.0
 10
10.3071280377
 20
13.9599090922
 30
0.0
 10
10.3064860205
 20
13.9613435109
 30
0.0
 10
10.3054547554
 20
13.9631394424
 30
0.0
 10
10.3038958347
 20
13.9652500783
 30
0.0
 10
10.3019980145
 20
13.9673508805
 30
0.0
 10
10.2997628946
 20
13.9694415117
 30
0.0
 10
10.2971916883
 20
13.9715217982
 30
0.0
 10
10.2942856924
 20
13.9735911156
 30
0.0
 10
10.2910463463
 20
13.9756486526
 30
0.0
 10
10.2874753131
 20
13.9776934276
 30
0.0
 10
10.2835744962
 20
13.9797243653
 30
0.0
 10
10.2793460415
 20
13.9817403301
 30
0.0
 10
10.2747923307
 20
13.9837401524
 30
0.0
 10
10.2699159731
 20
13.9857226459
 30
0.0
 10
10.2647198009
 20
13.9876866207
 30
0.0
 10
10.2592068606
 20
13.9896308898
 30
0.0
 10
10.2533804059
 20
13.9915542722
 30
0.0
 10
10.2472438914
 20
13.9934555965
 30
0.0
 10
10.2408009697
 20
13.9953337042
 30
0.0
 10
10.2340554872
 20
13.9971874519
 30
0.0
 10
10.2270114781
 20
13.9990157103
 30
0.0
 10
10.2196731609
 20
14.0008173658
 30
0.0
 10
10.2120449362
 20
14.0025913214
 30
0.0
 10
10.204131383
 20
14.0043365003
 30
0.0
 10
10.1959372555
 20
14.0060518381
 30
0.0
 10
10.1874674741
 20
14.0077363076
 30
0.0
 10
10.1756477766
 20
14.0099710395
 30
0.0
 10
10.1602203953
 20
14.0126720785
 30
0.0
 10
10.1409412655
 20
14.015731182
 30
0.0
 10
10.1206924138
 20
14.0186441908
 30
0.0
 10
10.0995225636
 20
14.0214039907
 30
0.0
 10
10.0774826085
 20
14.024003816
 30
0.0
 10
10.054625579
 20
14.026437318
 30
0.0
 10
10.0310064835
 20
14.0286985582
 30
0.0
 10
10.0066821782
 20
14.0307820286
 30
0.0
 10
9.9817112269
 20
14.0326826565
 30
0.0
 10
9.956153757
 20
14.0343958218
 30
0.0
 10
9.9300713142
 20
14.0359173591
 30
0.0
 10
9.9035267124
 20
14.0372435754
 30
0.0
 10
9.8765838822
 20
14.0383712488
 30
0.0
 10
9.8493077146
 20
14.0392976454
 30
0.0
 10
9.8217639089
 20
14.0400205151
 30
0.0
 10
9.7940188123
 20
14.0405381071
 30
0.0
 10
9.7661392525
 20
14.040849165
 30
0.0
 10
9.7475152764
 20
14.0409183178
 30
0.0
 10
9.7381923427
 20
14.0409183178
 30
0.0
  0
SPLINE
  5
2CB
100
AcDbEntity
  8
0
100
AcDbSpline
 62
9
  6
CONTINUOUS
 70
0
 71
3
 72
56
 73
52
 74
0
 42
0.0000001
 43
0.0000001
 44
0.0000000001
 40
0.0
 40
0.0
 40
0.0
 40
0.0
 40
0.0475463741
 40
0.0949807231
 40
0.1421915906
 40
0.1890678791
 40
0.2354993999
 40
0.2813771243
 40
0.326593456
 40
0.3710425276
 40
0.4146204766
 40
0.4572257417
 40
0.4987593397
 40
0.5391251654
 40
0.5782302758
 40
0.6159852
 40
0.6523042442
 40
0.6871058269
 40
0.7203128313
 40
0.7518530004
 40
0.7669770418
 40
0.7816597268
 40
0.7958936101
 40
0.8096716541
 40
0.82298725
 40
0.835834248
 40
0.8482069978
 40
0.8601003857
 40
0.8715098781
 40
0.8824315801
 40
0.8928623119
 40
0.902799696
 40
0.9122422605
 40
0.9211895773
 40
0.9296424445
 40
0.9376031139
 40
0.9450755818
 40
0.9520659772
 40
0.9585830803
 40
0.9646390071
 40
0.9702501042
 40
0.9754381276
 40
0.9802317482
 40
0.9846683649
 40
0.9887960531
 40
0.9907635493
 40
0.992677579
 40
0.9945476925
 40
0.996384158
 40
0.9981978326
 40
1.0
 40
1.0
 40
1.0
 40
1.0
 10
9.7381923427
 20
14.5351520537
 30
0.0
 10
9.728869409
 20
14.5351520537
 30
0.0
 10
9.710245433
 20
14.5350829008
 30
0.0
 10
9.6823658731
 20
14.534771843
 30
0.0
 10
9.6546207767
 20
14.5342542509
 30
0.0
 10
9.6270769708
 20
14.5335313813
 30
0.0
 10
9.5998008033
 20
14.5326049847
 30
0.0
 10
9.5728579731
 20
14.5314773113
 30
0.0
 10
9.5463133712
 20
14.530151095
 30
0.0
 10
9.5202309285
 20
14.5286295576
 30
0.0
 10
9.4946734585
 20
14.5269163924
 30
0.0
 10
9.4697025073
 20
14.5250157645
 30
0.0
 10
9.445378202
 20
14.522932294
 30
0.0
 10
9.4217591065
 20
14.5206710539
 30
0.0
 10
9.398902077
 20
14.5182375519
 30
0.0
 10
9.3768621218
 20
14.5156377266
 30
0.0
 10
9.3556922717
 20
14.5128779266
 30
0.0
 10
9.3354434199
 20
14.5099649178
 30
0.0
 10
9.3161642901
 20
14.5069058144
 30
0.0
 10
9.3007369089
 20
14.5042047754
 30
0.0
 10
9.2889172114
 20
14.5019700435
 30
0.0
 10
9.28044743
 20
14.500285574
 30
0.0
 10
9.2722533025
 20
14.4985702362
 30
0.0
 10
9.2643397492
 20
14.4968250573
 30
0.0
 10
9.2567115245
 20
14.4950511017
 30
0.0
 10
9.2493732074
 20
14.4932494462
 30
0.0
 10
9.2423291983
 20
14.4914211878
 30
0.0
 10
9.2355837158
 20
14.4895674401
 30
0.0
 10
9.229140794
 20
14.4876893324
 30
0.0
 10
9.2230042795
 20
14.4857880081
 30
0.0
 10
9.2171778249
 20
14.4838646257
 30
0.0
 10
9.2116648847
 20
14.4819203566
 30
0.0
 10
9.2064687124
 20
14.4799563818
 30
0.0
 10
9.2015923548
 20
14.4779738883
 30
0.0
 10
9.1970386439
 20
14.475974066
 30
0.0
 10
9.1928101893
 20
14.4739581012
 30
0.0
 10
9.1889093724
 20
14.4719271635
 30
0.0
 10
9.1853383392
 20
14.4698823885
 30
0.0
 10
9.1820989931
 20
14.4678248515
 30
0.0
 10
9.1791929971
 20
14.4657555341
 30
0.0
 10
9.1766217909
 20
14.4636752476
 30
0.0
 10
9.174386671
 20
14.4615846164
 30
0.0
 10
9.1724888508
 20
14.4594838142
 30
0.0
 10
9.17092993
 20
14.4573731783
 30
0.0
 10
9.1698986649
 20
14.4555772468
 30
0.0
 10
9.1692566478
 20
14.4541428281
 30
0.0
 10
9.1688685986
 20
14.4530828474
 30
0.0
 10
9.168566588
 20
14.4520218702
 30
0.0
 10
9.1683507359
 20
14.4509600557
 30
0.0
 10
9.168221171
 20
14.4498977487
 30
0.0
 10
9.1681923444
 20
14.4491884189
 30
0.0
 10
9.1681923444
 20
14.4488350483
 30
0.0
  0
SPLINE
  5
2CC
100
AcDbEntity
  8
0
100
AcDbSpline
 62
7
  6
CONTINUOUS
 70
0
 71
3
 72
56
 73
52
 74
0
 42
0.0000001
 43
0.0000001
 44
0.0000000001
 40
0.0
 40
0.0
 40
0.0
 40
0.0
 40
0.0475463738
 40
0.0949807237
 40
0.1421915901
 40
0.1890678795
 40
0.2354993998
 40
0.2813771241
 40
0.3265934564
 40
0.3710425271
 40
0.4146204771
 40
0.4572257415
 40
0.4987593396
 40
0.5391251658
 40
0.5782302754
 40
0.6159852004
 40
0.652304244
 40
0.687105827
 40
0.7203128315
 40
0.7518530001
 40
0.7669770418
 40
0.7816597271
 40
0.7958936103
 40
0.8096716538
 40
0.8229872497
 40
0.8358342481
 40
0.8482069981
 40
0.8601003858
 40
0.8715098779
 40
0.8824315799
 40
0.892862312
 40
0.9027996963
 40
0.9122422606
 40
0.9211895771
 40
0.9296424443
 40
0.937603114
 40
0.945075582
 40
0.9520659772
 40
0.9585830802
 40
0.964639007
 40
0.9702501042
 40
0.9754381277
 40
0.9802317482
 40
0.9846683648
 40
0.9887960531
 40
0.9907635493
 40
0.992677579
 40
0.9945476926
 40
0.9963841581
 40
0.9981978327
 40
1.0
 40
1.0
 40
1.0
 40
1.0
 10
9.7381923427
 20
14.0409183178
 30
0.0
 10
9.7288694091
 20
14.0409183178
 30
0.0
 10
9.710245433
 20
14.040849165
 30
0.0
 10
9.6823658731
 20
14.0405381071
 30
0.0
 10
9.6546207766
 20
14.0400205151
 30
0.0
 10
9.6270769709
 20
14.0392976454
 30
0.0
 10
9.5998008033
 20
14.0383712488
 30
0.0
 10
9.572857973
 20
14.0372435754
 30
0.0
 10
9.5463133713
 20
14.0359173591
 30
0.0
 10
9.5202309284
 20
14.0343958218
 30
0.0
 10
9.4946734586
 20
14.0326826565
 30
0.0
 10
9.4697025072
 20
14.0307820286
 30
0.0
 10
9.445378202
 20
14.0286985582
 30
0.0
 10
9.4217591065
 20
14.026437318
 30
0.0
 10
9.398902077
 20
14.024003816
 30
0.0
 10
9.3768621218
 20
14.0214039907
 30
0.0
 10
9.3556922717
 20
14.0186441908
 30
0.0
 10
9.3354434199
 20
14.015731182
 30
0.0
 10
9.3161642901
 20
14.0126720785
 30
0.0
 10
9.3007369089
 20
14.0099710395
 30
0.0
 10
9.2889172114
 20
14.0077363076
 30
0.0
 10
9.2804474299
 20
14.0060518381
 30
0.0
 10
9.2722533025
 20
14.0043365003
 30
0.0
 10
9.2643397493
 20
14.0025913214
 30
0.0
 10
9.2567115246
 20
14.0008173658
 30
0.0
 10
9.2493732074
 20
13.9990157103
 30
0.0
 10
9.2423291983
 20
13.9971874519
 30
0.0
 10
9.2355837157
 20
13.9953337042
 30
0.0
 10
9.2291407941
 20
13.9934555965
 30
0.0
 10
9.2230042796
 20
13.9915542722
 30
0.0
 10
9.2171778248
 20
13.9896308898
 30
0.0
 10
9.2116648846
 20
13.9876866207
 30
0.0
 10
9.2064687123
 20
13.9857226459
 30
0.0
 10
9.2015923548
 20
13.9837401524
 30
0.0
 10
9.197038644
 20
13.9817403301
 30
0.0
 10
9.1928101893
 20
13.9797243653
 30
0.0
 10
9.1889093723
 20
13.9776934276
 30
0.0
 10
9.1853383391
 20
13.9756486526
 30
0.0
 10
9.1820989931
 20
13.9735911156
 30
0.0
 10
9.1791929972
 20
13.9715217982
 30
0.0
 10
9.1766217908
 20
13.9694415117
 30
0.0
 10
9.174386671
 20
13.9673508805
 30
0.0
 10
9.1724888508
 20
13.9652500783
 30
0.0
 10
9.17092993
 20
13.9631394424
 30
0.0
 10
9.1698986649
 20
13.9613435109
 30
0.0
 10
9.1692566478
 20
13.9599090922
 30
0.0
 10
9.1688685986
 20
13.9588491115
 30
0.0
 10
9.168566588
 20
13.9577881343
 30
0.0
 10
9.1683507359
 20
13.9567263198
 30
0.0
 10
9.168221171
 20
13.9556640128
 30
0.0
 10
9.1681923444
 20
13.954954683
 30
0.0
 10
9.1681923444
 20
13.9546013125
 30
0.0
  0
SPLINE
  5
2CD
100
AcDbEntity
  8
0
100
AcDbSpline
 62
9
  6
CONTINUOUS
 70
0
 71
3
 72
56
 73
52
 74
0
 42
0.0000001
 43
0.0000001
 44
0.0000000001
 40
0.0
 40
0.0
 40
0.0
 40
0.0
 40
0.0018021674
 40
0.003615842
 40
0.0054523075
 40
0.007322421
 40
0.0092364507
 40
0.0112039469
 40
0.0153316351
 40
0.0197682518
 40
0.0245618724
 40
0.0297498958
 40
0.0353609929
 40
0.0414169197
 40
0.0479340228
 40
0.0549244182
 40
0.0623968861
 40
0.0703575555
 40
0.0788104227
 40
0.0877577395
 40
0.097200304
 40
0.1071376881
 40
0.1175684199
 40
0.1284901219
 40
0.1398996143
 40
0.1517930022
 40
0.164165752
 40
0.17701275
 40
0.1903283459
 40
0.2041063899
 40
0.2183402732
 40
0.2330229582
 40
0.2481469996
 40
0.2796871687
 40
0.3128941731
 40
0.3476957558
 40
0.3840148
 40
0.4217697242
 40
0.4608748346
 40
0.5012406603
 40
0.5427742583
 40
0.5853795234
 40
0.6289574724
 40
0.673406544
 40
0.7186228757
 40
0.7645006001
 40
0.8109321209
 40
0.8578084094
 40
0.9050192769
 40
0.9524536259
 40
1.0
 40
1.0
 40
1.0
 40
1.0
 10
10.3081923411
 20
14.4488350483
 30
0.0
 10
10.3081923411
 20
14.4491884189
 30
0.0
 10
10.3081635145
 20
14.4498977487
 30
0.0
 10
10.3080339495
 20
14.4509600557
 30
0.0
 10
10.3078180974
 20
14.4520218702
 30
0.0
 10
10.3075160869
 20
14.4530828474
 30
0.0
 10
10.3071280377
 20
14.4541428281
 30
0.0
 10
10.3064860206
 20
14.4555772468
 30
0.0
 10
10.3054547555
 20
14.4573731783
 30
0.0
 10
10.3038958347
 20
14.4594838142
 30
0.0
 10
10.3019980145
 20
14.4615846164
 30
0.0
 10
10.2997628946
 20
14.4636752476
 30
0.0
 10
10.2971916884
 20
14.4657555341
 30
0.0
 10
10.2942856924
 20
14.4678248515
 30
0.0
 10
10.2910463463
 20
14.4698823885
 30
0.0
 10
10.2874753131
 20
14.4719271635
 30
0.0
 10
10.2835744961
 20
14.4739581012
 30
0.0
 10
10.2793460416
 20
14.475974066
 30
0.0
 10
10.2747923307
 20
14.4779738883
 30
0.0
 10
10.2699159731
 20
14.4799563818
 30
0.0
 10
10.2647198008
 20
14.4819203566
 30
0.0
 10
10.2592068606
 20
14.4838646257
 30
0.0
 10
10.253380406
 20
14.4857880081
 30
0.0
 10
10.2472438914
 20
14.4876893324
 30
0.0
 10
10.2408009697
 20
14.4895674401
 30
0.0
 10
10.2340554871
 20
14.4914211878
 30
0.0
 10
10.2270114781
 20
14.4932494462
 30
0.0
 10
10.219673161
 20
14.4950511017
 30
0.0
 10
10.2120449362
 20
14.4968250573
 30
0.0
 10
10.204131383
 20
14.4985702362
 30
0.0
 10
10.1959372554
 20
14.500285574
 30
0.0
 10
10.1874674741
 20
14.5019700435
 30
0.0
 10
10.1756477766
 20
14.5042047754
 30
0.0
 10
10.1602203954
 20
14.5069058144
 30
0.0
 10
10.1409412655
 20
14.5099649178
 30
0.0
 10
10.1206924138
 20
14.5128779266
 30
0.0
 10
10.0995225637
 20
14.5156377266
 30
0.0
 10
10.0774826085
 20
14.5182375519
 30
0.0
 10
10.054625579
 20
14.5206710539
 30
0.0
 10
10.0310064835
 20
14.522932294
 30
0.0
 10
10.0066821782
 20
14.5250157645
 30
0.0
 10
9.9817112269
 20
14.5269163924
 30
0.0
 10
9.956153757
 20
14.5286295576
 30
0.0
 10
9.9300713142
 20
14.530151095
 30
0.0
 10
9.9035267124
 20
14.5314773113
 30
0.0
 10
9.8765838822
 20
14.5326049847
 30
0.0
 10
9.8493077147
 20
14.5335313813
 30
0.0
 10
9.8217639088
 20
14.5342542509
 30
0.0
 10
9.7940188124
 20
14.534771843
 30
0.0
 10
9.7661392525
 20
14.5350829008
 30
0.0
 10
9.7475152765
 20
14.5351520537
 30
0.0
 10
9.7381923427
 20
14.5351520537
 30
0.0
  0
SPLINE
  5
2CE
100
AcDbEntity
  8
0
100
AcDbSpline
 62
9
  6
CONTINUOUS
 70
0
 71
3
 72
65
 73
61
 74
0
 42
0.0000001
 43
0.0000001
 44
0.0000000001
 40
0.0
 40
0.0
 40
0.0
 40
0.0
 40
0.024815941
 40
0.0372069176
 40
0.0495828124
 40
0.0742819004
 40
0.0989008098
 40
0.1234255943
 40
0.1478413086
 40
0.1721339286
 40
0.1962897574
 40
0.244136818
 40
0.2912789101
 40
0.3376171936
 40
0.3830573261
 40
0.4708857003
 40
0.5540939748
 40
0.6320495751
 40
0.6688669556
 40
0.7041425785
 40
0.7378009286
 40
0.7697664108
 40
0.7999633668
 40
0.8283162504
 40
0.8547499793
 40
0.879190411
 40
0.9015650807
 40
0.9218040191
 40
0.9311015189
 40
0.9398403841
 40
0.9480129364
 40
0.9556117522
 40
0.9626300425
 40
0.9690614949
 40
0.9748998802
 40
0.9801392508
 40
0.9847747592
 40
0.9888018489
 40
0.9905858065
 40
0.9922159623
 40
0.9936919549
 40
0.9950135289
 40
0.9961804297
 40
0.997192418
 40
0.9980492948
 40
0.9984195064
 40
0.9987508679
 40
0.9990433554
 40
0.9992969438
 40
0.9995116049
 40
0.9996873101
 40
0.9997605454
 40
0.9998240309
 40
0.9998777631
 40
0.9999217385
 40
0.9999559535
 40
0.9999804044
 40
0.9999889673
 40
0.9999950878
 40
1.0
 40
1.0
 40
1.0
 40
1.0
 10
12.8031923427
 20
6.2729969113
 30
0.0
 10
12.8003125436
 20
6.2730701401
 30
0.0
 10
12.7959953121
 20
6.2732013705
 30
0.0
 10
12.7902438032
 20
6.2734232588
 30
0.0
 10
12.784507208
 20
6.2736775429
 30
0.0
 10
12.7773553917
 20
6.2740560399
 30
0.0
 10
12.7688006281
 20
6.2746010968
 30
0.0
 10
12.7602849142
 20
6.2752343003
 30
0.0
 10
12.7518142081
 20
6.2759553684
 30
0.0
 10
12.7433942071
 20
6.2767616235
 30
0.0
 10
12.7322782714
 20
6.2779428235
 30
0.0
 10
12.7185479518
 20
6.2796156813
 30
0.0
 10
12.7023044707
 20
6.2819252604
 30
0.0
 10
12.6863845039
 20
6.2845038538
 30
0.0
 10
12.6658680759
 20
6.2882208773
 30
0.0
 10
12.641263398
 20
6.2933563838
 30
0.0
 10
12.6131724957
 20
6.3001824438
 30
0.0
 10
12.5910055585
 20
6.3062623639
 30
0.0
 10
12.5743023795
 20
6.3112030741
 30
0.0
 10
12.5625736169
 20
6.3148285917
 30
0.0
 10
12.5514231779
 20
6.3184150597
 30
0.0
 10
12.5408707129
 20
6.3219330729
 30
0.0
 10
12.5309356667
 20
6.3253540222
 30
0.0
 10
12.5216372716
 20
6.3286502108
 30
0.0
 10
12.5129945395
 20
6.3317949527
 30
0.0
 10
12.5050261795
 20
6.3347627146
 30
0.0
 10
12.4977504619
 20
6.3375292516
 30
0.0
 10
12.492131028
 20
6.3397053884
 30
0.0
 10
12.4879944445
 20
6.3413271921
 30
0.0
 10
12.4851647478
 20
6.3424448814
 30
0.0
 10
12.4825209235
 20
6.3434963615
 30
0.0
 10
12.4800648405
 20
6.3444794164
 30
0.0
 10
12.4777982381
 20
6.3453919479
 30
0.0
 10
12.4757227272
 20
6.3462319244
 30
0.0
 10
12.4738399124
 20
6.3469975718
 30
0.0
 10
12.4721512659
 20
6.3476872505
 30
0.0
 10
12.4706580938
 20
6.3482994348
 30
0.0
 10
12.469536576
 20
6.3487607184
 30
0.0
 10
12.468737978
 20
6.3490899567
 30
0.0
 10
12.4682132754
 20
6.3493065849
 30
0.0
 10
12.4677382775
 20
6.349502951
 30
0.0
 10
12.4673130492
 20
6.3496789475
 30
0.0
 10
12.4669376426
 20
6.3498344724
 30
0.0
 10
12.4666121045
 20
6.3499694283
 30
0.0
 10
12.4663720184
 20
6.3500690146
 30
0.0
 10
12.4662049195
 20
6.3501383448
 30
0.0
 10
12.4660983363
 20
6.3501825704
 30
0.0
 10
12.4660042571
 20
6.3502216064
 30
0.0
 10
12.4659226884
 20
6.3502554452
 30
0.0
 10
12.4658536395
 20
6.3502840849
 30
0.0
 10
12.4658039277
 20
6.3503046997
 30
0.0
 10
12.4657704258
 20
6.3503185907
 30
0.0
 10
12.4657500025
 20
6.3503270565
 30
0.0
 10
12.4657327176
 20
6.3503342248
 30
0.0
 10
12.4657185681
 20
6.3503400798
 30
0.0
 10
12.4657075667
 20
6.3503446625
 30
0.0
 10
12.4657003443
 20
6.3503476048
 30
0.0
 10
12.4656961639
 20
6.3503494029
 30
0.0
 10
12.4656940327
 20
6.3503501677
 30
0.0
 10
12.4656929062
 20
6.3503508611
 30
0.0
 10
12.4656923427
 20
6.3503509488
 30
0.0
  0
SPLINE
  5
2CF
100
AcDbEntity
  8
0
100
AcDbSpline
 62
9
  6
CONTINUOUS
 70
0
 71
3
 72
105
 73
101
 74
0
 42
0.0000001
 43
0.0000001
 44
0.0000000001
 40
0.0
 40
0.0
 40
0.0
 40
0.0
 40
0.0009010667
 40
0.001807913
 40
0.0027261563
 40
0.0036612147
 40
0.0046182255
 40
0.0056019724
 40
0.007665817
 40
0.0098841258
 40
0.012280937
 40
0.0148749483
 40
0.0176804956
 40
0.0207084592
 40
0.0239670123
 40
0.0274622098
 40
0.0311984424
 40
0.0351787769
 40
0.0394052119
 40
0.0438788707
 40
0.0486001516
 40
0.053568843
 40
0.0587842103
 40
0.0642450619
 40
0.0699498071
 40
0.0758965001
 40
0.082082876
 40
0.0885063759
 40
0.0951641731
 40
0.1020531941
 40
0.1091701363
 40
0.1165114799
 40
0.1240735001
 40
0.1398435839
 40
0.1564470869
 40
0.1738478774
 40
0.1920074004
 40
0.2108848617
 40
0.2304374177
 40
0.2506203298
 40
0.2713871294
 40
0.2926897615
 40
0.3144787364
 40
0.3367032719
 40
0.359311438
 40
0.3822503
 40
0.4054660605
 40
0.4289042041
 40
0.4525096389
 40
0.4762268415
 40
0.5
 40
0.5237731585
 40
0.5474903611
 40
0.5710957959
 40
0.5945339395
 40
0.6177497
 40
0.640688562
 40
0.6632967281
 40
0.6855212636
 40
0.7073102385
 40
0.7286128706
 40
0.7493796702
 40
0.7695625823
 40
0.7891151383
 40
0.8079925996
 40
0.8261521226
 40
0.8435529131
 40
0.8601564161
 40
0.8759264999
 40
0.8834885201
 40
0.8908298637
 40
0.8979468059
 40
0.9048358269
 40
0.9114936241
 40
0.917917124
 40
0.9241034999
 40
0.9300501929
 40
0.9357549381
 40
0.9412157897
 40
0.946431157
 40
0.9513998484
 40
0.9561211293
 40
0.9605947881
 40
0.9648212231
 40
0.9688015576
 40
0.9725377902
 40
0.9760329877
 40
0.9792915408
 40
0.9823195044
 40
0.9851250517
 40
0.987719063
 40
0.9901158742
 40
0.992334183
 40
0.9943980276
 40
0.9953817745
 40
0.9963387853
 40
0.9972738437
 40
0.998192087
 40
0.9990989333
 40
1.0
 40
1.0
 40
1.0
 40
1.0
 10
10.3081923427
 20
11.6811261274
 30
0.0
 10
10.3081923427
 20
11.6814794913
 30
0.0
 10
10.3081635103
 20
11.6821888177
 30
0.0
 10
10.3080339496
 20
11.6832511259
 30
0.0
 10
10.3078181011
 20
11.6843129499
 30
0.0
 10
10.3075160844
 20
11.6853739287
 30
0.0
 10
10.3071280401
 20
11.6864339096
 30
0.0
 10
10.3064860174
 20
11.6878683238
 30
0.0
 10
10.3054547588
 20
11.6896642584
 30
0.0
 10
10.3038958348
 20
11.6917748935
 30
0.0
 10
10.3019980131
 20
11.6938756946
 30
0.0
 10
10.2997628942
 20
11.6959663264
 30
0.0
 10
10.2971916894
 20
11.6980466138
 30
0.0
 10
10.2942856931
 20
11.700115931
 30
0.0
 10
10.2910463455
 20
11.7021734669
 30
0.0
 10
10.2874753125
 20
11.7042182421
 30
0.0
 10
10.2835744967
 20
11.7062491807
 30
0.0
 10
10.2793460423
 20
11.7082651456
 30
0.0
 10
10.2747923303
 20
11.7102649669
 30
0.0
 10
10.2699159725
 20
11.7122474604
 30
0.0
 10
10.2647198011
 20
11.7142114359
 30
0.0
 10
10.2592068613
 20
11.7161557053
 30
0.0
 10
10.2533804058
 20
11.718079087
 30
0.0
 10
10.2472438909
 20
11.719980411
 30
0.0
 10
10.2408009698
 20
11.7218585192
 30
0.0
 10
10.2340554877
 20
11.7237122674
 30
0.0
 10
10.2270114781
 20
11.7255405253
 30
0.0
 10
10.2196731605
 20
11.7273421803
 30
0.0
 10
10.2120449362
 20
11.7291161364
 30
0.0
 10
10.2041313835
 20
11.7308613156
 30
0.0
 10
10.1959372556
 20
11.7325766533
 30
0.0
 10
10.1874674737
 20
11.7342611221
 30
0.0
 10
10.1756477764
 20
11.7364958545
 30
0.0
 10
10.1602203954
 20
11.7391968938
 30
0.0
 10
10.1409412657
 20
11.7422559964
 30
0.0
 10
10.1206924138
 20
11.7451690062
 30
0.0
 10
10.0995225639
 20
11.7479288051
 30
0.0
 10
10.0774826084
 20
11.7505286315
 30
0.0
 10
10.0546255791
 20
11.7529621325
 30
0.0
 10
10.0310064834
 20
11.7552233735
 30
0.0
 10
10.0066821783
 20
11.7573068431
 30
0.0
 10
9.9817112269
 20
11.7592074718
 30
0.0
 10
9.956153757
 20
11.7609206364
 30
0.0
 10
9.9300713142
 20
11.7624421743
 30
0.0
 10
9.9035267124
 20
11.7637683902
 30
0.0
 10
9.8765838821
 20
11.7648960639
 30
0.0
 10
9.8493077151
 20
11.7658224602
 30
0.0
 10
9.8217639081
 20
11.7665453301
 30
0.0
 10
9.7940188039
 20
11.7670629224
 30
0.0
 10
9.7661392311
 20
11.7673739796
 30
0.0
 10
9.7381923427
 20
11.7674777501
 30
0.0
 10
9.7102454544
 20
11.7673739796
 30
0.0
 10
9.6823658815
 20
11.7670629224
 30
0.0
 10
9.6546207773
 20
11.7665453301
 30
0.0
 10
9.6270769704
 20
11.7658224602
 30
0.0
 10
9.5998008034
 20
11.7648960639
 30
0.0
 10
9.572857973
 20
11.7637683902
 30
0.0
 10
9.5463133713
 20
11.7624421743
 30
0.0
 10
9.5202309284
 20
11.7609206364
 30
0.0
 10
9.4946734586
 20
11.7592074718
 30
0.0
 10
9.4697025072
 20
11.7573068431
 30
0.0
 10
9.4453782021
 20
11.7552233735
 30
0.0
 10
9.4217591064
 20
11.7529621325
 30
0.0
 10
9.3989020771
 20
11.7505286315
 30
0.0
 10
9.3768621216
 20
11.7479288051
 30
0.0
 10
9.3556922717
 20
11.7451690062
 30
0.0
 10
9.3354434197
 20
11.7422559964
 30
0.0
 10
9.3161642901
 20
11.7391968938
 30
0.0
 10
9.3007369091
 20
11.7364958545
 30
0.0
 10
9.2889172117
 20
11.7342611221
 30
0.0
 10
9.2804474299
 20
11.7325766533
 30
0.0
 10
9.272253302
 20
11.7308613156
 30
0.0
 10
9.2643397493
 20
11.7291161364
 30
0.0
 10
9.256711525
 20
11.7273421803
 30
0.0
 10
9.2493732073
 20
11.7255405253
 30
0.0
 10
9.2423291977
 20
11.7237122674
 30
0.0
 10
9.2355837157
 20
11.7218585192
 30
0.0
 10
9.2291407946
 20
11.719980411
 30
0.0
 10
9.2230042796
 20
11.718079087
 30
0.0
 10
9.2171778242
 20
11.7161557053
 30
0.0
 10
9.2116648844
 20
11.7142114359
 30
0.0
 10
9.206468713
 20
11.7122474604
 30
0.0
 10
9.2015923552
 20
11.7102649669
 30
0.0
 10
9.1970386432
 20
11.7082651456
 30
0.0
 10
9.1928101887
 20
11.7062491807
 30
0.0
 10
9.188909373
 20
11.7042182421
 30
0.0
 10
9.1853383399
 20
11.7021734669
 30
0.0
 10
9.1820989924
 20
11.700115931
 30
0.0
 10
9.1791929961
 20
11.6980466138
 30
0.0
 10
9.1766217913
 20
11.6959663264
 30
0.0
 10
9.1743866724
 20
11.6938756946
 30
0.0
 10
9.1724888506
 20
11.6917748935
 30
0.0
 10
9.1709299267
 20
11.6896642584
 30
0.0
 10
9.1698986681
 20
11.6878683238
 30
0.0
 10
9.1692566454
 20
11.6864339096
 30
0.0
 10
9.1688686011
 20
11.6853739287
 30
0.0
 10
9.1685665844
 20
11.6843129499
 30
0.0
 10
9.1683507358
 20
11.6832511259
 30
0.0
 10
9.1682211752
 20
11.6821888177
 30
0.0
 10
9.1681923427
 20
11.6814794913
 30
0.0
 10
9.1681923427
 20
11.6811261274
 30
0.0
  0
SPLINE
  5
2D0
100
AcDbEntity
  8
0
100
AcDbSpline
 62
9
  6
CONTINUOUS
 70
0
 71
3
 72
105
 73
101
 74
0
 42
0.0000001
 43
0.0000001
 44
0.0000000001
 40
0.0
 40
0.0
 40
0.0
 40
0.0
 40
0.0009010661
 40
0.0018079122
 40
0.0027261558
 40
0.0036612144
 40
0.0046182251
 40
0.0056019718
 40
0.0076658162
 40
0.0098841252
 40
0.0122809364
 40
0.0148749475
 40
0.0176804946
 40
0.0207084585
 40
0.0239670114
 40
0.0274622086
 40
0.031198441
 40
0.035178776
 40
0.0394052111
 40
0.0438788694
 40
0.04860015
 40
0.0535688419
 40
0.0587842094
 40
0.0642450605
 40
0.0699498052
 40
0.0758964988
 40
0.0820828751
 40
0.0885063746
 40
0.0951641711
 40
0.1020531925
 40
0.1091701355
 40
0.1165114787
 40
0.1240734981
 40
0.139843583
 40
0.1564470851
 40
0.1738478764
 40
0.1920073988
 40
0.2108848606
 40
0.2304374163
 40
0.2506203287
 40
0.2713871284
 40
0.2926897603
 40
0.3144787356
 40
0.3367032709
 40
0.3593114375
 40
0.3822502992
 40
0.4054660602
 40
0.4289042036
 40
0.4525096387
 40
0.4762268413
 40
0.5
 40
0.5237731587
 40
0.5474903613
 40
0.5710957964
 40
0.5945339398
 40
0.6177497008
 40
0.6406885625
 40
0.6632967291
 40
0.6855212644
 40
0.7073102397
 40
0.7286128716
 40
0.7493796713
 40
0.7695625837
 40
0.7891151394
 40
0.8079926012
 40
0.8261521236
 40
0.8435529149
 40
0.860156417
 40
0.8759265019
 40
0.8834885213
 40
0.8908298645
 40
0.8979468075
 40
0.9048358289
 40
0.9114936254
 40
0.9179171249
 40
0.9241035012
 40
0.9300501948
 40
0.9357549395
 40
0.9412157906
 40
0.9464311581
 40
0.95139985
 40
0.9561211306
 40
0.9605947889
 40
0.964821224
 40
0.968801559
 40
0.9725377914
 40
0.9760329886
 40
0.9792915415
 40
0.9823195054
 40
0.9851250525
 40
0.9877190636
 40
0.9901158748
 40
0.9923341838
 40
0.9943980282
 40
0.9953817749
 40
0.9963387856
 40
0.9972738442
 40
0.9981920878
 40
0.9990989339
 40
1.0
 40
1.0
 40
1.0
 40
1.0
 10
10.2981923427
 20
11.6712414527
 30
0.0
 10
10.2981923427
 20
11.671588617
 30
0.0
 10
10.2981640161
 20
11.6722854988
 30
0.0
 10
10.2980367284
 20
11.6733291698
 30
0.0
 10
10.297824667
 20
11.6743723655
 30
0.0
 10
10.2975279487
 20
11.6754147307
 30
0.0
 10
10.2971467123
 20
11.6764561154
 30
0.0
 10
10.2965159533
 20
11.6778653644
 30
0.0
 10
10.2955027871
 20
11.6796297913
 30
0.0
 10
10.2939712125
 20
11.6817033976
 30
0.0
 10
10.292106686
 20
11.6837673426
 30
0.0
 10
10.2899107801
 20
11.6858212968
 30
0.0
 10
10.2873846842
 20
11.6878650881
 30
0.0
 10
10.28452967
 20
11.6898981011
 30
0.0
 10
10.2813471533
 20
11.69191954
 30
0.0
 10
10.2778387703
 20
11.6939284421
 30
0.0
 10
10.2740063901
 20
11.6959237504
 30
0.0
 10
10.2698521187
 20
11.6979043471
 30
0.0
 10
10.2653782964
 20
11.6998690838
 30
0.0
 10
10.2605874891
 20
11.701816797
 30
0.0
 10
10.2554824788
 20
11.703746317
 30
0.0
 10
10.2500662569
 20
11.705656476
 30
0.0
 10
10.2443420199
 20
11.7075461141
 30
0.0
 10
10.2383131634
 20
11.7094140817
 30
0.0
 10
10.2319832764
 20
11.711259241
 30
0.0
 10
10.2253561358
 20
11.713080467
 30
0.0
 10
10.2184357051
 20
11.71487665
 30
0.0
 10
10.2112261301
 20
11.7166466973
 30
0.0
 10
10.2037317346
 20
11.7183895315
 30
0.0
 10
10.195957016
 20
11.7201040935
 30
0.0
 10
10.1879066444
 20
11.7217893371
 30
0.0
 10
10.1795854554
 20
11.7234442541
 30
0.0
 10
10.1679731213
 20
11.7256397813
 30
0.0
 10
10.1528163961
 20
11.7282934329
 30
0.0
 10
10.1338754966
 20
11.7312988681
 30
0.0
 10
10.1139818878
 20
11.7341607716
 30
0.0
 10
10.0931834386
 20
11.7368721537
 30
0.0
 10
10.0715301491
 20
11.7394263685
 30
0.0
 10
10.0490741202
 20
11.741817177
 30
0.0
 10
10.0258693945
 20
11.744038747
 30
0.0
 10
10.0019718316
 20
11.7460856645
 30
0.0
 10
9.9774389669
 20
11.747952949
 30
0.0
 10
9.9523298737
 20
11.7496360577
 30
0.0
 10
9.9267050174
 20
11.7511309026
 30
0.0
 10
9.9006261103
 20
11.7524338508
 30
0.0
 10
9.874155961
 20
11.7535417417
 30
0.0
 10
9.8473583232
 20
11.7544518843
 30
0.0
 10
9.8202977407
 20
11.7551620735
 30
0.0
 10
9.7930393926
 20
11.7556705839
 30
0.0
 10
9.765648935
 20
11.7559761853
 30
0.0
 10
9.7381923427
 20
11.7560781339
 30
0.0
 10
9.7107357505
 20
11.7559761853
 30
0.0
 10
9.6833452928
 20
11.7556705839
 30
0.0
 10
9.6560869448
 20
11.7551620735
 30
0.0
 10
9.6290263623
 20
11.7544518843
 30
0.0
 10
9.6022287245
 20
11.7535417417
 30
0.0
 10
9.5757585751
 20
11.7524338508
 30
0.0
 10
9.5496796681
 20
11.7511309026
 30
0.0
 10
9.5240548118
 20
11.7496360577
 30
0.0
 10
9.4989457186
 20
11.747952949
 30
0.0
 10
9.4744128539
 20
11.7460856645
 30
0.0
 10
9.4505152909
 20
11.744038747
 30
0.0
 10
9.4273105653
 20
11.741817177
 30
0.0
 10
9.4048545364
 20
11.7394263685
 30
0.0
 10
9.3832012469
 20
11.7368721537
 30
0.0
 10
9.3624027977
 20
11.7341607716
 30
0.0
 10
9.3425091889
 20
11.7312988681
 30
0.0
 10
9.3235682894
 20
11.7282934329
 30
0.0
 10
9.3084115642
 20
11.7256397813
 30
0.0
 10
9.2967992301
 20
11.7234442541
 30
0.0
 10
9.2884780411
 20
11.7217893371
 30
0.0
 10
9.2804276695
 20
11.7201040935
 30
0.0
 10
9.2726529508
 20
11.7183895315
 30
0.0
 10
9.2651585554
 20
11.7166466973
 30
0.0
 10
9.2579489804
 20
11.71487665
 30
0.0
 10
9.2510285497
 20
11.713080467
 30
0.0
 10
9.2444014091
 20
11.711259241
 30
0.0
 10
9.238071522
 20
11.7094140817
 30
0.0
 10
9.2320426656
 20
11.7075461141
 30
0.0
 10
9.2263184285
 20
11.705656476
 30
0.0
 10
9.2209022066
 20
11.703746317
 30
0.0
 10
9.2157971964
 20
11.701816797
 30
0.0
 10
9.2110063891
 20
11.6998690838
 30
0.0
 10
9.2065325668
 20
11.6979043471
 30
0.0
 10
9.2023782954
 20
11.6959237504
 30
0.0
 10
9.1985459151
 20
11.6939284421
 30
0.0
 10
9.1950375322
 20
11.69191954
 30
0.0
 10
9.1918550155
 20
11.6898981011
 30
0.0
 10
9.1890000013
 20
11.6878650881
 30
0.0
 10
9.1864739054
 20
11.6858212968
 30
0.0
 10
9.1842779994
 20
11.6837673426
 30
0.0
 10
9.182413473
 20
11.6817033976
 30
0.0
 10
9.1808818984
 20
11.6796297913
 30
0.0
 10
9.1798687322
 20
11.6778653644
 30
0.0
 10
9.1792379732
 20
11.6764561154
 30
0.0
 10
9.1788567368
 20
11.6754147307
 30
0.0
 10
9.1785600185
 20
11.6743723655
 30
0.0
 10
9.1783479571
 20
11.6733291698
 30
0.0
 10
9.1782206694
 20
11.6722854988
 30
0.0
 10
9.1781923427
 20
11.671588617
 30
0.0
 10
9.1781923427
 20
11.6712414527
 30
0.0
  0
SPLINE
  5
2D1
100
AcDbEntity
  8
0
100
AcDbSpline
 62
9
  6
CONTINUOUS
 70
0
 71
3
 72
105
 73
101
 74
0
 42
0.0000001
 43
0.0000001
 44
0.0000000001
 40
0.0
 40
0.0
 40
0.0
 40
0.0
 40
0.0009010661
 40
0.0018079122
 40
0.0027261558
 40
0.0036612144
 40
0.0046182251
 40
0.0056019718
 40
0.0076658162
 40
0.0098841252
 40
0.0122809364
 40
0.0148749475
 40
0.0176804946
 40
0.0207084585
 40
0.0239670114
 40
0.0274622086
 40
0.031198441
 40
0.035178776
 40
0.0394052111
 40
0.0438788694
 40
0.04860015
 40
0.0535688419
 40
0.0587842094
 40
0.0642450605
 40
0.0699498052
 40
0.0758964988
 40
0.0820828751
 40
0.0885063746
 40
0.0951641711
 40
0.1020531925
 40
0.1091701355
 40
0.1165114787
 40
0.1240734981
 40
0.139843583
 40
0.1564470851
 40
0.1738478764
 40
0.1920073988
 40
0.2108848606
 40
0.2304374163
 40
0.2506203287
 40
0.2713871284
 40
0.2926897603
 40
0.3144787356
 40
0.3367032709
 40
0.3593114375
 40
0.3822502992
 40
0.4054660602
 40
0.4289042036
 40
0.4525096387
 40
0.4762268413
 40
0.5
 40
0.5237731587
 40
0.5474903613
 40
0.5710957964
 40
0.5945339398
 40
0.6177497008
 40
0.6406885625
 40
0.6632967291
 40
0.6855212644
 40
0.7073102397
 40
0.7286128716
 40
0.7493796713
 40
0.7695625837
 40
0.7891151394
 40
0.8079926012
 40
0.8261521236
 40
0.8435529149
 40
0.860156417
 40
0.8759265019
 40
0.8834885213
 40
0.8908298645
 40
0.8979468075
 40
0.9048358289
 40
0.9114936254
 40
0.9179171249
 40
0.9241035012
 40
0.9300501948
 40
0.9357549395
 40
0.9412157906
 40
0.9464311581
 40
0.95139985
 40
0.9561211306
 40
0.9605947889
 40
0.964821224
 40
0.968801559
 40
0.9725377914
 40
0.9760329886
 40
0.9792915415
 40
0.9823195054
 40
0.9851250525
 40
0.9877190636
 40
0.9901158748
 40
0.9923341838
 40
0.9943980282
 40
0.9953817749
 40
0.9963387856
 40
0.9972738442
 40
0.9981920878
 40
0.9990989339
 40
1.0
 40
1.0
 40
1.0
 40
1.0
 10
9.1781923427
 20
11.6712414527
 30
0.0
 10
9.1781923427
 20
11.6708942884
 30
0.0
 10
9.1782206694
 20
11.6701974066
 30
0.0
 10
9.1783479571
 20
11.6691537356
 30
0.0
 10
9.1785600185
 20
11.6681105399
 30
0.0
 10
9.1788567368
 20
11.6670681747
 30
0.0
 10
9.1792379732
 20
11.66602679
 30
0.0
 10
9.1798687322
 20
11.6646175411
 30
0.0
 10
9.1808818984
 20
11.6628531141
 30
0.0
 10
9.182413473
 20
11.6607795078
 30
0.0
 10
9.1842779994
 20
11.6587155628
 30
0.0
 10
9.1864739054
 20
11.6566616086
 30
0.0
 10
9.1890000013
 20
11.6546178173
 30
0.0
 10
9.1918550155
 20
11.6525848043
 30
0.0
 10
9.1950375322
 20
11.6505633654
 30
0.0
 10
9.1985459151
 20
11.6485544633
 30
0.0
 10
9.2023782954
 20
11.646559155
 30
0.0
 10
9.2065325668
 20
11.6445785583
 30
0.0
 10
9.2110063891
 20
11.6426138216
 30
0.0
 10
9.2157971964
 20
11.6406661084
 30
0.0
 10
9.2209022066
 20
11.6387365884
 30
0.0
 10
9.2263184285
 20
11.6368264294
 30
0.0
 10
9.2320426656
 20
11.6349367913
 30
0.0
 10
9.238071522
 20
11.6330688237
 30
0.0
 10
9.2444014091
 20
11.6312236644
 30
0.0
 10
9.2510285497
 20
11.6294024384
 30
0.0
 10
9.2579489804
 20
11.6276062554
 30
0.0
 10
9.2651585554
 20
11.6258362081
 30
0.0
 10
9.2726529508
 20
11.6240933739
 30
0.0
 10
9.2804276695
 20
11.6223788119
 30
0.0
 10
9.2884780411
 20
11.6206935683
 30
0.0
 10
9.2967992301
 20
11.6190386513
 30
0.0
 10
9.3084115642
 20
11.6168431241
 30
0.0
 10
9.3235682894
 20
11.6141894726
 30
0.0
 10
9.3425091889
 20
11.6111840373
 30
0.0
 10
9.3624027977
 20
11.6083221338
 30
0.0
 10
9.3832012469
 20
11.6056107517
 30
0.0
 10
9.4048545364
 20
11.6030565369
 30
0.0
 10
9.4273105653
 20
11.6006657284
 30
0.0
 10
9.4505152909
 20
11.5984441584
 30
0.0
 10
9.4744128539
 20
11.5963972409
 30
0.0
 10
9.4989457186
 20
11.5945299564
 30
0.0
 10
9.5240548118
 20
11.5928468477
 30
0.0
 10
9.5496796681
 20
11.5913520028
 30
0.0
 10
9.5757585751
 20
11.5900490546
 30
0.0
 10
9.6022287245
 20
11.5889411637
 30
0.0
 10
9.6290263623
 20
11.5880310211
 30
0.0
 10
9.6560869448
 20
11.5873208319
 30
0.0
 10
9.6833452928
 20
11.5868123215
 30
0.0
 10
9.7107357505
 20
11.5865067201
 30
0.0
 10
9.7381923427
 20
11.5864047715
 30
0.0
 10
9.765648935
 20
11.5865067201
 30
0.0
 10
9.7930393926
 20
11.5868123215
 30
0.0
 10
9.8202977407
 20
11.5873208319
 30
0.0
 10
9.8473583232
 20
11.5880310211
 30
0.0
 10
9.874155961
 20
11.5889411637
 30
0.0
 10
9.9006261103
 20
11.5900490546
 30
0.0
 10
9.9267050174
 20
11.5913520028
 30
0.0
 10
9.9523298737
 20
11.5928468477
 30
0.0
 10
9.9774389669
 20
11.5945299564
 30
0.0
 10
10.0019718316
 20
11.5963972409
 30
0.0
 10
10.0258693945
 20
11.5984441584
 30
0.0
 10
10.0490741202
 20
11.6006657284
 30
0.0
 10
10.0715301491
 20
11.6030565369
 30
0.0
 10
10.0931834386
 20
11.6056107517
 30
0.0
 10
10.1139818878
 20
11.6083221338
 30
0.0
 10
10.1338754966
 20
11.6111840373
 30
0.0
 10
10.1528163961
 20
11.6141894726
 30
0.0
 10
10.1679731213
 20
11.6168431241
 30
0.0
 10
10.1795854554
 20
11.6190386513
 30
0.0
 10
10.1879066444
 20
11.6206935683
 30
0.0
 10
10.195957016
 20
11.6223788119
 30
0.0
 10
10.2037317346
 20
11.6240933739
 30
0.0
 10
10.2112261301
 20
11.6258362081
 30
0.0
 10
10.2184357051
 20
11.6276062554
 30
0.0
 10
10.2253561358
 20
11.6294024384
 30
0.0
 10
10.2319832764
 20
11.6312236644
 30
0.0
 10
10.2383131634
 20
11.6330688237
 30
0.0
 10
10.2443420199
 20
11.6349367913
 30
0.0
 10
10.2500662569
 20
11.6368264294
 30
0.0
 10
10.2554824788
 20
11.6387365884
 30
0.0
 10
10.2605874891
 20
11.6406661084
 30
0.0
 10
10.2653782964
 20
11.6426138216
 30
0.0
 10
10.2698521187
 20
11.6445785583
 30
0.0
 10
10.2740063901
 20
11.646559155
 30
0.0
 10
10.2778387703
 20
11.6485544633
 30
0.0
 10
10.2813471533
 20
11.6505633654
 30
0.0
 10
10.28452967
 20
11.6525848043
 30
0.0
 10
10.2873846842
 20
11.6546178173
 30
0.0
 10
10.2899107801
 20
11.6566616086
 30
0.0
 10
10.292106686
 20
11.6587155628
 30
0.0
 10
10.2939712125
 20
11.6607795078
 30
0.0
 10
10.2955027871
 20
11.6628531141
 30
0.0
 10
10.2965159533
 20
11.6646175411
 30
0.0
 10
10.2971467123
 20
11.66602679
 30
0.0
 10
10.2975279487
 20
11.6670681747
 30
0.0
 10
10.297824667
 20
11.6681105399
 30
0.0
 10
10.2980367284
 20
11.6691537356
 30
0.0
 10
10.2981640161
 20
11.6701974066
 30
0.0
 10
10.2981923427
 20
11.6708942884
 30
0.0
 10
10.2981923427
 20
11.6712414527
 30
0.0
  0
LINE
  5
2D2
100
AcDbEntity
  8
0
100
AcDbLine
 62
7
  6
CONTINUOUS
 10
10.1443405634
 20
11.644902467
 11
10.1458998932
 21
11.6465752806
  0
SPLINE
  5
2D3
100
AcDbEntity
  8
0
100
AcDbSpline
 62
7
  6
CONTINUOUS
 70
0
 71
3
 72
26
 73
22
 74
0
 42
0.0000001
 43
0.0000001
 44
0.0000000001
 40
0.0
 40
0.0
 40
0.0
 40
0.0
 40
0.017484738
 40
0.0351052277
 40
0.0529929181
 40
0.0712736325
 40
0.0900653403
 40
0.1094763878
 40
0.1505154753
 40
0.1950749783
 40
0.2436607655
 40
0.2966531667
 40
0.3543340981
 40
0.4169100637
 40
0.4845300533
 40
0.5572989031
 40
0.635287129
 40
0.718538204
 40
0.8070738768
 40
0.9008981101
 40
1.0
 40
1.0
 40
1.0
 40
1.0
 10
9.2931923427
 20
11.6712414527
 30
0.0
 10
9.2931923427
 20
11.6709376865
 30
0.0
 10
9.2932196691
 20
11.6703274503
 30
0.0
 10
9.293342421
 20
11.6694138752
 30
0.0
 10
9.2935468952
 20
11.6685008551
 30
0.0
 10
9.2938329365
 20
11.6675887722
 30
0.0
 10
9.2942003654
 20
11.6666777851
 30
0.0
 10
9.2948097555
 20
11.6654421
 30
0.0
 10
9.2957890801
 20
11.6638961075
 30
0.0
 10
9.2972643383
 20
11.6620854333
 30
0.0
 10
9.299059111
 20
11.6602846008
 30
0.0
 10
9.3011718554
 20
11.6584938893
 30
0.0
 10
9.3036013637
 20
11.6567135295
 30
0.0
 10
9.3063462309
 20
11.6549442561
 30
0.0
 10
9.3094048281
 20
11.6531869954
 30
0.0
 10
9.3127752359
 20
11.6514428331
 30
0.0
 10
9.316455249
 20
11.6497129347
 30
0.0
 10
9.3204423802
 20
11.6479985131
 30
0.0
 10
9.324733883
 20
11.6463008
 30
0.0
 10
9.329326721
 20
11.6446210419
 30
0.0
 10
9.3325008312
 20
11.6435433714
 30
0.0
 10
9.3341367138
 20
11.6430065252
 30
0.0
  0
SPLINE
  5
2D4
100
AcDbEntity
  8
0
100
AcDbSpline
 62
7
  6
CONTINUOUS
 70
0
 71
3
 72
11
 73
7
 74
0
 42
0.0000001
 43
0.0000001
 44
0.0000000001
 40
0.0
 40
0.0
 40
0.0
 40
0.0
 40
0.2349903089
 40
0.480036174
 40
0.735067054
 40
1.0
 40
1.0
 40
1.0
 40
1.0
 10
9.3346460729
 20
11.6428399659
 30
0.0
 10
9.3361246048
 20
11.6423582108
 30
0.0
 10
9.3391539358
 20
11.6414015331
 30
0.0
 10
9.3438158843
 20
11.6400125652
 30
0.0
 10
9.3486889206
 20
11.6386402094
 30
0.0
 10
9.3520137071
 20
11.6377536481
 30
0.0
 10
9.3537105316
 20
11.6373126997
 30
0.0
  0
SPLINE
  5
2D5
100
AcDbEntity
  8
0
100
AcDbSpline
 62
7
  6
CONTINUOUS
 70
0
 71
3
 72
11
 73
7
 74
0
 42
0.0000001
 43
0.0000001
 44
0.0000000001
 40
0.0
 40
0.0
 40
0.0
 40
0.0
 40
0.264932946
 40
0.519963826
 40
0.7650096911
 40
1.0
 40
1.0
 40
1.0
 40
1.0
 10
10.1226741538
 20
11.6373126997
 30
0.0
 10
10.1243709784
 20
11.6377536481
 30
0.0
 10
10.1276957649
 20
11.6386402094
 30
0.0
 10
10.1325688011
 20
11.6400125652
 30
0.0
 10
10.1372307497
 20
11.6414015331
 30
0.0
 10
10.1402600807
 20
11.6423582108
 30
0.0
 10
10.1417386125
 20
11.6428399659
 30
0.0
  0
SPLINE
  5
2D6
100
AcDbEntity
  8
0
100
AcDbSpline
 62
7
  6
CONTINUOUS
 70
0
 71
3
 72
26
 73
22
 74
0
 42
0.0000001
 43
0.0000001
 44
0.0000000001
 40
0.0
 40
0.0
 40
0.0
 40
0.0
 40
0.0991018899
 40
0.1929261232
 40
0.281461796
 40
0.364712871
 40
0.4427010969
 40
0.5154699467
 40
0.5830899363
 40
0.6456659019
 40
0.7033468333
 40
0.7563392345
 40
0.8049250217
 40
0.8494845247
 40
0.8905236122
 40
0.9099346597
 40
0.9287263675
 40
0.9470070819
 40
0.9648947723
 40
0.982515262
 40
1.0
 40
1.0
 40
1.0
 40
1.0
 10
10.1422479717
 20
11.6430065252
 30
0.0
 10
10.1438838543
 20
11.6435433714
 30
0.0
 10
10.1470579645
 20
11.6446210419
 30
0.0
 10
10.1516508025
 20
11.6463008
 30
0.0
 10
10.1559423053
 20
11.6479985131
 30
0.0
 10
10.1599294364
 20
11.6497129347
 30
0.0
 10
10.1636094495
 20
11.6514428331
 30
0.0
 10
10.1669798574
 20
11.6531869954
 30
0.0
 10
10.1700384546
 20
11.6549442561
 30
0.0
 10
10.1727833218
 20
11.6567135295
 30
0.0
 10
10.17521283
 20
11.6584938893
 30
0.0
 10
10.1773255745
 20
11.6602846008
 30
0.0
 10
10.1791203472
 20
11.6620854333
 30
0.0
 10
10.1805956054
 20
11.6638961075
 30
0.0
 10
10.18157493
 20
11.6654421
 30
0.0
 10
10.1821843201
 20
11.6666777851
 30
0.0
 10
10.182551749
 20
11.6675887722
 30
0.0
 10
10.1828377903
 20
11.6685008551
 30
0.0
 10
10.1830422645
 20
11.6694138752
 30
0.0
 10
10.1831650163
 20
11.6703274503
 30
0.0
 10
10.1831923427
 20
11.6709376865
 30
0.0
 10
10.1831923427
 20
11.6712414527
 30
0.0
  0
SPLINE
  5
2D7
100
AcDbEntity
  8
0
100
AcDbSpline
 62
9
  6
CONTINUOUS
 70
0
 71
3
 72
197
 73
193
 74
0
 42
0.0000001
 43
0.0000001
 44
0.0000000001
 40
0.0
 40
0.0
 40
0.0
 40
0.0
 40
0.0000002621
 40
0.0000009557
 40
0.000002081
 40
0.0000036379
 40
0.0000080465
 40
0.0000141807
 40
0.00002204
 40
0.0000316236
 40
0.0000429308
 40
0.0000559612
 40
0.0000871882
 40
0.0001252993
 40
0.0001702893
 40
0.0002221527
 40
0.0002808842
 40
0.0003464778
 40
0.0004982279
 40
0.0006773554
 40
0.0008838124
 40
0.001117546
 40
0.0013784883
 40
0.0016665689
 40
0.0019817176
 40
0.0023238643
 40
0.0026929394
 40
0.0035115967
 40
0.0044370383
 40
0.0054683285
 40
0.0066043905
 40
0.0078438818
 40
0.0091854086
 40
0.0106275734
 40
0.0121689638
 40
0.0138081123
 40
0.0173737708
 40
0.0213125248
 40
0.0256110913
 40
0.030255127
 40
0.0352302378
 40
0.040522259
 40
0.0461173163
 40
0.0520016288
 40
0.0645828565
 40
0.0781596632
 40
0.0926333924
 40
0.107913285
 40
0.123916748
 40
0.1405692525
 40
0.1578037687
 40
0.1755603518
 40
0.1846174179
 40
0.1937853531
 40
0.2124308545
 40
0.2218977278
 40
0.2314540171
 40
0.2508164506
 40
0.2606140424
 40
0.2704838532
 40
0.2904252526
 40
0.3004900475
 40
0.3106132126
 40
0.3207917121
 40
0.3310226736
 40
0.3413034447
 40
0.3464617332
 40
0.3516315636
 40
0.362004452
 40
0.3672069827
 40
0.372419875
 40
0.3776428773
 40
0.3802581191
 40
0.3828758221
 40
0.388118411
 40
0.3933703639
 40
0.3986315122
 40
0.4039015491
 40
0.4091802825
 40
0.4144675316
 40
0.4171143094
 40
0.4197631672
 40
0.4250668827
 40
0.4277217518
 40
0.4303786036
 40
0.4356979244
 40
0.4463577019
 40
0.4516985983
 40
0.4570461109
 40
0.4623998507
 40
0.4677593636
 40
0.4731241046
 40
0.4784934373
 40
0.4838666122
 40
0.4892427922
 40
0.4946210346
 40
0.500000327
 40
0.5053796182
 40
0.5107578576
 40
0.516134034
 40
0.5215072117
 40
0.5268765463
 40
0.5322412892
 40
0.5376008
 40
0.542954531
 40
0.5536415877
 40
0.5589755676
 40
0.564302367
 40
0.5696216837
 40
0.5722785308
 40
0.5749333944
 40
0.5802370846
 40
0.5855326499
 40
0.5960983413
 40
0.6013684032
 40
0.6066295605
 40
0.6118814861
 40
0.6171240192
 40
0.622356908
 40
0.6275799159
 40
0.6379953178
 40
0.6431872655
 40
0.648368319
 40
0.6535381378
 40
0.6586963934
 40
0.6638428224
 40
0.6689771387
 40
0.6792081332
 40
0.6893866899
 40
0.699509826
 40
0.7095745857
 40
0.7195778185
 40
0.7295161153
 40
0.7393859057
 40
0.7491834917
 40
0.7589049216
 40
0.7685459839
 40
0.7781022574
 40
0.7875691339
 40
0.7969416656
 40
0.8062146596
 40
0.8244396447
 40
0.8421962298
 40
0.859430745
 40
0.8760832517
 40
0.8920867122
 40
0.9073666064
 40
0.9218403351
 40
0.9354171486
 40
0.9479983775
 40
0.9538826735
 40
0.9594777132
 40
0.9647697285
 40
0.9697448454
 40
0.9743888927
 40
0.9786874712
 40
0.9826262324
 40
0.9861918926
 40
0.9878310407
 40
0.98937243
 40
0.9908145936
 40
0.992156119
 40
0.9933956094
 40
0.9945316712
 40
0.9955629622
 40
0.9964884054
 40
0.9973070641
 40
0.9976761397
 40
0.9980182868
 40
0.9983334357
 40
0.9986215164
 40
0.9988824584
 40
0.9991161916
 40
0.9993226481
 40
0.9995017749
 40
0.9996535242
 40
0.9997191175
 40
0.9997778487
 40
0.9998297118
 40
0.9998747015
 40
0.9999128124
 40
0.9999440392
 40
0.9999570694
 40
0.9999683767
 40
0.9999779602
 40
0.9999858194
 40
0.9999919536
 40
0.9999963621
 40
0.999997919
 40
0.9999990443
 40
0.9999997379
 40
1.0
 40
1.0
 40
1.0
 40
1.0
 10
10.7881923427
 20
6.3503509488
 30
0.0
 10
10.788192154
 20
6.3503508664
 30
0.0
 10
10.7881916366
 20
6.3503502852
 30
0.0
 10
10.7881903718
 20
6.3503492762
 30
0.0
 10
10.7881884307
 20
6.3503474511
 30
0.0
 10
10.7881843003
 20
6.3503437212
 30
0.0
 10
10.7881773108
 20
6.3503372679
 30
0.0
 10
10.788166679
 20
6.3503274703
 30
0.0
 10
10.7881530844
 20
6.350314882
 30
0.0
 10
10.7881365202
 20
6.3502995196
 30
0.0
 10
10.7881169938
 20
6.350281375
 30
0.0
 10
10.7880850305
 20
6.35025163
 30
0.0
 10
10.7880376949
 20
6.3502074861
 30
0.0
 10
10.7879720613
 20
6.3501461407
 30
0.0
 10
10.787894655
 20
6.350073643
 30
0.0
 10
10.7878055033
 20
6.3499899825
 30
0.0
 10
10.7877046303
 20
6.3498951527
 30
0.0
 10
10.7875466694
 20
6.3497464546
 30
0.0
 10
10.7873199958
 20
6.349532725
 30
0.0
 10
10.787012973
 20
6.3492428615
 30
0.0
 10
10.7866592478
 20
6.3489086224
 30
0.0
 10
10.7862589005
 20
6.3485301159
 30
0.0
 10
10.7858120485
 20
6.3481074368
 30
0.0
 10
10.7853188144
 20
6.3476406936
 30
0.0
 10
10.784779326
 20
6.3471299923
 30
0.0
 10
10.7841936989
 20
6.3465754508
 30
0.0
 10
10.7833208135
 20
6.3457488312
 30
0.0
 10
10.7821150431
 20
6.3446071328
 30
0.0
 10
10.7805309715
 20
6.3431081237
 30
0.0
 10
10.7787653661
 20
6.3414380761
 30
0.0
 10
10.7768201581
 20
6.339598785
 30
0.0
 10
10.7746979118
 20
6.3375918995
 30
0.0
 10
10.772401314
 20
6.3354193063
 30
0.0
 10
10.7699328832
 20
6.3330831499
 30
0.0
 10
10.7672951909
 20
6.3305856034
 30
0.0
 10
10.7634466858
 20
6.32693989
 30
0.0
 10
10.7582322489
 20
6.3219968304
 30
0.0
 10
10.7515023005
 20
6.3156148989
 30
0.0
 10
10.7441590604
 20
6.3086482079
 30
0.0
 10
10.736228505
 20
6.3011173541
 30
0.0
 10
10.7277364237
 20
6.2930441421
 30
0.0
 10
10.7187078692
 20
6.2844506192
 30
0.0
 10
10.7091668994
 20
6.2753591807
 30
0.0
 10
10.695486253
 20
6.2623090306
 30
0.0
 10
10.6772844328
 20
6.2449116814
 30
0.0
 10
10.6542381756
 20
6.2228143371
 30
0.0
 10
10.6297037623
 20
6.1992050649
 30
0.0
 10
10.6038475114
 20
6.174219472
 30
0.0
 10
10.5768234581
 20
6.1479787257
 30
0.0
 10
10.5487737575
 20
6.1205896293
 30
0.0
 10
10.5198307644
 20
6.0921437973
 30
0.0
 10
10.4952359273
 20
6.0677889166
 30
0.0
 10
10.4752110825
 20
6.0478279092
 30
0.0
 10
10.454740392
 20
6.0273248737
 30
0.0
 10
10.4341234207
 20
6.0065129155
 30
0.0
 10
10.4133886819
 20
5.9853886991
 30
0.0
 10
10.3923317573
 20
5.9637915738
 30
0.0
 10
10.3712140633
 20
5.9418908995
 30
0.0
 10
10.3500721364
 20
5.9196726768
 30
0.0
 10
10.3287274779
 20
5.897019914
 30
0.0
 10
10.3074248438
 20
5.8740393538
 30
0.0
 10
10.2862181281
 20
5.8507014664
 30
0.0
 10
10.2703034641
 20
5.8329215074
 30
0.0
 10
10.2544523798
 20
5.814910446
 30
0.0
 10
10.2386923412
 20
5.7966556396
 30
0.0
 10
10.2256737366
 20
5.7812470913
 30
0.0
 10
10.2153350921
 20
5.7687821175
 30
0.0
 10
10.2050307562
 20
5.7561951161
 30
0.0
 10
10.1948359973
 20
5.7434737584
 30
0.0
 10
10.1847773644
 20
5.7306022593
 30
0.0
 10
10.1772955118
 20
5.7208535678
 30
0.0
 10
10.1711271447
 20
5.7126601976
 30
0.0
 10
10.1662337591
 20
5.7060600197
 30
0.0
 10
10.1613645128
 20
5.6994229166
 30
0.0
 10
10.1553355941
 20
5.6910670425
 30
0.0
 10
10.1482082247
 20
5.6809432019
 30
0.0
 10
10.1411969646
 20
5.6707123717
 30
0.0
 10
10.1343162089
 20
5.6603679424
 30
0.0
 10
10.1275812499
 20
5.6499035332
 30
0.0
 10
10.1221047671
 20
5.6410821365
 30
0.0
 10
10.1178110878
 20
5.6339601901
 30
0.0
 10
10.1135749386
 20
5.6267888651
 30
0.0
 10
10.1094367849
 20
5.6195525755
 30
0.0
 10
10.1054077694
 20
5.6122483833
 30
0.0
 10
10.1014513533
 20
5.604890603
 30
0.0
 10
10.0947349343
 20
5.5918765989
 30
0.0
 10
10.0876085127
 20
5.5767037363
 30
0.0
 10
10.081152599
 20
5.5612179708
 30
0.0
 10
10.0766734772
 20
5.5494321465
 30
0.0
 10
10.0725942283
 20
5.5374863095
 30
0.0
 10
10.0689499177
 20
5.5253861191
 30
0.0
 10
10.0657778988
 20
5.5131405214
 30
0.0
 10
10.0631171056
 20
5.5007623247
 30
0.0
 10
10.0610068973
 20
5.4882687556
 30
0.0
 10
10.0594894753
 20
5.475681998
 30
0.0
 10
10.0585755422
 20
5.4630322932
 30
0.0
 10
10.0582673366
 20
5.4503508814
 30
0.0
 10
10.0585687134
 20
5.4376692893
 30
0.0
 10
10.0594810747
 20
5.4250192807
 30
0.0
 10
10.0610092816
 20
5.4124337802
 30
0.0
 10
10.0631229927
 20
5.3999409466
 30
0.0
 10
10.0657826672
 20
5.3875625356
 30
0.0
 10
10.0689509103
 20
5.3753160178
 30
0.0
 10
10.0725910089
 20
5.3632144392
 30
0.0
 10
10.0780239566
 20
5.3472967679
 30
0.0
 10
10.0842667365
 20
5.3316889752
 30
0.0
 10
10.0911791166
 20
5.316402766
 30
0.0
 10
10.0966611304
 20
5.3051037283
 30
0.0
 10
10.1014554336
 20
5.2958134158
 30
0.0
 10
10.1054104401
 20
5.2884549542
 30
0.0
 10
10.1094372294
 20
5.2811495503
 30
0.0
 10
10.1146046437
 20
5.2721059062
 30
0.0
 10
10.1231289991
 20
5.2578243273
 30
0.0
 10
10.1320159165
 20
5.243793425
 30
0.0
 10
10.1412008142
 20
5.2299921085
 30
0.0
 10
10.1482125045
 20
5.2197615295
 30
0.0
 10
10.1553373283
 20
5.2096359891
 30
0.0
 10
10.1625656045
 20
5.1996114417
 30
0.0
 10
10.1698870539
 20
5.1896829978
 30
0.0
 10
10.1797520493
 20
5.1765807175
 30
0.0
 10
10.1897808193
 20
5.163643047
 30
0.0
 10
10.1999456122
 20
5.1508552075
 30
0.0
 10
10.2076170863
 20
5.1413514412
 30
0.0
 10
10.2153367367
 20
5.1319209981
 30
0.0
 10
10.223098649
 20
5.1225606353
 30
0.0
 10
10.2308992297
 20
5.1132688756
 30
0.0
 10
10.2413334949
 20
5.1009838643
 30
0.0
 10
10.2544518855
 20
5.0857910343
 30
0.0
 10
10.2703045859
 20
5.067781362
 30
0.0
 10
10.2862183211
 20
5.0500005904
 30
0.0
 10
10.3021723169
 20
5.0324417004
 30
0.0
 10
10.3181456085
 20
5.0150973655
 30
0.0
 10
10.3341183149
 20
4.9979613908
 30
0.0
 10
10.3500720575
 20
4.9810291427
 30
0.0
 10
10.3659914401
 20
4.9642990692
 30
0.0
 10
10.3818608218
 20
4.9477698559
 30
0.0
 10
10.3976646355
 20
4.9314408336
 30
0.0
 10
10.4133885898
 20
4.9153131138
 30
0.0
 10
10.4290190354
 20
4.8993891173
 30
0.0
 10
10.4445421968
 20
4.8836718869
 30
0.0
 10
10.464959465
 20
4.8631156264
 30
0.0
 10
10.4901169606
 20
4.8379821012
 30
0.0
 10
10.5198307498
 20
4.8085580994
 30
0.0
 10
10.5487737485
 20
4.7801122623
 30
0.0
 10
10.576823468
 20
4.7527231886
 30
0.0
 10
10.6038474984
 20
4.7264824166
 30
0.0
 10
10.6297037651
 20
4.701496842
 30
0.0
 10
10.6542381711
 20
4.6778875532
 30
0.0
 10
10.6772844517
 20
4.6557902248
 30
0.0
 10
10.6954862944
 20
4.638392909
 30
0.0
 10
10.7091668644
 20
4.6253427161
 30
0.0
 10
10.7187077691
 20
4.6162512547
 30
0.0
 10
10.7277363028
 20
4.6076577297
 30
0.0
 10
10.7362284061
 20
4.5995845273
 30
0.0
 10
10.7441590022
 20
4.5920536825
 30
0.0
 10
10.7515022844
 20
4.5850870008
 30
0.0
 10
10.7582322577
 20
4.5787050717
 30
0.0
 10
10.7634467015
 20
4.5737620098
 30
0.0
 10
10.7672952056
 20
4.570116295
 30
0.0
 10
10.7699328945
 20
4.5676187481
 30
0.0
 10
10.772401321
 20
4.5652825914
 30
0.0
 10
10.7746979146
 20
4.5631099978
 30
0.0
 10
10.7768201578
 20
4.5611031118
 30
0.0
 10
10.778765365
 20
4.5592638203
 30
0.0
 10
10.7805309732
 20
4.5575937731
 30
0.0
 10
10.7821150496
 20
4.5560947646
 30
0.0
 10
10.7833208239
 20
4.5549530665
 30
0.0
 10
10.7841937119
 20
4.5541264468
 30
0.0
 10
10.7847793402
 20
4.5535719054
 30
0.0
 10
10.7853188293
 20
4.5530612042
 30
0.0
 10
10.7858120634
 20
4.552594461
 30
0.0
 10
10.7862589149
 20
4.5521717818
 30
0.0
 10
10.7866592609
 20
4.5517932754
 30
0.0
 10
10.7870129843
 20
4.5514590363
 30
0.0
 10
10.787320005
 20
4.5511691727
 30
0.0
 10
10.7875466766
 20
4.550955443
 30
0.0
 10
10.7877046359
 20
4.5508067449
 30
0.0
 10
10.7878055078
 20
4.550711915
 30
0.0
 10
10.7878946585
 20
4.5506282545
 30
0.0
 10
10.787972064
 20
4.5505557568
 30
0.0
 10
10.7880376968
 20
4.5504944115
 30
0.0
 10
10.7880850318
 20
4.5504502676
 30
0.0
 10
10.7881169947
 20
4.5504205226
 30
0.0
 10
10.7881365209
 20
4.5504023779
 30
0.0
 10
10.7881530849
 20
4.5503870156
 30
0.0
 10
10.7881666793
 20
4.5503744272
 30
0.0
 10
10.7881773111
 20
4.5503646297
 30
0.0
 10
10.7881843004
 20
4.5503581763
 30
0.0
 10
10.7881884307
 20
4.5503544464
 30
0.0
 10
10.7881903718
 20
4.5503526213
 30
0.0
 10
10.7881916366
 20
4.5503516124
 30
0.0
 10
10.788192154
 20
4.5503510311
 30
0.0
 10
10.7881923427
 20
4.5503509488
 30
0.0
  0
SPLINE
  5
2D8
100
AcDbEntity
  8
0
100
AcDbSpline
 62
9
  6
CONTINUOUS
 70
0
 71
3
 72
223
 73
219
 74
0
 42
0.0000001
 43
0.0000001
 44
0.0000000001
 40
0.0
 40
0.0
 40
0.0
 40
0.0
 40
0.0000002606
 40
0.0000009586
 40
0.0000020944
 40
0.0000036679
 40
0.000005679
 40
0.0000081275
 40
0.0000143364
 40
0.0000222937
 40
0.0000319984
 40
0.0000434497
 40
0.0000566464
 40
0.0000882723
 40
0.0001268685
 40
0.0001724271
 40
0.0002249403
 40
0.0002844013
 40
0.0003508042
 40
0.0004241436
 40
0.0005044139
 40
0.0006857249
 40
0.0008946925
 40
0.0011312619
 40
0.0013953611
 40
0.0016869166
 40
0.0020058551
 40
0.002352105
 40
0.0027255972
 40
0.0035540317
 40
0.0044904543
 40
0.0055338804
 40
0.0066831431
 40
0.0079368227
 40
0.0092934754
 40
0.0107516567
 40
0.0123098918
 40
0.0139666587
 40
0.0157204373
 40
0.0175697175
 40
0.021548333
 40
0.025888578
 40
0.030575537
 40
0.0355943994
 40
0.0409305793
 40
0.0465698539
 40
0.052497998
 40
0.0587008225
 40
0.0651644688
 40
0.0718755474
 40
0.0788212458
 40
0.0859893437
 40
0.0933680939
 40
0.1009461995
 40
0.1087129364
 40
0.1166582199
 40
0.124772433
 40
0.1414713866
 40
0.158742618
 40
0.176525966
 40
0.1947678893
 40
0.2134204276
 40
0.2228872148
 40
0.2324410116
 40
0.2420771356
 40
0.2517912751
 40
0.2615792759
 40
0.2714371367
 40
0.2813611208
 40
0.2913477344
 40
0.3013936016
 40
0.311495501
 40
0.3216504488
 40
0.3318556335
 40
0.3369761659
 40
0.3421081833
 40
0.3524053865
 40
0.3575701374
 40
0.3627453021
 40
0.3679304985
 40
0.3731253792
 40
0.3783296299
 40
0.3835429788
 40
0.3887652628
 40
0.3939962664
 40
0.3992357138
 40
0.4044834542
 40
0.4097391333
 40
0.4123698565
 40
0.4150024418
 40
0.42027298
 40
0.4229109379
 40
0.4255506662
 40
0.4308351778
 40
0.4361263909
 40
0.4414240338
 40
0.4467277664
 40
0.4520371618
 40
0.4573518153
 40
0.4626712973
 40
0.4679951363
 40
0.4733228829
 40
0.478654035
 40
0.4813208058
 40
0.4839882274
 40
0.4866561854
 40
0.4893245854
 40
0.491993349
 40
0.494662377
 40
0.5000006339
 40
0.5053388987
 40
0.5080079384
 40
0.5106767127
 40
0.5133451011
 40
0.5160130251
 40
0.5186804234
 40
0.5213471805
 40
0.5266783056
 40
0.5320060721
 40
0.5426483573
 40
0.54796305
 40
0.553272422
 40
0.5585760898
 40
0.5638736439
 40
0.5691647838
 40
0.5744492783
 40
0.5770890391
 40
0.5797270606
 40
0.584997736
 40
0.590261056
 40
0.5955166972
 40
0.6007643477
 40
0.6060036774
 40
0.6112346199
 40
0.6138468975
 40
0.6164569891
 40
0.6216704818
 40
0.626874841
 40
0.6372547565
 40
0.6475944732
 40
0.6527485363
 40
0.6578917321
 40
0.6630237824
 40
0.6681443596
 40
0.678349598
 40
0.6885044836
 40
0.6986063255
 40
0.7086522331
 40
0.7186388825
 40
0.7285628425
 40
0.7384206886
 40
0.7482087064
 40
0.7579228477
 40
0.7675589573
 40
0.7771127589
 40
0.7865795569
 40
0.8052320764
 40
0.8144072653
 40
0.8234740316
 40
0.8324262143
 40
0.8412573799
 40
0.8585286113
 40
0.8752275728
 40
0.8833417831
 40
0.8912870587
 40
0.899053796
 40
0.9066319114
 40
0.9140106601
 40
0.9211787503
 40
0.9281244499
 40
0.9348355411
 40
0.9412991941
 40
0.9475020152
 40
0.9534301413
 40
0.9590693939
 40
0.9644055652
 40
0.9694244323
 40
0.9741114031
 40
0.9784516612
 40
0.9824302849
 40
0.984279567
 40
0.9860333461
 40
0.9876901127
 40
0.9892483468
 40
0.9907065267
 40
0.9920631781
 40
0.9933168566
 40
0.994466119
 40
0.9955095459
 40
0.9964459702
 40
0.9972744063
 40
0.9976478991
 40
0.9979941495
 40
0.9983130882
 40
0.9986046438
 40
0.9988687429
 40
0.9991053119
 40
0.9993142789
 40
0.9994955892
 40
0.9995758591
 40
0.9996491981
 40
0.9997156006
 40
0.9997750612
 40
0.9998275741
 40
0.9998731323
 40
0.9999117282
 40
0.9999433539
 40
0.9999565505
 40
0.9999680016
 40
0.9999777063
 40
0.9999856636
 40
0.9999918725
 40
0.999994321
 40
0.999996332
 40
0.9999979055
 40
0.9999990413
 40
0.9999997394
 40
1.0
 40
1.0
 40
1.0
 40
1.0
 10
10.6881923427
 20
6.4503509488
 30
0.0
 10
10.6881922886
 20
6.4503507447
 30
0.0
 10
10.6881916778
 20
6.4503501879
 30
0.0
 10
10.6881907307
 20
6.4503488175
 30
0.0
 10
10.6881889089
 20
6.450346714
 30
0.0
 10
10.6881864938
 20
6.4503437589
 30
0.0
 10
10.6881833489
 20
6.4503400107
 30
0.0
 10
10.6881778007
 20
6.4503333821
 30
0.0
 10
10.6881691272
 20
6.4503230817
 30
0.0
 10
10.6881566488
 20
6.4503082996
 30
0.0
 10
10.6881414065
 20
6.4502902902
 30
0.0
 10
10.6881234024
 20
6.4502690559
 30
0.0
 10
10.6880938821
 20
6.4502342946
 30
0.0
 10
10.6880500677
 20
6.4501828116
 30
0.0
 10
10.687989178
 20
6.4501114223
 30
0.0
 10
10.6879172218
 20
6.4500272239
 30
0.0
 10
10.6878341921
 20
6.4499302466
 30
0.0
 10
10.6877400885
 20
6.4498205124
 30
0.0
 10
10.6876349259
 20
6.4496980284
 30
0.0
 10
10.6875187147
 20
6.4495628034
 30
0.0
 10
10.6873417335
 20
6.4493570179
 30
0.0
 10
10.6870929534
 20
6.4490680095
 30
0.0
 10
10.6867614006
 20
6.4486831212
 30
0.0
 10
10.6863859541
 20
6.4482474911
 30
0.0
 10
10.685966719
 20
6.4477612431
 30
0.0
 10
10.6855038148
 20
6.4472245082
 30
0.0
 10
10.6849973536
 20
6.4466374237
 30
0.0
 10
10.6844474787
 20
6.4460000948
 30
0.0
 10
10.68362792
 20
6.4450501055
 30
0.0
 10
10.6824962182
 20
6.4437377368
 30
0.0
 10
10.6810107075
 20
6.4420135652
 30
0.0
 10
10.6793562344
 20
6.4400917743
 30
0.0
 10
10.6775346978
 20
6.4379745487
 30
0.0
 10
10.6755478794
 20
6.4356646645
 30
0.0
 10
10.6733978848
 20
6.4331649156
 30
0.0
 10
10.6710870274
 20
6.430477976
 30
0.0
 10
10.6686176712
 20
6.42760656
 30
0.0
 10
10.665992294
 20
6.4245533645
 30
0.0
 10
10.663213457
 20
6.4213210529
 30
0.0
 10
10.6592088946
 20
6.4166610928
 30
0.0
 10
10.653840703
 20
6.4104092393
 30
0.0
 10
10.6469786119
 20
6.4024090158
 30
0.0
 10
10.6395709308
 20
6.3937661123
 30
0.0
 10
10.6316416989
 20
6.3845072231
 30
0.0
 10
10.6232149095
 20
6.3746583439
 30
0.0
 10
10.6143153939
 20
6.3642441318
 30
0.0
 10
10.6049671612
 20
6.3532895292
 30
0.0
 10
10.5951934708
 20
6.3418197334
 30
0.0
 10
10.5850171673
 20
6.3298594078
 30
0.0
 10
10.5744604723
 20
6.3174322839
 30
0.0
 10
10.5635450527
 20
6.3045608261
 30
0.0
 10
10.5522921234
 20
6.2912661426
 30
0.0
 10
10.5407219687
 20
6.2775685277
 30
0.0
 10
10.5288538863
 20
6.2634875287
 30
0.0
 10
10.5167064085
 20
6.2490415832
 30
0.0
 10
10.5042978708
 20
6.2342475231
 30
0.0
 10
10.4872651998
 20
6.2138841163
 30
0.0
 10
10.4654400662
 20
6.1876762317
 30
0.0
 10
10.4387092516
 20
6.1553566412
 30
0.0
 10
10.4113109215
 20
6.1219668022
 30
0.0
 10
10.3833601222
 20
6.0875828036
 30
0.0
 10
10.3598166205
 20
6.0583024482
 30
0.0
 10
10.3407995656
 20
6.034417916
 30
0.0
 10
10.3263971615
 20
6.0161995421
 30
0.0
 10
10.3119400708
 20
5.9977690724
 30
0.0
 10
10.2974440877
 20
5.9791281298
 30
0.0
 10
10.2829248258
 20
5.960277957
 30
0.0
 10
10.2683975966
 20
5.9412196215
 30
0.0
 10
10.253880339
 20
5.9219517394
 30
0.0
 10
10.2393923384
 20
5.9024715903
 30
0.0
 10
10.224954312
 20
5.8827752686
 30
0.0
 10
10.2105870604
 20
5.8628587323
 30
0.0
 10
10.1963186975
 20
5.8427127267
 30
0.0
 10
10.1845488385
 20
5.8257451711
 30
0.0
 10
10.1752101886
 20
5.8120463069
 30
0.0
 10
10.165907477
 20
5.798233041
 30
0.0
 10
10.1567116739
 20
5.7843047744
 30
0.0
 10
10.1476482908
 20
5.7702489025
 30
0.0
 10
10.1409117129
 20
5.7596225081
 30
0.0
 10
10.1342484615
 20
5.7489211991
 30
0.0
 10
10.1276638299
 20
5.7381436857
 30
0.0
 10
10.1211640415
 20
5.7272881631
 30
0.0
 10
10.1147592479
 20
5.7163505415
 30
0.0
 10
10.1084588862
 20
5.7053274137
 30
0.0
 10
10.1022741375
 20
5.6942147403
 30
0.0
 10
10.0962184142
 20
5.6830077055
 30
0.0
 10
10.0903053608
 20
5.6717021297
 30
0.0
 10
10.0855069386
 20
5.6622006149
 30
0.0
 10
10.0817494143
 20
5.6545486738
 30
0.0
 10
10.078045321
 20
5.6468573711
 30
0.0
 10
10.0744309951
 20
5.6391165598
 30
0.0
 10
10.0709149704
 20
5.631324664
 30
0.0
 10
10.0674643346
 20
5.6234912135
 30
0.0
 10
10.0632854581
 20
5.6136294199
 30
0.0
 10
10.0585124257
 20
5.6016827406
 30
0.0
 10
10.054001803
 20
5.5896177227
 30
0.0
 10
10.0497748466
 20
5.5774346773
 30
0.0
 10
10.0458511691
 20
5.5651359804
 30
0.0
 10
10.042250696
 20
5.5527253587
 30
0.0
 10
10.0389944893
 20
5.5402077206
 30
0.0
 10
10.0361063565
 20
5.5275889369
 30
0.0
 10
10.0336113518
 20
5.5148768025
 30
0.0
 10
10.0318805575
 20
5.5042148668
 30
0.0
 10
10.0307201208
 20
5.4956494567
 30
0.0
 10
10.0299646812
 20
5.4892082407
 30
0.0
 10
10.0293252585
 20
5.4827531582
 30
0.0
 10
10.0288033378
 20
5.4762864223
 30
0.0
 10
10.0283979698
 20
5.4698104592
 30
0.0
 10
10.0280111686
 20
5.4611667825
 30
0.0
 10
10.0278146242
 20
5.4503508298
 30
0.0
 10
10.0280024335
 20
5.4395346599
 30
0.0
 10
10.0283860856
 20
5.4308907999
 30
0.0
 10
10.02879156
 20
5.4244148195
 30
0.0
 10
10.0293162513
 20
5.4179483179
 30
0.0
 10
10.0299611753
 20
5.4114938275
 30
0.0
 10
10.0307226461
 20
5.4050533824
 30
0.0
 10
10.0318885804
 20
5.3964888037
 30
0.0
 10
10.033620463
 20
5.3858270297
 30
0.0
 10
10.0369422247
 20
5.3688847061
 30
0.0
 10
10.0410446702
 20
5.3521179322
 30
0.0
 10
10.0458430689
 20
5.3355634821
 30
0.0
 10
10.0497686152
 20
5.3232652276
 30
0.0
 10
10.0540004058
 20
5.3110840385
 30
0.0
 10
10.0585161715
 20
5.2990211368
 30
0.0
 10
10.0632926352
 20
5.2870760093
 30
0.0
 10
10.0674716786
 20
5.2772143619
 30
0.0
 10
10.070920522
 20
5.2693800581
 30
0.0
 10
10.0744333721
 20
5.2615865217
 30
0.0
 10
10.0789445717
 20
5.2519113029
 30
0.0
 10
10.0845396277
 20
5.2404027349
 30
0.0
 10
10.090301916
 20
5.2289979309
 30
0.0
 10
10.0962188836
 20
5.2176946112
 30
0.0
 10
10.1022780115
 20
5.2064896808
 30
0.0
 10
10.1074354714
 20
5.1972261703
 30
0.0
 10
10.111617969
 20
5.1898591769
 30
0.0
 10
10.1158323275
 20
5.1825266686
 30
0.0
 10
10.12116426
 20
5.1734137731
 30
0.0
 10
10.1298178991
 20
5.1589499721
 30
0.0
 10
10.1408532892
 20
5.1410712962
 30
0.0
 10
10.1521564291
 20
5.1234094591
 30
0.0
 10
10.1613210224
 20
5.1094195427
 30
0.0
 10
10.1682418607
 20
5.0990053747
 30
0.0
 10
10.1752106129
 20
5.0886559283
 30
0.0
 10
10.1845482893
 20
5.0749562826
 30
0.0
 10
10.1963173131
 20
5.0579880988
 30
0.0
 10
10.2105868531
 20
5.0378429867
 30
0.0
 10
10.2249552813
 20
5.0179273846
 30
0.0
 10
10.2393925025
 20
4.9982304588
 30
0.0
 10
10.2538798147
 20
4.9787497411
 30
0.0
 10
10.268397552
 20
4.9594822215
 30
0.0
 10
10.2829250538
 20
4.940424118
 30
0.0
 10
10.2974440169
 20
4.9215737113
 30
0.0
 10
10.3119399425
 20
4.9029327185
 30
0.0
 10
10.3263972442
 20
4.8845024226
 30
0.0
 10
10.3407996095
 20
4.8662840169
 30
0.0
 10
10.3598164595
 20
4.8423993273
 30
0.0
 10
10.3787559751
 20
4.8188455143
 30
0.0
 10
10.3975852905
 20
4.7956196356
 30
0.0
 10
10.4115066635
 20
4.7785350094
 30
0.0
 10
10.4252908139
 20
4.7616982885
 30
0.0
 10
10.4433330195
 20
4.7397546755
 30
0.0
 10
10.4654401004
 20
4.713025689
 30
0.0
 10
10.4872651657
 20
4.686817746
 30
0.0
 10
10.5042978532
 20
4.6664543556
 30
0.0
 10
10.516706423
 20
4.6516603336
 30
0.0
 10
10.5288539044
 20
4.6372143885
 30
0.0
 10
10.5407219413
 20
4.623133342
 30
0.0
 10
10.5522921074
 20
4.6094357361
 30
0.0
 10
10.5635450631
 20
4.5961410833
 30
0.0
 10
10.5744604857
 20
4.5832696215
 30
0.0
 10
10.5850171466
 20
4.5708424468
 30
0.0
 10
10.5951934439
 20
4.558882099
 30
0.0
 10
10.604967132
 20
4.5474123169
 30
0.0
 10
10.6143153871
 20
4.5364577797
 30
0.0
 10
10.6232149343
 20
4.5260436465
 30
0.0
 10
10.6316417259
 20
4.5161947968
 30
0.0
 10
10.6395709493
 20
4.5069358919
 30
0.0
 10
10.6469786207
 20
4.4982929484
 30
0.0
 10
10.6538407016
 20
4.4902926809
 30
0.0
 10
10.659208892
 20
4.4840408016
 30
0.0
 10
10.6632134556
 20
4.4793808312
 30
0.0
 10
10.6659922928
 20
4.4761485176
 30
0.0
 10
10.6686176703
 20
4.4730953232
 30
0.0
 10
10.6710870269
 20
4.4702239103
 30
0.0
 10
10.6733978847
 20
4.467536975
 30
0.0
 10
10.6755478796
 20
4.4650372304
 30
0.0
 10
10.6775346985
 20
4.4627273495
 30
0.0
 10
10.6793562356
 20
4.460610125
 30
0.0
 10
10.6810107084
 20
4.4586883317
 30
0.0
 10
10.6824962183
 20
4.4569641551
 30
0.0
 10
10.6836279199
 20
4.4556517819
 30
0.0
 10
10.6844474785
 20
4.4547017897
 30
0.0
 10
10.6849973534
 20
4.4540644592
 30
0.0
 10
10.6855038146
 20
4.4534773738
 30
0.0
 10
10.6859667187
 20
4.4529406387
 30
0.0
 10
10.6863859538
 20
4.4524543912
 30
0.0
 10
10.6867614003
 20
4.4520187624
 30
0.0
 10
10.6870929532
 20
4.4516338759
 30
0.0
 10
10.6873417334
 20
4.4513448694
 30
0.0
 10
10.6875187148
 20
4.4511390856
 30
0.0
 10
10.6876349259
 20
4.4510038619
 30
0.0
 10
10.6877400886
 20
4.4508813791
 30
0.0
 10
10.6878341921
 20
4.4507716461
 30
0.0
 10
10.6879172217
 20
4.4506746699
 30
0.0
 10
10.6879891778
 20
4.4505904724
 30
0.0
 10
10.6880500674
 20
4.450519084
 30
0.0
 10
10.6880938817
 20
4.4504676016
 30
0.0
 10
10.688123402
 20
4.4504328407
 30
0.0
 10
10.6881414061
 20
4.4504116067
 30
0.0
 10
10.6881566483
 20
4.4503935974
 30
0.0
 10
10.6881691267
 20
4.4503788155
 30
0.0
 10
10.6881778003
 20
4.4503685153
 30
0.0
 10
10.6881833486
 20
4.4503618867
 30
0.0
 10
10.6881864935
 20
4.4503581386
 30
0.0
 10
10.6881889087
 20
4.4503551835
 30
0.0
 10
10.6881907304
 20
4.45035308
 30
0.0
 10
10.6881916779
 20
4.4503517096
 30
0.0
 10
10.6881922884
 20
4.4503511528
 30
0.0
 10
10.6881923427
 20
4.4503509488
 30
0.0
  0
LINE
  5
2D9
100
AcDbEntity
  8
0
100
AcDbLine
 62
7
  6
CONTINUOUS
 10
9.7381923427
 20
11.723918499
 11
9.7393891518
 21
11.7239180865
  0
SPLINE
  5
2DA
100
AcDbEntity
  8
0
100
AcDbSpline
 62
7
  6
CONTINUOUS
 70
0
 71
3
 72
15
 73
11
 74
0
 42
0.0000001
 43
0.0000001
 44
0.0000000001
 40
0.0
 40
0.0
 40
0.0
 40
0.0
 40
0.153821462
 40
0.2972371732
 40
0.4310507939
 40
0.5562706444
 40
0.6741438051
 40
0.7861781728
 40
0.8941380584
 40
1.0
 40
1.0
 40
1.0
 40
1.0
 10
9.9972274993
 20
11.6909809761
 30
0.0
 10
9.9975457875
 20
11.6907065424
 30
0.0
 10
9.9981450115
 20
11.6901573694
 30
0.0
 10
9.9989543151
 20
11.6893002413
 30
0.0
 10
9.9996411079
 20
11.6884396975
 30
0.0
 10
10.0002048271
 20
11.6875758102
 30
0.0
 10
10.0006448063
 20
11.6867086479
 30
0.0
 10
10.0009601783
 20
11.685838369
 30
0.0
 10
10.001149955
 20
11.6849657896
 30
0.0
 10
10.0011923427
 20
11.6843807605
 30
0.0
 10
10.0011923427
 20
11.6840915298
 30
0.0
  0
LINE
  5
2DB
100
AcDbEntity
  8
0
100
AcDbLine
 62
7
  6
CONTINUOUS
 10
9.7381923427
 20
11.723918499
 11
9.7369955337
 21
11.7239180865
  0
SPLINE
  5
2DC
100
AcDbEntity
  8
0
100
AcDbSpline
 62
7
  6
CONTINUOUS
 70
0
 71
3
 72
15
 73
11
 74
0
 42
0.0000001
 43
0.0000001
 44
0.0000000001
 40
0.0
 40
0.0
 40
0.0
 40
0.0
 40
0.153821462
 40
0.2972371732
 40
0.4310507939
 40
0.5562706444
 40
0.6741438051
 40
0.7861781728
 40
0.8941380584
 40
1.0
 40
1.0
 40
1.0
 40
1.0
 10
9.4791571862
 20
11.6909809761
 30
0.0
 10
9.478838898
 20
11.6907065424
 30
0.0
 10
9.478239674
 20
11.6901573694
 30
0.0
 10
9.4774303703
 20
11.6893002413
 30
0.0
 10
9.4767435776
 20
11.6884396975
 30
0.0
 10
9.4761798584
 20
11.6875758102
 30
0.0
 10
9.4757398792
 20
11.6867086479
 30
0.0
 10
9.4754245072
 20
11.685838369
 30
0.0
 10
9.4752347305
 20
11.6849657896
 30
0.0
 10
9.4751923427
 20
11.6843807605
 30
0.0
 10
9.4751923427
 20
11.6840915298
 30
0.0
  0
SPLINE
  5
2DD
100
AcDbEntity
  8
0
100
AcDbSpline
 62
9
  6
CONTINUOUS
 70
0
 71
3
 72
23
 73
19
 74
0
 42
0.0000001
 43
0.0000001
 44
0.0000000001
 40
0.0
 40
0.0
 40
0.0
 40
0.0
 40
0.059662709
 40
0.1194389281
 40
0.1794375051
 40
0.2397551681
 40
0.3004760743
 40
0.3616672109
 40
0.4233765112
 40
0.4856315946
 40
0.5484386119
 40
0.6117824667
 40
0.6756278249
 40
0.7399210632
 40
0.8045924486
 40
0.8695595042
 40
0.9347280836
 40
1.0
 40
1.0
 40
1.0
 40
1.0
 10
12.8231923427
 20
4.6462404153
 30
0.0
 10
12.8231923427
 20
4.6456425058
 30
0.0
 10
12.8231279044
 20
4.6444445562
 30
0.0
 10
12.822838956
 20
4.6426663768
 30
0.0
 10
12.822360529
 20
4.6409225775
 30
0.0
 10
12.821697292
 20
4.6392303086
 30
0.0
 10
12.8208557407
 20
4.6376058572
 30
0.0
 10
12.8198440861
 20
4.6360649045
 30
0.0
 10
12.8186721735
 20
4.6346222608
 30
0.0
 10
12.8173513687
 20
4.6332917636
 30
0.0
 10
12.8158944449
 20
4.6320861494
 30
0.0
 10
12.8143154628
 20
4.6310169482
 30
0.0
 10
12.8126296402
 20
4.6300943758
 30
0.0
 10
12.8108532003
 20
4.6293272436
 30
0.0
 10
12.8090032391
 20
4.6287228657
 30
0.0
 10
12.8070974833
 20
4.628287016
 30
0.0
 10
12.8051544345
 20
4.628023829
 30
0.0
 10
12.8038464649
 20
4.6279651759
 30
0.0
 10
12.8031923427
 20
4.6279651759
 30
0.0
  0
SPLINE
  5
2DE
100
AcDbEntity
  8
0
100
AcDbSpline
 62
7
  6
CONTINUOUS
 70
0
 71
3
 72
45
 73
41
 74
0
 42
0.0000001
 43
0.0000001
 44
0.0000000001
 40
0.0
 40
0.0
 40
0.0
 40
0.0
 40
0.0036129603
 40
0.0073168706
 40
0.0111960804
 40
0.0153238179
 40
0.0197604947
 40
0.0245541753
 40
0.0297422637
 40
0.0353534335
 40
0.0414094331
 40
0.0479266244
 40
0.0549171074
 40
0.0623896657
 40
0.0703504411
 40
0.0788034132
 40
0.0877508454
 40
0.0971935298
 40
0.1071310351
 40
0.1175619061
 40
0.1284837448
 40
0.1398933792
 40
0.1641592065
 40
0.1903216415
 40
0.2183335243
 40
0.2481402922
 40
0.2796808602
 40
0.3128882886
 40
0.3476903148
 40
0.3840098189
 40
0.42176522
 40
0.4608708287
 40
0.5012371682
 40
0.5427712936
 40
0.5853770974
 40
0.6289556006
 40
0.71862136
 40
0.8109310579
 40
0.9050187613
 40
1.0
 40
1.0
 40
1.0
 40
1.0
 10
9.9841923411
 20
11.6840915298
 30
0.0
 10
9.9841923411
 20
11.6837857892
 30
0.0
 10
9.9841414529
 20
11.6831654943
 30
0.0
 10
9.9839140117
 20
11.6822420695
 30
0.0
 10
9.9835366243
 20
11.6813221694
 30
0.0
 10
9.983010886
 20
11.6804067285
 30
0.0
 10
9.9823380508
 20
11.6794957244
 30
0.0
 10
9.981519003
 20
11.6785890915
 30
0.0
 10
9.9805543693
 20
11.6776868098
 30
0.0
 10
9.9794446914
 20
11.6767890057
 30
0.0
 10
9.9781905253
 20
11.6758959294
 30
0.0
 10
9.9767924907
 20
11.6750079417
 30
0.0
 10
9.9752513083
 20
11.6741254593
 30
0.0
 10
9.9735677984
 20
11.6732489484
 30
0.0
 10
9.9717428859
 20
11.6723789019
 30
0.0
 10
9.9697776002
 20
11.6715158196
 30
0.0
 10
9.9676730668
 20
11.6706602176
 30
0.0
 10
9.9654305085
 20
11.6698126078
 30
0.0
 10
9.9630512398
 20
11.6689735005
 30
0.0
 10
9.9605366642
 20
11.668143413
 30
0.0
 10
9.9578882737
 20
11.667322831
 30
0.0
 10
9.9541024521
 20
11.6662193187
 30
0.0
 10
9.9490447326
 20
11.6648734549
 30
0.0
 10
9.9425869596
 20
11.6633350791
 30
0.0
 10
9.9356374318
 20
11.6618458467
 30
0.0
 10
9.9282127908
 20
11.660409431
 30
0.0
 10
9.9203307772
 20
11.6590294031
 30
0.0
 10
9.9120102952
 20
11.6577091671
 30
0.0
 10
9.9032713212
 20
11.6564519715
 30
0.0
 10
9.8941348585
 20
11.6552609006
 30
0.0
 10
9.8846228784
 20
11.6541388701
 30
0.0
 10
9.8747582656
 20
11.6530886224
 30
0.0
 10
9.8645647607
 20
11.6521127181
 30
0.0
 10
9.8540669039
 20
11.6512135389
 30
0.0
 10
9.8432899629
 20
11.6503932572
 30
0.0
 10
9.8284421
 20
11.6493980293
 30
0.0
 10
9.8093816628
 20
11.648370779
 30
0.0
 10
9.7860359756
 20
11.6474895947
 30
0.0
 10
9.7622298615
 20
11.6469574011
 30
0.0
 10
9.7462299681
 20
11.6468389275
 30
0.0
 10
9.7381923427
 20
11.6468389275
 30
0.0
  0
SPLINE
  5
2DF
100
AcDbEntity
  8
0
100
AcDbSpline
 62
9
  6
CONTINUOUS
 70
0
 71
3
 72
19
 73
15
 74
0
 42
0.0000001
 43
0.0000001
 44
0.0000000001
 40
0.0
 40
0.0
 40
0.0
 40
0.0
 40
0.0163431757
 40
0.0358193008
 40
0.06039011
 40
0.0910423271
 40
0.1282691133
 40
0.1723333341
 40
0.2233766668
 40
0.2814692636
 40
0.4189033254
 40
0.5846605074
 40
0.7785170423
 40
1.0
 40
1.0
 40
1.0
 40
1.0
 10
12.8036837854
 20
6.2747041238
 30
0.0
 10
12.8036738714
 20
6.2747043668
 30
0.0
 10
12.8036518794
 20
6.2746991751
 30
0.0
 10
12.8036218315
 20
6.2746772439
 30
0.0
 10
12.8035923154
 20
6.2746425327
 30
0.0
 10
12.803562717
 20
6.2745947155
 30
0.0
 10
12.8035328438
 20
6.2745336287
 30
0.0
 10
12.8035026914
 20
6.2744591529
 30
0.0
 10
12.8034722751
 20
6.2743712756
 30
0.0
 10
12.8034289489
 20
6.2742280367
 30
0.0
 10
12.8033755607
 20
6.2740152978
 30
0.0
 10
12.8033137263
 20
6.2737200519
 30
0.0
 10
12.803251392
 20
6.2733729564
 30
0.0
 10
12.8032121911
 20
6.2731239792
 30
0.0
 10
12.8031923427
 20
6.2729910571
 30
0.0
  0
SPLINE
  5
2E0
100
AcDbEntity
  8
0
100
AcDbSpline
 62
9
  6
CONTINUOUS
 70
0
 71
3
 72
23
 73
19
 74
0
 42
0.0000001
 43
0.0000001
 44
0.0000000001
 40
0.0
 40
0.0
 40
0.0
 40
0.0
 40
0.0652558703
 40
0.1304073684
 40
0.1953580224
 40
0.2600151632
 40
0.3242971622
 40
0.3881353076
 40
0.4514764132
 40
0.5142847462
 40
0.5765442263
 40
0.6382598935
 40
0.6994586544
 40
0.760188578
 40
0.8205169334
 40
0.8805282857
 40
0.9403198067
 40
1.0
 40
1.0
 40
1.0
 40
1.0
 10
12.8031923427
 20
6.2729910571
 30
0.0
 10
12.8038463984
 20
6.2729910571
 30
0.0
 10
12.8051542247
 20
6.2729323977
 30
0.0
 10
12.8070970548
 20
6.2726691877
 30
0.0
 10
12.8090026014
 20
6.2722333037
 30
0.0
 10
12.8108523976
 20
6.2716288684
 30
0.0
 10
12.8126287406
 20
6.270861634
 30
0.0
 10
12.8143145476
 20
6.2699388981
 30
0.0
 10
12.8158935906
 20
6.2688694502
 30
0.0
 10
12.8173506295
 20
6.2676634999
 30
0.0
 10
12.8186715712
 20
6.2663325864
 30
0.0
 10
12.8198436162
 20
6.2648894674
 30
0.0
 10
12.820855388
 20
6.263347998
 30
0.0
 10
12.8216970421
 20
6.2617229948
 30
0.0
 10
12.8223603733
 20
6.2600301322
 30
0.0
 10
12.8228388825
 20
6.2582856828
 30
0.0
 10
12.8231278897
 20
6.2565067876
 30
0.0
 10
12.8231923427
 20
6.2553083368
 30
0.0
 10
12.8231923427
 20
6.2547101658
 30
0.0
  0
LINE
  5
2E1
100
AcDbEntity
  8
0
100
AcDbLine
 62
7
  6
CONTINUOUS
 10
9.4556383489
 20
11.6347603521
 11
9.4669881114
 21
11.6313871497
  0
LINE
  5
2E2
100
AcDbEntity
  8
0
100
AcDbLine
 62
7
  6
CONTINUOUS
 10
10.009396574
 20
11.6313871497
 11
10.0207463365
 21
11.6347603521
  0
SPLINE
  5
2E3
100
AcDbEntity
  8
0
100
AcDbSpline
 62
7
  6
CONTINUOUS
 70
0
 71
3
 72
11
 73
7
 74
0
 42
0.0000001
 43
0.0000001
 44
0.0000000001
 40
0.0
 40
0.0
 40
0.0
 40
0.0
 40
0.226362964
 40
0.4678088008
 40
0.7254035799
 40
1.0
 40
1.0
 40
1.0
 40
1.0
 10
9.4293140513
 20
11.6489456693
 30
0.0
 10
9.4295648758
 20
11.648622163
 30
0.0
 10
9.4301123305
 20
11.6479758221
 30
0.0
 10
9.4310323244
 20
11.6470393377
 30
0.0
 10
9.4320759088
 20
11.6461062714
 30
0.0
 10
9.4328291014
 20
11.6455063158
 30
0.0
 10
9.4332249129
 20
11.6452064456
 30
0.0
  0
LINE
  5
2E4
100
AcDbEntity
  8
0
100
AcDbLine
 62
7
  6
CONTINUOUS
 10
9.3304847923
 20
11.6465752806
 11
9.3320441221
 21
11.644902467
  0
SPLINE
  5
2E5
100
AcDbEntity
  8
0
100
AcDbSpline
 62
7
  6
CONTINUOUS
 70
0
 71
3
 72
11
 73
7
 74
0
 42
0.0000001
 43
0.0000001
 44
0.0000000001
 40
0.0
 40
0.0
 40
0.0
 40
0.0
 40
0.2745964201
 40
0.5321911992
 40
0.773637036
 40
1.0
 40
1.0
 40
1.0
 40
1.0
 10
10.0431597725
 20
11.6452064456
 30
0.0
 10
10.043555584
 20
11.6455063158
 30
0.0
 10
10.0443087766
 20
11.6461062714
 30
0.0
 10
10.0453523611
 20
11.6470393377
 30
0.0
 10
10.046272355
 20
11.6479758221
 30
0.0
 10
10.0468198096
 20
11.648622163
 30
0.0
 10
10.0470706342
 20
11.6489456693
 30
0.0
  0
SPLINE
  5
2E6
100
AcDbEntity
  8
0
100
AcDbSpline
 62
7
  6
CONTINUOUS
 70
0
 71
3
 72
11
 73
7
 74
0
 42
0.0000001
 43
0.0000001
 44
0.0000000001
 40
0.0
 40
0.0
 40
0.0
 40
0.0
 40
0.2685781525
 40
0.5244211297
 40
0.7680304423
 40
1.0
 40
1.0
 40
1.0
 40
1.0
 10
9.3343956539
 20
11.6660389544
 30
0.0
 10
9.3340164833
 20
11.6657363131
 30
0.0
 10
9.333287661
 20
11.6651306911
 30
0.0
 10
9.3322607778
 20
11.6641971282
 30
0.0
 10
9.331327566
 20
11.6632611206
 30
0.0
 10
9.3307544714
 20
11.6626204267
 30
0.0
 10
9.3304847923
 20
11.6622997307
 30
0.0
  0
SPLINE
  5
2E7
100
AcDbEntity
  8
0
100
AcDbSpline
 62
7
  6
CONTINUOUS
 70
0
 71
3
 72
11
 73
7
 74
0
 42
0.0000001
 43
0.0000001
 44
0.0000000001
 40
0.0
 40
0.0
 40
0.0
 40
0.0
 40
0.2319695577
 40
0.4755788703
 40
0.7314218475
 40
1.0
 40
1.0
 40
1.0
 40
1.0
 10
10.1458998932
 20
11.6622997307
 30
0.0
 10
10.1456302141
 20
11.6626204267
 30
0.0
 10
10.1450571195
 20
11.6632611206
 30
0.0
 10
10.1441239077
 20
11.6641971282
 30
0.0
 10
10.1430970245
 20
11.6651306911
 30
0.0
 10
10.1423682022
 20
11.6657363131
 30
0.0
 10
10.1419890316
 20
11.6660389544
 30
0.0
  0
SPLINE
  5
2E8
100
AcDbEntity
  8
0
100
AcDbSpline
 62
7
  6
CONTINUOUS
 70
0
 71
3
 72
44
 73
40
 74
0
 42
0.0000001
 43
0.0000001
 44
0.0000000001
 40
0.0
 40
0.0
 40
0.0
 40
0.0
 40
0.0039104144
 40
0.0080895691
 40
0.0125838977
 40
0.0174301759
 40
0.0226570377
 40
0.0282865868
 40
0.0343356978
 40
0.0408171392
 40
0.0477404352
 40
0.0551124847
 40
0.0629381265
 40
0.0712204565
 40
0.0799611705
 40
0.0891607767
 40
0.0988187494
 40
0.1089337218
 40
0.119503526
 40
0.1305253429
 40
0.1539101728
 40
0.1790551167
 40
0.2059189682
 40
0.2344541305
 40
0.264607359
 40
0.2963203363
 40
0.3295301268
 40
0.364169563
 40
0.4001675707
 40
0.4374494815
 40
0.4759372993
 40
0.5155499686
 40
0.5562036117
 40
0.5978117784
 40
0.6402856762
 40
0.7274645517
 40
0.8169928233
 40
0.9080998778
 40
1.0
 40
1.0
 40
1.0
 40
1.0
 10
9.9836503763
 20
11.6865624235
 30
0.0
 10
9.9835186753
 20
11.686262469
 30
0.0
 10
9.9832041617
 20
11.6856598432
 30
0.0
 10
9.9826107913
 20
11.684786202
 30
0.0
 10
9.9818829111
 20
11.6839162711
 30
0.0
 10
9.9810212089
 20
11.6830502856
 30
0.0
 10
9.9800261591
 20
11.6821882545
 30
0.0
 10
9.978898243
 20
11.6813304023
 30
0.0
 10
9.9776379815
 20
11.6804770049
 30
0.0
 10
9.9762459656
 20
11.6796284148
 30
0.0
 10
9.9747228677
 20
11.6787850297
 30
0.0
 10
9.9730694508
 20
11.6779472651
 30
0.0
 10
9.9712865591
 20
11.6771155651
 30
0.0
 10
9.9693751251
 20
11.6762903718
 30
0.0
 10
9.9673361605
 20
11.6754721375
 30
0.0
 10
9.9651707565
 20
11.6746613153
 30
0.0
 10
9.9628800815
 20
11.6738583504
 30
0.0
 10
9.9604653778
 20
11.6730636984
 30
0.0
 10
9.9579279611
 20
11.6722777847
 30
0.0
 10
9.9543110987
 20
11.6712212134
 30
0.0
 10
9.949491178
 20
11.6699309561
 30
0.0
 10
9.9433498851
 20
11.6684529688
 30
0.0
 10
9.9367558039
 20
11.6670197229
 30
0.0
 10
9.9297234226
 20
11.6656344568
 30
0.0
 10
9.9222681572
 20
11.6643003232
 30
0.0
 10
9.9144064095
 20
11.6630203371
 30
0.0
 10
9.906155492
 20
11.6617973855
 30
0.0
 10
9.8975335936
 20
11.6606342182
 30
0.0
 10
9.8885597328
 20
11.6595334453
 30
0.0
 10
9.8792537136
 20
11.6584975324
 30
0.0
 10
9.8696360788
 20
11.6575287967
 30
0.0
 10
9.8597280638
 20
11.6566294018
 30
0.0
 10
9.8495515503
 20
11.6558013583
 30
0.0
 10
9.839129009
 20
11.6550464994
 30
0.0
 10
9.8248106961
 20
11.6541319728
 30
0.0
 10
9.8064722781
 20
11.6531881908
 30
0.0
 10
9.7840499946
 20
11.6523786688
 30
0.0
 10
9.7612228634
 20
11.6518900265
 30
0.0
 10
9.7458912542
 20
11.6517812649
 30
0.0
 10
9.7381923427
 20
11.6517812649
 30
0.0
  0
ELLIPSE
  5
2E9
100
AcDbEntity
  8
0
100
AcDbEllipse
 62
7
  6
CONTINUOUS
 10
9.7381923427
 20
11.6464349057
 30
0.0
 11
0.3054723031
 21
0.0763453947
 31
0.0
 40
0.7646207021
 41
2.7067632004
 42
2.7554874003
  0
ELLIPSE
  5
2EA
100
AcDbEntity
  8
0
100
AcDbEllipse
 62
7
  6
CONTINUOUS
 10
9.7381923427
 20
11.6464349057
 30
0.0
 11
0.3104114608
 21
-0.0402844535
 31
0.0
 40
0.4747225229
 41
0.2588139671
 42
0.3756898441
  0
ELLIPSE
  5
2EB
100
AcDbEntity
  8
0
100
AcDbEllipse
 62
7
  6
CONTINUOUS
 10
9.9422694867
 20
11.9948729481
 30
0.0
 11
0.5024625154
 21
0.4546332603
 31
0.0
 40
0.5769986548
 41
-1.7517142499
 42
-1.7138489681
  0
ELLIPSE
  5
2EC
100
AcDbEntity
  8
0
100
AcDbEllipse
 62
7
  6
CONTINUOUS
 10
9.7381923427
 20
11.6464349057
 30
0.0
 11
0.3083389964
 21
-0.1066279338
 31
0.0
 40
0.3807289928
 41
0.6423511044
 42
0.7592269814
  0
ELLIPSE
  5
2ED
100
AcDbEntity
  8
0
100
AcDbEllipse
 62
7
  6
CONTINUOUS
 10
10.0560499465
 20
11.9823545074
 30
0.0
 11
0.589126652
 21
0.4679201511
 31
0.0
 40
0.3917258874
 41
-1.9024763922
 42
-1.8612563277
  0
ELLIPSE
  5
2EE
100
AcDbEntity
  8
0
100
AcDbEllipse
 62
7
  6
CONTINUOUS
 10
9.7381923427
 20
11.6464349057
 30
0.0
 11
0.308761864
 21
-0.1509952692
 31
0.0
 40
0.2466563605
 41
0.9456454706
 42
1.0625213476
  0
ELLIPSE
  5
2EF
100
AcDbEntity
  8
0
100
AcDbEllipse
 62
7
  6
CONTINUOUS
 10
10.1387162895
 20
11.9651243521
 30
0.0
 11
0.6528214712
 21
0.4694300058
 31
0.0
 40
0.2509521955
 41
-2.0601481614
 42
-2.0105542817
  0
ELLIPSE
  5
2F0
100
AcDbEntity
  8
0
100
AcDbEllipse
 62
7
  6
CONTINUOUS
 10
9.7381923427
 20
11.6464349057
 30
0.0
 11
0.3104308498
 21
-0.1796970747
 31
0.0
 40
0.1046571377
 41
1.2002694234
 42
1.3171453004
  0
ELLIPSE
  5
2F1
100
AcDbEntity
  8
0
100
AcDbEllipse
 62
7
  6
CONTINUOUS
 10
10.1821765579
 20
11.9448690896
 30
0.0
 11
0.6876902504
 21
0.4581734156
 31
0.0
 40
0.1352220807
 41
-2.2216752694
 42
-2.1472095622
  0
ELLIPSE
  5
2F2
100
AcDbEntity
  8
0
100
AcDbEllipse
 62
7
  6
CONTINUOUS
 10
9.2942081276
 20
11.9235714463
 30
0.0
 11
0.6903659958
 21
-0.4347031842
 31
0.0
 40
0.0282787578
 41
-0.8349718309
 42
-0.7517726273
  0
ELLIPSE
  5
2F3
100
AcDbEntity
  8
0
100
AcDbEllipse
 62
7
  6
CONTINUOUS
 10
10.1821765579
 20
11.9235714463
 30
0.0
 11
0.6903659958
 21
0.4347031842
 31
0.0
 40
0.0282787578
 41
-2.3898200263
 42
-2.3066208227
  0
ELLIPSE
  5
2F4
100
AcDbEntity
  8
0
100
AcDbEllipse
 62
7
  6
CONTINUOUS
 10
9.2942081276
 20
11.9448690896
 30
0.0
 11
0.6876902504
 21
-0.4581734156
 31
0.0
 40
0.1352220807
 41
-0.9943830914
 42
-0.9199173842
  0
ELLIPSE
  5
2F5
100
AcDbEntity
  8
0
100
AcDbEllipse
 62
7
  6
CONTINUOUS
 10
9.7381923427
 20
11.6464349057
 30
0.0
 11
0.3104308498
 21
0.1796970747
 31
0.0
 40
0.1046571377
 41
1.8244473532
 42
1.9413232302
  0
ELLIPSE
  5
2F6
100
AcDbEntity
  8
0
100
AcDbEllipse
 62
7
  6
CONTINUOUS
 10
9.337668396
 20
11.9651243521
 30
0.0
 11
0.6528214712
 21
-0.4694300058
 31
0.0
 40
0.2509521955
 41
-1.1310383719
 42
-1.0814444922
  0
ELLIPSE
  5
2F7
100
AcDbEntity
  8
0
100
AcDbEllipse
 62
7
  6
CONTINUOUS
 10
9.7381923427
 20
11.6464349057
 30
0.0
 11
0.308761864
 21
0.1509952692
 31
0.0
 40
0.2466563605
 41
2.079071306
 42
2.195947183
  0
ELLIPSE
  5
2F8
100
AcDbEntity
  8
0
100
AcDbEllipse
 62
7
  6
CONTINUOUS
 10
9.4203347389
 20
11.9823545074
 30
0.0
 11
0.589126652
 21
-0.4679201511
 31
0.0
 40
0.3917258874
 41
-1.2803363259
 42
-1.2391162614
  0
ELLIPSE
  5
2F9
100
AcDbEntity
  8
0
100
AcDbEllipse
 62
7
  6
CONTINUOUS
 10
9.7381923427
 20
11.6464349057
 30
0.0
 11
0.3083389964
 21
0.1066279338
 31
0.0
 40
0.3807289928
 41
2.3823656722
 42
2.4992415492
  0
ELLIPSE
  5
2FA
100
AcDbEntity
  8
0
100
AcDbEllipse
 62
7
  6
CONTINUOUS
 10
9.5341151987
 20
11.9948729481
 30
0.0
 11
-0.5024625154
 21
0.4546332603
 31
0.0
 40
0.5769986548
 41
-4.5693363391
 42
-4.5314710573
  0
ELLIPSE
  5
2FB
100
AcDbEntity
  8
0
100
AcDbEllipse
 62
7
  6
CONTINUOUS
 10
9.7381923427
 20
11.6464349057
 30
0.0
 11
0.3104114608
 21
0.0402844535
 31
0.0
 40
0.4747225229
 41
2.7659028095
 42
2.8827786865
  0
ELLIPSE
  5
2FC
100
AcDbEntity
  8
0
100
AcDbEllipse
 62
7
  6
CONTINUOUS
 10
9.6678721513
 20
11.8669862542
 30
0.0
 11
0.5279135401
 21
-0.1283066679
 31
0.0
 40
0.5979731295
 41
-2.1863077766
 42
-2.1111864182
  0
ELLIPSE
  5
2FD
100
AcDbEntity
  8
0
100
AcDbEllipse
 62
7
  6
CONTINUOUS
 10
9.5341151987
 20
11.8735675879
 30
0.0
 11
0.5561493275
 21
-0.2733159773
 31
0.0
 40
0.4004596636
 41
-1.7376813154
 42
-1.6767091919
  0
ELLIPSE
  5
2FE
100
AcDbEntity
  8
0
100
AcDbEllipse
 62
7
  6
CONTINUOUS
 10
9.7381923427
 20
11.6464349057
 30
0.0
 11
0.2952039713
 21
0.156438489
 31
0.0
 40
0.6255178862
 41
2.2517784852
 42
2.3100657453
  0
ELLIPSE
  5
2FF
100
AcDbEntity
  8
0
100
AcDbEllipse
 62
7
  6
CONTINUOUS
 10
9.4203347389
 20
11.8860860285
 30
0.0
 11
0.6120727344
 21
-0.348586635
 31
0.0
 40
0.2228534667
 41
-1.4712350234
 42
-1.4145106381
  0
ELLIPSE
  5
300
100
AcDbEntity
  8
0
100
AcDbEllipse
 62
7
  6
CONTINUOUS
 10
9.7381923427
 20
11.6464349057
 30
0.0
 11
0.2981376274
 21
0.1884401658
 31
0.0
 40
0.4697261941
 41
1.947546716
 42
2.0273858834
  0
ELLIPSE
  5
301
100
AcDbEntity
  8
0
100
AcDbEllipse
 62
7
  6
CONTINUOUS
 10
9.337668396
 20
11.9033161839
 30
0.0
 11
0.6624892048
 21
-0.3989919866
 31
0.0
 40
0.0854291642
 41
-1.2635021996
 42
-1.2085721104
  0
ELLIPSE
  5
302
100
AcDbEntity
  8
0
100
AcDbEllipse
 62
7
  6
CONTINUOUS
 10
9.7381923427
 20
11.6464349057
 30
0.0
 11
0.3041736737
 21
0.202157679
 31
0.0
 40
0.3205547004
 41
1.6750490746
 42
1.7919249516
  0
ELLIPSE
  5
303
100
AcDbEntity
  8
0
100
AcDbEllipse
 62
7
  6
CONTINUOUS
 10
9.7381923427
 20
11.6464349057
 30
0.0
 11
0.3109163644
 21
-0.1969703505
 31
0.0
 40
0.036615146
 41
1.7912718203
 42
1.9081476973
  0
ELLIPSE
  5
304
100
AcDbEntity
  8
0
100
AcDbEllipse
 62
7
  6
CONTINUOUS
 10
9.7381923427
 20
11.6464349057
 30
0.0
 11
0.3088791926
 21
0.2044342745
 31
0.0
 40
0.1773578598
 41
1.4539453005
 42
1.5708211775
  0
ELLIPSE
  5
305
100
AcDbEntity
  8
0
100
AcDbEllipse
 62
7
  6
CONTINUOUS
 10
9.7381923427
 20
11.6464349057
 30
0.0
 11
0.3088791926
 21
-0.2044342745
 31
0.0
 40
0.1773578598
 41
1.5707714761
 42
1.6876473531
  0
ELLIPSE
  5
306
100
AcDbEntity
  8
0
100
AcDbEllipse
 62
7
  6
CONTINUOUS
 10
9.7381923427
 20
11.6464349057
 30
0.0
 11
0.3109163644
 21
0.1969703505
 31
0.0
 40
0.036615146
 41
1.2334449562
 42
1.3503208332
  0
ELLIPSE
  5
307
100
AcDbEntity
  8
0
100
AcDbEllipse
 62
7
  6
CONTINUOUS
 10
9.7381923427
 20
11.6464349057
 30
0.0
 11
0.3041736737
 21
-0.202157679
 31
0.0
 40
0.3205547004
 41
1.349667702
 42
1.466543579
  0
ELLIPSE
  5
308
100
AcDbEntity
  8
0
100
AcDbEllipse
 62
7
  6
CONTINUOUS
 10
10.1387162895
 20
11.9033161839
 30
0.0
 11
0.6624892048
 21
0.3989919866
 31
0.0
 40
0.0854291642
 41
-1.9330205431
 42
-1.878090454
  0
ELLIPSE
  5
309
100
AcDbEntity
  8
0
100
AcDbEllipse
 62
7
  6
CONTINUOUS
 10
9.7381923427
 20
11.6464349057
 30
0.0
 11
0.2981376274
 21
-0.1884401658
 31
0.0
 40
0.4697261941
 41
1.1142067702
 42
1.1940459376
  0
ELLIPSE
  5
30A
100
AcDbEntity
  8
0
100
AcDbEllipse
 62
7
  6
CONTINUOUS
 10
10.0560499465
 20
11.8860860285
 30
0.0
 11
0.6120727344
 21
0.348586635
 31
0.0
 40
0.2228534667
 41
-1.7270820155
 42
-1.6703576302
  0
ELLIPSE
  5
30B
100
AcDbEntity
  8
0
100
AcDbEllipse
 62
7
  6
CONTINUOUS
 10
9.7381923427
 20
11.6464349057
 30
0.0
 11
0.2952039713
 21
-0.156438489
 31
0.0
 40
0.6255178862
 41
0.8315269083
 42
0.8898141684
  0
ELLIPSE
  5
30C
100
AcDbEntity
  8
0
100
AcDbEllipse
 62
7
  6
CONTINUOUS
 10
9.9422694867
 20
11.8735675879
 30
0.0
 11
0.5561493275
 21
0.2733159773
 31
0.0
 40
0.4004596636
 41
-1.4648834616
 42
-1.4039113382
  0
ELLIPSE
  5
30D
100
AcDbEntity
  8
0
100
AcDbEllipse
 62
7
  6
CONTINUOUS
 10
9.7381923427
 20
11.6464349057
 30
0.0
 11
0.3054723031
 21
-0.0763453947
 31
0.0
 40
0.7646207021
 41
0.3861052533
 42
0.4348294532
  0
ELLIPSE
  5
30E
100
AcDbEntity
  8
0
100
AcDbEllipse
 62
7
  6
CONTINUOUS
 10
9.8085125342
 20
11.8669862542
 30
0.0
 11
0.5279135401
 21
0.1283066679
 31
0.0
 40
0.5979731295
 41
-1.0304062354
 42
-0.955284877
  0
ELLIPSE
  5
30F
100
AcDbEntity
  8
0
100
AcDbEllipse
 62
7
  6
CONTINUOUS
 10
9.7381923427
 20
11.6464349057
 30
0.0
 11
0.2952039713
 21
0.156438489
 31
0.0
 40
0.6255178862
 41
-0.7511193969
 42
-0.6342435199
  0
ELLIPSE
  5
310
100
AcDbEntity
  8
0
100
AcDbEllipse
 62
7
  6
CONTINUOUS
 10
9.7381923427
 20
11.6464349057
 30
0.0
 11
0.2981376274
 21
0.1884401658
 31
0.0
 40
0.4697261941
 41
-1.0337992588
 42
-0.9169233818
  0
ELLIPSE
  5
311
100
AcDbEntity
  8
0
100
AcDbEllipse
 62
7
  6
CONTINUOUS
 10
9.8543827326
 20
11.7382436768
 30
0.0
 11
0.0249932769
 21
0.0158336295
 31
0.0
 40
0.036615146
 41
8.0235550895
 42
10.658222917
  0
ELLIPSE
  5
312
100
AcDbEntity
  8
0
100
AcDbEllipse
 62
7
  6
CONTINUOUS
 10
9.7381923427
 20
11.6464349057
 30
0.0
 11
0.3041736737
 21
0.202157679
 31
0.0
 40
0.3205547004
 41
-1.2692601906
 42
-1.1523843136
  0
ELLIPSE
  5
313
100
AcDbEntity
  8
0
100
AcDbEllipse
 62
7
  6
CONTINUOUS
 10
9.7381923427
 20
11.6464349057
 30
0.0
 11
0.3088791926
 21
0.2044342745
 31
0.0
 40
0.1773578598
 41
-1.4903639647
 42
-1.3734880877
  0
ELLIPSE
  5
314
100
AcDbEntity
  8
0
100
AcDbEllipse
 62
7
  6
CONTINUOUS
 10
9.7381923427
 20
11.627152593
 30
0.0
 11
0.0249932769
 21
-0.0158336295
 31
0.0
 40
0.036615146
 41
-1.3905245889
 42
1.593988432
  0
ELLIPSE
  5
315
100
AcDbEntity
  8
0
100
AcDbEllipse
 62
7
  6
CONTINUOUS
 10
9.7381923427
 20
11.6464349057
 30
0.0
 11
0.3109163644
 21
-0.1969703505
 31
0.0
 40
0.036615146
 41
-1.5476042216
 42
-1.4307283446
  0
ELLIPSE
  5
316
100
AcDbEntity
  8
0
100
AcDbEllipse
 62
7
  6
CONTINUOUS
 10
9.7381923427
 20
11.6464349057
 30
0.0
 11
0.3109163644
 21
0.1969703505
 31
0.0
 40
0.036615146
 41
-1.710864309
 42
-1.593988432
  0
ELLIPSE
  5
317
100
AcDbEntity
  8
0
100
AcDbEllipse
 62
7
  6
CONTINUOUS
 10
9.7381923427
 20
11.627152593
 30
0.0
 11
0.0249932769
 21
0.0158336295
 31
0.0
 40
0.036615146
 41
7.8307895288
 42
10.8153025497
  0
ELLIPSE
  5
318
100
AcDbEntity
  8
0
100
AcDbEllipse
 62
7
  6
CONTINUOUS
 10
9.6220019529
 20
11.6299393829
 30
0.0
 11
0.0248295171
 21
-0.0164336234
 31
0.0
 40
0.1773578598
 41
4.936993356
 42
7.4673845846
  0
ELLIPSE
  5
319
100
AcDbEntity
  8
0
100
AcDbEllipse
 62
7
  6
CONTINUOUS
 10
9.7381923427
 20
11.6464349057
 30
0.0
 11
0.3088791926
 21
-0.2044342745
 31
0.0
 40
0.1773578598
 41
-1.7681045659
 42
-1.6512286889
  0
ELLIPSE
  5
31A
100
AcDbEntity
  8
0
100
AcDbEllipse
 62
7
  6
CONTINUOUS
 10
9.5171850879
 20
11.6380269623
 30
0.0
 11
0.0244512599
 21
-0.0162506173
 31
0.0
 40
0.3205547004
 41
5.4363652549
 42
6.8858262529
  0
ELLIPSE
  5
31B
100
AcDbEntity
  8
0
100
AcDbEllipse
 62
7
  6
CONTINUOUS
 10
9.7381923427
 20
11.6464349057
 30
0.0
 11
0.3041736737
 21
-0.202157679
 31
0.0
 40
0.3205547004
 41
-1.98920834
 42
-1.872332463
  0
ELLIPSE
  5
31C
100
AcDbEntity
  8
0
100
AcDbEllipse
 62
7
  6
CONTINUOUS
 10
9.7381923427
 20
11.6464349057
 30
0.0
 11
0.2981376274
 21
-0.1884401658
 31
0.0
 40
0.4697261941
 41
-2.2246692718
 42
-2.1077933948
  0
ELLIPSE
  5
31D
100
AcDbEntity
  8
0
100
AcDbEllipse
 62
7
  6
CONTINUOUS
 10
9.7381923427
 20
11.6464349057
 30
0.0
 11
0.2952039713
 21
-0.156438489
 31
0.0
 40
0.6255178862
 41
-2.5073491337
 42
-2.3904732567
  0
ELLIPSE
  5
31E
100
AcDbEntity
  8
0
100
AcDbEllipse
 62
7
  6
CONTINUOUS
 10
9.6678721513
 20
12.0014542818
 30
0.0
 11
-0.3836391632
 21
0.4460865301
 31
0.0
 40
0.830949574
 41
-4.7094925656
 42
-4.6288891631
  0
ELLIPSE
  5
31F
100
AcDbEntity
  8
0
100
AcDbEllipse
 62
7
  6
CONTINUOUS
 10
9.7381923427
 20
11.6464349057
 30
0.0
 11
0.3054723031
 21
-0.0763453947
 31
0.0
 40
0.7646207021
 41
-2.8807488778
 42
-2.8358949116
  0
ELLIPSE
  5
320
100
AcDbEntity
  8
0
100
AcDbEllipse
 62
7
  6
CONTINUOUS
 10
9.9422694867
 20
11.9948729481
 30
0.0
 11
0.5024625154
 21
0.4546332603
 31
0.0
 40
0.5769986548
 41
-3.5888284699
 42
-3.5310577889
  0
ELLIPSE
  5
321
100
AcDbEntity
  8
0
100
AcDbEllipse
 62
7
  6
CONTINUOUS
 10
9.4340019529
 20
11.7175593972
 30
0.0
 11
0.0237302228
 21
0.0125754412
 31
0.0
 40
0.6255178862
 41
2.6846894444
 42
4.3989642559
  0
ELLIPSE
  5
322
100
AcDbEntity
  8
0
100
AcDbEllipse
 62
7
  6
CONTINUOUS
 10
10.0560499465
 20
11.9823545074
 30
0.0
 11
0.589126652
 21
0.4679201511
 31
0.0
 40
0.3917258874
 41
2.5459554294
 42
2.601365376
  0
ELLIPSE
  5
323
100
AcDbEntity
  8
0
100
AcDbEllipse
 62
7
  6
CONTINUOUS
 10
9.5171850879
 20
11.7301560974
 30
0.0
 11
0.0239660472
 21
0.0151479233
 31
0.0
 40
0.4697261941
 41
2.3397528985
 42
4.6850367295
  0
ELLIPSE
  5
324
100
AcDbEntity
  8
0
100
AcDbEllipse
 62
7
  6
CONTINUOUS
 10
10.1387162895
 20
11.9651243521
 30
0.0
 11
0.6528214712
 21
0.4694300058
 31
0.0
 40
0.2509521955
 41
2.3893489462
 42
2.4436936067
  0
ELLIPSE
  5
325
100
AcDbEntity
  8
0
100
AcDbEllipse
 62
7
  6
CONTINUOUS
 10
9.6220019529
 20
11.7382436768
 30
0.0
 11
0.0244512599
 21
0.0162506173
 31
0.0
 40
0.3205547004
 41
2.1737625186
 42
4.8166417282
  0
ELLIPSE
  5
326
100
AcDbEntity
  8
0
100
AcDbEllipse
 62
7
  6
CONTINUOUS
 10
9.2942081276
 20
11.9235714463
 30
0.0
 11
0.6903659958
 21
-0.4347031842
 31
0.0
 40
0.0282787578
 41
1.0275709117
 42
1.0817182661
  0
ELLIPSE
  5
327
100
AcDbEntity
  8
0
100
AcDbEllipse
 62
7
  6
CONTINUOUS
 10
9.6220019529
 20
11.7382436768
 30
0.0
 11
0.0249932769
 21
-0.0158336295
 31
0.0
 40
0.036615146
 41
-1.2334449562
 42
1.4012228713
  0
ELLIPSE
  5
328
100
AcDbEntity
  8
0
100
AcDbEllipse
 62
7
  6
CONTINUOUS
 10
10.1821765579
 20
11.9448690896
 30
0.0
 11
0.6876902504
 21
0.4581734156
 31
0.0
 40
0.1352220807
 41
2.2281879453
 42
2.2821664988
  0
ELLIPSE
  5
329
100
AcDbEntity
  8
0
100
AcDbEllipse
 62
7
  6
CONTINUOUS
 10
9.7381923427
 20
11.7410304667
 30
0.0
 11
0.0248295171
 21
0.0164336234
 31
0.0
 40
0.1773578598
 41
8.2593238157
 42
10.8787232613
  0
ELLIPSE
  5
32A
100
AcDbEntity
  8
0
100
AcDbEllipse
 62
7
  6
CONTINUOUS
 10
9.2942081276
 20
11.9448690896
 30
0.0
 11
0.6876902504
 21
-0.4581734156
 31
0.0
 40
0.1352220807
 41
0.8594261548
 42
0.9134047083
  0
ELLIPSE
  5
32B
100
AcDbEntity
  8
0
100
AcDbEllipse
 62
7
  6
CONTINUOUS
 10
9.7381923427
 20
11.7410304667
 30
0.0
 11
0.0248295171
 21
-0.0164336234
 31
0.0
 40
0.1773578598
 41
-1.4539453005
 42
1.1654541451
  0
ELLIPSE
  5
32C
100
AcDbEntity
  8
0
100
AcDbEllipse
 62
7
  6
CONTINUOUS
 10
10.1821765579
 20
11.9235714463
 30
0.0
 11
0.6903659958
 21
0.4347031842
 31
0.0
 40
0.0282787578
 41
2.0598743875
 42
2.1140217418
  0
ELLIPSE
  5
32D
100
AcDbEntity
  8
0
100
AcDbEllipse
 62
7
  6
CONTINUOUS
 10
9.337668396
 20
11.9651243521
 30
0.0
 11
0.6528214712
 21
-0.4694300058
 31
0.0
 40
0.2509521955
 41
0.6978990469
 42
0.7522437074
  0
ELLIPSE
  5
32E
100
AcDbEntity
  8
0
100
AcDbEllipse
 62
7
  6
CONTINUOUS
 10
9.8543827326
 20
11.7382436768
 30
0.0
 11
0.0244512599
 21
-0.0162506173
 31
0.0
 40
0.3205547004
 41
4.6081362326
 42
7.2510154422
  0
ELLIPSE
  5
32F
100
AcDbEntity
  8
0
100
AcDbEllipse
 62
7
  6
CONTINUOUS
 10
9.4203347389
 20
11.9823545074
 30
0.0
 11
0.589126652
 21
-0.4679201511
 31
0.0
 40
0.3917258874
 41
0.5402272776
 42
0.5956372242
  0
ELLIPSE
  5
330
100
AcDbEntity
  8
0
100
AcDbEllipse
 62
7
  6
CONTINUOUS
 10
9.9591995976
 20
11.7301560974
 30
0.0
 11
0.0239660472
 21
-0.0151479233
 31
0.0
 40
0.4697261941
 41
4.7397412308
 42
7.0850250624
  0
ELLIPSE
  5
331
100
AcDbEntity
  8
0
100
AcDbEllipse
 62
7
  6
CONTINUOUS
 10
9.5341151987
 20
11.9948729481
 30
0.0
 11
-0.5024625154
 21
0.4546332603
 31
0.0
 40
0.5769986548
 41
-2.7521275182
 42
-2.6943568373
  0
ELLIPSE
  5
332
100
AcDbEntity
  8
0
100
AcDbEllipse
 62
7
  6
CONTINUOUS
 10
10.0423827326
 20
11.7175593972
 30
0.0
 11
0.0237302228
 21
-0.0125754412
 31
0.0
 40
0.6255178862
 41
5.025813707
 42
6.7400885171
  0
ELLIPSE
  5
333
100
AcDbEntity
  8
0
100
AcDbEllipse
 62
7
  6
CONTINUOUS
 10
9.6678721513
 20
12.0014542818
 30
0.0
 11
-0.3836391632
 21
0.4460865301
 31
0.0
 40
0.830949574
 41
-2.8495456241
 42
-2.7861194777
  0
ELLIPSE
  5
334
100
AcDbEntity
  8
0
100
AcDbEllipse
 62
7
  6
CONTINUOUS
 10
9.8543827326
 20
11.6299393829
 30
0.0
 11
0.0248295171
 21
0.0164336234
 31
0.0
 40
0.1773578598
 41
8.2405786827
 42
10.7709699116
  0
ELLIPSE
  5
335
100
AcDbEntity
  8
0
100
AcDbEllipse
 62
7
  6
CONTINUOUS
 10
9.9591995976
 20
11.6380269623
 30
0.0
 11
0.0244512599
 21
0.0162506173
 31
0.0
 40
0.3205547004
 41
8.8221370005
 42
10.2715980183
  0
ELLIPSE
  5
336
100
AcDbEntity
  8
0
100
AcDbEllipse
 62
7
  6
CONTINUOUS
 10
9.8085125342
 20
12.0014542818
 30
0.0
 11
0.3836391632
 21
0.4460865301
 31
0.0
 40
0.830949574
 41
-1.6542961441
 42
-1.5736927416
  0
ELLIPSE
  5
337
100
AcDbEntity
  8
0
100
AcDbEllipse
 62
7
  6
CONTINUOUS
 10
9.7381923427
 20
11.6464349057
 30
0.0
 11
0.3054723031
 21
0.0763453947
 31
0.0
 40
0.7646207021
 41
-0.3056977419
 42
-0.2608437758
  0
ELLIPSE
  5
338
100
AcDbEntity
  8
0
100
AcDbEllipse
 62
7
  6
CONTINUOUS
 10
9.8085125342
 20
12.0014542818
 30
0.0
 11
0.3836391632
 21
0.4460865301
 31
0.0
 40
0.830949574
 41
-3.4970658295
 42
-3.4336396831
  0
ENDSEC
  0
SECTION
  2
OBJECTS
  0
DICTIONARY
  5
C
100
AcDbDictionary
280
0
281
1
  3
ACAD_GROUP
350
D
  3
ACAD_MLINESTYLE
350
17
  3
ACAD_LAYOUT
350
1A
  3
ACAD_PLOTSETTINGS
350
19
  3
ACAD_PLOTSTYLENAME
350
E
  0
DICTIONARY
  5
D
102
{ACAD_REACTORS
330
C
102
}
100
AcDbDictionary
280
0
281
1
  0
ACDBDICTIONARYWDFLT
  5
E
102
{ACAD_REACTORS
330
C
102
}
100
AcDbDictionary
281
1
  3
Normal
350
F
100
AcDbDictionaryWithDefault
340
F
  0
DICTIONARY
  5
17
102
{ACAD_REACTORS
330
C
102
}
100
AcDbDictionary
280
0
281
1
  3
Standard
350
18
  0
DICTIONARY
  5
19
102
{ACAD_REACTORS
330
C
102
}
100
AcDbDictionary
281
1
  0
DICTIONARY
  5
1A
102
{ACAD_REACTORS
330
C
102
}
100
AcDbDictionary
281
1
  3
Model
350
339
  3
Layout1
350
33A
  0
ACDBPLACEHOLDER
  5
F
102
{ACAD_REACTORS
330
E
102
}
  0
MLINESTYLE
  5
18
102
{ACAD_REACTORS
330
17
102
}
100
AcDbMlineStyle
  2
STANDARD
 70
0
  3

 62
256
 51
90.0
 52
90.0
 71
2
 49
0.5
 62
256
  6
BYLAYER
 49
-0.5
 62
256
  6
BYLAYER
  0
LAYOUT
  5
339
102
{ACAD_REACTORS
330
1A
102
}
100
AcDbPlotSettings
  1

  2
none_device
  4
ANSI_C_(22.00_x_17.00_Inches)
  6

 40
0.0
 41
0.0
 42
0.0
 43
0.0
 44
558.8
 45
431.8
 46
0.0
 47
0.0
 48
0.0
 49
0.0
140
0.0
141
0.0
142
1.0
143
1.0
 70
1024
 72
0
 73
0
 74
0
  7

 75
0
147
1.0
148
0.0
149
0.0
100
AcDbLayout
  1
Model
 70
0
 71
0
 10
0.0
 20
0.0
 11
22.0
 21
17.0
 12
0.0
 22
0.0
 32
0.0
 14
0.0
 24
0.0
 34
0.0
 15
0.0
 25
0.0
 35
0.0
146
0.0
 13
0.0
 23
0.0
 33
0.0
 16
1.0
 26
0.0
 36
0.0
 17
0.0
 27
1.0
 37
0.0
 76
0
330
205
345
0
346
0
  0
LAYOUT
  5
33A
102
{ACAD_REACTORS
330
1A
102
}
100
AcDbPlotSettings
  1

  2
none_device
  4
ANSI_C_(22.00_x_17.00_Inches)
  6

 40
0.0
 41
0.0
 42
0.0
 43
0.0
 44
558.8
 45
431.8
 46
0.0
 47
0.0
 48
0.0
 49
0.0
140
0.0
141
0.0
142
1.0
143
1.0
 70
0
 72
0
 73
0
 74
0
  7

 75
0
147
1.0
148
0.0
149
0.0
100
AcDbLayout
  1
Layout1
 70
0
 71
1
 10
0.0
 20
0.0
 11
22.0
 21
17.0
 12
0.0
 22
0.0
 32
0.0
 14
0.0
 24
0.0
 34
0.0
 15
0.0
 25
0.0
 35
0.0
146
0.0
 13
0.0
 23
0.0
 33
0.0
 16
1.0
 26
0.0
 36
0.0
 17
0.0
 27
1.0
 37
0.0
 76
0
330
206
345
0
346
0
  0
ENDSEC
  0
EOF
