999
DXF file: E:\BRASSTECH\RAY\EN-4300m\Webdata\1400L\CAD\1400L_RIGHT.dxf
999
Pro/ENGINEER 2018400 by Parametric Technology Corporation
  0
SECTION
  2
HEADER
  9
$ACADVER
  1
AC1018
  9
$DWGCODEPAGE
  3
ANSI_1252
  9
$EXTMAX
 10
22.0
 20
17.0
 30
0.0
  9
$EXTMIN
 10
0.0
 20
0.0
 30
0.0
  9
$LIMMIN
 10
0.0
 20
0.0
  9
$LIMMAX
 10
22.0
 20
17.0
  9
$VIEWCTR
 10
11.0
 20
8.5
  9
$VIEWSIZE
 40
17.0
  9
$CLAYER
  8
0
  9
$LTSCALE
 40
1.21
  9
$CELTYPE
  6
BYLAYER
  9
$DIMSCALE
 40
1.0
  9
$DIMASZ
 40
0.1
  9
$DIMEXO
 40
0.0625
  9
$DIMDLI
 40
0.836
  9
$DIMEXE
 40
0.125
  9
$DIMCEN
 40
0.198
  9
$DIMLFAC
 40
1.0
  9
$DIMBLK
  1
_FILLED
  9
$DIMALT
 70
1
  9
$DIMALTD
 70
2
  9
$DIMALTTD
 70
2
  9
$DIMALTF
 40
25.4
  9
$DIMTXT
 40
0.08
  9
$DIMTOL
 70
1
  9
$DIMLIM
 70
0
  9
$DIMTFAC
 40
1.0
  9
$DIMTP
 40
0.001
  9
$DIMTM
 40
0.001
  9
$DIMGAP
 40
0.09
  9
$DIMDSEP
 70
46
  9
$AUNITS
 70
0
  9
$PDMODE
 70
3
  9
$PDSIZE
 40
0.06
  9
$HANDSEED
  5
299
  9
$TILEMODE
 70
1
  9
$MEASUREMENT
 70
0
  9
$INSUNITS
 70
1
  0
ENDSEC
  0
SECTION
  2
CLASSES
  0
CLASS
  1
ACDBDICTIONARYWDFLT
  2
AcDbDictionaryWithDefault
  3
AutoCAD 2000
 90
0
 91
1
280
0
281
0
  0
CLASS
  1
ACDBPLACEHOLDER
  2
AcDbPlaceHolder
  3
AutoCAD 2000
 90
0
 91
1
280
0
281
0
  0
CLASS
  1
LAYOUT
  2
AcDbLayout
  3
AutoCAD 2000
 90
0
 91
0
280
0
281
0
  0
ENDSEC
  0
SECTION
  2
TABLES
  0
TABLE
  2
VPORT
  5
8
100
AcDbSymbolTable
 70
2
  0
VPORT
  5
1F4
100
AcDbSymbolTableRecord
100
AcDbViewportTableRecord
  2
*ACTIVE
 70
0
 10
0.0
 20
0.0
 11
1.0
 21
1.0
 12
11.0
 22
8.5
 13
0.0
 23
0.0
 14
1.0
 24
1.0
 15
0.0
 25
0.0
 16
0.0
 26
0.0
 36
1.0
 17
0.0
 27
0.0
 37
0.0
 40
17.0
 41
1.2941176471
 42
50.0
 43
0.0
 44
0.0
 50
0.0
 51
0.0
 71
0
 72
100
 73
1
 74
1
 75
0
 76
0
 77
0
 78
0
  0
ENDTAB
  0
TABLE
  2
LTYPE
  5
5
100
AcDbSymbolTable
 70
6
  0
LTYPE
  5
14
100
AcDbSymbolTableRecord
100
AcDbLinetypeTableRecord
  2
BYBLOCK
 70
0
  3

 72
65
 73
0
 40
0.0
  0
LTYPE
  5
15
100
AcDbSymbolTableRecord
100
AcDbLinetypeTableRecord
  2
BYLAYER
 70
0
  3

 72
65
 73
0
 40
0.0
  0
LTYPE
  5
16
100
AcDbSymbolTableRecord
100
AcDbLinetypeTableRecord
  2
CONTINUOUS
 70
64
  3
Solid line
 72
65
 73
0
 40
0.0
  0
LTYPE
  5
1F5
100
AcDbSymbolTableRecord
100
AcDbLinetypeTableRecord
  2
CENTER
 70
64
  3
____ _ ____ _ ____ _ ____ _ ____ _ ____ _ ____
 72
65
 73
4
 40
0.6
 49
0.375
 74
0
 49
-0.075
 74
0
 49
0.075
 74
0
 49
-0.075
 74
0
  0
LTYPE
  5
1F6
100
AcDbSymbolTableRecord
100
AcDbLinetypeTableRecord
  2
HIDDEN
 70
64
  3
- - - - - - - - - - - - - - - - - - - -
 72
65
 73
2
 40
0.2
 49
0.1
 74
0
 49
-0.1
 74
0
  0
LTYPE
  5
1F7
100
AcDbSymbolTableRecord
100
AcDbLinetypeTableRecord
  2
PHANTOM
 70
64
  3
_____ _ _ _____ _ _ _____ _ _ _____
 72
65
 73
6
 40
0.8
 49
0.45
 74
0
 49
-0.05
 74
0
 49
0.1
 74
0
 49
-0.05
 74
0
 49
0.1
 74
0
 49
-0.05
 74
0
  0
LTYPE
  5
1F8
100
AcDbSymbolTableRecord
100
AcDbLinetypeTableRecord
  2
DOT
 70
64
  3
. . . . . . . . . . . . . . . . . . . .
 72
65
 73
2
 40
0.2
 49
0.1
 74
0
 49
-0.1
 74
0
  0
LTYPE
  5
1F9
100
AcDbSymbolTableRecord
100
AcDbLinetypeTableRecord
  2
DASHED
 70
64
  3
- - - - - - - - - - - - - - - - - - - -
 72
65
 73
2
 40
0.2
 49
0.1
 74
0
 49
-0.1
 74
0
  0
ENDTAB
  0
TABLE
  2
LAYER
  5
2
100
AcDbSymbolTable
 70
36
  0
LAYER
  5
10
100
AcDbSymbolTableRecord
100
AcDbLayerTableRecord
  2
0
 70
0
 62
7
  6
CONTINUOUS
370
-3
390
F
  0
LAYER
  5
1FA
100
AcDbSymbolTableRecord
100
AcDbLayerTableRecord
  2
DEFAULT_1
 70
0
 62
7
  6
CENTER
370
-3
390
F
  0
LAYER
  5
1FB
100
AcDbSymbolTableRecord
100
AcDbLayerTableRecord
  2
DEFAULT_2
 70
0
 62
8
  6
HIDDEN
370
-3
390
F
  0
LAYER
  5
1FC
100
AcDbSymbolTableRecord
100
AcDbLayerTableRecord
  2
DEFAULT_3
 70
0
 62
7
  6
PHANTOM
370
-3
390
F
  0
LAYER
  5
1FD
100
AcDbSymbolTableRecord
100
AcDbLayerTableRecord
  2
ALL_FEATURES
 70
0
 62
7
  6
CONTINUOUS
370
-3
390
F
  0
LAYER
  5
1FE
100
AcDbSymbolTableRecord
100
AcDbLayerTableRecord
  2
AXES_FEATURES
 70
0
 62
7
  6
CONTINUOUS
370
-3
390
F
  0
LAYER
  5
1FF
100
AcDbSymbolTableRecord
100
AcDbLayerTableRecord
  2
DIMENSIONS
 70
0
 62
7
  6
CONTINUOUS
370
-3
390
F
  0
ENDTAB
  0
TABLE
  2
STYLE
  5
3
100
AcDbSymbolTable
 70
1
  0
STYLE
  5
11
100
AcDbSymbolTableRecord
100
AcDbTextStyleTableRecord
  2
STANDARD
 70
0
 40
0.0
 41
0.8
 50
0.0
 71
0
 42
0.2
  3
txt
  4

  0
STYLE
  5
200
100
AcDbSymbolTableRecord
100
AcDbTextStyleTableRecord
  2
TEXTSTYLE_1
 70
0
 40
0.0
 41
0.8
 50
0.0
 71
0
 42
0.2
  3
gdt
  4

  0
ENDTAB
  0
TABLE
  2
VIEW
  5
6
100
AcDbSymbolTable
 70
0
  0
ENDTAB
  0
TABLE
  2
UCS
  5
7
100
AcDbSymbolTable
 70
0
  0
ENDTAB
  0
TABLE
  2
APPID
  5
9
100
AcDbSymbolTable
 70
1
  0
APPID
  5
201
100
AcDbSymbolTableRecord
100
AcDbRegAppTableRecord
  2
ACAD
 70
0
  0
ENDTAB
  0
TABLE
  2
BLOCK_RECORD
  5
1
100
AcDbSymbolTable
 70
0
  0
BLOCK_RECORD
  5
202
100
AcDbSymbolTableRecord
100
AcDbBlockTableRecord
  2
*Model_Space
  0
BLOCK_RECORD
  5
203
100
AcDbSymbolTableRecord
100
AcDbBlockTableRecord
  2
*Paper_Space
  0
BLOCK_RECORD
  5
204
100
AcDbSymbolTableRecord
100
AcDbBlockTableRecord
  2
_FILLED
  0
ENDTAB
  0
TABLE
  2
DIMSTYLE
  5
A
100
AcDbSymbolTable
 70
1
100
AcDbDimStyleTable
 71
0
  0
DIMSTYLE
105
205
100
AcDbSymbolTableRecord
100
AcDbDimStyleTableRecord
  2
STANDARD
 70
0
  3

  4

 40
1.0
 41
0.1
 42
0.0625
 43
0.38
 44
0.125
 45
0.0
 46
0.0
 47
0.001
 48
0.001
140
0.08
141
0.09
142
0.0
143
25.4
144
1.0
145
0.0
146
1.0
147
0.09
 71
1.0
 72
0.0
 73
1
 74
1
 75
0
 76
0
 77
0
 78
4
 79
1
170
1
171
2
172
0
173
0
174
0
175
0
176
0
177
0
178
0
270
2
179
3
271
3
272
3
273
2
274
2
275
0
280
0
281
0
282
0
283
1
284
4
285
0
286
0
287
3
288
0
340
11
278
46
341
204
342
204
343
204
344
204
  0
ENDTAB
  0
ENDSEC
  0
SECTION
  2
BLOCKS
  0
BLOCK
  5
20
100
AcDbEntity
  8
0
100
AcDbBlockBegin
  2
*Model_Space
 70
0
 10
0.0
 20
0.0
 30
0.0
  3
*Model_Space
  1

  0
ENDBLK
  5
21
100
AcDbEntity
  8
0
100
AcDbBlockEnd
  0
BLOCK
  5
1C
100
AcDbEntity
  8
0
100
AcDbBlockBegin
  2
*Paper_Space
 70
0
 10
0.0
 20
0.0
 30
0.0
  3
*Paper_Space
  1

  0
ENDBLK
  5
1D
100
AcDbEntity
  8
0
100
AcDbBlockEnd
  0
BLOCK
  5
206
100
AcDbEntity
  8
0
100
AcDbBlockBegin
  2
_FILLED
 70
64
 10
0.0
 20
0.0
  3
_FILLED
  1

  0
SOLID
  5
207
100
AcDbEntity
  8
0
  6
BYBLOCK
 62
0
100
AcDbTrace
 10
0.0
 20
0.0
 11
-1.0
 21
0.2
 12
-1.0
 22
-0.2
 13
-1.0
 23
-0.2
  0
ENDBLK
  5
208
100
AcDbEntity
  8
0
  6
BYBLOCK
 62
0
100
AcDbBlockEnd
  0
ENDSEC
  0
SECTION
  2
ENTITIES
  0
LINE
  5
209
100
AcDbEntity
  8
0
100
AcDbLine
 62
7
  6
CONTINUOUS
 10
12.2099834891
 20
4.261391804
 11
14.5849834891
 21
4.261391804
  0
LINE
  5
20A
100
AcDbEntity
  8
0
100
AcDbLine
 62
7
  6
CONTINUOUS
 10
14.5849834891
 20
4.636391804
 11
12.2099834891
 21
4.636391804
  0
LINE
  5
20B
100
AcDbEntity
  8
0
100
AcDbLine
 62
7
  6
CONTINUOUS
 10
6.8349834891
 20
10.259391804
 11
6.8349834891
 21
11.820891804
  0
LINE
  5
20C
100
AcDbEntity
  8
0
100
AcDbLine
 62
7
  6
CONTINUOUS
 10
14.0537334891
 20
5.744391804
 11
12.7412334891
 21
5.744391804
  0
LINE
  5
20D
100
AcDbEntity
  8
0
100
AcDbLine
 62
7
  6
CONTINUOUS
 10
13.0849840816
 20
5.764391804
 11
13.7099828967
 21
5.764391804
  0
LINE
  5
20E
100
AcDbEntity
  8
0
100
AcDbLine
 62
7
  6
CONTINUOUS
 10
7.7099834891
 20
10.259391804
 11
7.7099834891
 21
11.820891804
  0
LINE
  5
20F
100
AcDbEntity
  8
0
100
AcDbLine
 62
7
  6
CONTINUOUS
 10
14.0398571857
 20
5.823891804
 11
14.4994834891
 21
5.823891804
  0
LINE
  5
210
100
AcDbEntity
  8
0
100
AcDbLine
 62
7
  6
CONTINUOUS
 10
13.6351378433
 20
5.924391804
 11
13.60247798
 21
5.924391804
  0
LINE
  5
211
100
AcDbEntity
  8
0
100
AcDbLine
 62
7
  6
CONTINUOUS
 10
13.5984347663
 20
5.964391804
 11
13.6514677749
 21
5.964391804
  0
LINE
  5
212
100
AcDbEntity
  8
0
100
AcDbLine
 62
7
  6
CONTINUOUS
 10
13.60247798
 20
6.004391804
 11
13.6351378433
 21
6.004391804
  0
LINE
  5
213
100
AcDbEntity
  8
0
100
AcDbLine
 62
7
  6
CONTINUOUS
 10
14.0398571857
 20
6.198891804
 11
14.4994834891
 21
6.198891804
  0
LINE
  5
214
100
AcDbEntity
  8
0
100
AcDbLine
 62
9
  6
CONTINUOUS
 10
8.7724834891
 20
13.758391804
 11
8.7724834891
 21
12.883391804
  0
LINE
  5
215
100
AcDbEntity
  8
0
100
AcDbLine
 62
9
  6
CONTINUOUS
 10
14.0774834891
 20
7.416391804
 11
12.7174834891
 21
7.416391804
  0
LINE
  5
216
100
AcDbEntity
  8
0
100
AcDbLine
 62
7
  6
CONTINUOUS
 10
14.0474834891
 20
7.446391804
 11
12.7474847628
 21
7.446391804
  0
LINE
  5
217
100
AcDbEntity
  8
0
100
AcDbLine
 62
9
  6
CONTINUOUS
 10
11.8974834891
 20
12.883391804
 11
11.8974834891
 21
13.758391804
  0
LINE
  5
218
100
AcDbEntity
  8
0
100
AcDbLine
 62
7
  6
CONTINUOUS
 10
6.8349837314
 20
10.259391804
 11
7.7099832469
 21
10.259391804
  0
LINE
  5
219
100
AcDbEntity
  8
0
100
AcDbLine
 62
7
  6
CONTINUOUS
 10
12.2099834891
 20
4.636391804
 11
12.2099834891
 21
4.261391804
  0
LINE
  5
21A
100
AcDbEntity
  8
0
100
AcDbLine
 62
7
  6
CONTINUOUS
 10
13.5861480484
 20
5.964391804
 11
13.60247798
 21
5.924391804
  0
LINE
  5
21B
100
AcDbEntity
  8
0
100
AcDbLine
 62
7
  6
CONTINUOUS
 10
13.5922914074
 20
5.9794398988
 11
13.5984347663
 21
5.964391804
  0
LINE
  5
21C
100
AcDbEntity
  8
0
100
AcDbLine
 62
7
  6
CONTINUOUS
 10
13.6514677749
 20
5.964391804
 11
13.6351378433
 21
6.004391804
  0
LINE
  5
21D
100
AcDbEntity
  8
0
100
AcDbLine
 62
7
  6
CONTINUOUS
 10
12.7174834891
 20
7.416391804
 11
12.7174834891
 21
4.636391804
  0
LINE
  5
21E
100
AcDbEntity
  8
0
100
AcDbLine
 62
7
  6
CONTINUOUS
 10
12.7412334891
 20
5.744391804
 11
12.7412334891
 21
4.636391804
  0
LINE
  5
21F
100
AcDbEntity
  8
0
100
AcDbLine
 62
7
  6
CONTINUOUS
 10
7.7099832469
 20
11.069391804
 11
6.8349837314
 21
11.069391804
  0
LINE
  5
220
100
AcDbEntity
  8
0
100
AcDbLine
 62
7
  6
CONTINUOUS
 10
12.9599834891
 20
11.820891804
 11
12.9599834891
 21
7.446391804
  0
LINE
  5
221
100
AcDbEntity
  8
0
100
AcDbLine
 62
7
  6
CONTINUOUS
 10
13.0849834891
 20
6.7743855805
 11
13.0849834891
 21
5.764391804
  0
LINE
  5
222
100
AcDbEntity
  8
0
100
AcDbLine
 62
7
  6
CONTINUOUS
 10
13.2137343622
 20
5.744391804
 11
13.2137343622
 21
5.764391804
  0
LINE
  5
223
100
AcDbEntity
  8
0
100
AcDbLine
 62
7
  6
CONTINUOUS
 10
13.2195025679
 20
5.764391804
 11
13.2195025679
 21
5.744391804
  0
LINE
  5
224
100
AcDbEntity
  8
0
100
AcDbLine
 62
7
  6
CONTINUOUS
 10
13.2359402954
 20
5.744391804
 11
13.2359402954
 21
5.764391804
  0
LINE
  5
225
100
AcDbEntity
  8
0
100
AcDbLine
 62
7
  6
CONTINUOUS
 10
13.2523667555
 20
5.764391804
 11
13.2523667555
 21
5.744391804
  0
LINE
  5
226
100
AcDbEntity
  8
0
100
AcDbLine
 62
7
  6
CONTINUOUS
 10
13.2752678147
 20
5.744391804
 11
13.2752678147
 21
5.764391804
  0
LINE
  5
227
100
AcDbEntity
  8
0
100
AcDbLine
 62
7
  6
CONTINUOUS
 10
13.2827397154
 20
5.744391804
 11
13.2827397154
 21
5.764391804
  0
LINE
  5
228
100
AcDbEntity
  8
0
100
AcDbLine
 62
7
  6
CONTINUOUS
 10
13.3073236502
 20
5.764391804
 11
13.3073236502
 21
5.744391804
  0
LINE
  5
229
100
AcDbEntity
  8
0
100
AcDbLine
 62
7
  6
CONTINUOUS
 10
13.326133202
 20
5.744391804
 11
13.326133202
 21
5.764391804
  0
LINE
  5
22A
100
AcDbEntity
  8
0
100
AcDbLine
 62
7
  6
CONTINUOUS
 10
13.3439131996
 20
5.764391804
 11
13.3439131996
 21
5.744391804
  0
LINE
  5
22B
100
AcDbEntity
  8
0
100
AcDbLine
 62
7
  6
CONTINUOUS
 10
13.3470078349
 20
5.744391804
 11
13.3470078349
 21
5.764391804
  0
LINE
  5
22C
100
AcDbEntity
  8
0
100
AcDbLine
 62
7
  6
CONTINUOUS
 10
13.3760065632
 20
5.764391804
 11
13.3760065632
 21
5.744391804
  0
LINE
  5
22D
100
AcDbEntity
  8
0
100
AcDbLine
 62
7
  6
CONTINUOUS
 10
13.3878610238
 20
5.744391804
 11
13.3878610238
 21
5.764391804
  0
LINE
  5
22E
100
AcDbEntity
  8
0
100
AcDbLine
 62
9
  6
CONTINUOUS
 10
13.3974834658
 20
6.3718918036
 11
13.3974834658
 21
6.461891804
  0
LINE
  5
22F
100
AcDbEntity
  8
0
100
AcDbLine
 62
7
  6
CONTINUOUS
 10
13.4071059545
 20
5.764391804
 11
13.4071059545
 21
5.744391804
  0
LINE
  5
230
100
AcDbEntity
  8
0
100
AcDbLine
 62
7
  6
CONTINUOUS
 10
13.4189604151
 20
5.744391804
 11
13.4189604151
 21
5.764391804
  0
LINE
  5
231
100
AcDbEntity
  8
0
100
AcDbLine
 62
7
  6
CONTINUOUS
 10
13.4479591434
 20
5.764391804
 11
13.4479591434
 21
5.744391804
  0
LINE
  5
232
100
AcDbEntity
  8
0
100
AcDbLine
 62
7
  6
CONTINUOUS
 10
13.4510537786
 20
5.744391804
 11
13.4510537786
 21
5.764391804
  0
LINE
  5
233
100
AcDbEntity
  8
0
100
AcDbLine
 62
7
  6
CONTINUOUS
 10
13.4688337762
 20
5.764391804
 11
13.4688337762
 21
5.744391804
  0
LINE
  5
234
100
AcDbEntity
  8
0
100
AcDbLine
 62
7
  6
CONTINUOUS
 10
13.487643328
 20
5.744391804
 11
13.487643328
 21
5.764391804
  0
LINE
  5
235
100
AcDbEntity
  8
0
100
AcDbLine
 62
7
  6
CONTINUOUS
 10
13.5122272629
 20
5.764391804
 11
13.5122272629
 21
5.744391804
  0
LINE
  5
236
100
AcDbEntity
  8
0
100
AcDbLine
 62
7
  6
CONTINUOUS
 10
13.5196991635
 20
5.764391804
 11
13.5196991635
 21
5.744391804
  0
LINE
  5
237
100
AcDbEntity
  8
0
100
AcDbLine
 62
7
  6
CONTINUOUS
 10
13.5426002228
 20
5.744391804
 11
13.5426002228
 21
5.764391804
  0
LINE
  5
238
100
AcDbEntity
  8
0
100
AcDbLine
 62
7
  6
CONTINUOUS
 10
13.5590266829
 20
5.764391804
 11
13.5590266829
 21
5.744391804
  0
LINE
  5
239
100
AcDbEntity
  8
0
100
AcDbLine
 62
7
  6
CONTINUOUS
 10
13.5754644104
 20
5.744391804
 11
13.5754644104
 21
5.764391804
  0
LINE
  5
23A
100
AcDbEntity
  8
0
100
AcDbLine
 62
7
  6
CONTINUOUS
 10
13.5812326161
 20
5.764391804
 11
13.5812326161
 21
5.744391804
  0
LINE
  5
23B
100
AcDbEntity
  8
0
100
AcDbLine
 62
9
  6
CONTINUOUS
 10
13.8349834891
 20
11.820891804
 11
12.9599834891
 21
11.820891804
  0
LINE
  5
23C
100
AcDbEntity
  8
0
100
AcDbLine
 62
9
  6
CONTINUOUS
 10
7.7099834891
 20
11.820891804
 11
6.8349834891
 21
11.820891804
  0
LINE
  5
23D
100
AcDbEntity
  8
0
100
AcDbLine
 62
7
  6
CONTINUOUS
 10
13.7099834891
 20
6.7743855626
 11
13.7099834891
 21
5.764391804
  0
LINE
  5
23E
100
AcDbEntity
  8
0
100
AcDbLine
 62
7
  6
CONTINUOUS
 10
13.8349834891
 20
11.820891804
 11
13.8349834891
 21
7.446391804
  0
LINE
  5
23F
100
AcDbEntity
  8
0
100
AcDbLine
 62
7
  6
CONTINUOUS
 10
14.0398571857
 20
6.6878917772
 11
14.0398571857
 21
5.744391804
  0
LINE
  5
240
100
AcDbEntity
  8
0
100
AcDbLine
 62
7
  6
CONTINUOUS
 10
14.0537334891
 20
5.744391804
 11
14.0537334891
 21
4.636391804
  0
LINE
  5
241
100
AcDbEntity
  8
0
100
AcDbLine
 62
7
  6
CONTINUOUS
 10
14.0774834891
 20
7.416391804
 11
14.0774834891
 21
6.9043930847
  0
LINE
  5
242
100
AcDbEntity
  8
0
100
AcDbLine
 62
7
  6
CONTINUOUS
 10
14.0774834891
 20
4.7243905237
 11
14.0774834891
 21
4.636391804
  0
LINE
  5
243
100
AcDbEntity
  8
0
100
AcDbLine
 62
7
  6
CONTINUOUS
 10
14.4994834891
 20
5.823891804
 11
14.4994834891
 21
6.198891804
  0
LINE
  5
244
100
AcDbEntity
  8
0
100
AcDbLine
 62
7
  6
CONTINUOUS
 10
14.5849834891
 20
4.636391804
 11
14.5849834891
 21
4.261391804
  0
LINE
  5
245
100
AcDbEntity
  8
0
100
AcDbLine
 62
7
  6
CONTINUOUS
 10
13.60247798
 20
6.004391804
 11
13.5861480484
 21
5.964391804
  0
LINE
  5
246
100
AcDbEntity
  8
0
100
AcDbLine
 62
7
  6
CONTINUOUS
 10
13.5984347663
 20
5.964391804
 11
13.5922914074
 21
5.9493437093
  0
LINE
  5
247
100
AcDbEntity
  8
0
100
AcDbLine
 62
7
  6
CONTINUOUS
 10
13.6351378433
 20
5.924391804
 11
13.6514677749
 21
5.964391804
  0
LINE
  5
248
100
AcDbEntity
  8
0
100
AcDbLine
 62
7
  6
CONTINUOUS
 10
8.7724834891
 20
12.883391804
 11
11.8974834891
 21
12.883391804
  0
LINE
  5
249
100
AcDbEntity
  8
0
100
AcDbLine
 62
7
  6
CONTINUOUS
 10
8.7724834891
 20
13.758391804
 11
11.8974834891
 21
13.758391804
  0
ARC
  5
24A
100
AcDbEntity
  8
0
100
AcDbCircle
 62
7
  6
CONTINUOUS
 10
11.8974834891
 20
11.820891804
 40
1.9375
100
AcDbArc
 50
0.0
 51
90.0
  0
ARC
  5
24B
100
AcDbEntity
  8
0
100
AcDbCircle
 62
7
  6
CONTINUOUS
 10
8.7724834891
 20
11.820891804
 40
1.9375
100
AcDbArc
 50
90.0
 51
180.0
  0
ARC
  5
24C
100
AcDbEntity
  8
0
100
AcDbCircle
 62
7
  6
CONTINUOUS
 10
11.8974834891
 20
11.820891804
 40
1.0625
100
AcDbArc
 50
0.0
 51
90.0
  0
ARC
  5
24D
100
AcDbEntity
  8
0
100
AcDbCircle
 62
7
  6
CONTINUOUS
 10
8.7724834891
 20
11.820891804
 40
1.0625
100
AcDbArc
 50
90.0
 51
180.0
  0
CIRCLE
  5
24E
100
AcDbEntity
  8
0
100
AcDbCircle
 62
7
  6
CONTINUOUS
 10
13.3974834891
 20
6.774391804
 40
0.3125
  0
CIRCLE
  5
24F
100
AcDbEntity
  8
0
100
AcDbCircle
 62
7
  6
CONTINUOUS
 10
13.3974834891
 20
6.774391804
 40
0.2925
  0
ARC
  5
250
100
AcDbEntity
  8
0
100
AcDbCircle
 62
7
  6
CONTINUOUS
 10
13.6263995664
 20
5.9144475292
 40
0.1175947966
100
AcDbArc
 50
116.995682395
 51
118.6480844033
  0
ARC
  5
251
100
AcDbEntity
  8
0
100
AcDbCircle
 62
7
  6
CONTINUOUS
 10
13.6162072615
 20
5.9345917524
 40
0.0950189682
100
AcDbArc
 50
116.2278084126
 51
117.0331732865
  0
ARC
  5
252
100
AcDbEntity
  8
0
100
AcDbCircle
 62
7
  6
CONTINUOUS
 10
13.572135562
 20
5.9644666239
 40
0.0905122167
100
AcDbArc
 50
359.9526381782
 51
10.5568341438
  0
ARC
  5
253
100
AcDbEntity
  8
0
100
AcDbCircle
 62
7
  6
CONTINUOUS
 10
13.6464393987
 20
5.9597696906
 40
0.0869007276
100
AcDbArc
 50
211.3510094563
 51
213.4996285521
  0
ARC
  5
254
100
AcDbEntity
  8
0
100
AcDbCircle
 62
7
  6
CONTINUOUS
 10
13.6462852796
 20
5.9734605631
 40
0.0856979445
100
AcDbArc
 50
141.2344146119
 51
147.2444491451
  0
ARC
  5
255
100
AcDbEntity
  8
0
100
AcDbCircle
 62
7
  6
CONTINUOUS
 10
13.6383423571
 20
5.9611002054
 40
0.0846411687
100
AcDbArc
 50
208.7882673957
 51
215.1140354115
  0
ARC
  5
256
100
AcDbEntity
  8
0
100
AcDbCircle
 62
7
  6
CONTINUOUS
 10
13.57880304
 20
5.9657368823
 40
0.0837249617
100
AcDbArc
 50
10.538217656
 51
18.9223700648
  0
ARC
  5
257
100
AcDbEntity
  8
0
100
AcDbCircle
 62
7
  6
CONTINUOUS
 10
13.5831310167
 20
5.9657690899
 40
0.0793899907
100
AcDbArc
 50
11.0872357628
 51
19.160555541
  0
ARC
  5
258
100
AcDbEntity
  8
0
100
AcDbCircle
 62
7
  6
CONTINUOUS
 10
13.6399735882
 20
5.9786270929
 40
0.0775417187
100
AcDbArc
 50
135.5023196917
 51
141.2908977637
  0
ARC
  5
259
100
AcDbEntity
  8
0
100
AcDbCircle
 62
7
  6
CONTINUOUS
 10
13.63112797
 20
5.9630144143
 40
0.0735039634
100
AcDbArc
 50
206.7292372885
 51
212.4364097883
  0
ARC
  5
25A
100
AcDbEntity
  8
0
100
AcDbCircle
 62
7
  6
CONTINUOUS
 10
13.6353083356
 20
5.9505813405
 40
0.0724297985
100
AcDbArc
 50
225.9294050203
 51
227.1741120744
  0
ARC
  5
25B
100
AcDbEntity
  8
0
100
AcDbCircle
 62
7
  6
CONTINUOUS
 10
13.6335125908
 20
5.9799649761
 40
0.0722246117
100
AcDbArc
 50
146.9810418581
 51
152.6197997772
  0
ARC
  5
25C
100
AcDbEntity
  8
0
100
AcDbCircle
 62
7
  6
CONTINUOUS
 10
13.6347812405
 20
5.9500147093
 40
0.0716559134
100
AcDbArc
 50
227.1752340047
 51
227.7989478755
  0
ARC
  5
25D
100
AcDbEntity
  8
0
100
AcDbCircle
 62
7
  6
CONTINUOUS
 10
13.5874727603
 20
5.9800018135
 40
0.0714960139
100
AcDbArc
 50
28.0570857346
 51
29.7933429938
  0
ARC
  5
25E
100
AcDbEntity
  8
0
100
AcDbCircle
 62
7
  6
CONTINUOUS
 10
13.6302552103
 20
5.9575797452
 40
0.0677230775
100
AcDbArc
 50
215.1780835807
 51
216.6763477178
  0
ARC
  5
25F
100
AcDbEntity
  8
0
100
AcDbCircle
 62
7
  6
CONTINUOUS
 10
13.625869416
 20
5.9597711747
 40
0.0673263078
100
AcDbArc
 50
212.5072502109
 51
215.3311340687
  0
ARC
  5
260
100
AcDbEntity
  8
0
100
AcDbCircle
 62
7
  6
CONTINUOUS
 10
13.6016976471
 20
5.9545324125
 40
0.0589012435
100
AcDbArc
 50
326.577096819
 51
326.7294178432
  0
ARC
  5
261
100
AcDbEntity
  8
0
100
AcDbCircle
 62
7
  6
CONTINUOUS
 10
13.6007159524
 20
5.9898950493
 40
0.0549177517
100
AcDbArc
 50
43.5002395548
 51
45.0441230362
  0
ARC
  5
262
100
AcDbEntity
  8
0
100
AcDbCircle
 62
7
  6
CONTINUOUS
 10
13.6236174221
 20
5.929660277
 40
0.051197646
100
AcDbArc
 50
239.3281274428
 51
244.5245167252
  0
ARC
  5
263
100
AcDbEntity
  8
0
100
AcDbCircle
 62
7
  6
CONTINUOUS
 10
13.6168050463
 20
5.9441320199
 40
0.048614012
100
AcDbArc
 50
234.1836194937
 51
236.9058414842
  0
ARC
  5
264
100
AcDbEntity
  8
0
100
AcDbCircle
 62
7
  6
CONTINUOUS
 10
13.6124906629
 20
5.9346452903
 40
0.0381209578
100
AcDbArc
 50
260.085708602
 51
260.3574382953
  0
ARC
  5
265
100
AcDbEntity
  8
0
100
AcDbCircle
 62
7
  6
CONTINUOUS
 10
13.6124570717
 20
5.9344417839
 40
0.0379147
100
AcDbArc
 50
260.3559711138
 51
261.8669201529
  0
ARC
  5
266
100
AcDbEntity
  8
0
100
AcDbCircle
 62
7
  6
CONTINUOUS
 10
13.6187354754
 20
6.0127162873
 40
0.0366916859
100
AcDbArc
 50
97.6574918734
 51
102.4583568045
  0
ARC
  5
267
100
AcDbEntity
  8
0
100
AcDbCircle
 62
7
  6
CONTINUOUS
 10
12.7474834891
 20
7.416391804
 40
0.03
100
AcDbArc
 50
90.0
 51
180.0
  0
ARC
  5
268
100
AcDbEntity
  8
0
100
AcDbCircle
 62
7
  6
CONTINUOUS
 10
14.0474834891
 20
7.416391804
 40
0.03
100
AcDbArc
 50
0.0
 51
90.0
  0
SPLINE
  5
269
100
AcDbEntity
  8
0
100
AcDbSpline
 62
7
  6
CONTINUOUS
 70
0
 71
3
 72
23
 73
19
 74
0
 42
0.0000001
 43
0.0000001
 44
0.0000000001
 40
0.0
 40
0.0
 40
0.0
 40
0.0
 40
0.0708320937
 40
0.1404170028
 40
0.2086685457
 40
0.2755672623
 40
0.3411349444
 40
0.4054096185
 40
0.4684449416
 40
0.5303178711
 40
0.5911346494
 40
0.651020699
 40
0.7101238371
 40
0.7686065322
 40
0.8266466872
 40
0.8844310372
 40
0.9421515159
 40
1.0
 40
1.0
 40
1.0
 40
1.0
 10
13.6513681149
 20
5.921703921
 30
0.0
 10
13.6507138433
 20
5.9206137645
 30
0.0
 10
13.6493564297
 20
5.9184881627
 30
0.0
 10
13.647160472
 20
5.9154513093
 30
0.0
 10
13.6448305855
 20
5.9126063124
 30
0.0
 10
13.642376799
 20
5.9099649313
 30
0.0
 10
13.6398086693
 20
5.9075371427
 30
0.0
 10
13.6371361126
 20
5.9053320278
 30
0.0
 10
13.6343696933
 20
5.9033576978
 30
0.0
 10
13.6315198333
 20
5.9016220953
 30
0.0
 10
13.6285979259
 20
5.9001309812
 30
0.0
 10
13.6256148281
 20
5.898890298
 30
0.0
 10
13.6225822181
 20
5.8979037857
 30
0.0
 10
13.6195114726
 20
5.8971751485
 30
0.0
 10
13.6164143593
 20
5.8967064524
 30
0.0
 10
13.6133024845
 20
5.8964988274
 30
0.0
 10
13.6101878292
 20
5.8965527071
 30
0.0
 10
13.6081210986
 20
5.8967615325
 30
0.0
 10
13.6070931728
 20
5.8969084245
 30
0.0
  0
SPLINE
  5
26A
100
AcDbEntity
  8
0
100
AcDbSpline
 62
7
  6
CONTINUOUS
 70
0
 71
3
 72
12
 73
8
 74
0
 42
0.0000001
 43
0.0000001
 44
0.0000000001
 40
0.0
 40
0.0
 40
0.0
 40
0.0
 40
0.243913477
 40
0.3670962349
 40
0.4912599741
 40
0.7429612561
 40
1.0
 40
1.0
 40
1.0
 40
1.0
 10
13.6059271941
 20
5.8970936152
 30
0.0
 10
13.6045656642
 20
5.8973315894
 30
0.0
 10
13.6025339723
 20
5.8978018229
 30
0.0
 10
13.5998788551
 20
5.898641231
 30
0.0
 10
13.5972291077
 20
5.899632575
 30
0.0
 10
13.5939702431
 20
5.9011448007
 30
0.0
 10
13.5914813107
 20
5.9026092419
 30
0.0
 10
13.5902609912
 20
5.9034044457
 30
0.0
  0
SPLINE
  5
26B
100
AcDbEntity
  8
0
100
AcDbSpline
 62
7
  6
CONTINUOUS
 70
0
 71
3
 72
11
 73
7
 74
0
 42
0.0000001
 43
0.0000001
 44
0.0000000001
 40
0.0
 40
0.0
 40
0.0
 40
0.0
 40
0.2413289279
 40
0.4883550229
 40
0.7412398208
 40
1.0
 40
1.0
 40
1.0
 40
1.0
 10
13.5883566355
 20
5.9047110852
 30
0.0
 10
13.5872067453
 20
5.905540508
 30
0.0
 10
13.5849507306
 20
5.9073193603
 30
0.0
 10
13.5817555117
 20
5.9102844451
 30
0.0
 10
13.5787260074
 20
5.9135592649
 30
0.0
 10
13.5768478463
 20
5.9159099243
 30
0.0
 10
13.5759397932
 20
5.9171291495
 30
0.0
  0
SPLINE
  5
26C
100
AcDbEntity
  8
0
100
AcDbSpline
 62
7
  6
CONTINUOUS
 70
0
 71
3
 72
16
 73
12
 74
0
 42
0.0000001
 43
0.0000001
 44
0.0000000001
 40
0.0
 40
0.0
 40
0.0
 40
0.0
 40
0.2375196741
 40
0.2986508486
 40
0.360387235
 40
0.4854809657
 40
0.6124259423
 40
0.7407984968
 40
0.8053981338
 40
0.8701882693
 40
1.0
 40
1.0
 40
1.0
 40
1.0
 10
13.5749007146
 20
5.9185631458
 30
0.0
 10
13.5726724037
 20
5.9217239876
 30
0.0
 10
13.5701995873
 20
5.9259427114
 30
0.0
 10
13.5677013724
 20
5.931251915
 30
0.0
 10
13.5661143585
 20
5.93496535
 30
0.0
 10
13.5643569699
 20
5.9397671347
 30
0.0
 10
13.5626235032
 20
5.9457180711
 30
0.0
 10
13.561495351
 20
5.9508074002
 30
0.0
 10
13.5607835142
 20
5.9549441511
 30
0.0
 10
13.5601996546
 20
5.9591244471
 30
0.0
 10
13.5599079311
 20
5.9622821875
 30
0.0
 10
13.5597779508
 20
5.964391804
 30
0.0
  0
SPLINE
  5
26D
100
AcDbEntity
  8
0
100
AcDbSpline
 62
7
  6
CONTINUOUS
 70
0
 71
3
 72
15
 73
11
 74
0
 42
0.0000001
 43
0.0000001
 44
0.0000000001
 40
0.0
 40
0.0
 40
0.0
 40
0.0
 40
0.1169038796
 40
0.2369077199
 40
0.3596048191
 40
0.4846862581
 40
0.6117370564
 40
0.7402959152
 40
0.8699143318
 40
1.0
 40
1.0
 40
1.0
 40
1.0
 10
13.6513681149
 20
5.921703921
 30
0.0
 10
13.6522798754
 20
5.9231877511
 30
0.0
 10
13.6540049429
 20
5.9262716865
 30
0.0
 10
13.6562593115
 20
5.9311365532
 30
0.0
 10
13.6581978486
 20
5.9362661897
 30
0.0
 10
13.6598047216
 20
5.9416185075
 30
0.0
 10
13.6610682247
 20
5.9471515354
 30
0.0
 10
13.661977864
 20
5.9528220136
 30
0.0
 10
13.6625261892
 20
5.9585838235
 30
0.0
 10
13.6626485321
 20
5.9624538612
 30
0.0
 10
13.6626485321
 20
5.964391804
 30
0.0
  0
SPLINE
  5
26E
100
AcDbEntity
  8
0
100
AcDbSpline
 62
7
  6
CONTINUOUS
 70
0
 71
3
 72
11
 73
7
 74
0
 42
0.0000001
 43
0.0000001
 44
0.0000000001
 40
0.0
 40
0.0
 40
0.0
 40
0.0
 40
0.2607350568
 40
0.5147497266
 40
0.7613764116
 40
1.0
 40
1.0
 40
1.0
 40
1.0
 10
13.658003406
 20
5.9928877801
 30
0.0
 10
13.6573365431
 20
5.9948244184
 30
0.0
 10
13.6558711266
 20
5.9985986688
 30
0.0
 10
13.6532524247
 20
6.0039837522
 30
0.0
 10
13.6502646389
 20
6.0089722138
 30
0.0
 10
13.6480079145
 20
6.0120529911
 30
0.0
 10
13.6468253118
 20
6.0135074123
 30
0.0
  0
SPLINE
  5
26F
100
AcDbEntity
  8
0
100
AcDbSpline
 62
7
  6
CONTINUOUS
 70
0
 71
3
 72
13
 73
9
 74
0
 42
0.0000001
 43
0.0000001
 44
0.0000000001
 40
0.0
 40
0.0
 40
0.0
 40
0.0
 40
0.1276198559
 40
0.2550547503
 40
0.3819593808
 40
0.5080706364
 40
0.7569599251
 40
1.0
 40
1.0
 40
1.0
 40
1.0
 10
13.5597779508
 20
5.964391804
 30
0.0
 10
13.5596824927
 20
5.9659411159
 30
0.0
 10
13.5595628283
 20
5.9690423355
 30
0.0
 10
13.5595940961
 20
5.9736895124
 30
0.0
 10
13.5598342775
 20
5.9783123978
 30
0.0
 10
13.5604272535
 20
5.9843900105
 30
0.0
 10
13.5616684376
 20
5.9918153227
 30
0.0
 10
13.5632081208
 20
5.9976083461
 30
0.0
 10
13.5641091716
 20
6.0004237894
 30
0.0
  0
SPLINE
  5
270
100
AcDbEntity
  8
0
100
AcDbSpline
 62
7
  6
CONTINUOUS
 70
0
 71
3
 72
10
 73
6
 74
0
 42
0.0000001
 43
0.0000001
 44
0.0000000001
 40
0.0
 40
0.0
 40
0.0
 40
0.0
 40
0.2554510391
 40
0.6319895058
 40
1.0
 40
1.0
 40
1.0
 40
1.0
 10
13.5641091716
 20
6.0004237894
 30
0.0
 10
13.564467779
 20
6.0015443021
 30
0.0
 10
13.5654102519
 20
6.0042990699
 30
0.0
 10
13.5671229845
 20
6.0085774901
 30
0.0
 10
13.568598902
 20
6.0116758571
 30
0.0
 10
13.5693789872
 20
6.0131805661
 30
0.0
  0
SPLINE
  5
271
100
AcDbEntity
  8
0
100
AcDbSpline
 62
7
  6
CONTINUOUS
 70
0
 71
3
 72
15
 73
11
 74
0
 42
0.0000001
 43
0.0000001
 44
0.0000000001
 40
0.0
 40
0.0
 40
0.0
 40
0.0
 40
0.1305455825
 40
0.2605799214
 40
0.3894517752
 40
0.5166693719
 40
0.6417456374
 40
0.7642290165
 40
0.8837456999
 40
1.0
 40
1.0
 40
1.0
 40
1.0
 10
13.6626485321
 20
5.964391804
 30
0.0
 10
13.6626485321
 20
5.9624615115
 30
0.0
 10
13.6625211102
 20
5.9586072741
 30
0.0
 10
13.6619502195
 20
5.9528729957
 30
0.0
 10
13.6610035538
 20
5.9472381608
 30
0.0
 10
13.6596896612
 20
5.9417527349
 30
0.0
 10
13.6580202233
 20
5.9364635933
 30
0.0
 10
13.656008903
 20
5.9314167004
 30
0.0
 10
13.6536734623
 20
5.9266562883
 30
0.0
 10
13.6518873576
 20
5.9236567839
 30
0.0
 10
13.6509443371
 20
5.9222195667
 30
0.0
  0
SPLINE
  5
272
100
AcDbEntity
  8
0
100
AcDbSpline
 62
7
  6
CONTINUOUS
 70
0
 71
3
 72
15
 73
11
 74
0
 42
0.0000001
 43
0.0000001
 44
0.0000000001
 40
0.0
 40
0.0
 40
0.0
 40
0.0
 40
0.1350859435
 40
0.2671886894
 40
0.3962880531
 40
0.5224226212
 40
0.6456818068
 40
0.7662157812
 40
0.8842332995
 40
1.0
 40
1.0
 40
1.0
 40
1.0
 10
13.6508582594
 20
5.9220887585
 30
0.0
 10
13.6502093735
 20
5.9211055282
 30
0.0
 10
13.6488671422
 20
5.919198741
 30
0.0
 10
13.6467018596
 20
5.9165022791
 30
0.0
 10
13.644415193
 20
5.9140125509
 30
0.0
 10
13.6420173488
 20
5.9117402226
 30
0.0
 10
13.6395183587
 20
5.9096953419
 30
0.0
 10
13.6369288402
 20
5.9078869164
 30
0.0
 10
13.6342603218
 20
5.9063228059
 30
0.0
 10
13.6324194209
 20
5.905439967
 30
0.0
 10
13.6314910941
 20
5.9050431807
 30
0.0
  0
SPLINE
  5
273
100
AcDbEntity
  8
0
100
AcDbSpline
 62
7
  6
CONTINUOUS
 70
0
 71
3
 72
32
 73
28
 74
0
 42
0.0000001
 43
0.0000001
 44
0.0000000001
 40
0.0
 40
0.0
 40
0.0
 40
0.0
 40
0.0272800772
 40
0.0542207944
 40
0.0808994773
 40
0.1073986886
 40
0.1338054246
 40
0.1602087855
 40
0.1866979123
 40
0.2133600795
 40
0.2402781979
 40
0.2675301036
 40
0.2951855205
 40
0.3233065193
 40
0.38111205
 40
0.4109070967
 40
0.4413197575
 40
0.5040186888
 40
0.5692431822
 40
0.6368676703
 40
0.6715199722
 40
0.7066759309
 40
0.7783043097
 40
0.8513666801
 40
0.9254323815
 40
0.9626965343
 40
1.0
 40
1.0
 40
1.0
 40
1.0
 10
13.6314910941
 20
5.9050431807
 30
0.0
 10
13.6306820613
 20
5.9046973831
 30
0.0
 10
13.6290473908
 20
5.9040704422
 30
0.0
 10
13.6265430987
 20
5.9033289054
 30
0.0
 10
13.62401201
 20
5.902794875
 30
0.0
 10
13.6214629579
 20
5.9024703863
 30
0.0
 10
13.6189046947
 20
5.9023569713
 30
0.0
 10
13.6163461023
 20
5.9024544299
 30
0.0
 10
13.6137960341
 20
5.9027629911
 30
0.0
 10
13.6112633155
 20
5.9032812396
 30
0.0
 10
13.6087565782
 20
5.9040071898
 30
0.0
 10
13.6062846319
 20
5.9049386946
 30
0.0
 10
13.6038555387
 20
5.9060719695
 30
0.0
 10
13.6006569301
 20
5.9078629318
 30
0.0
 10
13.5976043174
 20
5.9100346371
 30
0.0
 10
13.5947325718
 20
5.9125354122
 30
0.0
 10
13.5919118366
 20
5.9153239394
 30
0.0
 10
13.5886173943
 20
5.9192425289
 30
0.0
 10
13.5851166421
 20
5.9245023801
 30
0.0
 10
13.5825999527
 20
5.9292936655
 30
0.0
 10
13.5808263924
 20
5.9333573051
 30
0.0
 10
13.5791996404
 20
5.9376205803
 30
0.0
 10
13.5775083782
 20
5.9431778341
 30
0.0
 10
13.5760481654
 20
5.9500887454
 30
0.0
 10
13.5753130035
 20
5.9559978247
 30
0.0
 10
13.5750169573
 20
5.9607834081
 30
0.0
 10
13.5749672912
 20
5.9631886952
 30
0.0
 10
13.5749672912
 20
5.964391804
 30
0.0
  0
SPLINE
  5
274
100
AcDbEntity
  8
0
100
AcDbSpline
 62
7
  6
CONTINUOUS
 70
0
 71
3
 72
44
 73
40
 74
0
 42
0.0000001
 43
0.0000001
 44
0.0000000001
 40
0.0
 40
0.0
 40
0.0
 40
0.0
 40
0.0372288376
 40
0.0743467555
 40
0.1111956841
 40
0.1476597164
 40
0.1836278213
 40
0.2189897926
 40
0.2536501329
 40
0.2875283762
 40
0.3205612623
 40
0.352703755
 40
0.3684370238
 40
0.3839414192
 40
0.3992182412
 40
0.4142705756
 40
0.4437129071
 40
0.4723345589
 40
0.500222704
 40
0.5274936861
 40
0.5542888479
 40
0.5807714779
 40
0.607119173
 40
0.6203057179
 40
0.6335275928
 40
0.6468073913
 40
0.6601668549
 40
0.6736269162
 40
0.6872074883
 40
0.7147916068
 40
0.7430585134
 40
0.7721087751
 40
0.8020149112
 40
0.8328192763
 40
0.8645377126
 40
0.8971592294
 40
0.9306499014
 40
0.9649544356
 40
1.0
 40
1.0
 40
1.0
 40
1.0
 10
13.5749672912
 20
5.964391804
 30
0.0
 10
13.5749672912
 20
5.9661230315
 30
0.0
 10
13.575069904
 20
5.9695811986
 30
0.0
 10
13.5755294896
 20
5.9747345225
 30
0.0
 10
13.5762926662
 20
5.979816008
 30
0.0
 10
13.5773535208
 20
5.984789161
 30
0.0
 10
13.5787046482
 20
5.9896198154
 30
0.0
 10
13.5803369542
 20
5.9942742359
 30
0.0
 10
13.5822388489
 20
5.9987198714
 30
0.0
 10
13.5843976489
 20
6.002925545
 30
0.0
 10
13.5867977552
 20
6.0068619952
 30
0.0
 10
13.589001698
 20
6.0099167693
 30
0.0
 10
13.5908708513
 20
6.0121965238
 30
0.0
 10
13.5923121027
 20
6.0138103451
 30
0.0
 10
13.5938000633
 20
6.0153373678
 30
0.0
 10
13.5958273467
 20
6.0172399791
 30
0.0
 10
13.5984646212
 20
6.0193946834
 30
0.0
 10
13.6017972072
 20
6.0216133592
 30
0.0
 10
13.6052520497
 20
6.0234299258
 30
0.0
 10
13.6088045218
 20
6.0248312005
 30
0.0
 10
13.612429818
 20
6.025805738
 30
0.0
 10
13.6161012861
 20
6.0263467691
 30
0.0
 10
13.6191779201
 20
6.0264318715
 30
0.0
 10
13.6216277708
 20
6.0262816143
 30
0.0
 10
13.6234611174
 20
6.0260598002
 30
0.0
 10
13.6252861293
 20
6.0257294155
 30
0.0
 10
13.6270996783
 20
6.0252912186
 30
0.0
 10
13.6288985733
 20
6.0247458376
 30
0.0
 10
13.6312851161
 20
6.0238725695
 30
0.0
 10
13.6342207505
 20
6.0225118237
 30
0.0
 10
13.6376130404
 20
6.0204787135
 30
0.0
 10
13.640871349
 20
6.0180522221
 30
0.0
 10
13.6439723709
 20
6.0152494222
 30
0.0
 10
13.646895385
 20
6.0120908787
 30
0.0
 10
13.6496199097
 20
6.0085985743
 30
0.0
 10
13.6521275124
 20
6.0047973192
 30
0.0
 10
13.6544009122
 20
6.0007136479
 30
0.0
 10
13.656424264
 20
5.9963763295
 30
0.0
 10
13.6575861274
 20
5.9933649176
 30
0.0
 10
13.6581230043
 20
5.991826189
 30
0.0
  0
SPLINE
  5
275
100
AcDbEntity
  8
0
100
AcDbSpline
 62
7
  6
CONTINUOUS
 70
0
 71
3
 72
10
 73
6
 74
0
 42
0.0000001
 43
0.0000001
 44
0.0000000001
 40
0.0
 40
0.0
 40
0.0
 40
0.0
 40
0.2480031519
 40
0.6230956118
 40
1.0
 40
1.0
 40
1.0
 40
1.0
 10
13.6610392352
 20
5.9810360512
 30
0.0
 10
13.6613068686
 20
5.9796779004
 30
0.0
 10
13.6618940682
 20
5.9762483485
 30
0.0
 10
13.66249732
 20
5.9706944708
 30
0.0
 10
13.6626485321
 20
5.9664955562
 30
0.0
 10
13.6626485321
 20
5.964391804
 30
0.0
  0
SPLINE
  5
276
100
AcDbEntity
  8
0
100
AcDbSpline
 62
7
  6
CONTINUOUS
 70
0
 71
3
 72
14
 73
10
 74
0
 42
0.0000001
 43
0.0000001
 44
0.0000000001
 40
0.0
 40
0.0
 40
0.0
 40
0.0
 40
0.1131764361
 40
0.2298521114
 40
0.4734086377
 40
0.600265605
 40
0.7303898054
 40
0.863679273
 40
1.0
 40
1.0
 40
1.0
 40
1.0
 10
13.6468253118
 20
6.0135074123
 30
0.0
 10
13.6473901563
 20
6.0129077643
 30
0.0
 10
13.6484977445
 20
6.0116520478
 30
0.0
 10
13.6506182552
 20
6.0089339823
 30
0.0
 10
13.6525545728
 20
6.0059541578
 30
0.0
 10
13.6543060029
 20
6.0027584229
 30
0.0
 10
13.6555504255
 20
6.000203491
 30
0.0
 10
13.6567037431
 20
5.9975312761
 30
0.0
 10
13.6574023557
 20
5.9956966415
 30
0.0
 10
13.6577362009
 20
5.9947622384
 30
0.0
  0
SPLINE
  5
277
100
AcDbEntity
  8
0
100
AcDbSpline
 62
7
  6
CONTINUOUS
 70
0
 71
3
 72
9
 73
5
 74
0
 42
0.0000001
 43
0.0000001
 44
0.0000000001
 40
0.0
 40
0.0
 40
0.0
 40
0.0
 40
0.4901399991
 40
1.0
 40
1.0
 40
1.0
 40
1.0
 10
13.6577362009
 20
5.9947622384
 30
0.0
 10
13.6585123466
 20
5.9925898751
 30
0.0
 10
13.6598834078
 20
5.9880798388
 30
0.0
 10
13.6608612655
 20
5.9834699667
 30
0.0
 10
13.6612660449
 20
5.9811046883
 30
0.0
  0
SPLINE
  5
278
100
AcDbEntity
  8
0
100
AcDbSpline
 62
7
  6
CONTINUOUS
 70
0
 71
3
 72
10
 73
6
 74
0
 42
0.0000001
 43
0.0000001
 44
0.0000000001
 40
0.0
 40
0.0
 40
0.0
 40
0.0
 40
0.4932134522
 40
0.7452090414
 40
1.0
 40
1.0
 40
1.0
 40
1.0
 10
13.6612660449
 20
5.9811046883
 30
0.0
 10
13.6617315757
 20
5.9783844161
 30
0.0
 10
13.6622485103
 20
5.9742397033
 30
0.0
 10
13.6625913311
 20
5.9686537403
 30
0.0
 10
13.6626485321
 20
5.9658175091
 30
0.0
 10
13.6626485321
 20
5.964391804
 30
0.0
  0
SPLINE
  5
279
100
AcDbEntity
  8
0
100
AcDbSpline
 62
7
  6
CONTINUOUS
 70
0
 71
3
 72
9
 73
5
 74
0
 42
0.0000001
 43
0.0000001
 44
0.0000000001
 40
0.0
 40
0.0
 40
0.0
 40
0.0
 40
0.253953779
 40
1.0
 40
1.0
 40
1.0
 40
1.0
 10
13.5709430342
 20
5.9208363021
 30
0.0
 10
13.5713650104
 20
5.9202414661
 30
0.0
 10
13.5730658782
 20
5.917927338
 30
0.0
 10
13.5749243606
 20
5.9157283775
 30
0.0
 10
13.576395185
 20
5.9141704818
 30
0.0
  0
SPLINE
  5
27A
100
AcDbEntity
  8
0
100
AcDbSpline
 62
7
  6
CONTINUOUS
 70
0
 71
3
 72
11
 73
7
 74
0
 42
0.0000001
 43
0.0000001
 44
0.0000000001
 40
0.0
 40
0.0
 40
0.0
 40
0.0
 40
0.2579979416
 40
0.5105314107
 40
0.7577655581
 40
1.0
 40
1.0
 40
1.0
 40
1.0
 10
13.576395185
 20
5.9141704818
 30
0.0
 10
13.5773502305
 20
5.9131588986
 30
0.0
 10
13.5793124696
 20
5.9112238915
 30
0.0
 10
13.5824326723
 20
5.9085795514
 30
0.0
 10
13.5856830788
 20
5.9062392964
 30
0.0
 10
13.5879491474
 20
5.9048786804
 30
0.0
 10
13.5890977085
 20
5.904256635
 30
0.0
  0
SPLINE
  5
27B
100
AcDbEntity
  8
0
100
AcDbSpline
 62
7
  6
CONTINUOUS
 70
0
 71
3
 72
9
 73
5
 74
0
 42
0.0000001
 43
0.0000001
 44
0.0000000001
 40
0.0
 40
0.0
 40
0.0
 40
0.0
 40
0.5104466747
 40
1.0
 40
1.0
 40
1.0
 40
1.0
 10
13.5691051331
 20
5.9124141268
 30
0.0
 10
13.5714204817
 20
5.9091169139
 30
0.0
 10
13.5764062526
 20
5.9029617869
 30
0.0
 10
13.5822250923
 20
5.8975763372
 30
0.0
 10
13.5852718024
 20
5.8951997077
 30
0.0
  0
SPLINE
  5
27C
100
AcDbEntity
  8
0
100
AcDbSpline
 62
7
  6
CONTINUOUS
 70
0
 71
3
 72
12
 73
8
 74
0
 42
0.0000001
 43
0.0000001
 44
0.0000000001
 40
0.0
 40
0.0
 40
0.0
 40
0.0
 40
0.2424866634
 40
0.4912916926
 40
0.6174474981
 40
0.7445097081
 40
1.0
 40
1.0
 40
1.0
 40
1.0
 10
13.5700212671
 20
6.0176464805
 30
0.0
 10
13.5675699978
 20
6.0142862973
 30
0.0
 10
13.5631014325
 20
6.0071029629
 30
0.0
 10
13.5587991393
 20
5.9973864483
 30
0.0
 10
13.5561615359
 20
5.9891820288
 30
0.0
 10
13.5541013362
 20
5.9806972325
 30
0.0
 10
13.5532417244
 20
5.9741633443
 30
0.0
 10
13.5529695867
 20
5.9697894833
 30
0.0
  0
SPLINE
  5
27D
100
AcDbEntity
  8
0
100
AcDbSpline
 62
7
  6
CONTINUOUS
 70
0
 71
3
 72
9
 73
5
 74
0
 42
0.0000001
 43
0.0000001
 44
0.0000000001
 40
0.0
 40
0.0
 40
0.0
 40
0.0
 40
0.2594840873
 40
1.0
 40
1.0
 40
1.0
 40
1.0
 10
13.5742144567
 20
6.0198279459
 30
0.0
 10
13.5750460668
 20
6.0210151129
 30
0.0
 10
13.5783938605
 20
6.0254864227
 30
0.0
 10
13.5823316299
 20
6.0295314781
 30
0.0
 10
13.5855525938
 20
6.0321268261
 30
0.0
  0
SPLINE
  5
27E
100
AcDbEntity
  8
0
100
AcDbSpline
 62
7
  6
CONTINUOUS
 70
0
 71
3
 72
9
 73
5
 74
0
 42
0.0000001
 43
0.0000001
 44
0.0000000001
 40
0.0
 40
0.0
 40
0.0
 40
0.0
 40
0.2561458817
 40
1.0
 40
1.0
 40
1.0
 40
1.0
 10
13.5855525938
 20
6.0321268261
 30
0.0
 10
13.5862302419
 20
6.032672853
 30
0.0
 10
13.5889295907
 20
6.0347363513
 30
0.0
 10
13.5918488196
 20
6.0365167152
 30
0.0
 10
13.5941156729
 20
6.0376340346
 30
0.0
  0
SPLINE
  5
27F
100
AcDbEntity
  8
0
100
AcDbSpline
 62
7
  6
CONTINUOUS
 70
0
 71
3
 72
11
 73
7
 74
0
 42
0.0000001
 43
0.0000001
 44
0.0000000001
 40
0.0
 40
0.0
 40
0.0
 40
0.0
 40
0.2562967387
 40
0.5072258023
 40
0.7545244261
 40
1.0
 40
1.0
 40
1.0
 40
1.0
 10
13.5941156729
 20
6.0376340346
 30
0.0
 10
13.5956039086
 20
6.0383675778
 30
0.0
 10
13.5986385898
 20
6.0396471817
 30
0.0
 10
13.6033565754
 20
6.0409622042
 30
0.0
 10
13.6081364157
 20
6.0416421978
 30
0.0
 10
13.6113378262
 20
6.0416666059
 30
0.0
 10
13.6129240788
 20
6.0415708078
 30
0.0
  0
SPLINE
  5
280
100
AcDbEntity
  8
0
100
AcDbSpline
 62
7
  6
CONTINUOUS
 70
0
 71
3
 72
11
 73
7
 74
0
 42
0.0000001
 43
0.0000001
 44
0.0000000001
 40
0.0
 40
0.0
 40
0.0
 40
0.0
 40
0.240629936
 40
0.4860366073
 40
0.738435883
 40
1.0
 40
1.0
 40
1.0
 40
1.0
 10
13.6129240788
 20
6.0415708078
 30
0.0
 10
13.6148204627
 20
6.04145628
 30
0.0
 10
13.6186384383
 20
6.0409127243
 30
0.0
 10
13.6242328188
 20
6.039194526
 30
0.0
 10
13.6296516452
 20
6.0365791098
 30
0.0
 10
13.6330278686
 20
6.0343011454
 30
0.0
 10
13.6346621173
 20
6.0330386272
 30
0.0
  0
SPLINE
  5
281
100
AcDbEntity
  8
0
100
AcDbSpline
 62
7
  6
CONTINUOUS
 70
0
 71
3
 72
9
 73
5
 74
0
 42
0.0000001
 43
0.0000001
 44
0.0000000001
 40
0.0
 40
0.0
 40
0.0
 40
0.0
 40
0.2460688661
 40
1.0
 40
1.0
 40
1.0
 40
1.0
 10
13.6346621173
 20
6.0330386272
 30
0.0
 10
13.635082506
 20
6.0327138613
 30
0.0
 10
13.6367689639
 20
6.031365779
 30
0.0
 10
13.6383669285
 20
6.0299076372
 30
0.0
 10
13.6395187507
 20
6.0287576572
 30
0.0
  0
SPLINE
  5
282
100
AcDbEntity
  8
0
100
AcDbSpline
 62
7
  6
CONTINUOUS
 70
0
 71
3
 72
9
 73
5
 74
0
 42
0.0000001
 43
0.0000001
 44
0.0000000001
 40
0.0
 40
0.0
 40
0.0
 40
0.0
 40
0.2416755242
 40
1.0
 40
1.0
 40
1.0
 40
1.0
 10
13.6405517239
 20
6.0276981015
 30
0.0
 10
13.6413912956
 20
6.0268135492
 30
0.0
 10
13.6447450115
 20
6.0230401687
 30
0.0
 10
13.6476171736
 20
6.0188470953
 30
0.0
 10
13.6495186591
 20
6.015526262
 30
0.0
  0
SPLINE
  5
283
100
AcDbEntity
  8
0
100
AcDbSpline
 62
7
  6
CONTINUOUS
 70
0
 71
3
 72
11
 73
7
 74
0
 42
0.0000001
 43
0.0000001
 44
0.0000000001
 40
0.0
 40
0.0
 40
0.0
 40
0.0
 40
0.2391834877
 40
0.4837983547
 40
0.7368502725
 40
1.0
 40
1.0
 40
1.0
 40
1.0
 10
13.6121621282
 20
5.8826880173
 30
0.0
 10
13.6097720489
 20
5.8829283171
 30
0.0
 10
13.6049713139
 20
5.8838425814
 30
0.0
 10
13.5980064462
 20
5.8864366918
 30
0.0
 10
13.5913390047
 20
5.8902297379
 30
0.0
 10
13.5872425861
 20
5.8934388772
 30
0.0
 10
13.5852718024
 20
5.8951997077
 30
0.0
  0
SPLINE
  5
284
100
AcDbEntity
  8
0
100
AcDbSpline
 62
7
  6
CONTINUOUS
 70
0
 71
3
 72
11
 73
7
 74
0
 42
0.0000001
 43
0.0000001
 44
0.0000000001
 40
0.0
 40
0.0
 40
0.0
 40
0.0
 40
0.2378845279
 40
0.4859039151
 40
0.7412804713
 40
1.0
 40
1.0
 40
1.0
 40
1.0
 10
13.5638776291
 20
6.0006705299
 30
0.0
 10
13.5626427653
 20
5.9976551223
 30
0.0
 10
13.5605521176
 20
5.9913122726
 30
0.0
 10
13.5585985375
 20
5.9813242302
 30
0.0
 10
13.5578114748
 20
5.9708921309
 30
0.0
 10
13.5580911066
 20
5.9638369596
 30
0.0
 10
13.5584409772
 20
5.9603104203
 30
0.0
  0
SPLINE
  5
285
100
AcDbEntity
  8
0
100
AcDbSpline
 62
7
  6
CONTINUOUS
 70
0
 71
3
 72
13
 73
9
 74
0
 42
0.0000001
 43
0.0000001
 44
0.0000000001
 40
0.0
 40
0.0
 40
0.0
 40
0.0
 40
0.2524691022
 40
0.378475096
 40
0.5040736163
 40
0.6291560045
 40
0.7536363456
 40
1.0
 40
1.0
 40
1.0
 40
1.0
 10
13.5529695867
 20
5.9697894833
 30
0.0
 10
13.5530637127
 20
5.9654953621
 30
0.0
 10
13.5535340045
 20
5.9590594084
 30
0.0
 10
13.5547900961
 20
5.9505740468
 30
0.0
 10
13.5560401575
 20
5.9442858592
 30
0.0
 10
13.557600117
 20
5.9380938509
 30
0.0
 10
13.5600866882
 20
5.9300288588
 30
0.0
 10
13.5624168556
 20
5.9241497091
 30
0.0
 10
13.5641623872
 20
5.9203392006
 30
0.0
  0
SPLINE
  5
286
100
AcDbEntity
  8
0
100
AcDbSpline
 62
7
  6
CONTINUOUS
 70
0
 71
3
 72
9
 73
5
 74
0
 42
0.0000001
 43
0.0000001
 44
0.0000000001
 40
0.0
 40
0.0
 40
0.0
 40
0.0
 40
0.5097493813
 40
1.0
 40
1.0
 40
1.0
 40
1.0
 10
13.5852718024
 20
5.8951997077
 30
0.0
 10
13.5871483354
 20
5.8933371445
 30
0.0
 10
13.591033645
 20
5.8898820458
 30
0.0
 10
13.5953127715
 20
5.8869212059
 30
0.0
 10
13.597500441
 20
5.8856250383
 30
0.0
  0
SPLINE
  5
287
100
AcDbEntity
  8
0
100
AcDbSpline
 62
7
  6
CONTINUOUS
 70
0
 71
3
 72
20
 73
16
 74
0
 42
0.0000001
 43
0.0000001
 44
0.0000000001
 40
0.0
 40
0.0
 40
0.0
 40
0.0
 40
0.1260019059
 40
0.1862405303
 40
0.2449934526
 40
0.3027233387
 40
0.3599305458
 40
0.4171711068
 40
0.4750425892
 40
0.5340382831
 40
0.5945406058
 40
0.6568765692
 40
0.7212578216
 40
0.8563567536
 40
1.0
 40
1.0
 40
1.0
 40
1.0
 10
13.6015960427
 20
5.883440608
 30
0.0
 10
13.6044372415
 20
5.8820912415
 30
0.0
 10
13.6088574338
 20
5.8804971525
 30
0.0
 10
13.6149009902
 20
5.87948233
 30
0.0
 10
13.6193220744
 20
5.8793103083
 30
0.0
 10
13.6236518873
 20
5.8797114448
 30
0.0
 10
13.6278526508
 20
5.8806820058
 30
0.0
 10
13.6318848992
 20
5.8822167758
 30
0.0
 10
13.6357222149
 20
5.8842817587
 30
0.0
 10
13.639345191
 20
5.8868448442
 30
0.0
 10
13.6427351003
 20
5.8898767977
 30
0.0
 10
13.6458846045
 20
5.8933397546
 30
0.0
 10
13.6498230479
 20
5.8985651759
 30
0.0
 10
13.6540988575
 20
5.9060268427
 30
0.0
 10
13.6567447465
 20
5.9124808524
 30
0.0
 10
13.6579316168
 20
5.9158644503
 30
0.0
  0
SPLINE
  5
288
100
AcDbEntity
  8
0
100
AcDbSpline
 62
7
  6
CONTINUOUS
 70
0
 71
3
 72
14
 73
10
 74
0
 42
0.0000001
 43
0.0000001
 44
0.0000000001
 40
0.0
 40
0.0
 40
0.0
 40
0.0
 40
0.1171043585
 40
0.2379654767
 40
0.3619213115
 40
0.4882146752
 40
0.6160382643
 40
0.7445444865
 40
1.0
 40
1.0
 40
1.0
 40
1.0
 10
13.6579316168
 20
5.9158644503
 30
0.0
 10
13.6588229434
 20
5.9184054954
 30
0.0
 10
13.6604325123
 20
5.9236414661
 30
0.0
 10
13.66233656
 20
5.931748504
 30
0.0
 10
13.6637842605
 20
5.9401634609
 30
0.0
 10
13.6647842654
 20
5.9488036326
 30
0.0
 10
13.6653406389
 20
5.9575886953
 30
0.0
 10
13.6654975334
 20
5.9693591526
 30
0.0
 10
13.6649625261
 20
5.978192489
 30
0.0
 10
13.6642960553
 20
5.9840288079
 30
0.0
  0
SPLINE
  5
289
100
AcDbEntity
  8
0
100
AcDbSpline
 62
7
  6
CONTINUOUS
 70
0
 71
3
 72
13
 73
9
 74
0
 42
0.0000001
 43
0.0000001
 44
0.0000000001
 40
0.0
 40
0.0
 40
0.0
 40
0.0
 40
0.2770929646
 40
0.4103089
 40
0.5389703708
 40
0.6624860285
 40
0.78055179
 40
1.0
 40
1.0
 40
1.0
 40
1.0
 10
13.6642960553
 20
5.9840288079
 30
0.0
 10
13.6636390671
 20
5.9897820861
 30
0.0
 10
13.6622184366
 20
5.9982652065
 30
0.0
 10
13.6592808489
 20
6.0091463836
 30
0.0
 10
13.6566171852
 20
6.0167551558
 30
0.0
 10
13.6534484693
 20
6.02382894
 30
0.0
 10
13.6486624819
 20
6.0321948305
 30
0.0
 10
13.6441057154
 20
6.0377296996
 30
0.0
 10
13.64064749
 20
6.0407417072
 30
0.0
  0
SPLINE
  5
28A
100
AcDbEntity
  8
0
100
AcDbSpline
 62
9
  6
CONTINUOUS
 70
0
 71
3
 72
24
 73
20
 74
0
 42
0.0000001
 43
0.0000001
 44
0.0000000001
 40
0.0
 40
0.0
 40
0.0
 40
0.0
 40
0.1147882657
 40
0.1724233559
 40
0.2303247856
 40
0.3472777403
 40
0.4667117086
 40
0.5278290633
 40
0.5901321697
 40
0.6538744146
 40
0.7193263198
 40
0.7527887817
 40
0.7867629425
 40
0.8212552858
 40
0.8562524676
 40
0.8917146575
 40
0.9275688424
 40
0.9637091005
 40
1.0
 40
1.0
 40
1.0
 40
1.0
 10
13.0849834892
 20
6.7743881644
 30
0.0
 10
13.0849842471
 20
6.7528269957
 30
0.0
 10
13.0870047574
 20
6.7203910162
 30
0.0
 10
13.0937871329
 20
6.6776409535
 30
0.0
 10
13.1034193617
 20
6.6350183672
 30
0.0
 10
13.1210319388
 20
6.582427135
 30
0.0
 10
13.1464911783
 20
6.532398118
 30
0.0
 10
13.1721502613
 20
6.4946196989
 30
0.0
 10
13.1945314265
 20
6.4674356932
 30
0.0
 10
13.220132664
 20
6.4420764333
 30
0.0
 10
13.244178756
 20
6.4230996587
 30
0.0
 10
13.2651420457
 20
6.4095226633
 30
0.0
 10
13.281879163
 20
6.4001945339
 30
0.0
 10
13.2994883753
 20
6.3919339371
 30
0.0
 10
13.3179192955
 20
6.3848868872
 30
0.0
 10
13.3370844866
 20
6.379204681
 30
0.0
 10
13.3568542962
 20
6.3750262244
 30
0.0
 10
13.3770548291
 20
6.3724667255
 30
0.0
 10
13.390666815
 20
6.3718921574
 30
0.0
 10
13.3974834891
 20
6.371891804
 30
0.0
  0
SPLINE
  5
28B
100
AcDbEntity
  8
0
100
AcDbSpline
 62
7
  6
CONTINUOUS
 70
0
 71
3
 72
10
 73
6
 74
0
 42
0.0000001
 43
0.0000001
 44
0.0000000001
 40
0.0
 40
0.0
 40
0.0
 40
0.0
 40
0.2503496312
 40
0.5034129822
 40
1.0
 40
1.0
 40
1.0
 40
1.0
 10
13.5584409772
 20
5.9603104203
 30
0.0
 10
13.5586187308
 20
5.9562919653
 30
0.0
 10
13.5594979118
 20
5.9482239221
 30
0.0
 10
13.5631733912
 20
5.9325607401
 30
0.0
 10
13.568075063
 20
5.9213705994
 30
0.0
 10
13.5722265272
 20
5.9145570134
 30
0.0
  0
SPLINE
  5
28C
100
AcDbEntity
  8
0
100
AcDbSpline
 62
7
  6
CONTINUOUS
 70
0
 71
3
 72
9
 73
5
 74
0
 42
0.0000001
 43
0.0000001
 44
0.0000000001
 40
0.0
 40
0.0
 40
0.0
 40
0.0
 40
0.2553674852
 40
1.0
 40
1.0
 40
1.0
 40
1.0
 10
13.573973803
 20
5.9118064348
 30
0.0
 10
13.5747831531
 20
5.9105840014
 30
0.0
 10
13.5780748498
 20
5.9058797869
 30
0.0
 10
13.5818586351
 20
5.9015150952
 30
0.0
 10
13.5849302128
 20
5.8985417358
 30
0.0
  0
SPLINE
  5
28D
100
AcDbEntity
  8
0
100
AcDbSpline
 62
7
  6
CONTINUOUS
 70
0
 71
3
 72
9
 73
5
 74
0
 42
0.0000001
 43
0.0000001
 44
0.0000000001
 40
0.0
 40
0.0
 40
0.0
 40
0.0
 40
0.2548591647
 40
1.0
 40
1.0
 40
1.0
 40
1.0
 10
13.5866475133
 20
5.8969325632
 30
0.0
 10
13.5875097415
 20
5.8961507239
 30
0.0
 10
13.5909670116
 20
5.8931661929
 30
0.0
 10
13.5947232521
 20
5.8905243445
 30
0.0
 10
13.5976579356
 20
5.8888015546
 30
0.0
  0
SPLINE
  5
28E
100
AcDbEntity
  8
0
100
AcDbSpline
 62
7
  6
CONTINUOUS
 70
0
 71
3
 72
9
 73
5
 74
0
 42
0.0000001
 43
0.0000001
 44
0.0000000001
 40
0.0
 40
0.0
 40
0.0
 40
0.0
 40
0.5061488886
 40
1.0
 40
1.0
 40
1.0
 40
1.0
 10
13.5976579356
 20
5.8888015546
 30
0.0
 10
13.5999532577
 20
5.8874540985
 30
0.0
 10
13.6046648382
 20
5.8850806964
 30
0.0
 10
13.60965363
 20
5.8833599673
 30
0.0
 10
13.6121621282
 20
5.8826880173
 30
0.0
  0
SPLINE
  5
28F
100
AcDbEntity
  8
0
100
AcDbSpline
 62
9
  6
CONTINUOUS
 70
0
 71
3
 72
24
 73
20
 74
0
 42
0.0000001
 43
0.0000001
 44
0.0000000001
 40
0.0
 40
0.0
 40
0.0
 40
0.0
 40
0.11478748
 40
0.1724227018
 40
0.2303242309
 40
0.3472773688
 40
0.4667114006
 40
0.5278288228
 40
0.5901319361
 40
0.6538741805
 40
0.7193260611
 40
0.7527885472
 40
0.7867627468
 40
0.8212551073
 40
0.8562522976
 40
0.8917144977
 40
0.9275687432
 40
0.9637090657
 40
1.0
 40
1.0
 40
1.0
 40
1.0
 10
13.7099834891
 20
6.774391804
 30
0.0
 10
13.7099830087
 20
6.752830644
 30
0.0
 10
13.70796254
 20
6.7203945667
 30
0.0
 10
13.7011804792
 20
6.6776442822
 30
0.0
 10
13.6915484438
 20
6.6350212831
 30
0.0
 10
13.6739361429
 20
6.5824295054
 30
0.0
 10
13.6484768838
 20
6.5324000274
 30
0.0
 10
13.6228178902
 20
6.4946211594
 30
0.0
 10
13.6004366562
 20
6.467436899
 30
0.0
 10
13.5748353873
 20
6.4420773355
 30
0.0
 10
13.5507890996
 20
6.4231004987
 30
0.0
 10
13.5298258177
 20
6.4095231913
 30
0.0
 10
13.5130886741
 20
6.4001948169
 30
0.0
 10
13.4954793189
 20
6.3919341886
 30
0.0
 10
13.4770482415
 20
6.3848871847
 30
0.0
 10
13.4578829504
 20
6.3792048199
 30
0.0
 10
13.4381129993
 20
6.3750262689
 30
0.0
 10
13.4179123043
 20
6.3724667422
 30
0.0
 10
13.4043002138
 20
6.3718922021
 30
0.0
 10
13.3974834891
 20
6.371891804
 30
0.0
  0
SPLINE
  5
290
100
AcDbEntity
  8
0
100
AcDbSpline
 62
7
  6
CONTINUOUS
 70
0
 71
3
 72
11
 73
7
 74
0
 42
0.0000001
 43
0.0000001
 44
0.0000000001
 40
0.0
 40
0.0
 40
0.0
 40
0.0
 40
0.2542501649
 40
0.5013158823
 40
0.7477411328
 40
1.0
 40
1.0
 40
1.0
 40
1.0
 10
13.64064749
 20
6.0407417072
 30
0.0
 10
13.6387991415
 20
6.0423515617
 30
0.0
 10
13.6348573278
 20
6.0452084549
 30
0.0
 10
13.6282225359
 20
6.0481698712
 30
0.0
 10
13.6211056566
 20
6.0495521625
 30
0.0
 10
13.6162566048
 20
6.049404169
 30
0.0
 10
13.6138462741
 20
6.049080769
 30
0.0
  0
SPLINE
  5
291
100
AcDbEntity
  8
0
100
AcDbSpline
 62
7
  6
CONTINUOUS
 70
0
 71
3
 72
9
 73
5
 74
0
 42
0.0000001
 43
0.0000001
 44
0.0000000001
 40
0.0
 40
0.0
 40
0.0
 40
0.0
 40
0.4849525231
 40
1.0
 40
1.0
 40
1.0
 40
1.0
 10
13.610819979
 20
6.0485439963
 30
0.0
 10
13.60792554
 20
6.0479069829
 30
0.0
 10
13.6020980893
 20
6.0459008589
 30
0.0
 10
13.5967783156
 20
6.042823309
 30
0.0
 10
13.5941879234
 20
6.041035173
 30
0.0
  0
SPLINE
  5
292
100
AcDbEntity
  8
0
100
AcDbSpline
 62
7
  6
CONTINUOUS
 70
0
 71
3
 72
9
 73
5
 74
0
 42
0.0000001
 43
0.0000001
 44
0.0000000001
 40
0.0
 40
0.0
 40
0.0
 40
0.0
 40
0.2440790426
 40
1.0
 40
1.0
 40
1.0
 40
1.0
 10
13.5941879234
 20
6.041035173
 30
0.0
 10
13.5933518227
 20
6.0404580165
 30
0.0
 10
13.5899877382
 20
6.0380049237
 30
0.0
 10
13.5868711553
 20
6.0352177456
 30
0.0
 10
13.5846647222
 20
6.0329745627
 30
0.0
  0
SPLINE
  5
293
100
AcDbEntity
  8
0
100
AcDbSpline
 62
7
  6
CONTINUOUS
 70
0
 71
3
 72
36
 73
32
 74
0
 42
0.0000001
 43
0.0000001
 44
0.0000000001
 40
0.0
 40
0.0
 40
0.0
 40
0.0
 40
0.2193308559
 40
0.3207538161
 40
0.4162532099
 40
0.5055264186
 40
0.5882692399
 40
0.6641739355
 40
0.7329593552
 40
0.7943752978
 40
0.8481708486
 40
0.872132194
 40
0.8940995895
 40
0.9140532783
 40
0.931973753
 40
0.947841463
 40
0.9616368156
 40
0.9733401791
 40
0.9784012204
 40
0.9829318887
 40
0.9869303254
 40
0.9903961751
 40
0.9933293138
 40
0.9957296174
 40
0.9975969618
 40
0.9983307356
 40
0.998931223
 40
0.9993984085
 40
0.9997322768
 40
0.9999328122
 40
1.0
 40
1.0
 40
1.0
 40
1.0
 10
14.0536889208
 20
4.8108121737
 30
0.0
 10
14.0550392744
 20
4.804395744
 30
0.0
 10
14.0571489148
 20
4.7950399061
 30
0.0
 10
14.0601290741
 20
4.7829577796
 30
0.0
 10
14.0622777211
 20
4.7746758146
 30
0.0
 10
14.0643724273
 20
4.7669573787
 30
0.0
 10
14.0663869408
 20
4.7598245944
 30
0.0
 10
14.0682948561
 20
4.7532984856
 30
0.0
 10
14.0700723717
 20
4.7473987557
 30
0.0
 10
14.0716987474
 20
4.7421439792
 30
0.0
 10
14.0729550531
 20
4.7381775286
 30
0.0
 10
14.0738668189
 20
4.7353390732
 30
0.0
 10
14.0744735005
 20
4.7334652548
 30
0.0
 10
14.0750284056
 20
4.7317645019
 30
0.0
 10
14.0755300163
 20
4.7302381778
 30
0.0
 10
14.075976845
 20
4.7288876466
 30
0.0
 10
14.076367398
 20
4.7277142703
 30
0.0
 10
14.0766572277
 20
4.7268478657
 30
0.0
 10
14.076859677
 20
4.7262442886
 30
0.0
 10
14.0769889971
 20
4.7258591368
 30
0.0
 10
14.0771031649
 20
4.725519202
 30
0.0
 10
14.0772021633
 20
4.725224555
 30
0.0
 10
14.0772859582
 20
4.7249751948
 30
0.0
 10
14.0773545972
 20
4.7247711738
 30
0.0
 10
14.0774022007
 20
4.724629404
 30
0.0
 10
14.0774328437
 20
4.7245387753
 30
0.0
 10
14.0774498046
 20
4.7244875622
 30
0.0
 10
14.0774637729
 20
4.7244483077
 30
0.0
 10
14.0774720143
 20
4.7244189147
 30
0.0
 10
14.0774801094
 20
4.7244036703
 30
0.0
 10
14.0774802581
 20
4.7243942299
 30
0.0
 10
14.0774819191
 20
4.7243931004
 30
0.0
  0
LINE
  5
294
100
AcDbEntity
  8
0
100
AcDbLine
 62
7
  6
CONTINUOUS
 10
14.0772025774
 20
6.9035602812
 11
14.0774819193
 21
6.9043905083
  0
LINE
  5
295
100
AcDbEntity
  8
0
100
AcDbLine
 62
7
  6
CONTINUOUS
 10
14.0774819191
 20
4.7243931004
 11
14.0771328797
 21
4.725431429
  0
SPLINE
  5
296
100
AcDbEntity
  8
0
100
AcDbSpline
 62
7
  6
CONTINUOUS
 70
0
 71
3
 72
44
 73
40
 74
0
 42
0.0000001
 43
0.0000001
 44
0.0000000001
 40
0.0
 40
0.0
 40
0.0
 40
0.0
 40
0.0000190477
 40
0.0000763961
 40
0.0001720493
 40
0.0003060111
 40
0.0004782851
 40
0.0006888752
 40
0.0012250186
 40
0.0019144712
 40
0.0027572631
 40
0.0037534243
 40
0.0049029833
 40
0.0062057884
 40
0.0076613442
 40
0.0110285712
 40
0.0150003942
 40
0.0195725488
 40
0.0247407767
 40
0.0305008264
 40
0.0368484534
 40
0.0437794204
 40
0.0593728899
 40
0.0772308149
 40
0.0972945877
 40
0.1195059113
 40
0.143806787
 40
0.1701333403
 40
0.1984135966
 40
0.2285757796
 40
0.2942610397
 40
0.3665938699
 40
0.4449571313
 40
0.5286899955
 40
0.6170448825
 40
0.7092570693
 40
0.8044725368
 40
0.901777368
 40
1.0
 40
1.0
 40
1.0
 40
1.0
 10
14.0774819192
 20
6.9043905083
 30
0.0
 10
14.0774832429
 20
6.9043909686
 30
0.0
 10
14.0774771952
 20
6.9043812542
 30
0.0
 10
14.0774773226
 20
6.9043734884
 30
0.0
 10
14.0774682543
 20
6.904351047
 30
0.0
 10
14.0774598983
 20
6.9043240822
 30
0.0
 10
14.0774473951
 20
6.9042876167
 30
0.0
 10
14.0774260654
 20
6.9042237141
 30
0.0
 10
14.0773922842
 20
6.9041234169
 30
0.0
 10
14.0773438476
 20
6.9039792207
 30
0.0
 10
14.0772845283
 20
6.9038028725
 30
0.0
 10
14.0772144232
 20
6.9035944719
 30
0.0
 10
14.0771334908
 20
6.9033539911
 30
0.0
 10
14.0770417714
 20
6.9030814811
 30
0.0
 10
14.0768980869
 20
6.9026542968
 30
0.0
 10
14.0766921332
 20
6.9020408691
 30
0.0
 10
14.0764140967
 20
6.9012097543
 30
0.0
 10
14.0760952759
 20
6.900252554
 30
0.0
 10
14.0757364686
 20
6.8991699951
 30
0.0
 10
14.0753384735
 20
6.8979628044
 30
0.0
 10
14.0749020844
 20
6.8966317101
 30
0.0
 10
14.0742438281
 20
6.8946119559
 30
0.0
 10
14.0733308266
 20
6.8917844966
 30
0.0
 10
14.0721376232
 20
6.8880321534
 30
0.0
 10
14.0708193756
 20
6.8838086848
 30
0.0
 10
14.0693877811
 20
6.8791240716
 30
0.0
 10
14.0678545226
 20
6.8739888018
 30
0.0
 10
14.0662327549
 20
6.8684140849
 30
0.0
 10
14.0645378445
 20
6.8624116907
 30
0.0
 10
14.0621315196
 20
6.853601387
 30
0.0
 10
14.0590404534
 20
6.8416186359
 30
0.0
 10
14.0553878966
 20
6.8261213021
 30
0.0
 10
14.0518316897
 20
6.809241493
 30
0.0
 10
14.0485088389
 20
6.7911138189
 30
0.0
 10
14.0455562294
 20
6.7718898964
 30
0.0
 10
14.0431100787
 20
6.7517431984
 30
0.0
 10
14.041259951
 20
6.7308714183
 30
0.0
 10
14.0401013869
 20
6.7095067556
 30
0.0
 10
14.0398433266
 20
6.6951186668
 30
0.0
 10
14.0398571857
 20
6.6878917772
 30
0.0
  0
ENDSEC
  0
SECTION
  2
OBJECTS
  0
DICTIONARY
  5
C
100
AcDbDictionary
280
0
281
1
  3
ACAD_GROUP
350
D
  3
ACAD_MLINESTYLE
350
17
  3
ACAD_LAYOUT
350
1A
  3
ACAD_PLOTSETTINGS
350
19
  3
ACAD_PLOTSTYLENAME
350
E
  0
DICTIONARY
  5
D
102
{ACAD_REACTORS
330
C
102
}
100
AcDbDictionary
280
0
281
1
  0
ACDBDICTIONARYWDFLT
  5
E
102
{ACAD_REACTORS
330
C
102
}
100
AcDbDictionary
281
1
  3
Normal
350
F
100
AcDbDictionaryWithDefault
340
F
  0
DICTIONARY
  5
17
102
{ACAD_REACTORS
330
C
102
}
100
AcDbDictionary
280
0
281
1
  3
Standard
350
18
  0
DICTIONARY
  5
19
102
{ACAD_REACTORS
330
C
102
}
100
AcDbDictionary
281
1
  0
DICTIONARY
  5
1A
102
{ACAD_REACTORS
330
C
102
}
100
AcDbDictionary
281
1
  3
Model
350
297
  3
Layout1
350
298
  0
ACDBPLACEHOLDER
  5
F
102
{ACAD_REACTORS
330
E
102
}
  0
MLINESTYLE
  5
18
102
{ACAD_REACTORS
330
17
102
}
100
AcDbMlineStyle
  2
STANDARD
 70
0
  3

 62
256
 51
90.0
 52
90.0
 71
2
 49
0.5
 62
256
  6
BYLAYER
 49
-0.5
 62
256
  6
BYLAYER
  0
LAYOUT
  5
297
102
{ACAD_REACTORS
330
1A
102
}
100
AcDbPlotSettings
  1

  2
none_device
  4
ANSI_C_(22.00_x_17.00_Inches)
  6

 40
0.0
 41
0.0
 42
0.0
 43
0.0
 44
558.8
 45
431.8
 46
0.0
 47
0.0
 48
0.0
 49
0.0
140
0.0
141
0.0
142
1.0
143
1.0
 70
1024
 72
0
 73
0
 74
0
  7

 75
0
147
1.0
148
0.0
149
0.0
100
AcDbLayout
  1
Model
 70
0
 71
0
 10
0.0
 20
0.0
 11
22.0
 21
17.0
 12
0.0
 22
0.0
 32
0.0
 14
0.0
 24
0.0
 34
0.0
 15
0.0
 25
0.0
 35
0.0
146
0.0
 13
0.0
 23
0.0
 33
0.0
 16
1.0
 26
0.0
 36
0.0
 17
0.0
 27
1.0
 37
0.0
 76
0
330
202
345
0
346
0
  0
LAYOUT
  5
298
102
{ACAD_REACTORS
330
1A
102
}
100
AcDbPlotSettings
  1

  2
none_device
  4
ANSI_C_(22.00_x_17.00_Inches)
  6

 40
0.0
 41
0.0
 42
0.0
 43
0.0
 44
558.8
 45
431.8
 46
0.0
 47
0.0
 48
0.0
 49
0.0
140
0.0
141
0.0
142
1.0
143
1.0
 70
0
 72
0
 73
0
 74
0
  7

 75
0
147
1.0
148
0.0
149
0.0
100
AcDbLayout
  1
Layout1
 70
0
 71
1
 10
0.0
 20
0.0
 11
22.0
 21
17.0
 12
0.0
 22
0.0
 32
0.0
 14
0.0
 24
0.0
 34
0.0
 15
0.0
 25
0.0
 35
0.0
146
0.0
 13
0.0
 23
0.0
 33
0.0
 16
1.0
 26
0.0
 36
0.0
 17
0.0
 27
1.0
 37
0.0
 76
0
330
203
345
0
346
0
  0
ENDSEC
  0
EOF
