  0
SECTION
  2
HEADER
  9
$ACADVER
  1
AC1015
  9
$DWGCODEPAGE
  3
ANSI_1252
  9
$EXTMAX
 10
11.6929133858
 20
8.2677165354
 30
0.0
  9
$EXTMIN
 10
0.0
 20
0.0
 30
0.0
  9
$LIMMIN
 10
0.0
 20
0.0
  9
$LIMMAX
 10
11.6929133858
 20
8.2677165354
  9
$VIEWCTR
 10
5.8464566929
 20
4.1338582677
  9
$VIEWSIZE
 40
8.2677165354
  9
$CLAYER
  8
0
  9
$LTSCALE
 40
0.6431102362
  9
$CELTYPE
  6
BYLAYER
  9
$DIMSCALE
 40
1.0
  9
$DIMASZ
 40
0.1875
  9
$DIMEXO
 40
0.0730807087
  9
$DIMDLI
 40
0.4443307087
  9
$DIMEXE
 40
0.2104724409
  9
$DIMCEN
 40
0.1052362205
  9
$DIMLFAC
 40
1.0
  9
$DIMBLK
  1
_CLOSED
  9
$DIMTXT
 40
0.15625
  9
$DIMTOL
 70
0
  9
$DIMLIM
 70
0
  9
$DIMTFAC
 40
1.0
  9
$PDMODE
 70
3
  9
$PDSIZE
 40
0.3125
  9
$HANDSEED
  5
3C1
  9
$TILEMODE
 70
1
  9
$MEASUREMENT
 70
0
  9
$INSUNITS
 70
1
  0
ENDSEC
  0
SECTION
  2
CLASSES
  0
CLASS
  1
ACDBDICTIONARYWDFLT
  2
AcDbDictionaryWithDefault
  3
AutoCAD 2000
 90
0
280
0
281
0
  0
CLASS
  1
ACDBPLACEHOLDER
  2
AcDbPlaceHolder
  3
AutoCAD 2000
 90
0
280
0
281
0
  0
CLASS
  1
LAYOUT
  2
AcDbLayout
  3
AutoCAD 2000
 90
0
280
0
281
0
  0
ENDSEC
  0
SECTION
  2
TABLES
  0
TABLE
  2
VPORT
  5
8
100
AcDbSymbolTable
 70
2
  0
VPORT
  5
1F4
100
AcDbSymbolTableRecord
100
AcDbViewportTableRecord
  2
*ACTIVE
 70
0
 10
0.0
 20
0.0
 11
1.0
 21
1.0
 12
5.8464566929
 22
4.1338582677
 13
0.0
 23
0.0
 14
1.0
 24
1.0
 15
0.0
 25
0.0
 16
0.0
 26
0.0
 36
1.0
 17
0.0
 27
0.0
 37
0.0
 40
8.2677165354
 41
1.4142857143
 42
50.0
 43
0.0
 44
0.0
 50
0.0
 51
0.0
 71
0
 72
100
 73
1
 74
1
 75
0
 76
0
 77
0
 78
0
  0
ENDTAB
  0
TABLE
  2
LTYPE
  5
5
100
AcDbSymbolTable
 70
6
  0
LTYPE
  5
14
100
AcDbSymbolTableRecord
100
AcDbLinetypeTableRecord
  2
BYBLOCK
 70
0
  3

 72
65
 73
0
 40
0.0
  0
LTYPE
  5
15
100
AcDbSymbolTableRecord
100
AcDbLinetypeTableRecord
  2
BYLAYER
 70
0
  3

 72
65
 73
0
 40
0.0
  0
LTYPE
  5
16
100
AcDbSymbolTableRecord
100
AcDbLinetypeTableRecord
  2
CONTINUOUS
 70
64
  3
Solid line
 72
65
 73
0
 40
0.0
  0
LTYPE
  5
1F5
100
AcDbSymbolTableRecord
100
AcDbLinetypeTableRecord
  2
CENTER
 70
64
  3
____ _ ____ _ ____ _ ____ _ ____ _ ____ _ ____
 72
65
 73
4
 40
0.6
 49
0.375
 74
0
 49
-0.075
 74
0
 49
0.075
 74
0
 49
-0.075
 74
0
  0
LTYPE
  5
1F6
100
AcDbSymbolTableRecord
100
AcDbLinetypeTableRecord
  2
HIDDEN
 70
64
  3
- - - - - - - - - - - - - - - - - - - -
 72
65
 73
2
 40
0.2
 49
0.1
 74
0
 49
-0.1
 74
0
  0
LTYPE
  5
1F7
100
AcDbSymbolTableRecord
100
AcDbLinetypeTableRecord
  2
PHANTOM
 70
64
  3
_____ _ _ _____ _ _ _____ _ _ _____
 72
65
 73
6
 40
0.8
 49
0.45
 74
0
 49
-0.05
 74
0
 49
0.1
 74
0
 49
-0.05
 74
0
 49
0.1
 74
0
 49
-0.05
 74
0
  0
LTYPE
  5
1F8
100
AcDbSymbolTableRecord
100
AcDbLinetypeTableRecord
  2
DOT
 70
64
  3
. . . . . . . . . . . . . . . . . . . .
 72
65
 73
2
 40
0.2
 49
0.1
 74
0
 49
-0.1
 74
0
  0
LTYPE
  5
1F9
100
AcDbSymbolTableRecord
100
AcDbLinetypeTableRecord
  2
DASHED
 70
64
  3
- - - - - - - - - - - - - - - - - - - -
 72
65
 73
2
 40
0.2
 49
0.1
 74
0
 49
-0.1
 74
0
  0
ENDTAB
  0
TABLE
  2
LAYER
  5
2
100
AcDbSymbolTable
 70
36
  0
LAYER
  5
10
100
AcDbSymbolTableRecord
100
AcDbLayerTableRecord
  2
0
 70
0
 62
7
  6
CONTINUOUS
370
-3
390
F
  0
LAYER
  5
1FA
100
AcDbSymbolTableRecord
100
AcDbLayerTableRecord
  2
DEFAULT_1
 70
0
 62
7
  6
CENTER
370
-3
390
F
  0
LAYER
  5
1FB
100
AcDbSymbolTableRecord
100
AcDbLayerTableRecord
  2
DEFAULT_2
 70
0
 62
8
  6
HIDDEN
370
-3
390
F
  0
LAYER
  5
1FC
100
AcDbSymbolTableRecord
100
AcDbLayerTableRecord
  2
DEFAULT_3
 70
0
 62
7
  6
PHANTOM
370
-3
390
F
  0
LAYER
  5
1FD
100
AcDbSymbolTableRecord
100
AcDbLayerTableRecord
  2
DEFAULT_COORDINATE_SYSTEM
 70
0
 62
7
  6
CONTINUOUS
370
-3
390
F
  0
LAYER
  5
1FE
100
AcDbSymbolTableRecord
100
AcDbLayerTableRecord
  2
DEFAULT_DATUM_AXES
 70
0
 62
7
  6
CONTINUOUS
370
-3
390
F
  0
LAYER
  5
1FF
100
AcDbSymbolTableRecord
100
AcDbLayerTableRecord
  2
DEFAULT_DATUM_CURVES
 70
0
 62
7
  6
CONTINUOUS
370
-3
390
F
  0
LAYER
  5
200
100
AcDbSymbolTableRecord
100
AcDbLayerTableRecord
  2
DEFAULT_DATUM_PLANES
 70
0
 62
7
  6
CONTINUOUS
370
-3
390
F
  0
ENDTAB
  0
TABLE
  2
STYLE
  5
3
100
AcDbSymbolTable
 70
1
  0
STYLE
  5
11
100
AcDbSymbolTableRecord
100
AcDbTextStyleTableRecord
  2
STANDARD
 70
0
 40
0.0
 41
0.8
 50
0.0
 71
0
 42
0.2
  3
txt
  4

  0
STYLE
  5
201
100
AcDbSymbolTableRecord
100
AcDbTextStyleTableRecord
  2
TEXTSTYLE_1
 70
0
 40
0.0
 41
0.8
 50
0.0
 71
0
 42
0.2
  3
gdt
  4

  0
ENDTAB
  0
TABLE
  2
VIEW
  5
6
100
AcDbSymbolTable
 70
0
  0
ENDTAB
  0
TABLE
  2
UCS
  5
7
100
AcDbSymbolTable
 70
0
  0
ENDTAB
  0
TABLE
  2
APPID
  5
9
100
AcDbSymbolTable
 70
1
  0
APPID
  5
202
100
AcDbSymbolTableRecord
100
AcDbRegAppTableRecord
  2
ACAD
 70
0
  0
ENDTAB
  0
TABLE
  2
BLOCK_RECORD
  5
1
100
AcDbSymbolTable
 70
0
  0
BLOCK_RECORD
  5
203
100
AcDbSymbolTableRecord
100
AcDbBlockTableRecord
  2
*Model_Space
  0
BLOCK_RECORD
  5
204
100
AcDbSymbolTableRecord
100
AcDbBlockTableRecord
  2
*Paper_Space
  0
ENDTAB
  0
TABLE
  2
DIMSTYLE
  5
A
100
AcDbSymbolTable
 70
1
100
AcDbDimStyleTable
 71
0
  0
DIMSTYLE
105
205
100
AcDbSymbolTableRecord
100
AcDbDimStyleTableRecord
  2
STANDARD
 70
0
  3

  4

 40
1.0
 41
0.1875
 42
0.0625
 43
0.38
 44
0.18
 45
0.0
 46
0.0
 47
0.01
 48
0.01
140
0.15625
141
0.09
142
0.0
143
25.4
144
1.0
145
0.0
146
1.0
147
0.09
 71
0.0
 72
0.0
 73
1
 74
1
 75
0
 76
0
 77
0
 78
4
170
0
171
2
172
0
173
0
174
0
175
0
176
0
177
0
178
0
270
2
271
2
272
2
273
2
274
2
275
0
280
0
281
0
282
0
283
1
284
4
285
0
286
0
287
3
288
0
340
11
  0
ENDTAB
  0
ENDSEC
  0
SECTION
  2
BLOCKS
  0
BLOCK
  5
20
100
AcDbEntity
  8
0
100
AcDbBlockBegin
  2
*Model_Space
 70
0
 10
0.0
 20
0.0
 30
0.0
  3
*Model_Space
  1

  0
ENDBLK
  5
21
100
AcDbEntity
  8
0
100
AcDbBlockEnd
  0
BLOCK
  5
1C
100
AcDbEntity
  8
0
100
AcDbBlockBegin
  2
*Paper_Space
 70
0
 10
0.0
 20
0.0
 30
0.0
  3
*Paper_Space
  1

  0
ENDBLK
  5
1D
100
AcDbEntity
  8
0
100
AcDbBlockEnd
  0
ENDSEC
  0
SECTION
  2
ENTITIES
  0
LINE
  5
206
100
AcDbEntity
  8
0
100
AcDbLine
 62
6
  6
CONTINUOUS
 10
3.876776517
 20
5.78831456
 11
3.866776517
 21
5.77831456
  0
LINE
  5
207
100
AcDbEntity
  8
0
100
AcDbLine
 62
6
  6
CONTINUOUS
 10
3.866776517
 20
5.43831456
 11
3.866776517
 21
5.77831456
  0
LINE
  5
208
100
AcDbEntity
  8
0
100
AcDbLine
 62
6
  6
CONTINUOUS
 10
3.876776517
 20
5.42831456
 11
3.876776517
 21
5.78831456
  0
LINE
  5
209
100
AcDbEntity
  8
0
100
AcDbLine
 62
6
  6
CONTINUOUS
 10
3.932776517
 20
5.33581456
 11
3.932776517
 21
5.88081456
  0
LINE
  5
20A
100
AcDbEntity
  8
0
100
AcDbLine
 62
9
  6
CONTINUOUS
 10
3.956776517
 20
5.31281456
 11
3.956776517
 21
5.90381456
  0
LINE
  5
20B
100
AcDbEntity
  8
0
100
AcDbLine
 62
9
  6
CONTINUOUS
 10
3.991776517
 20
5.27781456
 11
3.991776517
 21
5.93881456
  0
LINE
  5
20C
100
AcDbEntity
  8
0
100
AcDbLine
 62
9
  6
CONTINUOUS
 10
4.6307829898
 20
2.79581456
 11
4.2557829898
 21
2.79581456
  0
LINE
  5
20D
100
AcDbEntity
  8
0
100
AcDbLine
 62
6
  6
CONTINUOUS
 10
4.0747795977
 20
5.27781456
 11
4.0747795977
 21
5.93881456
  0
LINE
  5
20E
100
AcDbEntity
  8
0
100
AcDbLine
 62
6
  6
CONTINUOUS
 10
4.2557829898
 20
5.60831456
 11
4.2557829898
 21
1.73331456
  0
LINE
  5
20F
100
AcDbEntity
  8
0
100
AcDbLine
 62
6
  6
CONTINUOUS
 10
4.9082491719
 20
5.2913139809
 11
4.9051304181
 21
5.2894983758
  0
LINE
  5
210
100
AcDbEntity
  8
0
100
AcDbLine
 62
6
  6
CONTINUOUS
 10
4.6307829898
 20
5.60831456
 11
4.6307829898
 21
1.73331456
  0
LINE
  5
211
100
AcDbEntity
  8
0
100
AcDbLine
 62
6
  6
CONTINUOUS
 10
4.9051304181
 20
5.2894983758
 11
4.9049889741
 21
5.2891021029
  0
LINE
  5
212
100
AcDbEntity
  8
0
100
AcDbLine
 62
6
  6
CONTINUOUS
 10
5.034776517
 20
5.28331456
 11
5.0496422673
 21
5.2981803103
  0
LINE
  5
213
100
AcDbEntity
  8
0
100
AcDbLine
 62
9
  6
CONTINUOUS
 10
4.7624821766
 20
5.2299802116
 11
4.7624821766
 21
5.9866489084
  0
LINE
  5
214
100
AcDbEntity
  8
0
100
AcDbLine
 62
6
  6
CONTINUOUS
 10
4.9076865172
 20
5.2984695519
 11
4.9076865172
 21
5.2909864274
  0
LINE
  5
215
100
AcDbEntity
  8
0
100
AcDbLine
 62
2
  6
CONTINUOUS
 10
4.972776517
 20
5.3160450489
 11
4.972776517
 21
5.3180323917
  0
LINE
  5
216
100
AcDbEntity
  8
0
100
AcDbLine
 62
6
  6
CONTINUOUS
 10
5.147776517
 20
5.25581456
 11
5.147776517
 21
5.96081456
  0
LINE
  5
217
100
AcDbEntity
  8
0
100
AcDbLine
 62
6
  6
CONTINUOUS
 10
5.191776517
 20
5.25581456
 11
5.191776517
 21
5.96081456
  0
LINE
  5
218
100
AcDbEntity
  8
0
100
AcDbLine
 62
6
  6
CONTINUOUS
 10
6.8284558901
 20
5.1556829318
 11
6.8240082467
 21
5.1540939167
  0
LINE
  5
219
100
AcDbEntity
  8
0
100
AcDbLine
 62
9
  6
CONTINUOUS
 10
6.8446310584
 20
5.1057079535
 11
6.8342398378
 21
5.1019954692
  0
LINE
  5
21A
100
AcDbEntity
  8
0
100
AcDbLine
 62
6
  6
CONTINUOUS
 10
3.866776517
 20
5.43831456
 11
3.876776517
 21
5.42831456
  0
LINE
  5
21B
100
AcDbEntity
  8
0
100
AcDbLine
 62
6
  6
CONTINUOUS
 10
5.331776517
 20
5.23331456
 11
5.331776517
 21
5.98331456
  0
LINE
  5
21C
100
AcDbEntity
  8
0
100
AcDbLine
 62
6
  6
CONTINUOUS
 10
6.8302194051
 20
5.0083256788
 11
6.8240098204
 21
5.0055337746
  0
LINE
  5
21D
100
AcDbEntity
  8
0
100
AcDbLine
 62
9
  6
CONTINUOUS
 10
6.8465231611
 20
4.9573397083
 11
6.834226105
 21
4.9518108035
  0
LINE
  5
21E
100
AcDbEntity
  8
0
100
AcDbLine
 62
6
  6
CONTINUOUS
 10
6.923316109
 20
4.9874889754
 11
6.9110348592
 21
4.983101238
  0
LINE
  5
21F
100
AcDbEntity
  8
0
100
AcDbLine
 62
6
  6
CONTINUOUS
 10
6.9232226333
 20
4.8860129616
 11
6.9109022319
 21
4.8816112364
  0
LINE
  5
220
100
AcDbEntity
  8
0
100
AcDbLine
 62
9
  6
CONTINUOUS
 10
5.5604120095
 20
5.06331456
 11
5.5604120095
 21
6.15331456
  0
LINE
  5
221
100
AcDbEntity
  8
0
100
AcDbLine
 62
6
  6
CONTINUOUS
 10
6.827554316
 20
4.8783878569
 11
6.8240082467
 21
4.8764911984
  0
LINE
  5
222
100
AcDbEntity
  8
0
100
AcDbLine
 62
9
  6
CONTINUOUS
 10
6.8415021042
 20
4.8251277532
 11
6.8342398378
 21
4.8212434412
  0
LINE
  5
223
100
AcDbEntity
  8
0
100
AcDbLine
 62
6
  6
CONTINUOUS
 10
6.9233137148
 20
4.8339235932
 11
6.9110317335
 21
4.8284014662
  0
LINE
  5
224
100
AcDbEntity
  8
0
100
AcDbLine
 62
6
  6
CONTINUOUS
 10
6.9232080539
 20
4.7335880184
 11
6.9108793959
 21
4.728044905
  0
LINE
  5
225
100
AcDbEntity
  8
0
100
AcDbLine
 62
6
  6
CONTINUOUS
 10
6.8084280309
 20
4.43331456
 11
6.8187901819
 21
4.43331456
  0
LINE
  5
226
100
AcDbEntity
  8
0
100
AcDbLine
 62
6
  6
CONTINUOUS
 10
6.8286232859
 20
4.7525576827
 11
6.8240098204
 21
4.7497357305
  0
LINE
  5
227
100
AcDbEntity
  8
0
100
AcDbLine
 62
9
  6
CONTINUOUS
 10
6.8453615393
 20
4.701398318
 11
6.834226105
 21
4.6945870255
  0
LINE
  5
228
100
AcDbEntity
  8
0
100
AcDbLine
 62
6
  6
CONTINUOUS
 10
6.923316109
 20
4.7012044419
 11
6.9110348592
 21
4.6946356652
  0
LINE
  5
229
100
AcDbEntity
  8
0
100
AcDbLine
 62
6
  6
CONTINUOUS
 10
6.9232226333
 20
4.6170406054
 11
6.9109022319
 21
4.610450888
  0
LINE
  5
22A
100
AcDbEntity
  8
0
100
AcDbLine
 62
6
  6
CONTINUOUS
 10
6.9232080539
 20
5.025666564
 11
6.9108793959
 21
5.0224697917
  0
LINE
  5
22B
100
AcDbEntity
  8
0
100
AcDbLine
 62
9
  6
CONTINUOUS
 10
4.6307829898
 20
4.54581456
 11
4.2557829898
 21
4.54581456
  0
LINE
  5
22C
100
AcDbEntity
  8
0
100
AcDbLine
 62
6
  6
CONTINUOUS
 10
4.910776517
 20
5.28331456
 11
4.9049889603
 21
5.2891021167
  0
LINE
  5
22D
100
AcDbEntity
  8
0
100
AcDbLine
 62
6
  6
CONTINUOUS
 10
6.8273339116
 20
4.5503295849
 11
6.8240098204
 21
4.547885352
  0
LINE
  5
22E
100
AcDbEntity
  8
0
100
AcDbLine
 62
9
  6
CONTINUOUS
 10
6.8423226317
 20
4.5007295549
 11
6.834226105
 21
4.494776109
  0
LINE
  5
22F
100
AcDbEntity
  8
0
100
AcDbLine
 62
6
  6
CONTINUOUS
 10
6.8268351449
 20
4.6467906614
 11
6.8240082467
 21
4.6448716333
  0
LINE
  5
230
100
AcDbEntity
  8
0
100
AcDbLine
 62
9
  6
CONTINUOUS
 10
6.8394275325
 20
4.5934676314
 11
6.8342398378
 21
4.5899459863
  0
LINE
  5
231
100
AcDbEntity
  8
0
100
AcDbLine
 62
6
  6
CONTINUOUS
 10
6.923316109
 20
4.4719169732
 11
6.9110348592
 21
4.4635798976
  0
LINE
  5
232
100
AcDbEntity
  8
0
100
AcDbLine
 62
6
  6
CONTINUOUS
 10
6.9233137148
 20
4.5749584089
 11
6.9110317335
 21
4.5674457996
  0
LINE
  5
233
100
AcDbEntity
  8
0
100
AcDbLine
 62
6
  6
CONTINUOUS
 10
6.9232080539
 20
4.4964717584
 11
6.9108793959
 21
4.4889305982
  0
LINE
  5
234
100
AcDbEntity
  8
0
100
AcDbLine
 62
6
  6
CONTINUOUS
 10
6.9233137148
 20
5.14154661
 11
6.9110317335
 21
5.1383619408
  0
LINE
  5
235
100
AcDbEntity
  8
0
100
AcDbLine
 62
9
  6
CONTINUOUS
 10
6.8465231611
 20
5.2534737049
 11
6.834226105
 21
5.2502851269
  0
LINE
  5
236
100
AcDbEntity
  8
0
100
AcDbLine
 62
6
  6
CONTINUOUS
 10
6.8326236259
 20
5.3014402779
 11
6.8240098204
 21
5.2992067522
  0
LINE
  5
237
100
AcDbEntity
  8
0
100
AcDbLine
 62
6
  6
CONTINUOUS
 10
4.9044315621
 20
5.3000370916
 11
4.9076865172
 21
5.2981426057
  0
LINE
  5
238
100
AcDbEntity
  8
0
100
AcDbLine
 62
6
  6
CONTINUOUS
 10
6.8245424037
 20
4.3543753659
 11
6.824004619
 21
4.353924111
  0
LINE
  5
239
100
AcDbEntity
  8
0
100
AcDbLine
 62
9
  6
CONTINUOUS
 10
6.8403657269
 20
4.3017057399
 11
6.8393133594
 21
4.3008226988
  0
LINE
  5
23A
100
AcDbEntity
  8
0
100
AcDbLine
 62
6
  6
CONTINUOUS
 10
6.8252085789
 20
4.3749915145
 11
6.8240082467
 21
4.3739922583
  0
LINE
  5
23B
100
AcDbEntity
  8
0
100
AcDbLine
 62
9
  6
CONTINUOUS
 10
6.8357041977
 20
4.3310463378
 11
6.8342398378
 21
4.329827283
  0
LINE
  5
23C
100
AcDbEntity
  8
0
100
AcDbLine
 62
6
  6
CONTINUOUS
 10
6.8261348
 20
4.4143926918
 11
6.8240098204
 21
4.4126656406
  0
LINE
  5
23D
100
AcDbEntity
  8
0
100
AcDbLine
 62
9
  6
CONTINUOUS
 10
6.8384515935
 20
4.3683671228
 11
6.834226105
 21
4.3649329087
  0
LINE
  5
23E
100
AcDbEntity
  8
0
100
AcDbLine
 62
6
  6
CONTINUOUS
 10
6.8260890968
 20
4.475412158
 11
6.8240082467
 21
4.4737887306
  0
LINE
  5
23F
100
AcDbEntity
  8
0
100
AcDbLine
 62
9
  6
CONTINUOUS
 10
6.8375591174
 20
4.4252259934
 11
6.8342398378
 21
4.4226363741
  0
LINE
  5
240
100
AcDbEntity
  8
0
100
AcDbLine
 62
6
  6
CONTINUOUS
 10
6.923316109
 20
4.3140335443
 11
6.9110348592
 21
4.3044520189
  0
LINE
  5
241
100
AcDbEntity
  8
0
100
AcDbLine
 62
6
  6
CONTINUOUS
 10
6.9233137148
 20
4.380922792
 11
6.9110317335
 21
4.3718917453
  0
LINE
  5
242
100
AcDbEntity
  8
0
100
AcDbLine
 62
6
  6
CONTINUOUS
 10
6.9232080539
 20
4.3292166708
 11
6.9108793959
 21
4.3201513024
  0
LINE
  5
243
100
AcDbEntity
  8
0
100
AcDbLine
 62
6
  6
CONTINUOUS
 10
6.9232226333
 20
4.4103536374
 11
6.9109022319
 21
4.4019899839
  0
LINE
  5
244
100
AcDbEntity
  8
0
100
AcDbLine
 62
6
  6
CONTINUOUS
 10
6.9232226333
 20
5.2003701837
 11
6.9109022319
 21
5.1984330273
  0
LINE
  5
245
100
AcDbEntity
  8
0
100
AcDbLine
 62
6
  6
CONTINUOUS
 10
6.923316109
 20
5.3127822636
 11
6.9110348592
 21
5.3108512632
  0
LINE
  5
246
100
AcDbEntity
  8
0
100
AcDbLine
 62
9
  6
CONTINUOUS
 10
6.576776517
 20
4.5755501224
 11
6.576776517
 21
6.6410789976
  0
LINE
  5
247
100
AcDbEntity
  8
0
100
AcDbLine
 62
6
  6
CONTINUOUS
 10
6.923316109
 20
4.2374745516
 11
6.9110348592
 21
4.2272506189
  0
LINE
  5
248
100
AcDbEntity
  8
0
100
AcDbLine
 62
6
  6
CONTINUOUS
 10
6.9232226333
 20
4.2310538407
 11
6.9109022319
 21
4.220797315
  0
LINE
  5
249
100
AcDbEntity
  8
0
100
AcDbLine
 62
6
  6
CONTINUOUS
 10
6.9233137148
 20
4.2640087139
 11
6.9110317335
 21
4.2540266837
  0
LINE
  5
24A
100
AcDbEntity
  8
0
100
AcDbLine
 62
6
  6
CONTINUOUS
 10
6.9232080539
 20
4.2423320077
 11
6.9108793959
 21
4.2323120417
  0
LINE
  5
24B
100
AcDbEntity
  8
0
100
AcDbLine
 62
6
  6
CONTINUOUS
 10
6.9232226333
 20
4.27893896
 11
6.9109022319
 21
4.2693268896
  0
LINE
  5
24C
100
AcDbEntity
  8
0
100
AcDbLine
 62
9
  6
CONTINUOUS
 10
6.8465363966
 20
5.4164947953
 11
6.8342398378
 21
5.4145613878
  0
LINE
  5
24D
100
AcDbEntity
  8
0
100
AcDbLine
 62
6
  6
CONTINUOUS
 10
6.8295674672
 20
5.4611110736
 11
6.8240082467
 21
5.4602369885
  0
LINE
  5
24E
100
AcDbEntity
  8
0
100
AcDbLine
 62
6
  6
CONTINUOUS
 10
6.9232080539
 20
5.354355026
 11
6.9108793959
 21
5.3537054598
  0
LINE
  5
24F
100
AcDbEntity
  8
0
100
AcDbLine
 62
6
  6
CONTINUOUS
 10
5.191776517
 20
5.25581456
 11
5.147776517
 21
5.25581456
  0
LINE
  5
250
100
AcDbEntity
  8
0
100
AcDbLine
 62
6
  6
CONTINUOUS
 10
4.0747795977
 20
5.27781456
 11
3.991776517
 21
5.27781456
  0
LINE
  5
251
100
AcDbEntity
  8
0
100
AcDbLine
 62
6
  6
CONTINUOUS
 10
4.910776517
 20
5.28331456
 11
5.034776517
 21
5.28331456
  0
LINE
  5
252
100
AcDbEntity
  8
0
100
AcDbLine
 62
6
  6
CONTINUOUS
 10
3.956776517
 20
5.33581456
 11
3.932776517
 21
5.33581456
  0
LINE
  5
253
100
AcDbEntity
  8
0
100
AcDbLine
 62
6
  6
CONTINUOUS
 10
6.716776517
 20
4.49331456
 11
6.716776517
 21
6.72331456
  0
LINE
  5
254
100
AcDbEntity
  8
0
100
AcDbLine
 62
6
  6
CONTINUOUS
 10
6.9233137148
 20
5.4784983737
 11
6.9110317335
 21
5.4778512668
  0
LINE
  5
255
100
AcDbEntity
  8
0
100
AcDbLine
 62
9
  6
CONTINUOUS
 10
6.8465231611
 20
5.5719036575
 11
6.834226105
 21
5.5712557563
  0
LINE
  5
256
100
AcDbEntity
  8
0
100
AcDbLine
 62
6
  6
CONTINUOUS
 10
6.8376907329
 20
5.6130229234
 11
6.8240098204
 21
5.6123021102
  0
LINE
  5
257
100
AcDbEntity
  8
0
100
AcDbLine
 62
6
  6
CONTINUOUS
 10
6.8393133594
 20
4.3008226988
 11
6.8559449022
 21
4.2720741141
  0
LINE
  5
258
100
AcDbEntity
  8
0
100
AcDbLine
 62
9
  6
CONTINUOUS
 10
6.8084280309
 20
4.43331456
 11
6.8084280309
 21
6.78331456
  0
LINE
  5
259
100
AcDbEntity
  8
0
100
AcDbLine
 62
2
  6
CONTINUOUS
 10
6.8187901819
 20
4.39081456
 11
6.8187901819
 21
6.82581456
  0
LINE
  5
25A
100
AcDbEntity
  8
0
100
AcDbLine
 62
9
  6
CONTINUOUS
 10
6.836776517
 20
5.6129747556
 11
6.836776517
 21
5.6155585563
  0
LINE
  5
25B
100
AcDbEntity
  8
0
100
AcDbLine
 62
9
  6
CONTINUOUS
 10
6.836776517
 20
5.9231395878
 11
6.836776517
 21
5.9388955414
  0
LINE
  5
25C
100
AcDbEntity
  8
0
100
AcDbLine
 62
9
  6
CONTINUOUS
 10
6.836776517
 20
6.0773044296
 11
6.836776517
 21
6.0812294925
  0
LINE
  5
25D
100
AcDbEntity
  8
0
100
AcDbLine
 62
9
  6
CONTINUOUS
 10
6.836776517
 20
6.2135228057
 11
6.836776517
 21
6.2412216561
  0
LINE
  5
25E
100
AcDbEntity
  8
0
100
AcDbLine
 62
9
  6
CONTINUOUS
 10
6.836776517
 20
6.3501289103
 11
6.836776517
 21
6.3674912033
  0
LINE
  5
25F
100
AcDbEntity
  8
0
100
AcDbLine
 62
9
  6
CONTINUOUS
 10
6.836776517
 20
6.4682663071
 11
6.836776517
 21
6.4981025117
  0
LINE
  5
260
100
AcDbEntity
  8
0
100
AcDbLine
 62
9
  6
CONTINUOUS
 10
6.836776517
 20
6.5875177174
 11
6.836776517
 21
6.5995424592
  0
LINE
  5
261
100
AcDbEntity
  8
0
100
AcDbLine
 62
9
  6
CONTINUOUS
 10
6.836776517
 20
6.6841901573
 11
6.836776517
 21
6.6930589954
  0
LINE
  5
262
100
AcDbEntity
  8
0
100
AcDbLine
 62
9
  6
CONTINUOUS
 10
6.9328567191
 20
4.22581456
 11
6.9328567191
 21
6.99081456
  0
LINE
  5
263
100
AcDbEntity
  8
0
100
AcDbLine
 62
6
  6
CONTINUOUS
 10
6.946776517
 20
4.211670013
 11
6.946776517
 21
7.004959107
  0
LINE
  5
264
100
AcDbEntity
  8
0
100
AcDbLine
 62
6
  6
CONTINUOUS
 10
6.9232226333
 20
5.5403600512
 11
6.9109022319
 21
5.5410091824
  0
LINE
  5
265
100
AcDbEntity
  8
0
100
AcDbLine
 62
6
  6
CONTINUOUS
 10
6.923316109
 20
5.6566449329
 11
6.9110348592
 21
5.6572920013
  0
LINE
  5
266
100
AcDbEntity
  8
0
100
AcDbLine
 62
6
  6
CONTINUOUS
 10
7.111776517
 20
4.18581456
 11
7.111776517
 21
7.03081456
  0
LINE
  5
267
100
AcDbEntity
  8
0
100
AcDbLine
 62
6
  6
CONTINUOUS
 10
3.956776517
 20
5.88081456
 11
3.932776517
 21
5.88081456
  0
LINE
  5
268
100
AcDbEntity
  8
0
100
AcDbLine
 62
6
  6
CONTINUOUS
 10
4.0747795977
 20
5.93881456
 11
3.991776517
 21
5.93881456
  0
LINE
  5
269
100
AcDbEntity
  8
0
100
AcDbLine
 62
6
  6
CONTINUOUS
 10
5.191776517
 20
5.96081456
 11
5.147776517
 21
5.96081456
  0
LINE
  5
26A
100
AcDbEntity
  8
0
100
AcDbLine
 62
9
  6
CONTINUOUS
 10
6.8465363966
 20
5.7386536558
 11
6.8342398378
 21
5.7393015307
  0
LINE
  5
26B
100
AcDbEntity
  8
0
100
AcDbLine
 62
6
  6
CONTINUOUS
 10
6.8318755379
 20
5.7752698109
 11
6.8240082467
 21
5.7756843188
  0
LINE
  5
26C
100
AcDbEntity
  8
0
100
AcDbLine
 62
6
  6
CONTINUOUS
 10
6.9232080539
 20
5.6990006995
 11
6.9108793959
 21
5.700939154
  0
LINE
  5
26D
100
AcDbEntity
  8
0
100
AcDbLine
 62
6
  6
CONTINUOUS
 10
6.8241341481
 20
6.8561262086
 11
6.8240219409
 21
6.8569456624
  0
LINE
  5
26E
100
AcDbEntity
  8
0
100
AcDbLine
 62
6
  6
CONTINUOUS
 10
6.9233137148
 20
5.8236069659
 11
6.9110317335
 21
5.8255380814
  0
LINE
  5
26F
100
AcDbEntity
  8
0
100
AcDbLine
 62
9
  6
CONTINUOUS
 10
6.8465231611
 20
5.8926214409
 11
6.834226105
 21
5.8945549266
  0
LINE
  5
270
100
AcDbEntity
  8
0
100
AcDbLine
 62
6
  6
CONTINUOUS
 10
6.8376907329
 20
5.9229958442
 11
6.8240098204
 21
5.9251469158
  0
LINE
  5
271
100
AcDbEntity
  8
0
100
AcDbLine
 62
6
  6
CONTINUOUS
 10
6.9232226333
 20
5.8846197504
 11
6.9109022319
 21
5.8878143818
  0
LINE
  5
272
100
AcDbEntity
  8
0
100
AcDbLine
 62
6
  6
CONTINUOUS
 10
6.923316109
 20
5.9974708272
 11
6.9110348592
 21
6.0006553067
  0
LINE
  5
273
100
AcDbEntity
  8
0
100
AcDbLine
 62
9
  6
CONTINUOUS
 10
6.8465363966
 20
6.0526228315
 11
6.8342398378
 21
6.0558112806
  0
LINE
  5
274
100
AcDbEntity
  8
0
100
AcDbLine
 62
6
  6
CONTINUOUS
 10
6.8376899954
 20
6.0770675682
 11
6.8240082467
 21
6.0806151916
  0
LINE
  5
275
100
AcDbEntity
  8
0
100
AcDbLine
 62
6
  6
CONTINUOUS
 10
6.9232080539
 20
6.0379482294
 11
6.9108793959
 21
6.0423529044
  0
LINE
  5
276
100
AcDbEntity
  8
0
100
AcDbLine
 62
6
  6
CONTINUOUS
 10
6.8354831579
 20
6.2419773266
 11
6.8338179799
 21
6.2425518567
  0
LINE
  5
277
100
AcDbEntity
  8
0
100
AcDbLine
 62
6
  6
CONTINUOUS
 10
6.9233137148
 20
6.1551879444
 11
6.9110317335
 21
6.1595759431
  0
LINE
  5
278
100
AcDbEntity
  8
0
100
AcDbLine
 62
9
  6
CONTINUOUS
 10
6.8465231611
 20
6.1954751775
 11
6.834226105
 21
6.199868562
  0
LINE
  5
279
100
AcDbEntity
  8
0
100
AcDbLine
 62
6
  6
CONTINUOUS
 10
6.8376907329
 20
6.2131961826
 11
6.8240098204
 21
6.2180839793
  0
LINE
  5
27A
100
AcDbEntity
  8
0
100
AcDbLine
 62
6
  6
CONTINUOUS
 10
6.8461626137
 20
6.2370015538
 11
6.8338277057
 21
6.2425474772
  0
LINE
  5
27B
100
AcDbEntity
  8
0
100
AcDbLine
 62
9
  6
CONTINUOUS
 10
6.8477026595
 20
6.2364832913
 11
6.8354831579
 21
6.2419773266
  0
LINE
  5
27C
100
AcDbEntity
  8
0
100
AcDbLine
 62
6
  6
CONTINUOUS
 10
6.9232226333
 20
6.2115181784
 11
6.9109022319
 21
6.2170575795
  0
LINE
  5
27D
100
AcDbEntity
  8
0
100
AcDbLine
 62
6
  6
CONTINUOUS
 10
6.8084280309
 20
6.78331456
 11
6.8187901819
 21
6.78331456
  0
LINE
  5
27E
100
AcDbEntity
  8
0
100
AcDbLine
 62
6
  6
CONTINUOUS
 10
6.8317463169
 20
6.3450340164
 11
6.8342398378
 21
6.3442031657
  0
LINE
  5
27F
100
AcDbEntity
  8
0
100
AcDbLine
 62
6
  6
CONTINUOUS
 10
6.8376899954
 20
6.3497181994
 11
6.8240082467
 21
6.3558696787
  0
LINE
  5
280
100
AcDbEntity
  8
0
100
AcDbLine
 62
6
  6
CONTINUOUS
 10
6.923316109
 20
6.3138446019
 11
6.9110348592
 21
6.3193664
  0
LINE
  5
281
100
AcDbEntity
  8
0
100
AcDbLine
 62
6
  6
CONTINUOUS
 10
6.8461223903
 20
6.3624924486
 11
6.8337863889
 21
6.36909051
  0
LINE
  5
282
100
AcDbEntity
  8
0
100
AcDbLine
 62
9
  6
CONTINUOUS
 10
6.8532023712
 20
6.3611903877
 11
6.8412540072
 21
6.3675811164
  0
LINE
  5
283
100
AcDbEntity
  8
0
100
AcDbLine
 62
6
  6
CONTINUOUS
 10
6.9232080539
 20
6.3499002957
 11
6.9108793959
 21
6.3564944292
  0
LINE
  5
284
100
AcDbEntity
  8
0
100
AcDbLine
 62
6
  6
CONTINUOUS
 10
6.8328699167
 20
6.4679680566
 11
6.8240098204
 21
6.4727069875
  0
LINE
  5
285
100
AcDbEntity
  8
0
100
AcDbLine
 62
6
  6
CONTINUOUS
 10
6.9233137148
 20
6.4524068568
 11
6.9110317335
 21
6.4589760248
  0
LINE
  5
286
100
AcDbEntity
  8
0
100
AcDbLine
 62
6
  6
CONTINUOUS
 10
6.8411657798
 20
6.4954176993
 11
6.8283190197
 21
6.5032757709
  0
LINE
  5
287
100
AcDbEntity
  8
0
100
AcDbLine
 62
9
  6
CONTINUOUS
 10
6.8477026595
 20
6.4966028691
 11
6.8354831579
 21
6.5040772609
  0
LINE
  5
288
100
AcDbEntity
  8
0
100
AcDbLine
 62
6
  6
CONTINUOUS
 10
6.9232226333
 20
6.5005151046
 11
6.9109022319
 21
6.5080512145
  0
LINE
  5
289
100
AcDbEntity
  8
0
100
AcDbLine
 62
6
  6
CONTINUOUS
 10
6.8252324118
 20
6.5834037343
 11
6.8240082467
 21
6.5841525283
  0
LINE
  5
28A
100
AcDbEntity
  8
0
100
AcDbLine
 62
6
  6
CONTINUOUS
 10
6.923316109
 20
6.5858873294
 11
6.9110348592
 21
6.5933994912
  0
LINE
  5
28B
100
AcDbEntity
  8
0
100
AcDbLine
 62
6
  6
CONTINUOUS
 10
6.8407658584
 20
6.5968343113
 11
6.8278558906
 21
6.6055981895
  0
LINE
  5
28C
100
AcDbEntity
  8
0
100
AcDbLine
 62
9
  6
CONTINUOUS
 10
6.8532023712
 20
6.6016259549
 11
6.8412540072
 21
6.6097370523
  0
LINE
  5
28D
100
AcDbEntity
  8
0
100
AcDbLine
 62
6
  6
CONTINUOUS
 10
6.9232080539
 20
6.6152558029
 11
6.9108793959
 21
6.6236250613
  0
LINE
  5
28E
100
AcDbEntity
  8
0
100
AcDbLine
 62
6
  6
CONTINUOUS
 10
6.8388148204
 20
6.6915602133
 11
6.8255346771
 21
6.7013252171
  0
LINE
  5
28F
100
AcDbEntity
  8
0
100
AcDbLine
 62
9
  6
CONTINUOUS
 10
6.8477026595
 20
6.7009080255
 11
6.8354831579
 21
6.7098931302
  0
LINE
  5
290
100
AcDbEntity
  8
0
100
AcDbLine
 62
6
  6
CONTINUOUS
 10
6.8328593208
 20
6.765043137
 11
6.8250996458
 21
6.7710970423
  0
LINE
  5
291
100
AcDbEntity
  8
0
100
AcDbLine
 62
6
  6
CONTINUOUS
 10
6.8240082467
 20
6.5841525283
 11
6.8246877077
 21
6.5835599
  0
LINE
  5
292
100
AcDbEntity
  8
0
100
AcDbLine
 62
6
  6
CONTINUOUS
 10
6.9233137148
 20
6.696588346
 11
6.9110317335
 21
6.7049259182
  0
LINE
  5
293
100
AcDbEntity
  8
0
100
AcDbLine
 62
6
  6
CONTINUOUS
 10
6.9232226333
 20
6.7334517892
 11
6.9109022319
 21
6.7425110865
  0
LINE
  5
294
100
AcDbEntity
  8
0
100
AcDbLine
 62
6
  6
CONTINUOUS
 10
6.923316109
 20
6.7965055645
 11
6.9110348592
 21
6.8055360732
  0
LINE
  5
295
100
AcDbEntity
  8
0
100
AcDbLine
 62
9
  6
CONTINUOUS
 10
6.8499579758
 20
6.7821793104
 11
6.8412540072
 21
6.7889699301
  0
LINE
  5
296
100
AcDbEntity
  8
0
100
AcDbLine
 62
6
  6
CONTINUOUS
 10
6.9232080539
 20
6.8173414885
 11
6.9108793959
 21
6.8269600005
  0
LINE
  5
297
100
AcDbEntity
  8
0
100
AcDbLine
 62
6
  6
CONTINUOUS
 10
6.9233137148
 20
6.8723895907
 11
6.9110317335
 21
6.8819716868
  0
LINE
  5
298
100
AcDbEntity
  8
0
100
AcDbLine
 62
6
  6
CONTINUOUS
 10
6.8298098027
 20
6.8204456619
 11
6.8242896269
 21
6.8249321173
  0
LINE
  5
299
100
AcDbEntity
  8
0
100
AcDbLine
 62
9
  6
CONTINUOUS
 10
6.8424685347
 20
6.8408154871
 11
6.8354831579
 21
6.8464927667
  0
LINE
  5
29A
100
AcDbEntity
  8
0
100
AcDbLine
 62
6
  6
CONTINUOUS
 10
6.9232226333
 20
6.8956919638
 11
6.9109022319
 21
6.9057052194
  0
LINE
  5
29B
100
AcDbEntity
  8
0
100
AcDbLine
 62
6
  6
CONTINUOUS
 10
6.923316109
 20
6.9324653889
 11
6.9110348592
 21
6.9424468245
  0
LINE
  5
29C
100
AcDbEntity
  8
0
100
AcDbLine
 62
6
  6
CONTINUOUS
 10
6.8261890214
 20
6.8544155612
 11
6.8240809043
 21
6.856170533
  0
LINE
  5
29D
100
AcDbEntity
  8
0
100
AcDbLine
 62
9
  6
CONTINUOUS
 10
6.8440900854
 20
6.8916569016
 11
6.8412540072
 21
6.8940178888
  0
LINE
  5
29E
100
AcDbEntity
  8
0
100
AcDbLine
 62
6
  6
CONTINUOUS
 10
6.9232080539
 20
6.9434595658
 11
6.9108793959
 21
6.9537229649
  0
LINE
  5
29F
100
AcDbEntity
  8
0
100
AcDbLine
 62
6
  6
CONTINUOUS
 10
6.9233137148
 20
6.9687643524
 11
6.9110317335
 21
6.978988894
  0
LINE
  5
2A0
100
AcDbEntity
  8
0
100
AcDbLine
 62
6
  6
CONTINUOUS
 10
6.9232080539
 20
6.9856855719
 11
6.9108793959
 21
6.9959489711
  0
LINE
  5
2A1
100
AcDbEntity
  8
0
100
AcDbLine
 62
6
  6
CONTINUOUS
 10
6.8244335071
 20
6.8665244009
 11
6.8240219409
 21
6.866869746
  0
LINE
  5
2A2
100
AcDbEntity
  8
0
100
AcDbLine
 62
9
  6
CONTINUOUS
 10
6.8368790593
 20
6.9041218124
 11
6.8354831579
 21
6.9052931127
  0
LINE
  5
2A3
100
AcDbEntity
  8
0
100
AcDbLine
 62
6
  6
CONTINUOUS
 10
6.9232226333
 20
6.9770414815
 11
6.9109022319
 21
6.9873795258
  0
LINE
  5
2A4
100
AcDbEntity
  8
0
100
AcDbLine
 62
6
  6
CONTINUOUS
 10
6.923316109
 20
6.9852239468
 11
6.9110348592
 21
6.995529139
  0
ARC
  5
2A5
100
AcDbEntity
  8
0
100
AcDbCircle
 62
6
  6
CONTINUOUS
 10
-20.5678664112
 20
4.4919576593
 40
27.4789159234
100
AcDbArc
 50
359.8124097284
 51
359.9408300432
  0
ARC
  5
2A6
100
AcDbEntity
  8
0
100
AcDbCircle
 62
6
  6
CONTINUOUS
 10
-10.0560271868
 20
4.3959768098
 40
16.9670760149
100
AcDbArc
 50
359.7439455091
 51
359.9186676005
  0
ARC
  5
2A7
100
AcDbEntity
  8
0
100
AcDbCircle
 62
2
  6
CONTINUOUS
 10
-6.4750219345
 20
4.3321730748
 40
13.3983503227
100
AcDbArc
 50
359.772352711
 51
359.9224293414
  0
ARC
  5
2A8
100
AcDbEntity
  8
0
100
AcDbCircle
 62
6
  6
CONTINUOUS
 10
-9.582789704
 20
6.9840990704
 40
16.4938776853
100
AcDbArc
 50
359.7276775268
 51
359.8553099181
  0
ARC
  5
2A9
100
AcDbEntity
  8
0
100
AcDbCircle
 62
6
  6
CONTINUOUS
 10
-1.2510136542
 20
4.3177078844
 40
8.1620592777
100
AcDbArc
 50
359.660374551
 51
359.906946831
  0
ARC
  5
2AA
100
AcDbEntity
  8
0
100
AcDbCircle
 62
2
  6
CONTINUOUS
 10
3.1159123324
 20
4.2717029766
 40
3.8074091692
100
AcDbArc
 50
359.5580067061
 51
359.8842128435
  0
ARC
  5
2AB
100
AcDbEntity
  8
0
100
AcDbCircle
 62
6
  6
CONTINUOUS
 10
4.6167549373
 20
4.2591433897
 40
2.2942818738
100
AcDbArc
 50
359.3299173882
 51
359.872218917
  0
ARC
  5
2AC
100
AcDbEntity
  8
0
100
AcDbCircle
 62
6
  6
CONTINUOUS
 10
5.5141279705
 20
3.664079845
 40
1.4
100
AcDbArc
 50
40.6208291884
 51
88.1054547173
  0
ARC
  5
2AD
100
AcDbEntity
  8
0
100
AcDbCircle
 62
6
  6
CONTINUOUS
 10
4.4432829813
 20
2.3529867263
 40
0.3125000085
100
AcDbArc
 50
306.872341049
 51
53.1206500891
  0
ARC
  5
2AE
100
AcDbEntity
  8
0
100
AcDbCircle
 62
6
  6
CONTINUOUS
 10
4.4432829982
 20
2.3529867175
 40
0.3125000085
100
AcDbArc
 50
126.872341049
 51
233.1206500891
  0
ARC
  5
2AF
100
AcDbEntity
  8
0
100
AcDbCircle
 62
2
  6
CONTINUOUS
 10
7.0505178157
 20
4.4733253797
 40
0.2038483824
100
AcDbArc
 50
227.8635949961
 51
231.3910586218
  0
ARC
  5
2B0
100
AcDbEntity
  8
0
100
AcDbCircle
 62
9
  6
CONTINUOUS
 10
4.4432829898
 20
1.73331456
 40
0.1875
100
AcDbArc
 50
180.0
 51
360.0
  0
ARC
  5
2B1
100
AcDbEntity
  8
0
100
AcDbCircle
 62
2
  6
CONTINUOUS
 10
7.0332080747
 20
4.4158864501
 40
0.1874663092
100
AcDbArc
 50
230.4055096211
 51
234.1115830234
  0
ARC
  5
2B2
100
AcDbEntity
  8
0
100
AcDbCircle
 62
6
  6
CONTINUOUS
 10
7.0086459419
 20
4.3802166122
 40
0.1871193873
100
AcDbArc
 50
189.3676563872
 51
215.2955098946
  0
ARC
  5
2B3
100
AcDbEntity
  8
0
100
AcDbCircle
 62
6
  6
CONTINUOUS
 10
7.0009728358
 20
4.3747481697
 40
0.177696798
100
AcDbArc
 50
215.2970174867
 51
220.0281929912
  0
ARC
  5
2B4
100
AcDbEntity
  8
0
100
AcDbCircle
 62
6
  6
CONTINUOUS
 10
6.9990433895
 20
4.3731167489
 40
0.1751700951
100
AcDbArc
 50
220.0254868966
 51
227.1068770427
  0
ARC
  5
2B5
100
AcDbEntity
  8
0
100
AcDbCircle
 62
6
  6
CONTINUOUS
 10
6.9983551827
 20
4.3724044724
 40
0.1741798487
100
AcDbArc
 50
227.1132580541
 51
229.613047087
  0
ARC
  5
2B6
100
AcDbEntity
  8
0
100
AcDbCircle
 62
2
  6
CONTINUOUS
 10
7.016831599
 20
4.382828458
 40
0.1728377996
100
AcDbArc
 50
235.9279218819
 51
237.2442243489
  0
ARC
  5
2B7
100
AcDbEntity
  8
0
100
AcDbCircle
 62
6
  6
CONTINUOUS
 10
7.0086459419
 20
4.3802166122
 40
0.172
100
AcDbArc
 50
240.2005734573
 51
243.8555953188
  0
ARC
  5
2B8
100
AcDbEntity
  8
0
100
AcDbCircle
 62
6
  6
CONTINUOUS
 10
6.8084280309
 20
4.53331456
 40
0.1
100
AcDbArc
 50
203.5781784782
 51
270.0
  0
ARC
  5
2B9
100
AcDbEntity
  8
0
100
AcDbCircle
 62
2
  6
CONTINUOUS
 10
4.5373289527
 20
2.1767328301
 40
0.0944540376
100
AcDbArc
 50
0.0059100755
 51
5.755261587
  0
ARC
  5
2BA
100
AcDbEntity
  8
0
100
AcDbCircle
 62
2
  6
CONTINUOUS
 10
4.3492370269
 20
2.1767328301
 40
0.0944540376
100
AcDbArc
 50
174.244738413
 51
179.9940899245
  0
ARC
  5
2BB
100
AcDbEntity
  8
0
100
AcDbCircle
 62
2
  6
CONTINUOUS
 10
4.5373289527
 20
2.176752316
 40
0.0944540376
100
AcDbArc
 50
354.244738413
 51
359.9940899245
  0
ARC
  5
2BC
100
AcDbEntity
  8
0
100
AcDbCircle
 62
2
  6
CONTINUOUS
 10
4.3492370269
 20
2.176752316
 40
0.0944540376
100
AcDbArc
 50
180.0059100755
 51
185.7552615871
  0
ARC
  5
2BD
100
AcDbEntity
  8
0
100
AcDbCircle
 62
6
  6
CONTINUOUS
 10
6.9196376686
 20
4.1988839695
 40
0.03
100
AcDbArc
 50
25.2267350659
 51
63.8555953188
  0
ARC
  5
2BE
100
AcDbEntity
  8
0
100
AcDbCircle
 62
6
  6
CONTINUOUS
 10
6.8187901819
 20
4.37281456
 40
0.018
100
AcDbArc
 50
72.9330111451
 51
90.0
  0
ARC
  5
2BF
100
AcDbEntity
  8
0
100
AcDbCircle
 62
6
  6
CONTINUOUS
 10
-4.3701422856
 20
7.0349543042
 40
11.2813134595
100
AcDbArc
 50
359.5874369717
 51
359.7157604795
  0
ARC
  5
2C0
100
AcDbEntity
  8
0
100
AcDbCircle
 62
6
  6
CONTINUOUS
 10
4.9727022471
 20
4.98081456
 40
0.326
100
AcDbArc
 50
57.5177951966
 51
75.4164071695
  0
ARC
  5
2C1
100
AcDbEntity
  8
0
100
AcDbCircle
 62
6
  6
CONTINUOUS
 10
4.9727022471
 20
4.98081456
 40
0.326
100
AcDbArc
 50
102.517499102
 51
130.1541931822
  0
ARC
  5
2C2
100
AcDbEntity
  8
0
100
AcDbCircle
 62
2
  6
CONTINUOUS
 10
4.9654324357
 20
5.1286169947
 40
0.1868433109
100
AcDbArc
 50
69.1879873803
 51
74.5027202226
  0
ARC
  5
2C3
100
AcDbEntity
  8
0
100
AcDbCircle
 62
2
  6
CONTINUOUS
 10
4.9719086587
 20
5.1595186215
 40
0.1587108931
100
AcDbArc
 50
78.8604482516
 51
83.5150532776
  0
ARC
  5
2C4
100
AcDbEntity
  8
0
100
AcDbCircle
 62
2
  6
CONTINUOUS
 10
4.972700488
 20
5.1660521992
 40
0.1521297299
100
AcDbArc
 50
83.5334500038
 51
89.9713256401
  0
ARC
  5
2C5
100
AcDbEntity
  8
0
100
AcDbCircle
 62
6
  6
CONTINUOUS
 10
3.991776517
 20
5.31281456
 40
0.035
100
AcDbArc
 50
180.0
 51
270.0
  0
ARC
  5
2C6
100
AcDbEntity
  8
0
100
AcDbCircle
 62
6
  6
CONTINUOUS
 10
3.876776517
 20
5.37231456
 40
0.056
100
AcDbArc
 50
0.0
 51
90.0
  0
ARC
  5
2C7
100
AcDbEntity
  8
0
100
AcDbCircle
 62
6
  6
CONTINUOUS
 10
4.4432829898
 20
5.60831456
 40
0.495
100
AcDbArc
 50
221.8880088583
 51
247.7377825585
  0
ARC
  5
2C8
100
AcDbEntity
  8
0
100
AcDbCircle
 62
6
  6
CONTINUOUS
 10
4.4432829898
 20
5.60831456
 40
0.495
100
AcDbArc
 50
292.2602698734
 51
310.1541931822
  0
ARC
  5
2C9
100
AcDbEntity
  8
0
100
AcDbCircle
 62
6
  6
CONTINUOUS
 10
4.4432829898
 20
5.60831456
 40
0.495
100
AcDbArc
 50
49.8458068178
 51
138.1119911417
  0
ARC
  5
2CA
100
AcDbEntity
  8
0
100
AcDbCircle
 62
9
  6
CONTINUOUS
 10
4.4432829898
 20
5.60831456
 40
0.1875
100
AcDbArc
 50
0.0
 51
180.0
  0
ARC
  5
2CB
100
AcDbEntity
  8
0
100
AcDbCircle
 62
6
  6
CONTINUOUS
 10
3.876776517
 20
5.84431456
 40
0.056
100
AcDbArc
 50
270.0
 51
360.0
  0
ARC
  5
2CC
100
AcDbEntity
  8
0
100
AcDbCircle
 62
6
  6
CONTINUOUS
 10
3.991776517
 20
5.90381456
 40
0.035
100
AcDbArc
 50
90.0
 51
180.0
  0
ARC
  5
2CD
100
AcDbEntity
  8
0
100
AcDbCircle
 62
6
  6
CONTINUOUS
 10
5.3679603199
 20
5.4806821658
 40
0.25
100
AcDbArc
 50
225.1918438316
 51
261.6780538142
  0
ARC
  5
2CE
100
AcDbEntity
  8
0
100
AcDbCircle
 62
6
  6
CONTINUOUS
 10
5.3679603199
 20
5.7359469542
 40
0.25
100
AcDbArc
 50
98.3219461858
 51
134.8081561684
  0
ARC
  5
2CF
100
AcDbEntity
  8
0
100
AcDbCircle
 62
6
  6
CONTINUOUS
 10
7.1409230224
 20
4.911229256
 40
0.726
100
AcDbArc
 50
254.4892346397
 51
267.6991450867
  0
ARC
  5
2D0
100
AcDbEntity
  8
0
100
AcDbCircle
 62
6
  6
CONTINUOUS
 10
6.766535186
 20
4.7383126719
 40
0.25
100
AcDbArc
 50
220.6208291884
 51
258.5194848001
  0
ARC
  5
2D1
100
AcDbEntity
  8
0
100
AcDbCircle
 62
6
  6
CONTINUOUS
 10
5.5686770164
 20
5.313177902
 40
0.25
100
AcDbArc
 50
198.62987012
 51
268.1054547173
  0
ARC
  5
2D2
100
AcDbEntity
  8
0
100
AcDbCircle
 62
6
  6
CONTINUOUS
 10
5.5686770164
 20
5.903451218
 40
0.25
100
AcDbArc
 50
91.8945452827
 51
161.37012988
  0
ARC
  5
2D3
100
AcDbEntity
  8
0
100
AcDbCircle
 62
6
  6
CONTINUOUS
 10
5.5141279705
 20
7.552549275
 40
1.4
100
AcDbArc
 50
271.8945452827
 51
319.3791708116
  0
ARC
  5
2D4
100
AcDbEntity
  8
0
100
AcDbCircle
 62
6
  6
CONTINUOUS
 10
8.276425408
 20
6.9692970208
 40
1.3656426268
100
AcDbArc
 50
178.8993590295
 51
179.2413232662
  0
ARC
  5
2D5
100
AcDbEntity
  8
0
100
AcDbCircle
 62
6
  6
CONTINUOUS
 10
8.2507565438
 20
6.9660317864
 40
1.3275792847
100
AcDbArc
 50
179.1716741816
 51
179.5248372951
  0
ARC
  5
2D6
100
AcDbEntity
  8
0
100
AcDbCircle
 62
6
  6
CONTINUOUS
 10
7.1409230224
 20
6.305399864
 40
0.726
100
AcDbArc
 50
92.3008549133
 51
105.5107653603
  0
ARC
  5
2D7
100
AcDbEntity
  8
0
100
AcDbCircle
 62
6
  6
CONTINUOUS
 10
4.9727022471
 20
6.23581456
 40
0.326
100
AcDbArc
 50
229.8458068178
 51
302.4822048034
  0
ARC
  5
2D8
100
AcDbEntity
  8
0
100
AcDbCircle
 62
6
  6
CONTINUOUS
 10
6.766535186
 20
6.478316448
 40
0.25
100
AcDbArc
 50
101.4805151999
 51
139.3791708116
  0
ARC
  5
2D9
100
AcDbEntity
  8
0
100
AcDbCircle
 62
6
  6
CONTINUOUS
 10
7.0086459419
 20
6.8364125078
 40
0.1871193873
100
AcDbArc
 50
137.7658885876
 51
170.6323436128
  0
ARC
  5
2DA
100
AcDbEntity
  8
0
100
AcDbCircle
 62
6
  6
CONTINUOUS
 10
7.0060384351
 20
6.8414494571
 40
0.1814538063
100
AcDbArc
 50
121.6641186193
 51
133.4463818335
  0
ARC
  5
2DB
100
AcDbEntity
  8
0
100
AcDbCircle
 62
6
  6
CONTINUOUS
 10
7.0005668597
 20
6.8438217377
 40
0.1761577169
100
AcDbArc
 50
120.5475055371
 51
137.7583197411
  0
ARC
  5
2DC
100
AcDbEntity
  8
0
100
AcDbCircle
 62
6
  6
CONTINUOUS
 10
7.0086459419
 20
6.8364125078
 40
0.172
100
AcDbArc
 50
116.1444046812
 51
119.8811123961
  0
ARC
  5
2DD
100
AcDbEntity
  8
0
100
AcDbCircle
 62
6
  6
CONTINUOUS
 10
6.9927286271
 20
6.8356595612
 40
0.1575434243
100
AcDbArc
 50
116.1795935448
 51
118.6398455243
  0
ARC
  5
2DE
100
AcDbEntity
  8
0
100
AcDbCircle
 62
2
  6
CONTINUOUS
 10
6.9778632211
 20
6.8025250948
 40
0.1511612133
100
AcDbArc
 50
111.1965681018
 51
114.7942204707
  0
ARC
  5
2DF
100
AcDbEntity
  8
0
100
AcDbCircle
 62
6
  6
CONTINUOUS
 10
6.8084280309
 20
6.68331456
 40
0.1
100
AcDbArc
 50
90.0
 51
156.4218215218
  0
ARC
  5
2E0
100
AcDbEntity
  8
0
100
AcDbCircle
 62
6
  6
CONTINUOUS
 10
6.9196376686
 20
7.0177451505
 40
0.03
100
AcDbArc
 50
296.1444046812
 51
334.7732649341
  0
ARC
  5
2E1
100
AcDbEntity
  8
0
100
AcDbCircle
 62
6
  6
CONTINUOUS
 10
6.8187901819
 20
6.84381456
 40
0.018
100
AcDbArc
 50
270.0
 51
287.1948574413
  0
LINE
  5
2E2
100
AcDbEntity
  8
0
100
AcDbLine
 62
6
  6
CONTINUOUS
 10
6.8240219409
 20
4.349759374
 11
6.824004619
 21
4.353924111
  0
LINE
  5
2E3
100
AcDbEntity
  8
0
100
AcDbLine
 62
2
  6
CONTINUOUS
 10
6.9232226333
 20
4.2310538407
 11
6.923316109
 21
4.2374745516
  0
LINE
  5
2E4
100
AcDbEntity
  8
0
100
AcDbLine
 62
6
  6
CONTINUOUS
 10
6.8240219409
 20
4.3596834576
 11
6.8240082467
 21
4.3739922583
  0
SPLINE
  5
2E5
100
AcDbEntity
  8
0
100
AcDbSpline
 62
6
  6
CONTINUOUS
 70
0
 71
3
 72
18
 73
14
 74
12
 42
0.0000001
 43
0.0000001
 44
0.0000000001
 12
-0.0157604291
 22
0.0402099573
 32
0.0
 13
-0.0057104017
 23
0.0428091474
 33
0.0
 40
0.0
 40
0.0
 40
0.0
 40
0.0
 40
0.1608883793
 40
0.2384282278
 40
0.3138295743
 40
0.4577014508
 40
0.5914703584
 40
0.7139424017
 40
0.8238023543
 40
0.8735654473
 40
0.9196422335
 40
0.9618484461
 40
1.0
 40
1.0
 40
1.0
 40
1.0
 10
6.8354831579
 20
4.3124646368
 30
0.0
 10
6.8346379346
 20
4.3146210751
 30
0.0
 10
6.8334458286
 20
4.3178409967
 30
0.0
 10
6.8319953292
 20
4.3221199233
 30
0.0
 10
6.8306960103
 20
4.3261907502
 30
0.0
 10
6.8292741059
 20
4.3310712988
 30
0.0
 10
6.8278414726
 20
4.3366512924
 30
0.0
 10
6.8266827427
 20
4.3417934899
 30
0.0
 10
6.8258984182
 20
4.3457786172
 30
0.0
 10
6.8253831021
 20
4.3486947753
 30
0.0
 10
6.8250611319
 20
4.3506558992
 30
0.0
 10
6.8247877296
 20
4.3524554538
 30
0.0
 10
6.8246273774
 20
4.3536011587
 30
0.0
 10
6.8245547572
 20
4.3541455705
 30
0.0
 11
6.8354831579
 21
4.3124646368
 31
0.0
 11
6.8330701272
 21
4.3189806892
 31
0.0
 11
6.8319950518
 21
4.322152248
 31
0.0
 11
6.8310048192
 21
4.3252544987
 31
0.0
 11
6.8292667412
 21
4.3312200444
 31
0.0
 11
6.8278300402
 21
4.3368158082
 31
0.0
 11
6.8266676611
 21
4.3419758698
 31
0.0
 11
6.8257521334
 21
4.3466313699
 31
0.0
 11
6.8253783334
 21
4.3487477983
 31
0.0
 11
6.8250561912
 21
4.3507115301
 31
0.0
 11
6.8247826622
 21
4.3525137063
 31
0.0
 11
6.8245547572
 21
4.3541455705
 31
0.0
  0
LINE
  5
2E6
100
AcDbEntity
  8
0
100
AcDbLine
 62
6
  6
CONTINUOUS
 10
6.8245547572
 20
4.3541455705
 11
6.8240219409
 21
4.3596834576
  0
SPLINE
  5
2E7
100
AcDbEntity
  8
0
100
AcDbSpline
 62
6
  6
CONTINUOUS
 70
0
 71
3
 72
23
 73
19
 74
17
 42
0.0000001
 43
0.0000001
 44
0.0000000001
 12
-0.102509777
 22
0.0638230693
 32
0.0
 13
-0.0440661186
 23
0.1124269351
 33
0.0
 40
0.0
 40
0.0
 40
0.0
 40
0.0
 40
0.0622781924
 40
0.124475161
 40
0.1866041922
 40
0.2486854873
 40
0.310750364
 40
0.3728293547
 40
0.434950269
 40
0.4971388415
 40
0.5594198793
 40
0.6218179429
 40
0.6843568575
 40
0.7470614498
 40
0.8099583321
 40
0.8730727915
 40
0.9364179478
 40
1.0
 40
1.0
 40
1.0
 40
1.0
 10
6.9109022319
 20
4.220797315
 30
0.0
 10
6.9087741907
 20
4.2221222434
 30
0.0
 10
6.9045754395
 20
4.2248591691
 30
0.0
 10
6.8984565565
 20
4.2292187901
 30
0.0
 10
6.8925285824
 20
4.2338219247
 30
0.0
 10
6.8867985
 20
4.2386608531
 30
0.0
 10
6.8812720521
 20
4.2437281038
 30
0.0
 10
6.8759546627
 20
4.2490165432
 30
0.0
 10
6.8708516843
 20
4.2545189281
 30
0.0
 10
6.8659685007
 20
4.2602279573
 30
0.0
 10
6.8613104931
 20
4.2661363364
 30
0.0
 10
6.8568827707
 20
4.272236614
 30
0.0
 10
6.8526903801
 20
4.2785214424
 30
0.0
 10
6.8487382897
 20
4.2849836263
 30
0.0
 10
6.8450313901
 20
4.2916160446
 30
0.0
 10
6.8415747555
 20
4.2984112319
 30
0.0
 10
6.8383736134
 20
4.3053606867
 30
0.0
 10
6.836417096
 20
4.3100818584
 30
0.0
 10
6.8354831579
 20
4.3124646368
 30
0.0
 11
6.9109022319
 21
4.220797315
 31
0.0
 11
6.9046020186
 21
4.2249038056
 31
0.0
 11
6.8984851179
 21
4.229261793
 31
0.0
 11
6.892559378
 21
4.2338629854
 31
0.0
 11
6.8868316853
 21
4.2386995589
 31
0.0
 11
6.8813074928
 21
4.2437643869
 31
0.0
 11
6.8759921415
 21
4.2490503848
 31
0.0
 11
6.8708910248
 21
4.2545503183
 31
0.0
 11
6.8660095674
 21
4.2602568648
 31
0.0
 11
6.8613531295
 21
4.2661626846
 31
0.0
 11
6.8569268499
 21
4.272260383
 31
0.0
 11
6.8527358173
 21
4.2785425581
 31
0.0
 11
6.8487850068
 21
4.2850019809
 31
0.0
 11
6.8450792424
 21
4.2916316515
 31
0.0
 11
6.8416233882
 21
4.2984244477
 31
0.0
 11
6.8384228091
 21
4.3053718721
 31
0.0
 11
6.8354831579
 21
4.3124646368
 31
0.0
  0
LINE
  5
2E8
100
AcDbEntity
  8
0
100
AcDbLine
 62
6
  6
CONTINUOUS
 10
6.8240219409
 20
4.3892991995
 11
6.8240098204
 21
4.4126656406
  0
SPLINE
  5
2E9
100
AcDbEntity
  8
0
100
AcDbSpline
 62
6
  6
CONTINUOUS
 70
0
 71
3
 72
26
 73
22
 74
20
 42
0.0000001
 43
0.0000001
 44
0.0000000001
 12
-0.0306782346
 22
0.0679710774
 32
0.0
 13
0.0
 23
0.0745735975
 33
0.0
 40
0.0
 40
0.0
 40
0.0
 40
0.0
 40
0.0874481413
 40
0.1728191896
 40
0.3362839197
 40
0.4139589933
 40
0.4886007207
 40
0.5599393366
 40
0.627683162
 40
0.691520872
 40
0.7511137624
 40
0.8061078329
 40
0.8561394245
 40
0.8791800641
 40
0.9008483394
 40
0.9211052603
 40
0.9399117109
 40
0.9572307229
 40
0.9730347228
 40
0.987299071
 40
1.0
 40
1.0
 40
1.0
 40
1.0
 10
6.8412540072
 20
4.3171915909
 30
0.0
 10
6.8403597556
 20
4.3191729057
 30
0.0
 10
6.8386612292
 20
4.3231199601
 30
0.0
 10
6.8356188693
 20
4.3309071786
 30
0.0
 10
6.8330302337
 20
4.3386062826
 30
0.0
 10
6.8308639157
 20
4.3461518545
 30
0.0
 10
6.8294781387
 20
4.3515367301
 30
0.0
 10
6.8282887767
 20
4.3567151805
 30
0.0
 10
6.8272802092
 20
4.3616579684
 30
0.0
 10
6.8264369012
 20
4.3663351278
 30
0.0
 10
6.8257438016
 20
4.3707162194
 30
0.0
 10
6.8251858966
 20
4.3747703356
 30
0.0
 10
6.8248132019
 20
4.3779321157
 30
0.0
 10
6.8245718098
 20
4.3802747896
 30
0.0
 10
6.8244220599
 20
4.3818827716
 30
0.0
 10
6.8242974485
 20
4.3833873066
 30
0.0
 10
6.8241968527
 20
4.3847852665
 30
0.0
 10
6.8241190977
 20
4.38607381
 30
0.0
 10
6.8240637489
 20
4.3872504997
 30
0.0
 10
6.8240303717
 20
4.3883131738
 30
0.0
 10
6.8240219409
 20
4.3889834815
 30
0.0
 10
6.8240219409
 20
4.3892991995
 30
0.0
 11
6.8412540072
 21
4.3171915909
 31
0.0
 11
6.838675389
 21
4.3231814469
 31
0.0
 11
6.8363581521
 21
4.3291111852
 31
0.0
 11
6.832468423
 21
4.3406640998
 31
0.0
 11
6.8308694138
 21
4.3462315353
 31
0.0
 11
6.8294817585
 21
4.3516220949
 31
0.0
 11
6.8282905317
 21
4.3568069899
 31
0.0
 11
6.8272802937
 21
4.3617568506
 31
0.0
 11
6.8264355645
 21
4.3664419139
 31
0.0
 11
6.8257412931
 21
4.3708314039
 31
0.0
 11
6.8251828691
 21
4.374894313
 31
0.0
 11
6.8247470626
 21
4.378599809
 31
0.0
 11
6.824571197
 21
4.3803090085
 31
0.0
 11
6.8244216424
 21
4.381917954
 31
0.0
 11
6.8242972841
 21
4.383423458
 31
0.0
 11
6.8241970073
 21
4.3848223332
 31
0.0
 11
6.8241198114
 21
4.3861115652
 31
0.0
 11
6.8240651703
 21
4.3872888589
 31
0.0
 11
6.8240326811
 21
4.3883521064
 31
0.0
 11
6.8240219409
 21
4.3892991995
 31
0.0
  0
SPLINE
  5
2EA
100
AcDbEntity
  8
0
100
AcDbSpline
 62
6
  6
CONTINUOUS
 70
0
 71
3
 72
16
 73
12
 74
10
 42
0.0000001
 43
0.0000001
 44
0.0000000001
 12
-0.0911162119
 22
0.0635611619
 32
0.0
 13
-0.0457026416
 23
0.10125934
 33
0.0
 40
0.0
 40
0.0
 40
0.0
 40
0.0
 40
0.1235593232
 40
0.1854262024
 40
0.2473541075
 40
0.3714398188
 40
0.4959512127
 40
0.6209807117
 40
0.746612079
 40
0.8729347205
 40
1.0
 40
1.0
 40
1.0
 40
1.0
 10
6.9108793959
 20
4.2323120417
 30
0.0
 10
6.9071266435
 20
4.2349298997
 30
0.0
 10
6.9016319119
 20
4.2390604689
 30
0.0
 10
6.8946071568
 20
4.2449410648
 30
0.0
 10
6.8877756844
 20
4.2510749126
 30
0.0
 10
6.8796205447
 20
4.2591959374
 30
0.0
 10
6.8704942158
 20
4.2696089191
 30
0.0
 10
6.8620502806
 20
4.2806547204
 30
0.0
 10
6.8543178953
 20
4.2922903015
 30
0.0
 10
6.847326337
 20
4.3044717118
 30
0.0
 10
6.8431897468
 20
4.3129027421
 30
0.0
 10
6.8412540072
 20
4.3171915909
 30
0.0
 11
6.9108793959
 21
4.2323120417
 31
0.0
 11
6.8999053312
 21
4.2405580644
 31
0.0
 11
6.8946348628
 21
4.2449696412
 31
0.0
 11
6.8895154677
 21
4.2495658226
 31
0.0
 11
6.8797454453
 21
4.2592911783
 31
0.0
 11
6.8706261238
 21
4.2696921375
 31
0.0
 11
6.8621882828
 21
4.2807257461
 31
0.0
 11
6.8544614175
 21
4.2923487935
 31
0.0
 11
6.8474736285
 21
4.3045192542
 31
0.0
 11
6.8412540072
 21
4.3171915909
 31
0.0
  0
LINE
  5
2EB
100
AcDbEntity
  8
0
100
AcDbLine
 62
6
  6
CONTINUOUS
 10
6.8240219409
 20
4.4381395419
 11
6.8240082467
 21
4.4737887306
  0
SPLINE
  5
2EC
100
AcDbEntity
  8
0
100
AcDbSpline
 62
6
  6
CONTINUOUS
 70
0
 71
3
 72
24
 73
20
 74
18
 42
0.0000001
 43
0.0000001
 44
0.0000000001
 12
-0.0211746116
 22
0.0601185591
 32
0.0
 13
0.0
 23
0.0637385701
 33
0.0
 40
0.0
 40
0.0
 40
0.0
 40
0.0
 40
0.0810855968
 40
0.160912248
 40
0.3157671656
 40
0.4627386698
 40
0.5998122051
 40
0.6639208044
 40
0.724659777
 40
0.781696272
 40
0.8087192545
 40
0.8346886453
 40
0.8833102603
 40
0.9058856505
 40
0.9272525505
 40
0.9473769763
 40
0.9662291714
 40
0.9837798142
 40
1.0
 40
1.0
 40
1.0
 40
1.0
 10
6.8354831579
 20
4.3756907857
 30
0.0
 10
6.8349108393
 20
4.3773157021
 30
0.0
 10
6.8338208105
 20
4.3805566236
 30
0.0
 10
6.8318548708
 20
4.3869716119
 30
0.0
 10
6.8297771229
 20
4.3948133331
 30
0.0
 10
6.8278079869
 20
4.4039308685
 30
0.0
 10
6.8265448166
 20
4.411221216
 30
0.0
 10
6.8257492364
 20
4.4167291111
 30
0.0
 10
6.8252632322
 20
4.4205629661
 30
0.0
 10
6.824927236
 20
4.4236211269
 30
0.0
 10
6.82470075
 20
4.4259478477
 30
0.0
 10
6.8245089475
 20
4.428098237
 30
0.0
 10
6.824350222
 20
4.4301566601
 30
0.0
 10
6.8242251756
 20
4.4321193321
 30
0.0
 10
6.8241509364
 20
4.4334785003
 30
0.0
 10
6.8240934532
 20
4.4347593027
 30
0.0
 10
6.8240525283
 20
4.4359596208
 30
0.0
 10
6.8240279026
 20
4.4370774163
 30
0.0
 10
6.8240219409
 20
4.4377949247
 30
0.0
 10
6.8240219409
 20
4.4381395419
 30
0.0
 11
6.8354831579
 21
4.3756907857
 31
0.0
 11
6.8338346794
 21
4.3805891157
 31
0.0
 11
6.8323432197
 21
4.385453647
 31
0.0
 11
6.8298102821
 21
4.3949933371
 31
0.0
 11
6.8278288522
 21
4.4041491408
 31
0.0
 11
6.8263352547
 21
4.4127573975
 31
0.0
 11
6.8257510308
 21
4.4168016076
 31
0.0
 11
6.825264353
 21
4.4206423108
 31
0.0
 11
6.8248677317
 21
4.4242560351
 31
0.0
 11
6.8247009357
 21
4.4259703462
 31
0.0
 11
6.8245540016
 21
4.4276190636
 31
0.0
 11
6.8243170587
 21
4.4307090647
 31
0.0
 11
6.8242257715
 21
4.4321450891
 31
0.0
 11
6.8241517653
 21
4.4335049725
 31
0.0
 11
6.8240946167
 21
4.434786401
 31
0.0
 11
6.8240540855
 21
4.4359873292
 31
0.0
 11
6.8240299381
 21
4.4371057214
 31
0.0
 11
6.8240219409
 21
4.4381395419
 31
0.0
  0
SPLINE
  5
2ED
100
AcDbEntity
  8
0
100
AcDbSpline
 62
6
  6
CONTINUOUS
 70
0
 71
3
 72
16
 73
12
 74
10
 42
0.0000001
 43
0.0000001
 44
0.0000000001
 12
-0.1043892884
 22
0.0810272255
 32
0.0
 13
-0.0439002283
 23
0.1246407027
 33
0.0
 40
0.0
 40
0.0
 40
0.0
 40
0.0
 40
0.1226802906
 40
0.2459378332
 40
0.3698127968
 40
0.4320139827
 40
0.4943909908
 40
0.6196664778
 40
0.7456815676
 40
0.8724672471
 40
1.0
 40
1.0
 40
1.0
 40
1.0
 10
6.9109022319
 20
4.2693268896
 30
0.0
 10
6.9066333959
 20
4.2726403707
 30
0.0
 10
6.8983288445
 20
4.2796163143
 30
0.0
 10
6.8866680032
 20
4.2910107538
 30
0.0
 10
6.8776398395
 20
4.3012339223
 30
0.0
 10
6.8708473816
 20
4.3098174549
 30
0.0
 10
6.8643290773
 20
4.3186877679
 30
0.0
 10
6.8567444806
 20
4.330251284
 30
0.0
 10
6.8485982096
 20
4.3447917871
 30
0.0
 10
6.8414337857
 20
4.3599498006
 30
0.0
 10
6.8373493969
 20
4.3703921951
 30
0.0
 10
6.8354831579
 20
4.3756907857
 30
0.0
 11
6.9109022319
 21
4.2693268896
 31
0.0
 11
6.8984851179
 21
4.27974967
 31
0.0
 11
6.8868316853
 21
4.2911292879
 31
0.0
 11
6.8759921415
 21
4.303395787
 31
0.0
 11
6.8708910248
 21
4.309841013
 31
0.0
 11
6.8660095674
 21
4.3164830154
 31
0.0
 11
6.8569268499
 21
4.3303235482
 31
0.0
 11
6.8487850068
 21
4.3448498004
 31
0.0
 11
6.8416233882
 21
4.3599962399
 31
0.0
 11
6.8354831579
 21
4.3756907857
 31
0.0
  0
LINE
  5
2EE
100
AcDbEntity
  8
0
100
AcDbLine
 62
2
  6
CONTINUOUS
 10
6.9232080539
 20
4.3292166708
 11
6.9233137148
 21
4.380922792
  0
SPLINE
  5
2EF
100
AcDbEntity
  8
0
100
AcDbSpline
 62
2
  6
CONTINUOUS
 70
0
 71
3
 72
16
 73
12
 74
10
 42
0.0000001
 43
0.0000001
 44
0.0000000001
 12
-0.0723371852
 22
0.0618005993
 32
0.0
 13
-0.0430398827
 23
0.0848501675
 33
0.0
 40
0.0
 40
0.0
 40
0.0
 40
0.0
 40
0.1232558197
 40
0.2470922841
 40
0.3092146896
 40
0.3714573251
 40
0.4962722749
 40
0.6215426058
 40
0.7472626685
 40
0.8734178365
 40
1.0
 40
1.0
 40
1.0
 40
1.0
 10
6.9233137148
 20
4.380922792
 30
0.0
 10
6.9203417218
 20
4.3834618865
 30
0.0
 10
6.914520489
 20
4.388714307
 30
0.0
 10
6.9075909612
 20
4.3956595009
 30
0.0
 10
6.9022481986
 20
4.4014410633
 30
0.0
 10
6.8970328121
 20
4.4073791178
 30
0.0
 10
6.8907775773
 20
4.41506493
 30
0.0
 10
6.8837130073
 20
4.4246693663
 30
0.0
 10
6.8770938119
 20
4.4346371423
 30
0.0
 10
6.8709309437
 20
4.4449413433
 30
0.0
 10
6.86713993
 20
4.4520072935
 30
0.0
 10
6.8653239029
 20
4.4555874661
 30
0.0
 11
6.9233137148
 21
4.380922792
 31
0.0
 11
6.9146048036
 21
4.3887759796
 31
0.0
 11
6.9062808594
 21
4.3971143461
 31
0.0
 11
6.9022692722
 21
4.4014549127
 31
0.0
 11
6.898361153
 21
4.4059041039
 31
0.0
 11
6.8908632753
 21
4.4151128279
 31
0.0
 11
6.8837994721
 21
4.4247124285
 31
0.0
 11
6.8771809288
 21
4.434675676
 31
0.0
 11
6.8710187746
 21
4.4449757391
 31
0.0
 11
6.8653239029
 21
4.4555874661
 31
0.0
  0
LINE
  5
2F0
100
AcDbEntity
  8
0
100
AcDbLine
 62
6
  6
CONTINUOUS
 10
6.8240219409
 20
4.5054342433
 11
6.8240098204
 21
4.547885352
  0
SPLINE
  5
2F1
100
AcDbEntity
  8
0
100
AcDbSpline
 62
6
  6
CONTINUOUS
 70
0
 71
3
 72
23
 73
19
 74
17
 42
0.0000001
 43
0.0000001
 44
0.0000000001
 12
-0.035504157
 22
0.0851537307
 32
0.0
 13
0.0
 23
0.0922588913
 33
0.0
 40
0.0
 40
0.0
 40
0.0
 40
0.0
 40
0.07607932
 40
0.1514077465
 40
0.2257611596
 40
0.2989580051
 40
0.3708130461
 40
0.4411171963
 40
0.576133729
 40
0.7019715664
 40
0.7607184965
 40
0.8162546692
 40
0.8682517737
 40
0.9164010808
 40
0.9389387291
 40
0.9604058298
 40
0.9807702373
 40
1.0
 40
1.0
 40
1.0
 40
1.0
 10
6.8412540072
 20
4.4153443515
 30
0.0
 10
6.8403536298
 20
4.4175038308
 30
0.0
 10
6.838643986
 20
4.4218362287
 30
0.0
 10
6.8363302957
 20
4.4283836244
 30
0.0
 10
6.8342686676
 20
4.4349217452
 30
0.0
 10
6.8324465715
 20
4.4414195381
 30
0.0
 10
6.8308504746
 20
4.4478481549
 30
0.0
 10
6.8290284615
 20
4.4561760508
 30
0.0
 10
6.827235543
 20
4.4662055034
 30
0.0
 10
6.8259371243
 20
4.4759509163
 30
0.0
 10
6.8251763819
 20
4.4832963985
 30
0.0
 10
6.8247413092
 20
4.4883917435
 30
0.0
 10
6.8244154561
 20
4.4931685626
 30
0.0
 10
6.8242233814
 20
4.496936782
 30
0.0
 10
6.8241176651
 20
4.4997688538
 30
0.0
 10
6.8240626399
 20
4.501747665
 30
0.0
 10
6.8240296922
 20
4.503625224
 30
0.0
 10
6.8240219409
 20
4.5048428711
 30
0.0
 10
6.8240219409
 20
4.5054342433
 30
0.0
 11
6.8412540072
 21
4.4153443515
 31
0.0
 11
6.838675389
 21
4.4218725213
 31
0.0
 11
6.8363581521
 21
4.4284245425
 31
0.0
 11
6.8342933879
 21
4.4349661862
 31
0.0
 11
6.832468423
 21
4.4414679798
 31
0.0
 11
6.8308694138
 21
4.4479015125
 31
0.0
 11
6.8294817585
 21
4.4542375193
 31
0.0
 11
6.8272802937
 21
4.4664979164
 31
0.0
 11
6.8257412931
 21
4.4780051171
 31
0.0
 11
6.8251828691
 21
4.4833961994
 31
0.0
 11
6.8247470626
 21
4.4885013373
 31
0.0
 11
6.8244216424
 21
4.4932874822
 31
0.0
 11
6.8241970073
 21
4.4977240005
 31
0.0
 11
6.8241198114
 21
4.4998018655
 31
0.0
 11
6.8240651703
 21
4.5017816425
 31
0.0
 11
6.8240326811
 21
4.5036601592
 31
0.0
 11
6.8240219409
 21
4.5054342433
 31
0.0
  0
SPLINE
  5
2F2
100
AcDbEntity
  8
0
100
AcDbSpline
 62
6
  6
CONTINUOUS
 70
0
 71
3
 72
15
 73
11
 74
9
 42
0.0000001
 43
0.0000001
 44
0.0000000001
 12
-0.0917337191
 22
0.0759156726
 32
0.0
 13
-0.0458228938
 23
0.109902352
 33
0.0
 40
0.0
 40
0.0
 40
0.0
 40
0.0
 40
0.1229660381
 40
0.2465415982
 40
0.3707068699
 40
0.4954657093
 40
0.6207996664
 40
0.7466837142
 40
0.8731010889
 40
1.0
 40
1.0
 40
1.0
 40
1.0
 10
6.9108793959
 20
4.3201513024
 30
0.0
 10
6.9071193519
 20
4.3232629856
 30
0.0
 10
6.8997811558
 20
4.3297484372
 30
0.0
 10
6.8893881414
 20
4.3401765595
 30
0.0
 10
6.8796143977
 20
4.3512826013
 30
0.0
 10
6.8704922987
 20
4.3630178003
 30
0.0
 10
6.86205208
 20
4.3753351536
 30
0.0
 10
6.8543226192
 20
4.3881873783
 30
0.0
 10
6.8473331973
 20
4.4015260758
 30
0.0
 10
6.8431922989
 20
4.4106955219
 30
0.0
 10
6.8412540072
 20
4.4153443515
 30
0.0
 11
6.9108793959
 21
4.3201513024
 31
0.0
 11
6.8999053312
 21
4.3298443118
 31
0.0
 11
6.8895154677
 21
4.3402638064
 31
0.0
 11
6.8797454453
 21
4.3513603452
 31
0.0
 11
6.8706261238
 21
4.3630872107
 31
0.0
 11
6.8621882828
 21
4.3753967005
 31
0.0
 11
6.8544614175
 21
4.3882409826
 31
0.0
 11
6.8474736285
 21
4.4015735986
 31
0.0
 11
6.8412540072
 21
4.4153443515
 31
0.0
  0
LINE
  5
2F3
100
AcDbEntity
  8
0
100
AcDbLine
 62
2
  6
CONTINUOUS
 10
6.9232226333
 20
4.4103536374
 11
6.923316109
 21
4.4719169732
  0
SPLINE
  5
2F4
100
AcDbEntity
  8
0
100
AcDbSpline
 62
2
  6
CONTINUOUS
 70
0
 71
3
 72
12
 73
8
 74
6
 42
0.0000001
 43
0.0000001
 44
0.0000000001
 12
-0.0426673541
 22
0.0385403433
 32
0.0
 13
-0.0327842859
 23
0.0472340107
 33
0.0
 40
0.0
 40
0.0
 40
0.0
 40
0.0
 40
0.2484348758
 40
0.37311761
 40
0.498053002
 40
0.748591143
 40
1.0
 40
1.0
 40
1.0
 40
1.0
 10
6.923316109
 20
4.4719169732
 30
0.0
 10
6.9197827561
 20
4.4751085617
 30
0.0
 10
6.9146206442
 20
4.4800653464
 30
0.0
 10
6.9080326636
 20
4.4869741496
 30
0.0
 10
6.9016205307
 20
4.4941012588
 30
0.0
 10
6.8939713632
 20
4.5033748117
 30
0.0
 10
6.8882696471
 20
4.5111300802
 30
0.0
 10
6.8855222272
 20
4.5150884297
 30
0.0
 11
6.923316109
 21
4.4719169732
 31
0.0
 11
6.9130090325
 21
4.48180644
 31
0.0
 11
6.908061366
 21
4.4869941948
 31
0.0
 11
6.9032564956
 21
4.4923340375
 31
0.0
 11
6.8940873711
 21
4.5034441205
 31
0.0
 11
6.8855222272
 21
4.5150884297
 31
0.0
  0
LINE
  5
2F5
100
AcDbEntity
  8
0
100
AcDbLine
 62
6
  6
CONTINUOUS
 10
6.8240219409
 20
4.5901220262
 11
6.8240082467
 21
4.6448716333
  0
SPLINE
  5
2F6
100
AcDbEntity
  8
0
100
AcDbSpline
 62
6
  6
CONTINUOUS
 70
0
 71
3
 72
20
 73
16
 74
14
 42
0.0000001
 43
0.0000001
 44
0.0000000001
 12
-0.0240674209
 22
0.0709662188
 32
0.0
 13
0.0
 23
0.0749362726
 33
0.0
 40
0.0
 40
0.0
 40
0.0
 40
0.0
 40
0.0717841929
 40
0.1433617255
 40
0.2850507079
 40
0.4235629768
 40
0.5572140709
 40
0.6216083544
 40
0.684021423
 40
0.7441563936
 40
0.801703755
 40
0.8563585546
 40
0.9078210012
 40
0.9557960759
 40
1.0
 40
1.0
 40
1.0
 40
1.0
 10
6.8354831579
 20
4.5163672197
 30
0.0
 10
6.8349072711
 20
4.5180653039
 30
0.0
 10
6.8338108007
 20
4.5214750312
 30
0.0
 10
6.831832557
 20
4.5283157418
 30
0.0
 10
6.8297439981
 20
4.5368555464
 30
0.0
 10
6.8277787131
 20
4.547007915
 30
0.0
 10
6.8265300761
 20
4.5553238395
 30
0.0
 10
6.8257431642
 20
4.5617822556
 30
0.0
 10
6.8252575554
 20
4.5664267549
 30
0.0
 10
6.8248617741
 20
4.5709080494
 30
0.0
 10
6.8245483473
 20
4.5752015535
 30
0.0
 10
6.8243112169
 20
4.5792829578
 30
0.0
 10
6.8241452535
 20
4.5831285616
 30
0.0
 10
6.8240459231
 20
4.5867153149
 30
0.0
 10
6.8240219409
 20
4.5890178671
 30
0.0
 10
6.8240219409
 20
4.5901220262
 30
0.0
 11
6.8354831579
 21
4.5163672197
 31
0.0
 11
6.8338346794
 21
4.5214876435
 31
0.0
 11
6.8323432197
 21
4.5266398662
 31
0.0
 11
6.8298102821
 21
4.5369509571
 31
0.0
 11
6.8278288522
 21
4.547139671
 31
0.0
 11
6.8263352547
 21
4.5570429885
 31
0.0
 11
6.8257510308
 21
4.5618329592
 31
0.0
 11
6.825264353
 21
4.5664845718
 31
0.0
 11
6.8248677317
 21
4.5709733741
 31
0.0
 11
6.8245540016
 21
4.5752743316
 31
0.0
 11
6.8243170587
 21
4.5793630989
 31
0.0
 11
6.8241517653
 21
4.5832159588
 31
0.0
 11
6.8240540855
 21
4.5868097049
 31
0.0
 11
6.8240219409
 21
4.5901220262
 31
0.0
  0
SPLINE
  5
2F7
100
AcDbEntity
  8
0
100
AcDbSpline
 62
6
  6
CONTINUOUS
 70
0
 71
3
 72
20
 73
16
 74
14
 42
0.0000001
 43
0.0000001
 44
0.0000000001
 12
-0.1039487832
 22
0.0915818526
 32
0.0
 13
-0.0444942822
 23
0.131197729
 33
0.0
 40
0.0
 40
0.0
 40
0.0
 40
0.0
 40
0.1232046881
 40
0.1851089818
 40
0.2471788585
 40
0.3093897719
 40
0.3717175808
 40
0.4966806845
 40
0.5593300515
 40
0.6220829469
 40
0.6849363353
 40
0.7478781431
 40
0.8108831149
 40
0.8739249498
 40
1.0
 40
1.0
 40
1.0
 40
1.0
 10
6.9109022319
 20
4.4019899839
 30
0.0
 10
6.9066332395
 20
4.4057510885
 30
0.0
 10
6.9004146449
 20
4.4116292109
 30
0.0
 10
6.8925265866
 20
4.4198815327
 30
0.0
 10
6.8867957633
 20
4.4262932728
 30
0.0
 10
6.8812679556
 20
4.4329062278
 30
0.0
 10
6.8741720761
 20
4.4419856543
 30
0.0
 10
6.8675129208
 20
4.4514248152
 30
0.0
 10
6.8613106653
 20
4.4611837856
 30
0.0
 10
6.8568842282
 20
4.4686678193
 30
0.0
 10
6.8526924867
 20
4.4763010476
 30
0.0
 10
6.8487404359
 20
4.4840741267
 30
0.0
 10
6.8450333411
 20
4.4919767553
 30
0.0
 10
6.8404253435
 20
4.5026702216
 30
0.0
 10
6.8373530309
 20
4.5108536329
 30
0.0
 10
6.8354831579
 20
4.5163672197
 30
0.0
 11
6.9109022319
 21
4.4019899839
 31
0.0
 11
6.8984932238
 21
4.4137095553
 31
0.0
 11
6.8925668649
 21
4.4199085047
 31
0.0
 11
6.8868359953
 21
4.4263194191
 31
0.0
 11
6.8813081592
 21
4.4329316902
 31
0.0
 11
6.8759907132
 21
4.4397348713
 31
0.0
 11
6.8660083588
 21
4.4538791189
 31
0.0
 11
6.8613526638
 21
4.4612040292
 31
0.0
 11
6.8569267591
 21
4.4686866988
 31
0.0
 11
6.8527352542
 21
4.476319033
 31
0.0
 11
6.8487831849
 21
4.4840917969
 31
0.0
 11
6.8450762202
 21
4.4919940629
 31
0.0
 11
6.8416200806
 21
4.5000147656
 31
0.0
 11
6.8354831579
 21
4.5163672197
 31
0.0
  0
LINE
  5
2F8
100
AcDbEntity
  8
0
100
AcDbLine
 62
2
  6
CONTINUOUS
 10
6.9232080539
 20
4.4964717584
 11
6.9233137148
 21
4.5749584089
  0
SPLINE
  5
2F9
100
AcDbEntity
  8
0
100
AcDbSpline
 62
2
  6
CONTINUOUS
 70
0
 71
3
 72
16
 73
12
 74
10
 42
0.0000001
 43
0.0000001
 44
0.0000000001
 12
-0.1029091739
 22
0.0958641979
 32
0.0
 13
-0.0428783867
 23
0.1339465806
 33
0.0
 40
0.0
 40
0.0
 40
0.0
 40
0.0
 40
0.1243514696
 40
0.2491531628
 40
0.3742385081
 40
0.4995040388
 40
0.6248267655
 40
0.6874787112
 40
0.7500994155
 40
0.8751851567
 40
1.0
 40
1.0
 40
1.0
 40
1.0
 10
6.9233137148
 20
4.5749584089
 30
0.0
 10
6.9190480792
 20
4.5789320269
 30
0.0
 10
6.9107764876
 20
4.5871944202
 30
0.0
 10
6.8992152424
 20
4.6004070519
 30
0.0
 10
6.8885137191
 20
4.6143796074
 30
0.0
 10
6.8787103922
 20
4.6290245192
 30
0.0
 10
6.8713167251
 20
4.6417243158
 30
0.0
 10
6.8658839379
 20
4.6521425778
 30
0.0
 10
6.8607809455
 20
4.6627140402
 30
0.0
 10
6.8550265707
 20
4.6761984558
 30
0.0
 10
6.8511029466
 20
4.6872467632
 30
0.0
 10
6.8493189936
 20
4.6928196037
 30
0.0
 11
6.9233137148
 21
4.5749584089
 31
0.0
 11
6.910934559
 21
4.5873125211
 31
0.0
 11
6.899371536
 21
4.6005179338
 31
0.0
 11
6.888670757
 21
4.6144815222
 31
0.0
 11
6.878867899
 21
4.6291199895
 31
0.0
 11
6.8699982359
 21
4.6443513167
 31
0.0
 11
6.8659238933
 21
4.6521642836
 31
0.0
 11
6.8620953098
 21
4.6600956929
 31
0.0
 11
6.8551913832
 21
4.6762767383
 31
0.0
 11
6.8493189936
 21
4.6928196037
 31
0.0
  0
LINE
  5
2FA
100
AcDbEntity
  8
0
100
AcDbLine
 62
6
  6
CONTINUOUS
 10
6.8240219409
 20
4.6908673135
 11
6.8240098204
 21
4.7497357305
  0
SPLINE
  5
2FB
100
AcDbEntity
  8
0
100
AcDbSpline
 62
6
  6
CONTINUOUS
 70
0
 71
3
 72
23
 73
19
 74
17
 42
0.0000001
 43
0.0000001
 44
0.0000000001
 12
-0.0397484084
 22
0.0966092174
 32
0.0
 13
0.0
 23
0.1044666304
 33
0.0
 40
0.0
 40
0.0
 40
0.0
 40
0.0
 40
0.0683310472
 40
0.1367606118
 40
0.2051107535
 40
0.2732386433
 40
0.3409957939
 40
0.4082117026
 40
0.4746981089
 40
0.5402492264
 40
0.6046422242
 40
0.6676275822
 40
0.7289381064
 40
0.7882809081
 40
0.8453546465
 40
0.8998632221
 40
0.9515104571
 40
1.0
 40
1.0
 40
1.0
 40
1.0
 10
6.8412540072
 20
4.5884558178
 30
0.0
 10
6.840348657
 20
4.5906562874
 30
0.0
 10
6.8386300933
 20
4.595099397
 30
0.0
 10
6.8363173156
 20
4.6018587016
 30
0.0
 10
6.8342566115
 20
4.608691575
 30
0.0
 10
6.8324354292
 20
4.6155676647
 30
0.0
 10
6.8308402033
 20
4.6224589357
 30
0.0
 10
6.8294560554
 20
4.6293372083
 30
0.0
 10
6.8282681792
 20
4.6361739704
 30
0.0
 10
6.8272609967
 20
4.6429401748
 30
0.0
 10
6.8264189974
 20
4.649605936
 30
0.0
 10
6.8257271461
 20
4.6561403797
 30
0.0
 10
6.8251705411
 20
4.6625111457
 30
0.0
 10
6.8247362027
 20
4.6686850058
 30
0.0
 10
6.8244111839
 20
4.6746283466
 30
0.0
 10
6.8241865496
 20
4.6803081322
 30
0.0
 10
6.8240532667
 20
4.685691766
 30
0.0
 10
6.8240219409
 20
4.6891788005
 30
0.0
 10
6.8240219409
 20
4.6908673135
 30
0.0
 11
6.8412540072
 21
4.5884558178
 31
0.0
 11
6.838675389
 21
4.5951121124
 31
0.0
 11
6.8363581521
 21
4.6018747289
 31
0.0
 11
6.8342933879
 21
4.6087099876
 31
0.0
 11
6.832468423
 21
4.6155891218
 31
0.0
 11
6.8308694138
 21
4.6224845092
 31
0.0
 11
6.8294817585
 21
4.6293678487
 31
0.0
 11
6.8282905317
 21
4.6362105447
 31
0.0
 11
6.8272802937
 21
4.6429835214
 31
0.0
 11
6.8264355645
 21
4.6496571919
 31
0.0
 11
6.8257412931
 21
4.6562003297
 31
0.0
 11
6.8251828691
 21
4.6625808435
 31
0.0
 11
6.8247470626
 21
4.6687648487
 31
0.0
 11
6.8244216424
 21
4.6747182625
 31
0.0
 11
6.8241970073
 21
4.6804081572
 31
0.0
 11
6.8240651703
 21
4.6858019589
 31
0.0
 11
6.8240219409
 21
4.6908673135
 31
0.0
  0
SPLINE
  5
2FC
100
AcDbEntity
  8
0
100
AcDbSpline
 62
6
  6
CONTINUOUS
 70
0
 71
3
 72
16
 73
12
 74
10
 42
0.0000001
 43
0.0000001
 44
0.0000000001
 12
-0.0907603067
 22
0.0821878873
 32
0.0
 13
-0.0465882106
 23
0.1132334788
 33
0.0
 40
0.0
 40
0.0
 40
0.0
 40
0.0
 40
0.1242175674
 40
0.2488461072
 40
0.3737775897
 40
0.4989348361
 40
0.6242247981
 40
0.686895977
 40
0.7495660837
 40
0.8748563939
 40
1.0
 40
1.0
 40
1.0
 40
1.0
 10
6.9108793959
 20
4.4889305982
 30
0.0
 10
6.9071213878
 20
4.492333658
 30
0.0
 10
6.8997900599
 20
4.4993722115
 30
0.0
 10
6.8893999655
 20
4.5105530128
 30
0.0
 10
6.8796284491
 20
4.5223286573
 30
0.0
 10
6.8705079808
 20
4.534648407
 30
0.0
 10
6.8634755439
 20
4.5453275387
 30
0.0
 10
6.8582039999
 20
4.554095237
 30
0.0
 10
6.8531740278
 20
4.5630038034
 30
0.0
 10
6.8473495994
 20
4.5743858525
 30
0.0
 10
6.8431974127
 20
4.5837323358
 30
0.0
 10
6.8412540072
 20
4.5884558178
 30
0.0
 11
6.9108793959
 21
4.4889305982
 31
0.0
 11
6.8999053312
 21
4.4994615467
 31
0.0
 11
6.8895154677
 21
4.5106380826
 31
0.0
 11
6.8797454453
 21
4.5224085682
 31
0.0
 11
6.8706261238
 21
4.5347244979
 31
0.0
 11
6.8621882828
 21
4.5475364183
 31
0.0
 11
6.8582341814
 21
4.5541128854
 31
0.0
 11
6.8544614175
 21
4.5607948817
 31
0.0
 11
6.8474736285
 21
4.5744519157
 31
0.0
 11
6.8412540072
 21
4.5884558178
 31
0.0
  0
LINE
  5
2FD
100
AcDbEntity
  8
0
100
AcDbLine
 62
2
  6
CONTINUOUS
 10
6.9232226333
 20
4.6170406054
 11
6.923316109
 21
4.7012044419
  0
SPLINE
  5
2FE
100
AcDbEntity
  8
0
100
AcDbSpline
 62
2
  6
CONTINUOUS
 70
0
 71
3
 72
14
 73
10
 74
8
 42
0.0000001
 43
0.0000001
 44
0.0000000001
 12
-0.0761402778
 22
0.0724394541
 32
0.0
 13
-0.0448038285
 23
0.0950654163
 33
0.0
 40
0.0
 40
0.0
 40
0.0
 40
0.0
 40
0.1253271467
 40
0.2507787279
 40
0.3762010038
 40
0.5015124819
 40
0.6266367797
 40
0.7514908397
 40
1.0
 40
1.0
 40
1.0
 40
1.0
 10
6.923316109
 20
4.7012044419
 30
0.0
 10
6.9201352944
 20
4.7042306519
 30
0.0
 10
6.9139183413
 20
4.7104435446
 30
0.0
 10
6.9050501321
 20
4.720198573
 30
0.0
 10
6.8966506124
 20
4.7303595093
 30
0.0
 10
6.8887373617
 20
4.7408887639
 30
0.0
 10
6.8813245731
 20
4.7517525946
 30
0.0
 10
6.872143954
 20
4.7666119708
 30
0.0
 10
6.866025587
 20
4.7781987664
 30
0.0
 10
6.8623141998
 20
4.786073642
 30
0.0
 11
6.923316109
 21
4.7012044419
 31
0.0
 11
6.9139976831
 21
4.7105128626
 31
0.0
 11
6.9051275389
 21
4.7202670904
 31
0.0
 11
6.8967280875
 21
4.7304254579
 31
0.0
 11
6.8888150381
 21
4.7409525673
 31
0.0
 11
6.8814028599
 21
4.7518143468
 31
0.0
 11
6.8745060502
 21
4.7629770766
 31
0.0
 11
6.8623141998
 21
4.786073642
 31
0.0
  0
LINE
  5
2FF
100
AcDbEntity
  8
0
100
AcDbLine
 62
6
  6
CONTINUOUS
 10
6.8240219409
 20
4.806081292
 11
6.8240082467
 21
4.8764911984
  0
SPLINE
  5
300
100
AcDbEntity
  8
0
100
AcDbSpline
 62
6
  6
CONTINUOUS
 70
0
 71
3
 72
23
 73
19
 74
17
 42
0.0000001
 43
0.0000001
 44
0.0000000001
 12
-0.0268214744
 22
0.0770535266
 32
0.0
 13
0.0
 23
0.0815882188
 33
0.0
 40
0.0
 40
0.0
 40
0.0
 40
0.0
 40
0.0647701473
 40
0.1300876989
 40
0.1957835562
 40
0.2617089718
 40
0.3277233956
 40
0.3936661078
 40
0.4593534997
 40
0.5245872785
 40
0.5891463565
 40
0.6527964662
 40
0.7152722303
 40
0.7762925177
 40
0.8355710377
 40
0.89281764
 40
0.9477323341
 40
1.0
 40
1.0
 40
1.0
 40
1.0
 10
6.8354831579
 20
4.7256547209
 30
0.0
 10
6.834904081
 20
4.7273183103
 30
0.0
 10
6.8338019492
 20
4.7306810383
 30
0.0
 10
6.832313778
 20
4.7357942886
 30
0.0
 10
6.8309774886
 20
4.7409817145
 30
0.0
 10
6.8297865631
 20
4.7462237247
 30
0.0
 10
6.8287334146
 20
4.7515018903
 30
0.0
 10
6.8278102321
 20
4.7567976677
 30
0.0
 10
6.8270087636
 20
4.7620916767
 30
0.0
 10
6.8263209765
 20
4.7673636384
 30
0.0
 10
6.8257386065
 20
4.7725924796
 30
0.0
 10
6.8252534688
 20
4.7777558574
 30
0.0
 10
6.8248581554
 20
4.7828303221
 30
0.0
 10
6.8245452338
 20
4.7877913832
 30
0.0
 10
6.8243086636
 20
4.7926142737
 30
0.0
 10
6.8241433478
 20
4.7972739736
 30
0.0
 10
6.8240448172
 20
4.8017448412
 30
0.0
 10
6.8240219409
 20
4.8046598168
 30
0.0
 10
6.8240219409
 20
4.806081292
 30
0.0
 11
6.8354831579
 21
4.7256547209
 31
0.0
 11
6.8338346794
 21
4.7306755034
 31
0.0
 11
6.8323432197
 21
4.7357916846
 31
0.0
 11
6.8310039487
 21
4.7409816787
 31
0.0
 11
6.8298102821
 21
4.7462262925
 31
0.0
 11
6.8287545378
 21
4.7515078067
 31
0.0
 11
6.8278288522
 21
4.7568077221
 31
0.0
 11
6.8270251336
 21
4.7621064312
 31
0.0
 11
6.8263352547
 21
4.7673838385
 31
0.0
 11
6.8257510308
 21
4.7726185985
 31
0.0
 11
6.825264353
 21
4.7777888425
 31
0.0
 11
6.8248677317
 21
4.7828706748
 31
0.0
 11
6.8245540016
 21
4.7878393164
 31
0.0
 11
6.8243170587
 21
4.7926699377
 31
0.0
 11
6.8241517653
 21
4.7973376603
 31
0.0
 11
6.8240540855
 21
4.8018169874
 31
0.0
 11
6.8240219409
 21
4.806081292
 31
0.0
  0
SPLINE
  5
301
100
AcDbEntity
  8
0
100
AcDbSpline
 62
6
  6
CONTINUOUS
 70
0
 71
3
 72
16
 73
12
 74
10
 42
0.0000001
 43
0.0000001
 44
0.0000000001
 12
-0.1017762472
 22
0.0947024393
 32
0.0
 13
-0.0457021814
 23
0.1312945815
 33
0.0
 40
0.0
 40
0.0
 40
0.0
 40
0.0
 40
0.1256839144
 40
0.2514865967
 40
0.3143788495
 40
0.3772388066
 40
0.5027747054
 40
0.6279568827
 40
0.7526407162
 40
0.8767068049
 40
1.0
 40
1.0
 40
1.0
 40
1.0
 10
6.9109022319
 20
4.610450888
 30
0.0
 10
6.9066383529
 20
4.6144184124
 30
0.0
 10
6.8983520028
 20
4.6226252378
 30
0.0
 10
6.8886400485
 20
4.6334966045
 30
0.0
 10
6.881274079
 20
4.6425336866
 30
0.0
 10
6.8741904203
 20
4.6517780442
 30
0.0
 10
6.8658730019
 20
4.6637051199
 30
0.0
 10
6.8567874051
 20
4.6785521726
 30
0.0
 10
6.8486407066
 20
4.6938580347
 30
0.0
 10
6.8414743003
 20
4.7095498643
 30
0.0
 10
6.8373614139
 20
4.7202588114
 30
0.0
 10
6.8354831579
 20
4.7256547209
 30
0.0
 11
6.9109022319
 21
4.610450888
 31
0.0
 11
6.8984851179
 21
4.6227436709
 31
0.0
 11
6.8868316853
 21
4.6357848368
 31
0.0
 11
6.8813074928
 21
4.6425619915
 31
0.0
 11
6.8759921415
 21
4.6494984948
 31
0.0
 11
6.8660095674
 21
4.6638137588
 31
0.0
 11
6.8569268499
 21
4.6786585832
 31
0.0
 11
6.8487850068
 21
4.6939611446
 31
0.0
 11
6.8416233882
 21
4.7096518857
 31
0.0
 11
6.8354831579
 21
4.7256547209
 31
0.0
  0
LINE
  5
302
100
AcDbEntity
  8
0
100
AcDbLine
 62
2
  6
CONTINUOUS
 10
6.9232080539
 20
4.7335880184
 11
6.9233137148
 21
4.8339235932
  0
SPLINE
  5
303
100
AcDbEntity
  8
0
100
AcDbSpline
 62
2
  6
CONTINUOUS
 70
0
 71
3
 72
17
 73
13
 74
11
 42
0.0000001
 43
0.0000001
 44
0.0000000001
 12
-0.1065202404
 22
0.1012166773
 32
0.0
 13
-0.0423512901
 23
0.1407044619
 33
0.0
 40
0.0
 40
0.0
 40
0.0
 40
0.0
 40
0.0640641249
 40
0.1280664911
 40
0.2556732762
 40
0.3192298154
 40
0.3825852382
 40
0.5085796493
 40
0.6334778683
 40
0.7571076046
 40
0.8793354193
 40
1.0
 40
1.0
 40
1.0
 40
1.0
 10
6.9233137148
 20
4.8339235932
 30
0.0
 10
6.9210390062
 20
4.8360850459
 30
0.0
 10
6.9165629912
 20
4.8404816352
 30
0.0
 10
6.9079194891
 20
4.8495453783
 30
0.0
 10
6.8997355173
 20
4.8590048101
 30
0.0
 10
6.8920381585
 20
4.8688130167
 30
0.0
 10
6.8847021347
 20
4.8787967265
 30
0.0
 10
6.8761787687
 20
4.8916265588
 30
0.0
 10
6.8670085164
 20
4.9075279195
 30
0.0
 10
6.8589533421
 20
4.9238175451
 30
0.0
 10
6.8520546781
 20
4.9404046587
 30
0.0
 10
6.8482265946
 20
4.95168036
 30
0.0
 10
6.8465231611
 20
4.9573397083
 30
0.0
 11
6.9233137148
 21
4.8339235932
 31
0.0
 11
6.9165974913
 21
4.8405196477
 31
0.0
 11
6.9101068155
 21
4.8473252299
 31
0.0
 11
6.8978371359
 21
4.8615040159
 31
0.0
 11
6.8920714138
 21
4.868850674
 31
0.0
 11
6.8865590301
 21
4.876352638
 31
0.0
 11
6.8763159404
 21
4.8917744865
 31
0.0
 11
6.8671506232
 21
4.9076745826
 31
0.0
 11
6.8591034426
 21
4.9239611485
 31
0.0
 11
6.8522135624
 21
4.9405471946
 31
0.0
 11
6.8465231611
 21
4.9573397083
 31
0.0
  0
LINE
  5
304
100
AcDbEntity
  8
0
100
AcDbLine
 62
6
  6
CONTINUOUS
 10
6.8240219409
 20
4.9339469684
 11
6.8240098204
 21
5.0055337746
  0
SPLINE
  5
305
100
AcDbEntity
  8
0
100
AcDbSpline
 62
6
  6
CONTINUOUS
 70
0
 71
3
 72
23
 73
19
 74
17
 42
0.0000001
 43
0.0000001
 44
0.0000000001
 12
-0.0438499511
 22
0.101289072
 32
0.0
 13
0.0
 23
0.1103734312
 33
0.0
 40
0.0
 40
0.0
 40
0.0
 40
0.0
 40
0.0622304599
 40
0.1251640946
 40
0.1886789652
 40
0.2526802379
 40
0.3170636417
 40
0.3817025502
 40
0.4464514785
 40
0.5111470051
 40
0.5756077419
 40
0.6396242306
 40
0.702967115
 40
0.7653744272
 40
0.8265707811
 40
0.8862734098
 40
0.9441895994
 40
1.0
 40
1.0
 40
1.0
 40
1.0
 10
6.8412540072
 20
4.8256487596
 30
0.0
 10
6.8403444063
 20
4.8277498481
 30
0.0
 10
6.8386181002
 20
4.8320211046
 30
0.0
 10
6.8363059882
 20
4.8385685585
 30
0.0
 10
6.8342460434
 20
4.8452677109
 30
0.0
 10
6.8324256876
 20
4.8520907642
 30
0.0
 10
6.8308312827
 20
4.8590123258
 30
0.0
 10
6.8294479507
 20
4.8660069561
 30
0.0
 10
6.8282608638
 20
4.8730490081
 30
0.0
 10
6.8272544432
 20
4.8801123541
 30
0.0
 10
6.8264131812
 20
4.8871699958
 30
0.0
 10
6.8257220405
 20
4.8941937978
 30
0.0
 10
6.8251661537
 20
4.9011537217
 30
0.0
 10
6.8247325225
 20
4.9080183002
 30
0.0
 10
6.8244082627
 20
4.9147547833
 30
0.0
 10
6.824184437
 20
4.921329995
 30
0.0
 10
6.8240520876
 20
4.9277094584
 30
0.0
 10
6.8240219409
 20
4.9318936399
 30
0.0
 10
6.8240219409
 20
4.9339469684
 30
0.0
 11
6.8412540072
 21
4.8256487596
 31
0.0
 11
6.838675389
 21
4.8320149396
 31
0.0
 11
6.8363581521
 21
4.8385632313
 31
0.0
 11
6.8342933879
 21
4.8452626205
 31
0.0
 11
6.832468423
 21
4.8520868541
 31
0.0
 11
6.8308694138
 21
4.8590108336
 31
0.0
 11
6.8294817585
 21
4.8660090002
 31
0.0
 11
6.8282905317
 21
4.8730555822
 31
0.0
 11
6.8272802937
 21
4.8801244257
 31
0.0
 11
6.8264355645
 21
4.8871888534
 31
0.0
 11
6.8257412931
 21
4.8942203809
 31
0.0
 11
6.8251828691
 21
4.9011894151
 31
0.0
 11
6.8247470626
 21
4.9080637239
 31
0.0
 11
6.8244216424
 21
4.9148103317
 31
0.0
 11
6.8241970073
 21
4.9213960858
 31
0.0
 11
6.8240651703
 21
4.9277871347
 31
0.0
 11
6.8240219409
 21
4.9339469684
 31
0.0
  0
SPLINE
  5
306
100
AcDbEntity
  8
0
100
AcDbSpline
 62
6
  6
CONTINUOUS
 70
0
 71
3
 72
15
 73
11
 74
9
 42
0.0000001
 43
0.0000001
 44
0.0000000001
 12
-0.0885568696
 22
0.0820597196
 32
0.0
 13
-0.0479651148
 23
0.1107946953
 33
0.0
 40
0.0
 40
0.0
 40
0.0
 40
0.0
 40
0.1269934677
 40
0.2537213199
 40
0.3800058769
 40
0.505710452
 40
0.6306908842
 40
0.7548115886
 40
0.877959009
 40
1.0
 40
1.0
 40
1.0
 40
1.0
 10
6.9108793959
 20
4.728044905
 30
0.0
 10
6.9071306813
 20
4.7315185878
 30
0.0
 10
6.8998190138
 20
4.7386535202
 30
0.0
 10
6.8894299149
 20
4.7498843789
 30
0.0
 10
6.879658805
 20
4.7615898297
 30
0.0
 10
6.8705379796
 20
4.7737207796
 30
0.0
 10
6.8620978031
 20
4.7862299233
 30
0.0
 10
6.8543672656
 20
4.7990699325
 30
0.0
 10
6.8473756633
 20
4.8121925954
 30
0.0
 10
6.8432052439
 20
4.8211415948
 30
0.0
 10
6.8412540072
 20
4.8256487596
 30
0.0
 11
6.9108793959
 21
4.728044905
 31
0.0
 11
6.8999053312
 21
4.7387520945
 31
0.0
 11
6.8895154677
 21
4.7499834088
 31
0.0
 11
6.8797454453
 21
4.7616882583
 31
0.0
 11
6.8706261238
 21
4.773819397
 31
0.0
 11
6.8621882828
 21
4.7863287281
 31
0.0
 11
6.8544614175
 21
4.7991682946
 31
0.0
 11
6.8474736285
 21
4.812291625
 31
0.0
 11
6.8412540072
 21
4.8256487596
 31
0.0
  0
LINE
  5
307
100
AcDbEntity
  8
0
100
AcDbLine
 62
2
  6
CONTINUOUS
 10
6.9232226333
 20
4.8860129616
 11
6.923316109
 21
4.9874889754
  0
SPLINE
  5
308
100
AcDbEntity
  8
0
100
AcDbSpline
 62
2
  6
CONTINUOUS
 70
0
 71
3
 72
15
 73
11
 74
9
 42
0.0000001
 43
0.0000001
 44
0.0000000001
 12
-0.0945684231
 22
0.0888692536
 32
0.0
 13
-0.0461402345
 23
0.1212930734
 33
0.0
 40
0.0
 40
0.0
 40
0.0
 40
0.0
 40
0.1298517558
 40
0.2587242137
 40
0.3863493601
 40
0.5125526112
 40
0.6371609337
 40
0.7600180312
 40
0.8809956111
 40
1.0
 40
1.0
 40
1.0
 40
1.0
 10
6.923316109
 20
4.9874889754
 30
0.0
 10
6.9192228171
 20
4.9913355849
 30
0.0
 10
6.9112792732
 20
4.9992291659
 30
0.0
 10
6.9000867967
 20
5.0116510911
 30
0.0
 10
6.8896917024
 20
5.0245460081
 30
0.0
 10
6.8801282448
 20
5.0378424739
 30
0.0
 10
6.8714271593
 20
5.0514746511
 30
0.0
 10
6.8636179309
 20
5.0653783347
 30
0.0
 10
6.8567291077
 20
5.079490709
 30
0.0
 10
6.8527349815
 20
5.0890807878
 30
0.0
 10
6.8509046847
 20
5.0938922572
 30
0.0
 11
6.923316109
 21
4.9874889754
 31
0.0
 11
6.9113621428
 21
4.9993660831
 31
0.0
 11
6.9001676893
 21
5.011791068
 31
0.0
 11
6.8897744577
 21
5.0246863701
 31
0.0
 11
6.8802140176
 21
5.0379840345
 31
0.0
 11
6.8715175401
 21
5.0516172423
 31
0.0
 11
6.8637148558
 21
5.0655209425
 31
0.0
 11
6.8568345018
 21
5.0796325488
 31
0.0
 11
6.8509046847
 21
5.0938922572
 31
0.0
  0
LINE
  5
309
100
AcDbEntity
  8
0
100
AcDbLine
 62
6
  6
CONTINUOUS
 10
6.8240219409
 20
5.0724478245
 11
6.8240082467
 21
5.1540939167
  0
SPLINE
  5
30A
100
AcDbEntity
  8
0
100
AcDbSpline
 62
6
  6
CONTINUOUS
 70
0
 71
3
 72
23
 73
19
 74
17
 42
0.0000001
 43
0.0000001
 44
0.0000000001
 12
-0.0297246399
 22
0.0777747102
 32
0.0
 13
0.0
 23
0.0832613942
 33
0.0
 40
0.0
 40
0.0
 40
0.0
 40
0.0
 40
0.0587522496
 40
0.1186470329
 40
0.1795711292
 40
0.2414255588
 40
0.304114818
 40
0.3675218045
 40
0.4315063052
 40
0.4959116248
 40
0.5605565979
 40
0.6252449564
 40
0.6897432572
 40
0.7537989122
 40
0.8171448909
 40
0.8795018444
 40
0.9405672895
 40
1.0
 40
1.0
 40
1.0
 40
1.0
 10
6.8354831579
 20
4.990402986
 30
0.0
 10
6.8349010281
 20
4.9919261324
 30
0.0
 10
6.8337934405
 20
4.9950283991
 30
0.0
 10
6.8323058234
 20
4.9997861612
 30
0.0
 10
6.8309701168
 20
5.0046780086
 30
0.0
 10
6.8297798015
 20
5.009686803
 30
0.0
 10
6.8287272571
 20
5.0147965885
 30
0.0
 10
6.8278046536
 20
5.0199913534
 30
0.0
 10
6.8270037468
 20
5.0252543431
 30
0.0
 10
6.8263165004
 20
5.0305679365
 30
0.0
 10
6.8257346456
 20
5.0359136761
 30
0.0
 10
6.8252500219
 20
5.041271637
 30
0.0
 10
6.8248552028
 20
5.046620514
 30
0.0
 10
6.8245427871
 20
5.0519374784
 30
0.0
 10
6.8243067404
 20
5.0571988652
 30
0.0
 10
6.8241419813
 20
5.0623799189
 30
0.0
 10
6.8240440743
 20
5.0674540233
 30
0.0
 10
6.8240219409
 20
5.0707983411
 30
0.0
 10
6.8240219409
 20
5.0724478245
 30
0.0
 11
6.8354831579
 21
4.990402986
 31
0.0
 11
6.8338346794
 21
4.9950086531
 31
0.0
 11
6.8323432197
 21
4.9997673242
 31
0.0
 11
6.8310039487
 21
5.0046599594
 31
0.0
 11
6.8298102821
 21
5.0096698043
 31
0.0
 11
6.8287545378
 21
5.0147815141
 31
0.0
 11
6.8278288522
 21
5.0199790795
 31
0.0
 11
6.8270251336
 21
5.0252455432
 31
0.0
 11
6.8263352547
 21
5.0305634586
 31
0.0
 11
6.8257510308
 21
5.0359140886
 31
0.0
 11
6.825264353
 21
5.0412780985
 31
0.0
 11
6.8248677317
 21
5.0466336506
 31
0.0
 11
6.8245540016
 21
5.0519577783
 31
0.0
 11
6.8243170587
 21
5.0572267279
 31
0.0
 11
6.8241517653
 21
5.0624160229
 31
0.0
 11
6.8240540855
 21
5.0674994786
 31
0.0
 11
6.8240219409
 21
5.0724478245
 31
0.0
  0
SPLINE
  5
30B
100
AcDbEntity
  8
0
100
AcDbSpline
 62
6
  6
CONTINUOUS
 70
0
 71
3
 72
18
 73
14
 74
12
 42
0.0000001
 43
0.0000001
 44
0.0000000001
 12
-0.0981878549
 22
0.0904798941
 32
0.0
 13
-0.0476669905
 23
0.124720985
 33
0.0
 40
0.0
 40
0.0
 40
0.0
 40
0.0
 40
0.1297024478
 40
0.1942781515
 40
0.2586049161
 40
0.3863161439
 40
0.5125725266
 40
0.5751163826
 40
0.6372455141
 40
0.7601797036
 40
0.8209433756
 40
0.8811904235
 40
1.0
 40
1.0
 40
1.0
 40
1.0
 10
6.9109022319
 20
4.8816112364
 30
0.0
 10
6.9066571636
 20
4.8855230577
 30
0.0
 10
6.9004575059
 20
4.891558552
 30
0.0
 10
6.892545648
 20
4.8999189795
 30
0.0
 10
6.8849239628
 20
4.908426517
 30
0.0
 10
6.8759068355
 20
4.9193620665
 30
0.0
 10
6.867557416
 20
4.930717561
 30
0.0
 10
6.8613294836
 20
4.9399894354
 30
0.0
 10
6.8554482964
 20
4.9493104055
 30
0.0
 10
6.8500123104
 20
4.9588139373
 30
0.0
 10
6.8450496684
 20
4.9684721377
 30
0.0
 10
6.8404618951
 20
4.9781106681
 30
0.0
 10
6.8373709229
 20
4.9854636369
 30
0.0
 10
6.8354831579
 20
4.990402986
 30
0.0
 11
6.9109022319
 21
4.8816112364
 31
0.0
 11
6.8984932587
 21
4.8936911347
 31
0.0
 11
6.8925669328
 21
4.8999536883
 31
0.0
 11
6.8868360973
 21
4.9063510611
 31
0.0
 11
6.8759908525
 21
4.9195096875
 31
0.0
 11
6.8660084279
 21
4.9330939809
 31
0.0
 11
6.8613526804
 21
4.9400265359
 31
0.0
 11
6.8569267302
 21
4.9470426246
 31
0.0
 11
6.8487831288
 21
4.9612941141
 31
0.0
 11
6.8450761765
 21
4.9685108654
 31
0.0
 11
6.8416200557
 21
4.9757747283
 31
0.0
 11
6.8354831579
 21
4.990402986
 31
0.0
  0
LINE
  5
30C
100
AcDbEntity
  8
0
100
AcDbLine
 62
2
  6
CONTINUOUS
 10
6.9232080539
 20
5.025666564
 11
6.9233137148
 21
5.14154661
  0
SPLINE
  5
30D
100
AcDbEntity
  8
0
100
AcDbSpline
 62
2
  6
CONTINUOUS
 70
0
 71
3
 72
22
 73
18
 74
16
 42
0.0000001
 43
0.0000001
 44
0.0000000001
 12
-0.1014474215
 22
0.092233404
 32
0.0
 13
-0.0448446131
 23
0.1295667427
 33
0.0
 40
0.0
 40
0.0
 40
0.0
 40
0.0
 40
0.0670882921
 40
0.1337442094
 40
0.2655010248
 40
0.3305327514
 40
0.3949548847
 40
0.4587375998
 40
0.5218515464
 40
0.5842688059
 40
0.64596548
 40
0.7069196508
 40
0.7671131817
 40
0.8265331246
 40
0.8851682199
 40
0.9429983941
 40
1.0
 40
1.0
 40
1.0
 40
1.0
 10
6.9233137148
 20
5.14154661
 30
0.0
 10
6.9210450701
 20
5.1436092039
 30
0.0
 10
6.9165811802
 20
5.1477864068
 30
0.0
 10
6.9079622726
 20
5.1563291414
 30
0.0
 10
6.8997770151
 20
5.1651699533
 30
0.0
 10
6.8920558081
 20
5.1742765245
 30
0.0
 10
6.886542764
 20
5.1811775501
 30
0.0
 10
6.8812883878
 20
5.1881680568
 30
0.0
 10
6.8762979868
 20
5.1952375844
 30
0.0
 10
6.8715768693
 20
5.202375709
 30
0.0
 10
6.8671301276
 20
5.209572174
 30
0.0
 10
6.8629626809
 20
5.2168169326
 30
0.0
 10
6.8590794185
 20
5.2241002555
 30
0.0
 10
6.8554853012
 20
5.2314126603
 30
0.0
 10
6.8521853917
 20
5.2387442786
 30
0.0
 10
6.8491851339
 20
5.2460842264
 30
0.0
 10
6.8473752327
 20
5.2510118674
 30
0.0
 10
6.8465231611
 20
5.2534737049
 30
0.0
 11
6.9233137148
 21
5.14154661
 31
0.0
 11
6.9165974914
 21
5.1478316497
 31
0.0
 11
6.9101068157
 21
5.1542654226
 31
0.0
 11
6.8978371365
 21
5.1675242182
 31
0.0
 11
6.8920714146
 21
5.174325542
 31
0.0
 11
6.8865590309
 21
5.1812271146
 31
0.0
 11
6.8813053992
 21
5.1882182798
 31
0.0
 11
6.8763159413
 21
5.1952884293
 31
0.0
 11
6.8715959994
 21
5.202427043
 31
0.0
 11
6.8671506241
 21
5.2096239208
 31
0.0
 11
6.8629847977
 21
5.2168689427
 31
0.0
 11
6.8591034434
 21
5.2241522972
 31
0.0
 11
6.8555113999
 21
5.2314646106
 31
0.0
 11
6.8522135626
 21
5.2387964035
 31
0.0
 11
6.8492154942
 21
5.2461367184
 31
0.0
 11
6.8465231611
 21
5.2534737049
 31
0.0
  0
SPLINE
  5
30E
100
AcDbEntity
  8
0
100
AcDbSpline
 62
2
  6
CONTINUOUS
 70
0
 71
3
 72
12
 73
8
 74
6
 42
0.0000001
 43
0.0000001
 44
0.0000000001
 12
-0.0111058798
 22
0.0320875257
 32
0.0
 13
-0.0042213109
 23
0.0336916964
 33
0.0
 40
0.0
 40
0.0
 40
0.0
 40
0.0
 40
0.2411840818
 40
0.364013714
 40
0.4883053341
 40
0.7412221335
 40
1.0
 40
1.0
 40
1.0
 40
1.0
 10
6.8465231611
 20
5.2534737049
 30
0.0
 10
6.8456303073
 20
5.2560533717
 30
0.0
 10
6.8444160375
 20
5.2599942313
 30
0.0
 10
6.8430238164
 20
5.2653432524
 30
0.0
 10
6.8417507216
 20
5.2708585493
 30
0.0
 10
6.8404061932
 20
5.2779332318
 30
0.0
 10
6.839578705
 20
5.2836671756
 30
0.0
 10
6.8392145777
 20
5.2865733973
 30
0.0
 11
6.8465231611
 21
5.2534737049
 31
0.0
 11
6.844098681
 21
5.2612960265
 31
0.0
 11
6.8430466135
 21
5.2653318468
 31
0.0
 11
6.8420958895
 21
5.2694437031
 31
0.0
 11
6.8404807053
 21
5.277878264
 31
0.0
 11
6.8392145777
 21
5.2865733973
 31
0.0
  0
LINE
  5
30F
100
AcDbEntity
  8
0
100
AcDbLine
 62
6
  6
CONTINUOUS
 10
6.8240219409
 20
5.2193996192
 11
6.8240098204
 21
5.2992067522
  0
SPLINE
  5
310
100
AcDbEntity
  8
0
100
AcDbSpline
 62
6
  6
CONTINUOUS
 70
0
 71
3
 72
23
 73
19
 74
17
 42
0.0000001
 43
0.0000001
 44
0.0000000001
 12
-0.0481692443
 22
0.0984649535
 32
0.0
 13
0.0
 23
0.109615798
 33
0.0
 40
0.0
 40
0.0
 40
0.0
 40
0.0
 40
0.0568743754
 40
0.114892452
 40
0.1740108666
 40
0.2342024761
 40
0.2954235539
 40
0.357604576
 40
0.4206533468
 40
0.4844570665
 40
0.5488821276
 40
0.6137639128
 40
0.678914474
 40
0.7441055849
 40
0.8090900571
 40
0.8736006042
 40
0.9373502366
 40
1.0
 40
1.0
 40
1.0
 40
1.0
 10
6.8412540072
 20
5.112019472
 30
0.0
 10
6.8403408086
 20
5.113886183
 30
0.0
 10
6.8386074408
 20
5.1177125101
 30
0.0
 10
6.8362954791
 20
5.1236381408
 30
0.0
 10
6.834235974
 20
5.129783921
 30
0.0
 10
6.8324162883
 20
5.1361262903
 30
0.0
 10
6.8308226478
 20
5.1426441227
 30
0.0
 10
6.8294401421
 20
5.1493163269
 30
0.0
 10
6.8282538904
 20
5.156121763
 30
0.0
 10
6.8272482947
 20
5.1630388821
 30
0.0
 10
6.8264078347
 20
5.1700452901
 30
0.0
 10
6.8257174608
 20
5.1771173798
 30
0.0
 10
6.8251623284
 20
5.1842293344
 30
0.0
 10
6.824729416
 20
5.1913534457
 30
0.0
 10
6.8244058855
 20
5.1984598911
 30
0.0
 10
6.8241827885
 20
5.2055174633
 30
0.0
 10
6.8240512163
 20
5.2124919772
 30
0.0
 10
6.8240219409
 20
5.2171104846
 30
0.0
 10
6.8240219409
 20
5.2193996192
 30
0.0
 11
6.8412540072
 21
5.112019472
 31
0.0
 11
6.838675389
 21
5.117695527
 31
0.0
 11
6.8363581521
 21
5.1236180407
 31
0.0
 11
6.8342933879
 21
5.129760613
 31
0.0
 11
6.832468423
 21
5.1361011544
 31
0.0
 11
6.8308694138
 21
5.1426186669
 31
0.0
 11
6.8294817585
 21
5.14929194
 31
0.0
 11
6.8282905317
 21
5.1560996454
 31
0.0
 11
6.8272802937
 21
5.1630201942
 31
0.0
 11
6.8264355645
 21
5.1700314951
 31
0.0
 11
6.8257412931
 21
5.1771095957
 31
0.0
 11
6.8251828691
 21
5.1842292603
 31
0.0
 11
6.8247470626
 21
5.1913619344
 31
0.0
 11
6.8244216424
 21
5.1984778221
 31
0.0
 11
6.8241970073
 21
5.2055456283
 31
0.0
 11
6.8240651703
 21
5.2125323514
 31
0.0
 11
6.8240219409
 21
5.2193996192
 31
0.0
  0
SPLINE
  5
311
100
AcDbEntity
  8
0
100
AcDbSpline
 62
6
  6
CONTINUOUS
 70
0
 71
3
 72
15
 73
11
 74
9
 42
0.0000001
 43
0.0000001
 44
0.0000000001
 12
-0.0852719524
 22
0.0758488455
 32
0.0
 13
-0.0501504421
 23
0.1025148106
 33
0.0
 40
0.0
 40
0.0
 40
0.0
 40
0.0
 40
0.131344384
 40
0.2612800812
 40
0.3895659443
 40
0.5160135066
 40
0.6404362728
 40
0.7626666877
 40
0.8825689676
 40
1.0
 40
1.0
 40
1.0
 40
1.0
 10
6.9108793959
 20
5.0224697917
 30
0.0
 10
6.9071460653
 20
5.025790565
 30
0.0
 10
6.8998655413
 20
5.0325629663
 30
0.0
 10
6.8894767191
 20
5.0431382867
 30
0.0
 10
6.8797053047
 20
5.0540381881
 30
0.0
 10
6.870583558
 20
5.0652180121
 30
0.0
 10
6.862141839
 20
5.0766348092
 30
0.0
 10
6.8544091484
 20
5.0882457458
 30
0.0
 10
6.8474147427
 20
5.1000073007
 30
0.0
 10
6.8432170799
 20
5.1080066654
 30
0.0
 10
6.8412540072
 20
5.112019472
 30
0.0
 11
6.9108793959
 21
5.0224697917
 31
0.0
 11
6.8999053312
 21
5.03268045
 31
0.0
 11
6.8895154677
 21
5.043260838
 31
0.0
 11
6.8797454453
 21
5.0541645926
 31
0.0
 11
6.8706261238
 21
5.0653486963
 31
0.0
 11
6.8621882828
 21
5.0767694308
 31
0.0
 11
6.8544614175
 21
5.0883833432
 31
0.0
 11
6.8474736285
 21
5.1001483829
 31
0.0
 11
6.8412540072
 21
5.112019472
 31
0.0
  0
LINE
  5
312
100
AcDbEntity
  8
0
100
AcDbLine
 62
2
  6
CONTINUOUS
 10
6.9232226333
 20
5.2003701837
 11
6.923316109
 21
5.3127822636
  0
SPLINE
  5
313
100
AcDbEntity
  8
0
100
AcDbSpline
 62
2
  6
CONTINUOUS
 70
0
 71
3
 72
22
 73
18
 74
16
 42
0.0000001
 43
0.0000001
 44
0.0000000001
 12
-0.0983335713
 22
0.0854546522
 32
0.0
 13
-0.046642848
 23
0.1216405918
 33
0.0
 40
0.0
 40
0.0
 40
0.0
 40
0.0
 40
0.0691250653
 40
0.1375617666
 40
0.2720894736
 40
0.3381007812
 40
0.4032279837
 40
0.4674386982
 40
0.5307016201
 40
0.5929875275
 40
0.6542720039
 40
0.7145333378
 40
0.7737542391
 40
0.8319232775
 40
0.8890316743
 40
0.9450633197
 40
1.0
 40
1.0
 40
1.0
 40
1.0
 10
6.923316109
 20
5.3127822636
 30
0.0
 10
6.9210503375
 20
5.3147512831
 30
0.0
 10
6.9165925044
 20
5.3187291392
 30
0.0
 10
6.9079869698
 20
5.3268270206
 30
0.0
 10
6.8998003447
 20
5.3351679249
 30
0.0
 10
6.8920639863
 20
5.3437277107
 30
0.0
 10
6.8865515559
 20
5.3501772576
 30
0.0
 10
6.8812981576
 20
5.356686749
 30
0.0
 10
6.8763090233
 20
5.3632466387
 30
0.0
 10
6.8715893571
 20
5.3698474348
 30
0.0
 10
6.867144163
 20
5.3764798092
 30
0.0
 10
6.8629782689
 20
5.3831346297
 30
0.0
 10
6.8590964693
 20
5.3898030579
 30
0.0
 10
6.8555036292
 20
5.3964764869
 30
0.0
 10
6.8522047164
 20
5.4031459638
 30
0.0
 10
6.8492050969
 20
5.4098016066
 30
0.0
 10
6.8473905311
 20
5.4142672852
 30
0.0
 10
6.8465363966
 20
5.4164947953
 30
0.0
 11
6.923316109
 21
5.3127822636
 31
0.0
 11
6.9165972373
 21
5.3187783946
 31
0.0
 11
6.9101047592
 21
5.3248888309
 31
0.0
 11
6.8978336952
 21
5.3374018248
 31
0.0
 11
6.892068221
 21
5.3437826261
 31
0.0
 11
6.8865565944
 21
5.350233173
 31
0.0
 11
6.8813041391
 21
5.3567437406
 31
0.0
 11
6.8763161856
 21
5.3633046528
 31
0.0
 11
6.8715979853
 21
5.3699063191
 31
0.0
 11
6.867154497
 21
5.3765394622
 31
0.0
 11
6.8629906117
 21
5.3831948826
 31
0.0
 11
6.8591111627
 21
5.3898636602
 31
0.0
 11
6.8555209015
 21
5.3965372705
 31
0.0
 11
6.8522246361
 21
5.4032070945
 31
0.0
 11
6.8492278416
 21
5.4098631857
 31
0.0
 11
6.8465363966
 21
5.4164947953
 31
0.0
  0
LINE
  5
314
100
AcDbEntity
  8
0
100
AcDbLine
 62
6
  6
CONTINUOUS
 10
6.8240219409
 20
5.3724848348
 11
6.8240082467
 21
5.4602369885
  0
SPLINE
  5
315
100
AcDbEntity
  8
0
100
AcDbSpline
 62
6
  6
CONTINUOUS
 70
0
 71
3
 72
23
 73
19
 74
17
 42
0.0000001
 43
0.0000001
 44
0.0000000001
 12
-0.0331052034
 22
0.072691691
 32
0.0
 13
0.0
 23
0.0798751303
 33
0.0
 40
0.0
 40
0.0
 40
0.0
 40
0.0
 40
0.0530221947
 40
0.1076684333
 40
0.1639079909
 40
0.2217138718
 40
0.2810538966
 40
0.3418694377
 40
0.4040757911
 40
0.4675676605
 40
0.5322117865
 40
0.5978563807
 40
0.6643051323
 40
0.7313382443
 40
0.7987112692
 40
0.8661583125
 40
0.9333764896
 40
1.0
 40
1.0
 40
1.0
 40
1.0
 10
6.8354831579
 20
5.2939769078
 30
0.0
 10
6.8348980544
 20
5.2952616655
 30
0.0
 10
6.8337848527
 20
5.2979051729
 30
0.0
 10
6.8322975546
 20
5.3020096489
 30
0.0
 10
6.8309623314
 20
5.3062995273
 30
0.0
 10
6.8297726321
 20
5.3107611823
 30
0.0
 10
6.8287207543
 20
5.3153821588
 30
0.0
 10
6.8277988222
 20
5.3201500086
 30
0.0
 10
6.826998582
 20
5.3250516771
 30
0.0
 10
6.8263119799
 20
5.330073332
 30
0.0
 10
6.8257307352
 20
5.3352003069
 30
0.0
 10
6.8252467054
 20
5.3404163614
 30
0.0
 10
6.8248524419
 20
5.3457036889
 30
0.0
 10
6.8245405702
 20
5.3510425641
 30
0.0
 10
6.824305057
 20
5.356411923
 30
0.0
 10
6.8241408306
 20
5.36178884
 30
0.0
 10
6.8240434784
 20
5.3671474029
 30
0.0
 10
6.8240219409
 20
5.3707109809
 30
0.0
 10
6.8240219409
 20
5.3724848348
 30
0.0
 11
6.8354831579
 21
5.2939769078
 31
0.0
 11
6.8338346794
 21
5.2978780684
 31
0.0
 11
6.8323432197
 21
5.3019802246
 31
0.0
 11
6.8310039487
 21
5.3062680787
 31
0.0
 11
6.8298102821
 21
5.3107283678
 31
0.0
 11
6.8287545378
 21
5.3153490857
 31
0.0
 11
6.8278288522
 21
5.3201177189
 31
0.0
 11
6.8270251336
 21
5.3250210259
 31
0.0
 11
6.8263352547
 21
5.3300453051
 31
0.0
 11
6.8257510308
 21
5.3351756054
 31
0.0
 11
6.825264353
 21
5.3403963409
 31
0.0
 11
6.8248677317
 21
5.3456891036
 31
0.0
 11
6.8245540016
 21
5.3510341829
 31
0.0
 11
6.8243170587
 21
5.3564103932
 31
0.0
 11
6.8241517653
 21
5.3617951983
 31
0.0
 11
6.8240540855
 21
5.3671633703
 31
0.0
 11
6.8240219409
 21
5.3724848348
 31
0.0
  0
SPLINE
  5
316
100
AcDbEntity
  8
0
100
AcDbSpline
 62
6
  6
CONTINUOUS
 70
0
 71
3
 72
22
 73
18
 74
16
 42
0.0000001
 43
0.0000001
 44
0.0000000001
 12
-0.0932440847
 22
0.0796862144
 32
0.0
 13
-0.0508360064
 23
0.1116246055
 33
0.0
 40
0.0
 40
0.0
 40
0.0
 40
0.0
 40
0.0682490222
 40
0.1359156534
 40
0.2692633134
 40
0.3348696922
 40
0.3997168003
 40
0.4637715005
 40
0.5270010784
 40
0.5893745433
 40
0.6508639016
 40
0.7114432906
 40
0.7710906133
 40
0.8297884383
 40
0.8875213156
 40
0.9442667483
 40
1.0
 40
1.0
 40
1.0
 40
1.0
 10
6.9109022319
 20
5.1984330273
 30
0.0
 10
6.9087809594
 20
5.2002458627
 30
0.0
 10
6.90459803
 20
5.20390506
 30
0.0
 10
6.8964833672
 20
5.2113456398
 30
0.0
 10
6.8887099778
 20
5.2189949704
 30
0.0
 10
6.8813042741
 20
5.2268372667
 30
0.0
 10
6.8759884678
 20
5.2327532032
 30
0.0
 10
6.8708867971
 20
5.2387274959
 30
0.0
 10
6.8660045902
 20
5.24475287
 30
0.0
 10
6.8613472126
 20
5.2508220199
 30
0.0
 10
6.8569197908
 20
5.2569276032
 30
0.0
 10
6.8527273712
 20
5.2630623945
 30
0.0
 10
6.8487749132
 20
5.2692193241
 30
0.0
 10
6.8450673001
 20
5.2753914069
 30
0.0
 10
6.8416095849
 20
5.2815713761
 30
0.0
 10
6.8384070174
 20
5.2877511134
 30
0.0
 10
6.8364275766
 20
5.2919031738
 30
0.0
 10
6.8354831579
 20
5.2939769078
 30
0.0
 11
6.9109022319
 21
5.1984330273
 31
0.0
 11
6.9046020186
 21
5.2039450902
 31
0.0
 11
6.8984851179
 21
5.2095547425
 31
0.0
 11
6.8868316853
 21
5.2210312461
 31
0.0
 11
6.8813074928
 21
5.2268824983
 31
0.0
 11
6.8759921415
 21
5.2327994872
 31
0.0
 11
6.8708910248
 21
5.2387749082
 31
0.0
 11
6.8660095674
 21
5.2448013818
 31
0.0
 11
6.8613531295
 21
5.2508715443
 31
0.0
 11
6.8569268499
 21
5.2569780866
 31
0.0
 11
6.8527358173
 21
5.263113716
 31
0.0
 11
6.8487850068
 21
5.269271308
 31
0.0
 11
6.8450792424
 21
5.2754439607
 31
0.0
 11
6.8416233882
 21
5.2816246709
 31
0.0
 11
6.8384228091
 21
5.2878052672
 31
0.0
 11
6.8354831579
 21
5.2939769078
 31
0.0
  0
LINE
  5
317
100
AcDbEntity
  8
0
100
AcDbLine
 62
2
  6
CONTINUOUS
 10
6.9232080539
 20
5.354355026
 11
6.9233137148
 21
5.4784983737
  0
SPLINE
  5
318
100
AcDbEntity
  8
0
100
AcDbSpline
 62
2
  6
CONTINUOUS
 70
0
 71
3
 72
23
 73
19
 74
17
 42
0.0000001
 43
0.0000001
 44
0.0000000001
 12
-0.0947492737
 22
0.0768427395
 32
0.0
 13
-0.0490970133
 23
0.1116768319
 33
0.0
 40
0.0
 40
0.0
 40
0.0
 40
0.0
 40
0.0715716071
 40
0.1421526189
 40
0.2116644468
 40
0.2800434795
 40
0.3472488691
 40
0.413242395
 40
0.4779871713
 40
0.5414479286
 40
0.6035921481
 40
0.6643928538
 40
0.7238265866
 40
0.7818750499
 40
0.8385266085
 40
0.8937735326
 40
0.9476024966
 40
1.0
 40
1.0
 40
1.0
 40
1.0
 10
6.9233137148
 20
5.4784983737
 30
0.0
 10
6.9210532622
 20
5.4803316265
 30
0.0
 10
6.9166059201
 20
5.4840252699
 30
0.0
 10
6.9101163827
 20
5.4896806069
 30
0.0
 10
6.9038608221
 20
5.4954031792
 30
0.0
 10
6.8978468255
 20
5.5011827242
 30
0.0
 10
6.8920805302
 20
5.5070098503
 30
0.0
 10
6.8865673585
 20
5.5128758351
 30
0.0
 10
6.8813127044
 20
5.5187720709
 30
0.0
 10
6.8763219492
 20
5.5246900124
 30
0.0
 10
6.8716003633
 20
5.5306212539
 30
0.0
 10
6.867153038
 20
5.5365575075
 30
0.0
 10
6.8629848891
 20
5.5424906636
 30
0.0
 10
6.8591007918
 20
5.5484128671
 30
0.0
 10
6.855505677
 20
5.5543164657
 30
0.0
 10
6.8522045922
 20
5.5601935006
 30
0.0
 10
6.8492029916
 20
5.5660351604
 30
0.0
 10
6.8473806814
 20
5.5699531284
 30
0.0
 10
6.8465231611
 20
5.5719036575
 30
0.0
 11
6.9233137148
 21
5.4784983737
 31
0.0
 11
6.9165974914
 21
5.4840774865
 31
0.0
 11
6.910106816
 21
5.4897351924
 31
0.0
 11
6.9038507967
 21
5.49545984
 31
0.0
 11
6.8978371377
 21
5.5012408985
 31
0.0
 11
6.892071416
 21
5.5070695356
 31
0.0
 11
6.8865590324
 21
5.5129370658
 31
0.0
 11
6.8813054008
 21
5.5188348597
 31
0.0
 11
6.8763159429
 21
5.5247543225
 31
0.0
 11
6.871596001
 21
5.5306869357
 31
0.0
 11
6.8671506257
 21
5.5366244577
 31
0.0
 11
6.8629847993
 21
5.5425587156
 31
0.0
 11
6.8591034447
 21
5.5484817733
 31
0.0
 11
6.8555114009
 21
5.5543860295
 31
0.0
 11
6.8522135631
 21
5.5602637969
 31
0.0
 11
6.8492154944
 21
5.5661062025
 31
0.0
 11
6.8465231611
 21
5.5719036575
 31
0.0
  0
SPLINE
  5
319
100
AcDbEntity
  8
0
100
AcDbSpline
 62
2
  6
CONTINUOUS
 70
0
 71
3
 72
15
 73
11
 74
9
 42
0.0000001
 43
0.0000001
 44
0.0000000001
 12
-0.0170046645
 22
0.0386790751
 32
0.0
 13
-0.003214359
 23
0.0421295307
 33
0.0
 40
0.0
 40
0.0
 40
0.0
 40
0.0
 40
0.1140492127
 40
0.2308925927
 40
0.3507242634
 40
0.4737348528
 40
0.6000703417
 40
0.7298513449
 40
0.8631535042
 40
1.0
 40
1.0
 40
1.0
 40
1.0
 10
6.8465231611
 20
5.5719036575
 30
0.0
 10
6.8458767049
 20
5.5733740968
 30
0.0
 10
6.8446648674
 20
5.5763943945
 30
0.0
 10
6.8430952436
 20
5.5810804504
 30
0.0
 10
6.8417398197
 20
5.5859637595
 30
0.0
 10
6.8405845109
 20
5.5910349821
 30
0.0
 10
6.839614515
 20
5.5962871203
 30
0.0
 10
6.8388147569
 20
5.6017141308
 30
0.0
 10
6.8381700247
 20
5.6073105016
 30
0.0
 10
6.8378373575
 20
5.6111011638
 30
0.0
 10
6.8376907329
 20
5.6130229234
 30
0.0
 11
6.8465231611
 21
5.5719036575
 31
0.0
 11
6.8447230854
 21
5.5763736245
 31
0.0
 11
6.8431494012
 21
5.5810529557
 31
0.0
 11
6.8417895809
 21
5.5859300575
 31
0.0
 11
6.8406295618
 21
5.5909963918
 31
0.0
 11
6.8396547869
 21
5.5962445578
 31
0.0
 11
6.8388502611
 21
5.6016687216
 31
0.0
 11
6.8382007791
 21
5.6072634286
 31
0.0
 11
6.8376907329
 21
5.6130229234
 31
0.0
  0
LINE
  5
31A
100
AcDbEntity
  8
0
100
AcDbLine
 62
6
  6
CONTINUOUS
 10
6.8240219409
 20
5.529289226
 11
6.8240098204
 21
5.6123021102
  0
SPLINE
  5
31B
100
AcDbEntity
  8
0
100
AcDbSpline
 62
6
  6
CONTINUOUS
 70
0
 71
3
 72
23
 73
19
 74
17
 42
0.0000001
 43
0.0000001
 44
0.0000000001
 12
-0.0530279747
 22
0.0874934331
 32
0.0
 13
0.0
 23
0.1023086845
 33
0.0
 40
0.0
 40
0.0
 40
0.0
 40
0.0
 40
0.0517943508
 40
0.1049916428
 40
0.1596765452
 40
0.2159322465
 40
0.2738110666
 40
0.3333299017
 40
0.3944737241
 40
0.4571998339
 40
0.5214381888
 40
0.5870818127
 40
0.6539945512
 40
0.7219900679
 40
0.7908558675
 40
0.8603447092
 40
0.9301785873
 40
1.0
 40
1.0
 40
1.0
 40
1.0
 10
6.8412540072
 20
5.4295742302
 30
0.0
 10
6.8403384906
 20
5.4310847853
 30
0.0
 10
6.8385989495
 20
5.4342185578
 30
0.0
 10
6.8362858
 20
5.4391522214
 30
0.0
 10
6.8342258989
 20
5.4443604982
 30
0.0
 10
6.8324064619
 20
5.4498253922
 30
0.0
 10
6.8308134211
 20
5.4555313751
 30
0.0
 10
6.8294317441
 20
5.4614630406
 30
0.0
 10
6.8282464193
 20
5.4676051285
 30
0.0
 10
6.8272417834
 20
5.4739420593
 30
0.0
 10
6.8264022699
 20
5.4804574911
 30
0.0
 10
6.8257127973
 20
5.4871338659
 30
0.0
 10
6.8251585315
 20
5.4939512385
 30
0.0
 10
6.8247264201
 20
5.500887432
 30
0.0
 10
6.824403665
 20
5.5079174404
 30
0.0
 10
6.8241813026
 20
5.5150140122
 30
0.0
 10
6.8240504648
 20
5.5221454111
 30
0.0
 10
6.8240219409
 20
5.5269081137
 30
0.0
 10
6.8240219409
 20
5.529289226
 30
0.0
 11
6.8412540072
 21
5.4295742302
 31
0.0
 11
6.838675389
 21
5.4342035126
 31
0.0
 11
6.8363581521
 21
5.439128115
 31
0.0
 11
6.8342933879
 21
5.4443279101
 31
0.0
 11
6.832468423
 21
5.4497863596
 31
0.0
 11
6.8308694138
 21
5.4554878859
 31
0.0
 11
6.8294817585
 21
5.4614169592
 31
0.0
 11
6.8282905317
 21
5.4675580349
 31
0.0
 11
6.8272802937
 21
5.4738954454
 31
0.0
 11
6.8264355645
 21
5.4804130737
 31
0.0
 11
6.8257412931
 21
5.4870930042
 31
0.0
 11
6.8251828691
 21
5.4939159445
 31
0.0
 11
6.8247470626
 21
5.5008588119
 31
0.0
 11
6.8244216424
 21
5.507896862
 31
0.0
 11
6.8241970073
 21
5.5150026242
 31
0.0
 11
6.8240651703
 21
5.5221460199
 31
0.0
 11
6.8240219409
 21
5.529289226
 31
0.0
  0
SPLINE
  5
31C
100
AcDbEntity
  8
0
100
AcDbSpline
 62
6
  6
CONTINUOUS
 70
0
 71
3
 72
20
 73
16
 74
14
 42
0.0000001
 43
0.0000001
 44
0.0000000001
 12
-0.0809501257
 22
0.0644738437
 32
0.0
 13
-0.053639313
 23
0.0885021099
 33
0.0
 40
0.0
 40
0.0
 40
0.0
 40
0.0
 40
0.1375879754
 40
0.2721019227
 40
0.4032274765
 40
0.4674446249
 40
0.5307213172
 40
0.5930280074
 40
0.6543375945
 40
0.7146246527
 40
0.7738664801
 40
0.8320441655
 40
0.8891404718
 40
0.9451336922
 40
1.0
 40
1.0
 40
1.0
 40
1.0
 10
6.9108793959
 20
5.3537054598
 30
0.0
 10
6.907166808
 20
5.3566624017
 30
0.0
 10
6.8999287109
 20
5.3626425748
 30
0.0
 10
6.8895410158
 20
5.3718980043
 30
0.0
 10
6.8813424474
 20
5.3797932576
 30
0.0
 10
6.8751084066
 20
5.3861757826
 30
0.0
 10
6.8706316531
 20
5.3909542067
 30
0.0
 10
6.8663251815
 20
5.3957526939
 30
0.0
 10
6.8621926744
 20
5.4005667038
 30
0.0
 10
6.8582377646
 20
5.4053917357
 30
0.0
 10
6.8544640017
 20
5.4102233984
 30
0.0
 10
6.850874853
 20
5.4150573546
 30
0.0
 10
6.8474738817
 20
5.4198891526
 30
0.0
 10
6.8442648176
 20
5.4247138635
 30
0.0
 10
6.8422350042
 20
5.4279556355
 30
0.0
 10
6.8412540072
 20
5.4295742302
 30
0.0
 11
6.9108793959
 21
5.3537054598
 31
0.0
 11
6.8999053312
 21
5.3627780137
 31
0.0
 11
6.8895154677
 21
5.3720426707
 31
0.0
 11
6.8797454453
 21
5.3814602074
 31
0.0
 11
6.8751025065
 21
5.3862150619
 31
0.0
 11
6.8706261238
 21
5.3909945377
 31
0.0
 11
6.8663201493
 21
5.3957940533
 31
0.0
 11
6.8621882828
 21
5.4006090688
 31
0.0
 11
6.8582341814
 21
5.405435057
 31
0.0
 11
6.8544614175
 21
5.4102675824
 31
0.0
 11
6.8508734197
 21
5.4151023647
 31
0.0
 11
6.8474736285
 21
5.4199350905
 31
0.0
 11
6.844265821
 21
5.424760831
 31
0.0
 11
6.8412540072
 21
5.4295742302
 31
0.0
  0
LINE
  5
31D
100
AcDbEntity
  8
0
100
AcDbLine
 62
2
  6
CONTINUOUS
 10
6.9232226333
 20
5.5403600512
 11
6.923316109
 21
5.6566449329
  0
SPLINE
  5
31E
100
AcDbEntity
  8
0
100
AcDbSpline
 62
2
  6
CONTINUOUS
 70
0
 71
3
 72
23
 73
19
 74
17
 42
0.0000001
 43
0.0000001
 44
0.0000000001
 12
-0.0908405259
 22
0.0675596717
 32
0.0
 13
-0.0524112683
 23
0.1003462472
 33
0.0
 40
0.0
 40
0.0
 40
0.0
 40
0.0
 40
0.0745252763
 40
0.1476927613
 40
0.2194154924
 40
0.2896225671
 40
0.3582673045
 40
0.4253061084
 40
0.490697066
 40
0.5544002581
 40
0.6163789871
 40
0.6766027477
 40
0.7350451846
 40
0.7916856495
 40
0.8465108018
 40
0.8995124103
 40
0.950678698
 40
1.0
 40
1.0
 40
1.0
 40
1.0
 10
6.923316109
 20
5.6566449329
 30
0.0
 10
6.9210594706
 20
5.658323234
 30
0.0
 10
6.9166202436
 20
5.6616938358
 30
0.0
 10
6.9101291215
 20
5.66683506
 30
0.0
 10
6.9038727422
 20
5.6720074233
 30
0.0
 10
6.8978585754
 20
5.6772020258
 30
0.0
 10
6.8920926876
 20
5.6824107713
 30
0.0
 10
6.8865804106
 20
5.687626178
 30
0.0
 10
6.8813270431
 20
5.6928408705
 30
0.0
 10
6.8763378662
 20
5.6980475318
 30
0.0
 10
6.8716180435
 20
5.7032389732
 30
0.0
 10
6.8671725671
 20
5.7084081212
 30
0.0
 10
6.8630062538
 20
5.7135480576
 30
0.0
 10
6.85912387
 20
5.7186520857
 30
0.0
 10
6.8555302287
 20
5.7237136908
 30
0.0
 10
6.8522302609
 20
5.7287261042
 30
0.0
 10
6.849229324
 20
5.7336818231
 30
0.0
 10
6.8473980606
 20
5.7370039199
 30
0.0
 10
6.8465363966
 20
5.7386536558
 30
0.0
 11
6.923316109
 21
5.6566449329
 31
0.0
 11
6.9165972373
 21
5.6617477524
 31
0.0
 11
6.9101047594
 21
5.6668916422
 31
0.0
 11
6.9038477048
 21
5.6720664169
 31
0.0
 11
6.8978336958
 21
5.677262927
 31
0.0
 11
6.8920682218
 21
5.6824735934
 31
0.0
 11
6.8865565952
 21
5.6876909731
 31
0.0
 11
6.8813041399
 21
5.6929076738
 31
0.0
 11
6.8763161865
 21
5.6981163346
 31
0.0
 11
6.8715979861
 21
5.7033096653
 31
0.0
 11
6.8671544979
 21
5.7084806328
 31
0.0
 11
6.8629906126
 21
5.7136222672
 31
0.0
 11
6.8591111635
 21
5.7187277957
 31
0.0
 11
6.8555209021
 21
5.7237907251
 31
0.0
 11
6.8522246363
 21
5.7288044895
 31
0.0
 11
6.8492278416
 21
5.733761523
 31
0.0
 11
6.8465363966
 21
5.7386536558
 31
0.0
  0
SPLINE
  5
31F
100
AcDbEntity
  8
0
100
AcDbSpline
 62
2
  6
CONTINUOUS
 70
0
 71
3
 72
14
 73
10
 74
8
 42
0.0000001
 43
0.0000001
 44
0.0000000001
 12
-0.0108150691
 22
0.0207064556
 32
0.0
 13
-0.0040842289
 23
0.0230009151
 33
0.0
 40
0.0
 40
0.0
 40
0.0
 40
0.0
 40
0.235605265
 40
0.3566319483
 40
0.4800153521
 40
0.6058946035
 40
0.7344274652
 40
0.8657571178
 40
1.0
 40
1.0
 40
1.0
 40
1.0
 10
6.8465363966
 20
5.7386536558
 30
0.0
 10
6.8456870342
 20
5.7402798391
 30
0.0
 10
6.844526942
 20
5.7428089666
 30
0.0
 10
6.8431944573
 20
5.7463018449
 30
0.0
 10
6.8422777007
 20
5.7490365435
 30
0.0
 10
6.8414491082
 20
5.7518599473
 30
0.0
 10
6.840704541
 20
5.7547705318
 30
0.0
 10
6.8400397728
 20
5.7577670009
 30
0.0
 10
6.839651282
 20
5.7597984928
 30
0.0
 10
6.8394685224
 20
5.7608277292
 30
0.0
 11
6.8465363966
 21
5.7386536558
 31
0.0
 11
6.8442284717
 21
5.7436503027
 31
0.0
 11
6.8432189865
 21
5.7462912106
 31
0.0
 11
6.8423011366
 21
5.7490234893
 31
0.0
 11
6.8414713092
 21
5.7518446039
 31
0.0
 11
6.8407254164
 21
5.7547531032
 31
0.0
 11
6.8400592301
 21
5.7577478555
 31
0.0
 11
6.8394685224
 21
5.7608277292
 31
0.0
  0
LINE
  5
320
100
AcDbEntity
  8
0
100
AcDbLine
 62
6
  6
CONTINUOUS
 10
6.8240219409
 20
5.687339894
 11
6.8240082467
 21
5.7756843188
  0
SPLINE
  5
321
100
AcDbEntity
  8
0
100
AcDbSpline
 62
6
  6
CONTINUOUS
 70
0
 71
3
 72
23
 73
19
 74
17
 42
0.0000001
 43
0.0000001
 44
0.0000000001
 12
-0.0373846681
 22
0.0612017525
 32
0.0
 13
-0.0
 23
0.0717165805
 33
0.0
 40
0.0
 40
0.0
 40
0.0
 40
0.0
 40
0.0471394737
 40
0.0962149929
 40
0.1473463916
 40
0.2006349791
 40
0.2561576675
 40
0.3139513201
 40
0.3740169193
 40
0.4363250241
 40
0.5008103235
 40
0.5673820007
 40
0.6358939661
 40
0.7061699593
 40
0.7779959778
 40
0.8511251383
 40
0.925257002
 40
1.0
 40
1.0
 40
1.0
 40
1.0
 10
6.8354831579
 20
5.6173018204
 30
0.0
 10
6.8348957267
 20
5.6182634932
 30
0.0
 10
6.8337768107
 20
5.6202760978
 30
0.0
 10
6.8322888239
 20
5.6234715023
 30
0.0
 10
6.8309535465
 20
5.6268917146
 30
0.0
 10
6.8297642826
 20
5.6305273964
 30
0.0
 10
6.8287130925
 20
5.634370401
 30
0.0
 10
6.8277919624
 20
5.6384126695
 30
0.0
 10
6.8269925711
 20
5.6426457161
 30
0.0
 10
6.8263068075
 20
5.6470604159
 30
0.0
 10
6.8257263566
 20
5.6516468538
 30
0.0
 10
6.8252430843
 20
5.6563935263
 30
0.0
 10
6.8248495098
 20
5.6612872733
 30
0.0
 10
6.8245382863
 20
5.6663127313
 30
0.0
 10
6.8243033779
 20
5.6714527795
 30
0.0
 10
6.8241397227
 20
5.6766877765
 30
0.0
 10
6.8240429285
 20
5.6819941512
 30
0.0
 10
6.8240219409
 20
5.6855531232
 30
0.0
 10
6.8240219409
 20
5.687339894
 30
0.0
 11
6.8354831579
 21
5.6173018204
 31
0.0
 11
6.8338346794
 21
5.6202533502
 31
0.0
 11
6.8323432197
 21
5.623441238
 31
0.0
 11
6.8310039487
 21
5.6268548893
 31
0.0
 11
6.8298102821
 21
5.6304853661
 31
0.0
 11
6.8287545378
 21
5.6343247555
 31
0.0
 11
6.8278288522
 21
5.6383648257
 31
0.0
 11
6.8270251336
 21
5.6425968832
 31
0.0
 11
6.8263352547
 21
5.6470118323
 31
0.0
 11
6.8257510308
 21
5.6515994472
 31
0.0
 11
6.825264353
 21
5.6563488702
 31
0.0
 11
6.8248677317
 21
5.66124628
 31
0.0
 11
6.8245540016
 21
5.6662764598
 31
0.0
 11
6.8243170587
 21
5.6714221239
 31
0.0
 11
6.8241517653
 21
5.6766640918
 31
0.0
 11
6.8240540855
 21
5.6819796781
 31
0.0
 11
6.8240219409
 21
5.687339894
 31
0.0
  0
SPLINE
  5
322
100
AcDbEntity
  8
0
100
AcDbSpline
 62
6
  6
CONTINUOUS
 70
0
 71
3
 72
23
 73
19
 74
17
 42
0.0000001
 43
0.0000001
 44
0.0000000001
 12
-0.0869884655
 22
0.0638496009
 32
0.0
 13
-0.0562497589
 23
0.0920854456
 33
0.0
 40
0.0
 40
0.0
 40
0.0
 40
0.0
 40
0.0728378832
 40
0.1445636869
 40
0.2151047609
 40
0.2843891426
 40
0.3523457921
 40
0.4189071513
 40
0.484027282
 40
0.5476723282
 40
0.6098103686
 40
0.6704116624
 40
0.7294489084
 40
0.7868908536
 40
0.8426993261
 40
0.8968393834
 40
0.9492809869
 40
1.0
 40
1.0
 40
1.0
 40
1.0
 10
6.9109022319
 20
5.5410091824
 30
0.0
 10
6.9087902134
 20
5.5425594056
 30
0.0
 10
6.9046252088
 20
5.545672888
 30
0.0
 10
6.8985121166
 20
5.5504161306
 30
0.0
 10
6.8925868108
 20
5.5551908575
 30
0.0
 10
6.886856833
 20
5.5599898021
 30
0.0
 10
6.8813296162
 20
5.5648057627
 30
0.0
 10
6.87601205
 20
5.5696321276
 30
0.0
 10
6.8709099488
 20
5.5744628591
 30
0.0
 10
6.8660281849
 20
5.5792925403
 30
0.0
 10
6.8613713661
 20
5.5841160358
 30
0.0
 10
6.8569440879
 20
5.5889282028
 30
0.0
 10
6.8527511339
 20
5.5937237287
 30
0.0
 10
6.848797581
 20
5.5984967306
 30
0.0
 10
6.8450887907
 20
5.6032407157
 30
0.0
 10
6.8416303988
 20
5.6079489629
 30
0.0
 10
6.8384281208
 20
5.6126146179
 30
0.0
 10
6.8364341354
 20
5.6157449928
 30
0.0
 10
6.8354831579
 20
5.6173018204
 30
0.0
 11
6.9109022319
 21
5.5410091824
 31
0.0
 11
6.9046075447
 21
5.5457156932
 31
0.0
 11
6.8984932846
 21
5.5504610307
 31
0.0
 11
6.8925669855
 21
5.5552379392
 31
0.0
 11
6.8868361816
 21
5.5600391627
 31
0.0
 11
6.8813084067
 21
5.5648574453
 31
0.0
 11
6.8759909933
 21
5.5696856768
 31
0.0
 11
6.8708894969
 21
5.5745180311
 31
0.0
 11
6.8660085484
 21
5.5793493502
 31
0.0
 11
6.8613527709
 21
5.5841744819
 31
0.0
 11
6.8569267875
 21
5.5889882738
 31
0.0
 11
6.852735229
 21
5.5937855619
 31
0.0
 11
6.8487831394
 21
5.5985605474
 31
0.0
 11
6.845076178
 21
5.6033064866
 31
0.0
 11
6.8416200543
 21
5.6080165589
 31
0.0
 11
6.8384204778
 21
5.6126839437
 31
0.0
 11
6.8354831579
 21
5.6173018204
 31
0.0
  0
LINE
  5
323
100
AcDbEntity
  8
0
100
AcDbLine
 62
2
  6
CONTINUOUS
 10
6.9232080539
 20
5.6990006995
 11
6.9233137148
 21
5.8236069659
  0
SPLINE
  5
324
100
AcDbEntity
  8
0
100
AcDbSpline
 62
2
  6
CONTINUOUS
 70
0
 71
3
 72
23
 73
19
 74
17
 42
0.0000001
 43
0.0000001
 44
0.0000000001
 12
-0.0866030429
 22
0.0573216435
 32
0.0
 13
-0.0571572575
 23
0.0867116242
 33
0.0
 40
0.0
 40
0.0
 40
0.0
 40
0.0
 40
0.077964735
 40
0.1541570791
 40
0.2284790734
 40
0.3008496649
 40
0.3712132145
 40
0.439517324
 40
0.505711184
 40
0.5697459221
 40
0.6315759467
 40
0.6911619983
 40
0.7484691222
 40
0.8034680812
 40
0.8561370213
 40
0.9064599267
 40
0.9544188418
 40
1.0
 40
1.0
 40
1.0
 40
1.0
 10
6.9233137148
 20
5.8236069659
 30
0.0
 10
6.9210630538
 20
5.8250966548
 30
0.0
 10
6.9166358356
 20
5.828077017
 30
0.0
 10
6.910146934
 20
5.8326003781
 30
0.0
 10
6.9038920373
 20
5.8371189335
 30
0.0
 10
6.8978786631
 20
5.8416252993
 30
0.0
 10
6.8921129783
 20
5.8461128019
 30
0.0
 10
6.8866004073
 20
5.8505753076
 30
0.0
 10
6.8813463324
 20
5.8550067632
 30
0.0
 10
6.8763561156
 20
5.8594011577
 30
0.0
 10
6.8716349988
 20
5.863752589
 30
0.0
 10
6.8671880516
 20
5.8680552485
 30
0.0
 10
6.8630201725
 20
5.8723034543
 30
0.0
 10
6.8591361929
 20
5.8764916991
 30
0.0
 10
6.8555409631
 20
5.8806146231
 30
0.0
 10
6.8522394566
 20
5.8846666636
 30
0.0
 10
6.8492370769
 20
5.8886416513
 30
0.0
 10
6.8473915924
 20
5.8913039688
 30
0.0
 10
6.8465231611
 20
5.8926214409
 30
0.0
 11
6.9233137148
 21
5.8236069659
 31
0.0
 11
6.9165974915
 21
5.8281295955
 31
0.0
 11
6.9101068161
 21
5.8326557403
 31
0.0
 11
6.9038507968
 21
5.8371768796
 31
0.0
 11
6.8978371379
 21
5.8416854119
 31
0.0
 11
6.8920714163
 21
5.846175128
 31
0.0
 11
6.8865590327
 21
5.8506399373
 31
0.0
 11
6.881305401
 21
5.8550737801
 31
0.0
 11
6.8763159432
 21
5.8594706148
 31
0.0
 11
6.8715960013
 21
5.8638244597
 31
0.0
 11
6.867150626
 21
5.8681295498
 31
0.0
 11
6.8629847996
 21
5.8723801727
 31
0.0
 11
6.859103445
 21
5.8765707659
 31
0.0
 11
6.8555114011
 21
5.8806959782
 31
0.0
 11
6.8522135632
 21
5.8847503974
 31
0.0
 11
6.8492154944
 21
5.8887277932
 31
0.0
 11
6.8465231611
 21
5.8926214409
 31
0.0
  0
SPLINE
  5
325
100
AcDbEntity
  8
0
100
AcDbSpline
 62
2
  6
CONTINUOUS
 70
0
 71
3
 72
15
 73
11
 74
9
 42
0.0000001
 43
0.0000001
 44
0.0000000001
 12
-0.017577278
 22
0.0266659807
 32
0.0
 13
-0.0030462432
 23
0.0317923832
 33
0.0
 40
0.0
 40
0.0
 40
0.0
 40
0.0
 40
0.1102289716
 40
0.2234625663
 40
0.3404235909
 40
0.4617334426
 40
0.5879581179
 40
0.7195355203
 40
0.8568007409
 40
1.0
 40
1.0
 40
1.0
 40
1.0
 10
6.8465231611
 20
5.8926214409
 30
0.0
 10
6.8458773193
 20
5.8936012288
 30
0.0
 10
6.8446627183
 20
5.8956513305
 30
0.0
 10
6.8430902373
 20
5.8989207745
 30
0.0
 10
6.8417330821
 20
5.9024117547
 30
0.0
 10
6.84057745
 20
5.9061188521
 30
0.0
 10
6.8396079753
 20
5.9100388383
 30
0.0
 10
6.838809187
 20
5.9141697835
 30
0.0
 10
6.8381654007
 20
5.9185100319
 30
0.0
 10
6.8378361395
 20
5.9214782956
 30
0.0
 10
6.8376907329
 20
5.9229958442
 30
0.0
 11
6.8465231611
 21
5.8926214409
 31
0.0
 11
6.8447234279
 21
5.8956471348
 31
0.0
 11
6.8431496867
 21
5.8989032174
 31
0.0
 11
6.8417895162
 21
5.902382283
 31
0.0
 11
6.8406294918
 21
5.9060789387
 31
0.0
 11
6.8396547473
 21
5.9099906846
 31
0.0
 11
6.838850276
 21
5.9141152817
 31
0.0
 11
6.8382007681
 21
5.9184508761
 31
0.0
 11
6.8376907329
 21
5.9229958442
 31
0.0
  0
LINE
  5
326
100
AcDbEntity
  8
0
100
AcDbLine
 62
6
  6
CONTINUOUS
 10
6.8240219409
 20
5.8441442852
 11
6.8240098204
 21
5.9251469158
  0
SPLINE
  5
327
100
AcDbEntity
  8
0
100
AcDbSpline
 62
6
  6
CONTINUOUS
 70
0
 71
3
 72
24
 73
20
 74
18
 42
0.0000001
 43
0.0000001
 44
0.0000000001
 12
-0.0584054469
 22
0.0672876994
 32
0.0
 13
0.0
 23
0.0891001162
 33
0.0
 40
0.0
 40
0.0
 40
0.0
 40
0.0
 40
0.0233345492
 40
0.0469436284
 40
0.0951571495
 40
0.1449847849
 40
0.1967242508
 40
0.2506116702
 40
0.3068226167
 40
0.3654774422
 40
0.4266503169
 40
0.490372131
 40
0.5566235128
 40
0.6253442202
 40
0.6964084422
 40
0.7696530656
 40
0.8448606349
 40
0.9217684012
 40
1.0
 40
1.0
 40
1.0
 40
1.0
 10
6.8412540072
 20
5.7583599005
 30
0.0
 10
6.8407997189
 20
5.7588832766
 30
0.0
 10
6.8399128645
 20
5.7599600251
 30
0.0
 10
6.8382256985
 20
5.7622284694
 30
0.0
 10
6.8362795731
 20
5.7652791151
 30
0.0
 10
6.8342167031
 20
5.7692257074
 30
0.0
 10
6.8323959089
 20
5.7734728957
 30
0.0
 10
6.8308027497
 20
5.7780111081
 30
0.0
 10
6.8294216977
 20
5.7828316267
 30
0.0
 10
6.8282373962
 20
5.7879260392
 30
0.0
 10
6.8272339608
 20
5.7932857922
 30
0.0
 10
6.8263956836
 20
5.798901706
 30
0.0
 10
6.825707395
 20
5.804763458
 30
0.0
 10
6.8251542458
 20
5.8108582914
 30
0.0
 10
6.8247231357
 20
5.8171710126
 30
0.0
 10
6.8244013069
 20
5.8236830394
 30
0.0
 10
6.8241797783
 20
5.8303728273
 30
0.0
 10
6.8240497252
 20
5.8372131001
 30
0.0
 10
6.8240219409
 20
5.8418208037
 30
0.0
 10
6.8240219409
 20
5.8441442852
 30
0.0
 11
6.8412540072
 21
5.7583599005
 31
0.0
 11
6.8399315242
 21
5.7599641891
 31
0.0
 11
6.838675389
 21
5.7616515356
 31
0.0
 11
6.8363581521
 21
5.7652687958
 31
0.0
 11
6.8342933879
 21
5.7691990914
 31
0.0
 11
6.832468423
 21
5.7734324746
 31
0.0
 11
6.8308694138
 21
5.7779597668
 31
0.0
 11
6.8294817585
 21
5.782772095
 31
0.0
 11
6.8282905317
 21
5.7878606744
 31
0.0
 11
6.8272802937
 21
5.793216744
 31
0.0
 11
6.8264355645
 21
5.798831173
 31
0.0
 11
6.8257412931
 21
5.8046932089
 31
0.0
 11
6.8251828691
 21
5.8107907144
 31
0.0
 11
6.8247470626
 21
5.8171075292
 31
0.0
 11
6.8244216424
 21
5.8236255152
 31
0.0
 11
6.8241970073
 21
5.8303227522
 31
0.0
 11
6.8240651703
 21
5.8371739747
 31
0.0
 11
6.8240219409
 21
5.8441442852
 31
0.0
  0
SPLINE
  5
328
100
AcDbEntity
  8
0
100
AcDbSpline
 62
6
  6
CONTINUOUS
 70
0
 71
3
 72
21
 73
17
 74
15
 42
0.0000001
 43
0.0000001
 44
0.0000000001
 12
-0.0757735311
 22
0.0495096181
 32
0.0
 13
-0.0593324197
 23
0.0683556454
 33
0.0
 40
0.0
 40
0.0
 40
0.0
 40
0.0
 40
0.1460108394
 40
0.2867236889
 40
0.3549623222
 40
0.4217309508
 40
0.486987206
 40
0.550689117
 40
0.6127960954
 40
0.6732703933
 40
0.7320760848
 40
0.7891800491
 40
0.844553096
 40
0.8981679884
 40
0.9499941597
 40
1.0
 40
1.0
 40
1.0
 40
1.0
 10
6.9108793959
 20
5.700939154
 30
0.0
 10
6.907191477
 20
5.703348801
 30
0.0
 10
6.9000055066
 20
5.7081671731
 30
0.0
 10
6.8912649679
 20
5.7143582703
 30
0.0
 10
6.8845777902
 20
5.7193069285
 30
0.0
 10
6.8797724666
 20
5.7229702754
 30
0.0
 10
6.8751297234
 20
5.7266200445
 30
0.0
 10
6.8706534099
 20
5.7302528476
 30
0.0
 10
6.8663473464
 20
5.7338653199
 30
0.0
 10
6.8622152383
 20
5.737454084
 30
0.0
 10
6.8582607082
 20
5.741015826
 30
0.0
 10
6.8544872938
 20
5.744547311
 30
0.0
 10
6.8508984516
 20
5.7480453487
 30
0.0
 10
6.8474977171
 20
5.7515066798
 30
0.0
 10
6.8442888128
 20
5.7549277149
 30
0.0
 10
6.8422429963
 20
5.7572205067
 30
0.0
 10
6.8412540072
 20
5.7583599005
 30
0.0
 11
6.9108793959
 21
5.700939154
 31
0.0
 11
6.8999053312
 21
5.7083035417
 31
0.0
 11
6.8895154677
 21
5.7156703351
 31
0.0
 11
6.8845510532
 21
5.7193451948
 31
0.0
 11
6.8797454453
 21
5.7230099154
 31
0.0
 11
6.8751025065
 21
5.72666112
 31
0.0
 11
6.8706261238
 21
5.7302953954
 31
0.0
 11
6.8663201493
 21
5.7339093404
 31
0.0
 11
6.8621882828
 21
5.7374996067
 31
0.0
 11
6.8582341814
 21
5.7410628615
 31
0.0
 11
6.8544614175
 21
5.7445958415
 31
0.0
 11
6.8508734197
 21
5.7480954011
 31
0.0
 11
6.8474736285
 21
5.7515583731
 31
0.0
 11
6.844265821
 21
5.7549811673
 31
0.0
 11
6.8412540072
 21
5.7583599005
 31
0.0
  0
LINE
  5
329
100
AcDbEntity
  8
0
100
AcDbLine
 62
2
  6
CONTINUOUS
 10
6.9232226333
 20
5.8846197504
 11
6.923316109
 21
5.9974708272
  0
SPLINE
  5
32A
100
AcDbEntity
  8
0
100
AcDbSpline
 62
2
  6
CONTINUOUS
 70
0
 71
3
 72
25
 73
21
 74
19
 42
0.0000001
 43
0.0000001
 44
0.0000000001
 12
-0.0823426002
 22
0.0470732776
 32
0.0
 13
-0.0637710698
 23
0.0702100273
 33
0.0
 40
0.0
 40
0.0
 40
0.0
 40
0.0
 40
0.0818481601
 40
0.1614518419
 40
0.2387030836
 40
0.3135115099
 40
0.3858132522
 40
0.4555474094
 40
0.5226541161
 40
0.5870748003
 40
0.6487534865
 40
0.7076398419
 40
0.7636869058
 40
0.8168520665
 40
0.8670984843
 40
0.9143939165
 40
0.9369249226
 40
0.9587051912
 40
0.979731146
 40
1.0
 40
1.0
 40
1.0
 40
1.0
 10
6.923316109
 20
5.9974708272
 30
0.0
 10
6.9210695789
 20
5.9987551142
 30
0.0
 10
6.9166513477
 20
6.0013116962
 30
0.0
 10
6.9101611478
 20
6.0051632791
 30
0.0
 10
6.9039057814
 20
6.0089735462
 30
0.0
 10
6.897892654
 20
6.0127367431
 30
0.0
 10
6.8921278689
 20
6.0164477467
 30
0.0
 10
6.886616771
 20
6.0201018937
 30
0.0
 10
6.8813646574
 20
6.0236945823
 30
0.0
 10
6.8763768008
 20
6.0272212412
 30
0.0
 10
6.8716583484
 20
6.0306773851
 30
0.0
 10
6.8672142805
 20
6.0340586104
 30
0.0
 10
6.8630494146
 20
6.0373606064
 30
0.0
 10
6.8591684732
 20
6.0405791837
 30
0.0
 10
6.8555762206
 20
6.0437102498
 30
0.0
 10
6.8527838472
 20
6.0462829377
 30
0.0
 10
6.8507012348
 20
6.0482958027
 30
0.0
 10
6.8492401964
 20
6.0497562708
 30
0.0
 10
6.8478554285
 20
6.0511914135
 30
0.0
 10
6.8469672521
 20
6.0521484726
 30
0.0
 10
6.8465363966
 20
6.0526228315
 30
0.0
 11
6.923316109
 21
5.9974708272
 31
0.0
 11
6.9165972373
 21
6.0013597062
 31
0.0
 11
6.9101047594
 21
6.0052138402
 31
0.0
 11
6.9038477048
 21
6.0090264985
 31
0.0
 11
6.8978336958
 21
6.0127917503
 31
0.0
 11
6.8920682218
 21
6.0165048767
 31
0.0
 11
6.8865565953
 21
6.0201612622
 31
0.0
 11
6.88130414
 21
6.0237563114
 31
0.0
 11
6.8763161866
 21
6.0272854417
 31
0.0
 11
6.8715979862
 21
6.0307441209
 31
0.0
 11
6.8671544979
 21
6.034128002
 31
0.0
 11
6.8629906126
 21
6.0374327825
 31
0.0
 11
6.8591111635
 21
6.0406542627
 31
0.0
 11
6.8555209021
 21
6.0437883885
 31
0.0
 11
6.8522246363
 21
6.0468310596
 31
0.0
 11
6.850688438
 21
6.0483166505
 31
0.0
 11
6.8492278417
 21
6.0497775664
 31
0.0
 11
6.8478435827
 21
6.0512131718
 31
0.0
 11
6.8465363966
 21
6.0526228315
 31
0.0
  0
SPLINE
  5
32B
100
AcDbEntity
  8
0
100
AcDbSpline
 62
2
  6
CONTINUOUS
 70
0
 71
3
 72
17
 73
13
 74
11
 42
0.0000001
 43
0.0000001
 44
0.0000000001
 12
-0.0177635176
 22
0.0195570979
 32
0.0
 13
-0.0029289513
 23
0.0262572633
 33
0.0
 40
0.0
 40
0.0
 40
0.0
 40
0.0
 40
0.0543088427
 40
0.1089974852
 40
0.1642611236
 40
0.2202791758
 40
0.3351820142
 40
0.4549278652
 40
0.5805525063
 40
0.7128690282
 40
0.8525196369
 40
1.0
 40
1.0
 40
1.0
 40
1.0
 10
6.8465363966
 20
6.0526228315
 30
0.0
 10
6.8462148246
 20
6.0529768726
 30
0.0
 10
6.8455905626
 20
6.0537069354
 30
0.0
 10
6.8447153805
 20
6.0548596881
 30
0.0
 10
6.8438975582
 20
6.0560720477
 30
0.0
 10
6.842872976
 20
6.0577812057
 30
0.0
 10
6.8417271888
 20
6.060075163
 30
0.0
 10
6.840568859
 20
6.0630327898
 30
0.0
 10
6.8395989896
 20
6.0662174313
 30
0.0
 10
6.8388013417
 20
6.0696290108
 30
0.0
 10
6.8381595802
 20
6.0732683063
 30
0.0
 10
6.837833983
 20
6.075776758
 30
0.0
 10
6.8376899954
 20
6.0770675682
 30
0.0
 11
6.8465363966
 21
6.0526228315
 31
0.0
 11
6.8456035432
 21
6.053713046
 31
0.0
 11
6.8447293375
 21
6.0548634562
 31
0.0
 11
6.8439121895
 21
6.0560734475
 31
0.0
 11
6.8431505093
 21
6.0573424053
 31
0.0
 11
6.8417871727
 21
6.0600547972
 31
0.0
 11
6.8406255828
 21
6.0629975347
 31
0.0
 11
6.8396505414
 21
6.0661701005
 31
0.0
 11
6.8388467091
 21
6.0695722466
 31
0.0
 11
6.83819846
 21
6.073204438
 31
0.0
 11
6.8376899954
 21
6.0770675682
 31
0.0
  0
LINE
  5
32C
100
AcDbEntity
  8
0
100
AcDbLine
 62
6
  6
CONTINUOUS
 10
6.8240219409
 20
5.9972295008
 11
6.8240082467
 21
6.0806151916
  0
SPLINE
  5
32D
100
AcDbEntity
  8
0
100
AcDbSpline
 62
6
  6
CONTINUOUS
 70
0
 71
3
 72
25
 73
21
 74
19
 42
0.0000001
 43
0.0000001
 44
0.0000000001
 12
-0.0426009308
 22
0.0415581001
 32
0.0
 13
-0.0
 23
0.0595139899
 33
0.0
 40
0.0
 40
0.0
 40
0.0
 40
0.0
 40
0.020438653
 40
0.0412346106
 40
0.0841494202
 40
0.1292330721
 40
0.1768855825
 40
0.2274310984
 40
0.2811110161
 40
0.338097632
 40
0.398504029
 40
0.4623853041
 40
0.5297532356
 40
0.600544074
 40
0.6371915373
 40
0.674651863
 40
0.7519094291
 40
0.8321027062
 40
0.9149398786
 40
1.0
 40
1.0
 40
1.0
 40
1.0
 10
6.8354831579
 20
5.9400620303
 30
0.0
 10
6.8351929227
 20
5.9403451609
 30
0.0
 10
6.8346251557
 20
5.9409349061
 30
0.0
 10
6.8335406108
 20
5.942204998
 30
0.0
 10
6.8322825783
 20
5.9439644209
 30
0.0
 10
6.830944494
 20
5.9463036166
 30
0.0
 10
6.8297541613
 20
5.948888306
 30
0.0
 10
6.828703156
 20
5.9517145825
 30
0.0
 10
6.8277828295
 20
5.9547793638
 30
0.0
 10
6.8269845585
 20
5.9580793298
 30
0.0
 10
6.8263000008
 20
5.9616107641
 30
0.0
 10
6.8257207151
 20
5.9653692333
 30
0.0
 10
6.8252385563
 20
5.9693487771
 30
0.0
 10
6.8249151966
 20
5.9728018554
 30
0.0
 10
6.8246959139
 20
5.9756680191
 30
0.0
 10
6.8244985136
 20
5.9786643602
 30
0.0
 10
6.8243014816
 20
5.98252622
 30
0.0
 10
6.824138506
 20
5.9872904513
 30
0.0
 10
6.8240423523
 20
5.9922112874
 30
0.0
 10
6.8240219409
 20
5.9955420784
 30
0.0
 10
6.8240219409
 20
5.9972295008
 30
0.0
 11
6.8354831579
 21
5.9400620303
 31
0.0
 11
6.8346389993
 21
5.9409378103
 31
0.0
 11
6.8338346794
 21
5.941878474
 31
0.0
 11
6.8323432197
 21
5.9439517866
 31
0.0
 11
6.8310039487
 21
5.9462767429
 31
0.0
 11
6.8298102821
 21
5.9488492912
 31
0.0
 11
6.8287545378
 21
5.951666109
 31
0.0
 11
6.8278288522
 21
5.9547237639
 31
0.0
 11
6.8270251336
 21
5.958018656
 31
0.0
 11
6.8263352547
 21
5.9615468676
 31
0.0
 11
6.8257510308
 21
5.9653035404
 31
0.0
 11
6.825264353
 21
5.9692832272
 31
0.0
 11
6.8248677317
 21
5.9734775617
 31
0.0
 11
6.8247009357
 21
5.9756522112
 31
0.0
 11
6.8245540016
 21
5.9778767774
 31
0.0
 11
6.8243170587
 21
5.9824685741
 31
0.0
 11
6.8241517653
 21
5.9872383328
 31
0.0
 11
6.8240540855
 21
5.9921673357
 31
0.0
 11
6.8240219409
 21
5.9972295008
 31
0.0
  0
SPLINE
  5
32E
100
AcDbEntity
  8
0
100
AcDbSpline
 62
6
  6
CONTINUOUS
 70
0
 71
3
 72
23
 73
19
 74
17
 42
0.0000001
 43
0.0000001
 44
0.0000000001
 12
-0.0799876571
 22
0.045375679
 32
0.0
 13
-0.0658275377
 23
0.0642161414
 33
0.0
 40
0.0
 40
0.0
 40
0.0
 40
0.0
 40
0.0789745814
 40
0.1560796256
 40
0.2312204817
 40
0.3043148035
 40
0.3752984521
 40
0.4441092755
 40
0.5106850743
 40
0.5749640916
 40
0.636886412
 40
0.6963959745
 40
0.7534389383
 40
0.8079650572
 40
0.8599286898
 40
0.9092867677
 40
0.9559925407
 40
1.0
 40
1.0
 40
1.0
 40
1.0
 10
6.9109022319
 20
5.8878143818
 30
0.0
 10
6.908796568
 20
5.8890088902
 30
0.0
 10
6.9046458416
 20
5.8913886556
 30
0.0
 10
6.898530955
 20
5.8949729099
 30
0.0
 10
6.8926068258
 20
5.8985254933
 30
0.0
 10
6.8868802019
 20
5.902041863
 30
0.0
 10
6.8813569432
 20
5.9055178603
 30
0.0
 10
6.8760424367
 20
5.9089496245
 30
0.0
 10
6.8709420477
 20
5.912333271
 30
0.0
 10
6.8660611479
 20
5.9156648996
 30
0.0
 10
6.8614050375
 20
5.91894066
 30
0.0
 10
6.8569788674
 20
5.9221566988
 30
0.0
 10
6.8527876644
 20
5.9253092443
 30
0.0
 10
6.8488363465
 20
5.928394609
 30
0.0
 10
6.8451297476
 20
5.9314091526
 30
0.0
 10
6.8416728196
 20
5.9343491306
 30
0.0
 10
6.8384707823
 20
5.9372104153
 30
0.0
 10
6.8364487922
 20
5.9391200339
 30
0.0
 10
6.8354831579
 20
5.9400620303
 30
0.0
 11
6.9109022319
 21
5.8878143818
 31
0.0
 11
6.9046020186
 21
5.8914273239
 31
0.0
 11
6.8984851179
 21
5.8950136654
 31
0.0
 11
6.892559378
 21
5.8985682336
 31
0.0
 11
6.8868316853
 21
5.9020863732
 31
0.0
 11
6.8813074928
 21
5.9055642011
 31
0.0
 11
6.8759921415
 21
5.9089978918
 31
0.0
 11
6.8708910248
 21
5.912383565
 31
0.0
 11
6.8660095674
 21
5.9157173086
 31
0.0
 11
6.8613531295
 21
5.9189952345
 31
0.0
 11
6.8569268499
 21
5.9222135396
 31
0.0
 11
6.8527358173
 21
5.9253684411
 31
0.0
 11
6.8487850068
 21
5.9284562422
 31
0.0
 11
6.8450792424
 21
5.9314733605
 31
0.0
 11
6.8416233882
 21
5.9344161701
 31
0.0
 11
6.8384228091
 21
5.9372805359
 31
0.0
 11
6.8354831579
 21
5.9400620303
 31
0.0
  0
LINE
  5
32F
100
AcDbEntity
  8
0
100
AcDbLine
 62
2
  6
CONTINUOUS
 10
6.9232080539
 20
6.0379482294
 11
6.9233137148
 21
6.1551879444
  0
SPLINE
  5
330
100
AcDbEntity
  8
0
100
AcDbSpline
 62
2
  6
CONTINUOUS
 70
0
 71
3
 72
22
 73
18
 74
16
 42
0.0000001
 43
0.0000001
 44
0.0000000001
 12
-0.0784960021
 22
0.0369856393
 32
0.0
 13
-0.0722815992
 23
0.0480096893
 33
0.0
 40
0.0
 40
0.0
 40
0.0
 40
0.0
 40
0.1685915378
 40
0.2487168018
 40
0.3259233978
 40
0.4001393981
 40
0.4712952992
 40
0.5393216999
 40
0.6041494095
 40
0.6657106209
 40
0.7239417345
 40
0.7787806266
 40
0.8301668592
 40
0.8780423274
 40
0.9223496381
 40
0.9630244645
 40
1.0
 40
1.0
 40
1.0
 40
1.0
 10
6.9233137148
 20
6.1551879444
 30
0.0
 10
6.9189024609
 20
6.157266433
 30
0.0
 10
6.9124070449
 20
6.1603590989
 30
0.0
 10
6.9039242168
 20
6.1644716103
 30
0.0
 10
6.8979121443
 20
6.1674229082
 30
0.0
 10
6.8921479055
 20
6.170290135
 30
0.0
 10
6.8866369551
 20
6.1730701454
 30
0.0
 10
6.8813846958
 20
6.1757598179
 30
0.0
 10
6.8763965092
 20
6.178356047
 30
0.0
 10
6.8716776538
 20
6.1808557872
 30
0.0
 10
6.8672332334
 20
6.1832560546
 30
0.0
 10
6.8630682011
 20
6.1855539293
 30
0.0
 10
6.8591874317
 20
6.1877465442
 30
0.0
 10
6.8555957703
 20
6.1898310721
 30
0.0
 10
6.8522982327
 20
6.1918045415
 30
0.0
 10
6.8493002114
 20
6.1936637197
 30
0.0
 10
6.8474140447
 20
6.1948834495
 30
0.0
 10
6.8465231611
 20
6.1954751775
 30
0.0
 11
6.9233137148
 21
6.1551879444
 31
0.0
 11
6.9101068161
 21
6.1614801068
 31
0.0
 11
6.9038507968
 21
6.1645136581
 31
0.0
 11
6.8978371379
 21
6.1674663766
 31
0.0
 11
6.8920714163
 21
6.1703350663
 31
0.0
 11
6.8865590327
 21
6.1731166145
 31
0.0
 11
6.881305401
 21
6.1758079115
 31
0.0
 11
6.8763159432
 21
6.1784058489
 31
0.0
 11
6.8715960013
 21
6.1809073575
 31
0.0
 11
6.867150626
 21
6.1833095109
 31
0.0
 11
6.8629847996
 21
6.1856094166
 31
0.0
 11
6.859103445
 21
6.1878042349
 31
0.0
 11
6.8555114011
 21
6.1898912009
 31
0.0
 11
6.8522135632
 21
6.1918675178
 31
0.0
 11
6.8492154944
 21
6.1937299892
 31
0.0
 11
6.8465231611
 21
6.1954751775
 31
0.0
  0
SPLINE
  5
331
100
AcDbEntity
  8
0
100
AcDbSpline
 62
2
  6
CONTINUOUS
 70
0
 71
3
 72
22
 73
18
 74
16
 42
0.0000001
 43
0.0000001
 44
0.0000000001
 12
-0.0170149884
 22
0.0113014144
 32
0.0
 13
-0.0028446002
 23
0.0202272106
 33
0.0
 40
0.0
 40
0.0
 40
0.0
 40
0.0
 40
0.0559658456
 40
0.1114601901
 40
0.1668231911
 40
0.2223839329
 40
0.2784549751
 40
0.3353296711
 40
0.3932938714
 40
0.4526163124
 40
0.5762353326
 40
0.6409739187
 40
0.7078835331
 40
0.7771166738
 40
0.8488062745
 40
0.9230675179
 40
1.0
 40
1.0
 40
1.0
 40
1.0
 10
6.8465231611
 20
6.1954751775
 30
0.0
 10
6.8462057417
 20
6.1956860086
 30
0.0
 10
6.845588341
 20
6.1961286598
 30
0.0
 10
6.844714978
 20
6.196856377
 30
0.0
 10
6.8438984747
 20
6.197643445
 30
0.0
 10
6.843137392
 20
6.198489433
 30
0.0
 10
6.842430166
 20
6.1993939703
 30
0.0
 10
6.8417751653
 20
6.2003567787
 30
0.0
 10
6.8411706192
 20
6.2013778002
 30
0.0
 10
6.8404191097
 20
6.2028366447
 30
0.0
 10
6.8397727479
 20
6.2043979809
 30
0.0
 10
6.8392187774
 20
6.2060457057
 30
0.0
 10
6.8388376345
 20
6.2073597147
 30
0.0
 10
6.8384953368
 20
6.2087330699
 30
0.0
 10
6.8381898793
 20
6.210166278
 30
0.0
 10
6.8379193072
 20
6.2116597275
 30
0.0
 10
6.8377636803
 20
6.2126774728
 30
0.0
 10
6.8376907329
 20
6.2131961826
 30
0.0
 11
6.8465231611
 21
6.1954751775
 31
0.0
 11
6.8455942705
 21
6.1961415149
 31
0.0
 11
6.8447234279
 21
6.1968671523
 31
0.0
 11
6.8439090834
 21
6.1976518078
 31
0.0
 11
6.8431496867
 21
6.1984951995
 31
0.0
 11
6.8424436878
 21
6.1993970456
 31
0.0
 11
6.8417895162
 21
6.2003570936
 31
0.0
 11
6.8411854079
 21
6.201375371
 31
0.0
 11
6.8406294918
 21
6.2024520601
 31
0.0
 11
6.8396547473
 21
6.2047814095
 31
0.0
 11
6.8392321738
 21
6.2060344399
 31
0.0
 11
6.838850276
 21
6.2073467119
 31
0.0
 11
6.8385071196
 21
6.2087186196
 31
0.0
 11
6.8382007681
 21
6.2101505656
 31
0.0
 11
6.8379292847
 21
6.2116429524
 31
0.0
 11
6.8376907329
 21
6.2131961826
 31
0.0
  0
LINE
  5
332
100
AcDbEntity
  8
0
100
AcDbLine
 62
6
  6
CONTINUOUS
 10
6.8240219409
 20
6.1441812955
 11
6.8240098204
 21
6.2180839793
  0
SPLINE
  5
333
100
AcDbEntity
  8
0
100
AcDbSpline
 62
6
  6
CONTINUOUS
 70
0
 71
3
 72
36
 73
32
 74
30
 42
0.0000001
 43
0.0000001
 44
0.0000000001
 12
-0.0616805714
 22
0.0358870135
 32
0.0
 13
0.0
 23
0.071360848
 33
0.0
 40
0.0
 40
0.0
 40
0.0
 40
0.0
 40
0.021889982
 40
0.0436740946
 40
0.0654615923
 40
0.087358613
 40
0.1094681473
 40
0.1318934599
 40
0.1547319683
 40
0.1780727296
 40
0.2019964674
 40
0.2265767158
 40
0.2518789826
 40
0.2779607811
 40
0.3048723458
 40
0.3326576928
 40
0.3613548321
 40
0.3909962637
 40
0.4216090882
 40
0.4532136828
 40
0.4858259951
 40
0.5194587402
 40
0.5541202214
 40
0.5898091151
 40
0.6265200599
 40
0.6642459787
 40
0.7029763867
 40
0.7426912695
 40
0.8249800596
 40
0.9108812215
 40
1.0
 40
1.0
 40
1.0
 40
1.0
 10
6.8412540072
 20
6.0777176704
 30
0.0
 10
6.840803945
 20
6.0779795257
 30
0.0
 10
6.83992352
 20
6.0785328087
 30
0.0
 10
6.8386643724
 20
6.0794508803
 30
0.0
 10
6.8374709206
 20
6.0804532046
 30
0.0
 10
6.8363422687
 20
6.0815390778
 30
0.0
 10
6.8352772914
 20
6.0827079985
 30
0.0
 10
6.834274481
 20
6.0839593965
 30
0.0
 10
6.8333321156
 20
6.0852928445
 30
0.0
 10
6.8324484261
 20
6.0867079768
 30
0.0
 10
6.831621617
 20
6.0882044886
 30
0.0
 10
6.830849802
 20
6.0897821063
 30
0.0
 10
6.8301310651
 20
6.0914406134
 30
0.0
 10
6.8294634919
 20
6.0931798209
 30
0.0
 10
6.8288451748
 20
6.0949995657
 30
0.0
 10
6.8282741333
 20
6.0968996844
 30
0.0
 10
6.8277483843
 20
6.0988800355
 30
0.0
 10
6.8272659558
 20
6.1009404717
 30
0.0
 10
6.826824893
 20
6.103080776
 30
0.0
 10
6.8264232901
 20
6.1053006507
 30
0.0
 10
6.8260592671
 20
6.1075997236
 30
0.0
 10
6.8257309574
 20
6.1099775659
 30
0.0
 10
6.8254365121
 20
6.1124335384
 30
0.0
 10
6.8251742783
 20
6.1149667639
 30
0.0
 10
6.8249426446
 20
6.117576143
 30
0.0
 10
6.8247400115
 20
6.1202604797
 30
0.0
 10
6.8245647785
 20
6.1230183372
 30
0.0
 10
6.8243637955
 20
6.1268364869
 30
0.0
 10
6.8241780014
 20
6.1317787228
 30
0.0
 10
6.8240488938
 20
6.137898169
 30
0.0
 10
6.8240219409
 20
6.1420614316
 30
0.0
 10
6.8240219409
 20
6.1441812955
 30
0.0
 11
6.8412540072
 21
6.0777176704
 31
0.0
 11
6.8399315242
 21
6.0785490288
 31
0.0
 11
6.838675389
 21
6.0794648325
 31
0.0
 11
6.8374845991
 21
6.0804645037
 31
0.0
 11
6.8363581521
 21
6.0815474647
 31
0.0
 11
6.8352949408
 21
6.0827131803
 31
0.0
 11
6.8342933879
 21
6.083961306
 31
0.0
 11
6.8333517848
 21
6.0852915508
 31
0.0
 11
6.832468423
 21
6.0867036238
 31
0.0
 11
6.8316415736
 21
6.0881972484
 31
0.0
 11
6.8308694138
 21
6.0897722155
 31
0.0
 11
6.8301500924
 21
6.0914283364
 31
0.0
 11
6.8294817585
 21
6.0931654222
 31
0.0
 11
6.8288625478
 21
6.0949832883
 31
0.0
 11
6.8282905317
 21
6.0968817713
 31
0.0
 11
6.8277637628
 21
6.0988607138
 31
0.0
 11
6.8272802937
 21
6.1009199583
 31
0.0
 11
6.8268381885
 21
6.1030593116
 31
0.0
 11
6.8264355645
 21
6.1052784129
 31
0.0
 11
6.826070555
 21
6.1075768525
 31
0.0
 11
6.8257412931
 21
6.1099542209
 31
0.0
 11
6.8254459499
 21
6.1124099977
 31
0.0
 11
6.8251828691
 21
6.1149431629
 31
0.0
 11
6.8249504427
 21
6.1175525561
 31
0.0
 11
6.8247470626
 21
6.1202370164
 31
0.0
 11
6.824571197
 21
6.1229952503
 31
0.0
 11
6.8244216424
 21
6.1258253892
 31
0.0
 11
6.8241970073
 21
6.1316932889
 31
0.0
 11
6.8240651703
 21
6.1378218508
 31
0.0
 11
6.8240219409
 21
6.1441812955
 31
0.0
  0
SPLINE
  5
334
100
AcDbEntity
  8
0
100
AcDbSpline
 62
6
  6
CONTINUOUS
 70
0
 71
3
 72
19
 73
15
 74
13
 42
0.0000001
 43
0.0000001
 44
0.0000000001
 12
-0.0707146832
 22
0.033183576
 32
0.0
 13
-0.0675171942
 23
0.0392828796
 33
0.0
 40
0.0
 40
0.0
 40
0.0
 40
0.0
 40
0.1554269507
 40
0.3030709408
 40
0.4424279784
 40
0.5730624081
 40
0.6349726369
 40
0.6945414718
 40
0.7517177821
 40
0.8064518859
 40
0.8586964518
 40
0.9084043127
 40
0.9555237182
 40
1.0
 40
1.0
 40
1.0
 40
1.0
 10
6.9108793959
 20
6.0423529044
 30
0.0
 10
6.9072157401
 20
6.0440721117
 30
0.0
 10
6.9000823169
 20
6.0474467372
 30
0.0
 10
6.8897032572
 20
6.0524452029
 30
0.0
 10
6.8799421963
 20
6.0572384255
 30
0.0
 10
6.8722177552
 20
6.0611139254
 30
0.0
 10
6.8663724522
 20
6.0641014435
 30
0.0
 10
6.8622415182
 20
6.0662403285
 30
0.0
 10
6.8582882784
 20
6.0683158719
 30
0.0
 10
6.8545162813
 20
6.0703261986
 30
0.0
 10
6.8509289973
 20
6.0722694563
 30
0.0
 10
6.847529966
 20
6.0741437558
 30
0.0
 10
6.8443229165
 20
6.0759470698
 30
0.0
 10
6.8422549784
 20
6.0771352849
 30
0.0
 10
6.8412540072
 20
6.0777176704
 30
0.0
 11
6.9108793959
 21
6.0423529044
 31
0.0
 11
6.8999053312
 21
6.0475463941
 31
0.0
 11
6.8895154677
 21
6.0525524414
 31
0.0
 11
6.8797454453
 21
6.0573528925
 31
0.0
 11
6.8706261238
 21
6.0619317486
 31
0.0
 11
6.8663201493
 21
6.0641330455
 31
0.0
 11
6.8621882828
 21
6.066272973
 31
0.0
 11
6.8582341814
 21
6.0683496021
 31
0.0
 11
6.8544614175
 21
6.0703610465
 31
0.0
 11
6.8508734197
 21
6.0723054932
 31
0.0
 11
6.8474736285
 21
6.0741811201
 31
0.0
 11
6.844265821
 21
6.0759859014
 31
0.0
 11
6.8412540072
 21
6.0777176704
 31
0.0
  0
LINE
  5
335
100
AcDbEntity
  8
0
100
AcDbLine
 62
2
  6
CONTINUOUS
 10
6.9232226333
 20
6.2115181784
 11
6.923316109
 21
6.3138446019
  0
SPLINE
  5
336
100
AcDbEntity
  8
0
100
AcDbSpline
 62
6
  6
CONTINUOUS
 70
0
 71
3
 72
22
 73
18
 74
16
 42
0.0000001
 43
0.0000001
 44
0.0000000001
 12
0.0786233339
 22
-0.0183873264
 32
0.0
 13
0.0759411292
 23
-0.0274347828
 33
0.0
 40
0.0
 40
0.0
 40
0.0
 40
0.0
 40
0.0366423152
 40
0.0769646106
 40
0.1209145535
 40
0.1684417635
 40
0.2195014547
 40
0.2740485351
 40
0.3320357464
 40
0.3934141436
 40
0.4581336559
 40
0.5261404558
 40
0.5973794166
 40
0.6717953087
 40
0.7493329048
 40
0.8299350927
 40
1.0
 40
1.0
 40
1.0
 40
1.0
 10
6.8342398378
 20
6.3442031657
 30
0.0
 10
6.8352001515
 20
6.343978581
 30
0.0
 10
6.8372125903
 20
6.3434869572
 30
0.0
 10
6.8403619677
 20
6.3426664732
 30
0.0
 10
6.8437831645
 20
6.3417284617
 30
0.0
 10
6.8474718508
 20
6.3406740379
 30
0.0
 10
6.8514240089
 20
6.3395042568
 30
0.0
 10
6.8556357711
 20
6.3382201575
 30
0.0
 10
6.8601032136
 20
6.3368227898
 30
0.0
 10
6.8648223204
 20
6.3353132269
 30
0.0
 10
6.8697889391
 20
6.3336925953
 30
0.0
 10
6.874998786
 20
6.3319620796
 30
0.0
 10
6.8804474643
 20
6.3301229041
 30
0.0
 10
6.8861305547
 20
6.3281762989
 30
0.0
 10
6.8920436016
 20
6.3261235115
 30
0.0
 10
6.9003773635
 20
6.3231941246
 30
0.0
 10
6.9067298855
 20
6.3209216313
 30
0.0
 10
6.9110348592
 20
6.3193664
 30
0.0
 11
6.8342398378
 21
6.3442031657
 31
0.0
 11
6.8371146009
 21
6.3435035206
 31
0.0
 11
6.8402657694
 21
6.3426846971
 31
0.0
 11
6.843688644
 21
6.3417479961
 31
0.0
 11
6.8473788229
 21
6.340694639
 31
0.0
 11
6.8513324423
 21
6.3395257035
 31
0.0
 11
6.8555456874
 21
6.3382422536
 31
0.0
 11
6.8600146256
 21
6.3368453762
 31
0.0
 11
6.8647352311
 21
6.3353361763
 31
0.0
 11
6.8697034218
 21
6.3337157782
 31
0.0
 11
6.8749148531
 21
6.3319853997
 31
0.0
 11
6.8803650997
 21
6.3301462872
 31
0.0
 11
6.8860497423
 21
6.3281996829
 31
0.0
 11
6.8919643721
 21
6.3261468217
 31
0.0
 11
6.8981044464
 21
6.3239889869
 31
0.0
 11
6.9110348592
 21
6.3193664
 31
0.0
  0
LINE
  5
337
100
AcDbEntity
  8
0
100
AcDbLine
 62
6
  6
CONTINUOUS
 10
6.8240219409
 20
6.2826821516
 11
6.8240082467
 21
6.3558696787
  0
SPLINE
  5
338
100
AcDbEntity
  8
0
100
AcDbSpline
 62
2
  6
CONTINUOUS
 70
0
 71
3
 72
21
 73
17
 74
15
 42
0.0000001
 43
0.0000001
 44
0.0000000001
 12
0.0773726532
 22
-0.0185743442
 32
0.0
 13
0.0746915043
 23
-0.0274356141
 33
0.0
 40
0.0
 40
0.0
 40
0.0
 40
0.0
 40
0.0359487791
 40
0.0758064315
 40
0.1194907954
 40
0.1669225061
 40
0.218028188
 40
0.2727338826
 40
0.3309629645
 40
0.3926370614
 40
0.4576764966
 40
0.5259978623
 40
0.5975166827
 40
0.6721487203
 40
0.8304151078
 40
1.0
 40
1.0
 40
1.0
 40
1.0
 10
6.8477026595
 20
6.2364832913
 30
0.0
 10
6.8486298103
 20
6.2362607163
 30
0.0
 10
6.8505800229
 20
6.2357708612
 30
0.0
 10
6.8536413837
 20
6.234950294
 30
0.0
 10
6.8569849605
 20
6.2340073902
 30
0.0
 10
6.8606042932
 20
6.2329440527
 30
0.0
 10
6.8644932773
 20
6.2317621456
 30
0.0
 10
6.8686459504
 20
6.2304635177
 30
0.0
 10
6.8730562828
 20
6.2290500512
 30
0.0
 10
6.8777181403
 20
6.2275236676
 30
0.0
 10
6.8826252506
 20
6.2258863441
 30
0.0
 10
6.8877712212
 20
6.2241401335
 30
0.0
 10
6.8931495661
 20
6.2222871291
 30
0.0
 10
6.9007721266
 20
6.2196243291
 30
0.0
 10
6.910828854
 20
6.2160428414
 30
0.0
 10
6.9190004498
 20
6.2130690669
 30
0.0
 10
6.9232226333
 20
6.2115181784
 30
0.0
 11
6.8477026595
 21
6.2364832913
 31
0.0
 11
6.8504776526
 21
6.235789211
 31
0.0
 11
6.8535416041
 21
6.2349702598
 31
0.0
 11
6.8568876185
 21
6.2340285575
 31
0.0
 11
6.8605091832
 21
6.232966133
 31
0.0
 11
6.8644003629
 21
6.2317848787
 31
0.0
 11
6.8685552567
 21
6.2304866796
 31
0.0
 11
6.8729678166
 21
6.2290734641
 31
0.0
 11
6.8776319027
 21
6.2275471877
 31
0.0
 11
6.8825413089
 21
6.2259098334
 31
0.0
 11
6.8876895778
 21
6.2241634894
 31
0.0
 11
6.8930701912
 21
6.222310269
 31
0.0
 11
6.8986766644
 21
6.2203522782
 31
0.0
 11
6.9105413058
 21
6.216130416
 31
0.0
 11
6.9232226333
 21
6.2115181784
 31
0.0
  0
LINE
  5
339
100
AcDbEntity
  8
0
100
AcDbLine
 62
2
  6
CONTINUOUS
 10
6.9232080539
 20
6.3499002957
 11
6.9233137148
 21
6.4524068568
  0
SPLINE
  5
33A
100
AcDbEntity
  8
0
100
AcDbSpline
 62
6
  6
CONTINUOUS
 70
0
 71
3
 72
27
 73
23
 74
21
 42
0.0000001
 43
0.0000001
 44
0.0000000001
 12
0.0765400115
 22
0.0136573373
 32
0.0
 13
0.0755545742
 23
-0.0183412798
 33
0.0
 40
0.0
 40
0.0
 40
0.0
 40
0.0
 40
0.0182821087
 40
0.0373907092
 40
0.0573331704
 40
0.0781150022
 40
0.0997401472
 40
0.1222112614
 40
0.1455306111
 40
0.16970014
 40
0.2205919685
 40
0.2748895108
 40
0.3325833664
 40
0.3936563338
 40
0.4580853899
 40
0.5258400824
 40
0.5968857433
 40
0.6711852988
 40
0.7486998532
 40
0.8293871324
 40
0.9131812347
 40
1.0
 40
1.0
 40
1.0
 40
1.0
 10
6.834226105
 20
6.4680126839
 30
0.0
 10
6.8346925426
 20
6.4680959122
 30
0.0
 10
6.8356493428
 20
6.4682505163
 30
0.0
 10
6.8371226574
 20
6.4684446085
 30
0.0
 10
6.838665061
 20
6.4686059681
 30
0.0
 10
6.8402759513
 20
6.4687345725
 30
0.0
 10
6.8419547522
 20
6.4688304033
 30
0.0
 10
6.843700896
 20
6.4688934375
 30
0.0
 10
6.8455138572
 20
6.4689236635
 30
0.0
 10
6.8480636355
 20
6.4689201045
 30
0.0
 10
6.8514155383
 20
6.4688295371
 30
0.0
 10
6.8556306707
 20
6.4685916427
 30
0.0
 10
6.8601011006
 20
6.4682224728
 30
0.0
 10
6.8648227754
 20
6.4677218312
 30
0.0
 10
6.8697915372
 20
6.4670895271
 30
0.0
 10
6.8750030671
 20
6.4663254431
 30
0.0
 10
6.880452927
 20
6.4654294776
 30
0.0
 10
6.8861366489
 20
6.4644015317
 30
0.0
 10
6.8920497184
 20
6.4632415074
 30
0.0
 10
6.8981870128
 20
6.4619494342
 30
0.0
 10
6.9045424219
 20
6.4605256742
 30
0.0
 10
6.9088452152
 20
6.4595068139
 30
0.0
 10
6.9110317335
 20
6.4589760248
 30
0.0
 11
6.834226105
 21
6.4680126839
 31
0.0
 11
6.8356291604
 21
6.4682403993
 31
0.0
 11
6.8371019877
 21
6.468435348
 31
0.0
 11
6.8386439893
 21
6.4685975111
 31
0.0
 11
6.8402545679
 21
6.4687268697
 31
0.0
 11
6.8419331262
 21
6.4688234049
 31
0.0
 11
6.8436790699
 21
6.468887098
 31
0.0
 11
6.8454918622
 21
6.4689179346
 31
0.0
 11
6.8473710161
 21
6.468915904
 31
0.0
 11
6.8513264682
 21
6.468813199
 31
0.0
 11
6.8555415369
 21
6.4685788962
 31
0.0
 11
6.8600122141
 21
6.468212874
 31
0.0
 11
6.8647343966
 21
6.4677149834
 31
0.0
 11
6.8697039257
 21
6.4670850867
 31
0.0
 11
6.8749163802
 21
6.4663231072
 31
0.0
 11
6.8803672587
 21
6.4654289866
 31
0.0
 11
6.8860520668
 21
6.4644026594
 31
0.0
 11
6.891966322
 21
6.4632440474
 31
0.0
 11
6.8981054086
 21
6.4619531052
 31
0.0
 11
6.9044630272
 21
6.4605302096
 31
0.0
 11
6.9110317335
 21
6.4589760248
 31
0.0
  0
LINE
  5
33B
100
AcDbEntity
  8
0
100
AcDbLine
 62
6
  6
CONTINUOUS
 10
6.8240219409
 20
6.410547828
 11
6.8240098204
 21
6.4727069875
  0
SPLINE
  5
33C
100
AcDbEntity
  8
0
100
AcDbSpline
 62
2
  6
CONTINUOUS
 70
0
 71
3
 72
23
 73
19
 74
17
 42
0.0000001
 43
0.0000001
 44
0.0000000001
 12
0.071052362
 22
0.0032995727
 32
0.0
 13
0.0687799087
 23
-0.0181286922
 33
0.0
 40
0.0
 40
0.0
 40
0.0
 40
0.0
 40
0.0409427142
 40
0.0849152391
 40
0.1318984342
 40
0.1818650682
 40
0.2347875407
 40
0.2906351965
 40
0.3493728237
 40
0.4109580056
 40
0.4753433148
 40
0.5424792099
 40
0.6123151739
 40
0.6848001155
 40
0.7598817964
 40
0.8374979688
 40
0.9175659904
 40
1.0
 40
1.0
 40
1.0
 40
1.0
 10
6.8532023712
 20
6.3611903877
 30
0.0
 10
6.8541720634
 20
6.3612354189
 30
0.0
 10
6.8561853526
 20
6.3612855016
 30
0.0
 10
6.8593129593
 20
6.3612519564
 30
0.0
 10
6.8626517572
 20
6.3611127455
 30
0.0
 10
6.8661971335
 20
6.3608681846
 30
0.0
 10
6.86994479
 20
6.3605186857
 30
0.0
 10
6.8738905826
 20
6.3600646851
 30
0.0
 10
6.8780303149
 20
6.3595066297
 30
0.0
 10
6.8823596251
 20
6.3588450301
 30
0.0
 10
6.8868739983
 20
6.3580804273
 30
0.0
 10
6.8915688725
 20
6.357213364
 30
0.0
 10
6.8964397211
 20
6.3562444036
 30
0.0
 10
6.9014820564
 20
6.3551741376
 30
0.0
 10
6.9066911944
 20
6.3540031903
 30
0.0
 10
6.9120617992
 20
6.3527323895
 30
0.0
 10
6.9175878275
 20
6.3513628297
 30
0.0
 10
6.9213181193
 20
6.350398436
 30
0.0
 10
6.9232080539
 20
6.3499002957
 30
0.0
 11
6.8532023712
 21
6.3611903877
 31
0.0
 11
6.8561135736
 21
6.3612670509
 31
0.0
 11
6.8592411493
 21
6.3612371283
 31
0.0
 11
6.8625802415
 21
6.361101031
 31
0.0
 11
6.8661260764
 21
6.3608591776
 31
0.0
 11
6.8698743542
 21
6.3605120306
 31
0.0
 11
6.8738209435
 21
6.3600600683
 31
0.0
 11
6.8779616874
 21
6.3595037742
 31
0.0
 11
6.882292157
 21
6.3588436902
 31
0.0
 11
6.8868077577
 21
6.3580803934
 31
0.0
 11
6.8915038941
 21
6.3572144618
 31
0.0
 11
6.8963760252
 21
6.3562464836
 31
0.0
 11
6.9014196709
 21
6.3551770582
 31
0.0
 11
6.9066303513
 21
6.3540067865
 31
0.0
 11
6.9120029657
 21
6.3527364489
 31
0.0
 11
6.9175310721
 21
6.3513672127
 31
0.0
 11
6.9232080539
 21
6.3499002957
 31
0.0
  0
LINE
  5
33D
100
AcDbEntity
  8
0
100
AcDbLine
 62
2
  6
CONTINUOUS
 10
6.9232226333
 20
6.5005151046
 11
6.923316109
 21
6.5858873294
  0
SPLINE
  5
33E
100
AcDbEntity
  8
0
100
AcDbSpline
 62
6
  6
CONTINUOUS
 70
0
 71
3
 72
23
 73
19
 74
17
 42
0.0000001
 43
0.0000001
 44
0.0000000001
 12
0.0673748273
 22
0.0398082437
 32
0.0
 13
0.0777059089
 23
-0.0092658162
 33
0.0
 40
0.0
 40
0.0
 40
0.0
 40
0.0
 40
0.0417114938
 40
0.0858026261
 40
0.1324253797
 40
0.1817020517
 40
0.2337345653
 40
0.2886027593
 40
0.3463662572
 40
0.4070684033
 40
0.4707397226
 40
0.5373975169
 40
0.607049946
 40
0.6796986016
 40
0.7553397776
 40
0.8339635849
 40
0.915534718
 40
1.0
 40
1.0
 40
1.0
 40
1.0
 10
6.8342398378
 20
6.5863564633
 30
0.0
 10
6.8351766061
 20
6.5869099504
 30
0.0
 10
6.8371524967
 20
6.5879671361
 30
0.0
 10
6.8403124214
 20
6.5893690821
 30
0.0
 10
6.8437427338
 20
6.5906282736
 30
0.0
 10
6.8474390508
 20
6.5917433337
 30
0.0
 10
6.8513976349
 20
6.5927131693
 30
0.0
 10
6.8556147811
 20
6.5935366291
 30
0.0
 10
6.8600867541
 20
6.5942124217
 30
0.0
 10
6.864809695
 20
6.594739119
 30
0.0
 10
6.8697795773
 20
6.5951152718
 30
0.0
 10
6.8749922165
 20
6.595339466
 30
0.0
 10
6.8804433011
 20
6.5954102641
 30
0.0
 10
6.8861284835
 20
6.5953262076
 30
0.0
 10
6.892043361
 20
6.5950858125
 30
0.0
 10
6.8981829219
 20
6.5946876253
 30
0.0
 10
6.9045411239
 20
6.5941304623
 30
0.0
 10
6.908847042
 20
6.5936603711
 30
0.0
 10
6.9110348592
 20
6.5933994912
 30
0.0
 11
6.8342398378
 21
6.5863564633
 31
0.0
 11
6.8371146009
 21
6.5879026463
 31
0.0
 11
6.8402657694
 21
6.5893081667
 31
0.0
 11
6.843688644
 21
6.5905713733
 31
0.0
 11
6.8473788229
 21
6.5916907357
 31
0.0
 11
6.8513324423
 21
6.5926649411
 31
0.0
 11
6.8555456874
 21
6.5934926935
 31
0.0
 11
6.8600146256
 21
6.5941726013
 31
0.0
 11
6.8647352311
 21
6.5947031964
 31
0.0
 11
6.8697034218
 21
6.5950830135
 31
0.0
 11
6.8749148531
 21
6.5953106097
 31
0.0
 11
6.8803650997
 21
6.5953845488
 31
0.0
 11
6.8860497423
 21
6.5953033829
 31
0.0
 11
6.8919643721
 21
6.5950656433
 31
0.0
 11
6.8981044464
 21
6.5946698772
 31
0.0
 11
6.9044637347
 21
6.5941148533
 31
0.0
 11
6.9110348592
 21
6.5933994912
 31
0.0
  0
LINE
  5
33F
100
AcDbEntity
  8
0
100
AcDbLine
 62
6
  6
CONTINUOUS
 10
6.8240219409
 20
6.5257618064
 11
6.8240082467
 21
6.5841525283
  0
SPLINE
  5
340
100
AcDbEntity
  8
0
100
AcDbSpline
 62
2
  6
CONTINUOUS
 70
0
 71
3
 72
27
 73
23
 74
21
 42
0.0000001
 43
0.0000001
 44
0.0000000001
 12
0.0670445666
 22
0.0372971849
 32
0.0
 13
0.0758381914
 23
-0.0116027
 33
0.0
 40
0.0
 40
0.0
 40
0.0
 40
0.0
 40
0.0404435012
 40
0.0616477654
 40
0.0835319693
 40
0.1061131481
 40
0.1294057056
 40
0.1534227016
 40
0.1781756785
 40
0.2036742487
 40
0.229926304
 40
0.2847112932
 40
0.3425681176
 40
0.403511697
 40
0.4675425499
 40
0.5346471122
 40
0.6048022677
 40
0.6779782805
 40
0.7541403598
 40
0.8332470904
 40
0.9152294778
 40
1.0
 40
1.0
 40
1.0
 40
1.0
 10
6.8477026595
 20
6.4966028691
 30
0.0
 10
6.8486064985
 20
6.4971056786
 30
0.0
 10
6.8500206172
 20
6.4978082475
 30
0.0
 10
6.8519861984
 20
6.4986454967
 30
0.0
 10
6.8535550077
 20
6.4992460284
 30
0.0
 10
6.8551941304
 20
6.499809042
 30
0.0
 10
6.8569028345
 20
6.5003344331
 30
0.0
 10
6.8586803148
 20
6.5008220905
 30
0.0
 10
6.8605258334
 20
6.501271937
 30
0.0
 10
6.8624386706
 20
6.5016839034
 30
0.0
 10
6.8651160419
 20
6.5021897474
 30
0.0
 10
6.8686292984
 20
6.5027220972
 30
0.0
 10
6.873043898
 20
6.5031995692
 30
0.0
 10
6.8777093432
 20
6.5035237212
 30
0.0
 10
6.8826194291
 20
6.5036938282
 30
0.0
 10
6.8877679029
 20
6.5037093199
 30
0.0
 10
6.8931483671
 20
6.5035695985
 30
0.0
 10
6.89875442
 20
6.5032740822
 30
0.0
 10
6.9045796187
 20
6.5028222435
 30
0.0
 10
6.9106168756
 20
6.5022135918
 30
0.0
 10
6.9168580382
 20
6.5014480299
 30
0.0
 10
6.9210796856
 20
6.5008429602
 30
0.0
 10
6.9232226333
 20
6.5005151046
 30
0.0
 11
6.8477026595
 21
6.4966028691
 31
0.0
 11
6.8504776526
 21
6.4979910676
 31
0.0
 11
6.85197394
 21
6.4986295161
 31
0.0
 11
6.8535416041
 21
6.4992306554
 31
0.0
 11
6.8551797823
 21
6.499794329
 31
0.0
 11
6.8568876185
 21
6.5003203842
 31
0.0
 11
6.858664331
 21
6.5008087113
 31
0.0
 11
6.8605091832
 21
6.5012592262
 31
0.0
 11
6.8624214392
 21
6.5016718453
 31
0.0
 11
6.8644003629
 21
6.5020464852
 31
0.0
 11
6.8685552567
 21
6.5026814895
 31
0.0
 11
6.8729678166
 21
6.5031635305
 31
0.0
 11
6.8776319027
 21
6.5034918765
 31
0.0
 11
6.8825413089
 21
6.5036658237
 31
0.0
 11
6.8876895778
 21
6.5036847779
 31
0.0
 11
6.8930701912
 21
6.503548172
 31
0.0
 11
6.8986766644
 21
6.503255458
 31
0.0
 11
6.9045025638
 21
6.5028061178
 31
0.0
 11
6.9105413058
 21
6.5021996658
 31
0.0
 11
6.9167845092
 21
6.5014359653
 31
0.0
 11
6.9232226333
 21
6.5005151046
 31
0.0
  0
LINE
  5
341
100
AcDbEntity
  8
0
100
AcDbLine
 62
2
  6
CONTINUOUS
 10
6.9232080539
 20
6.6152558029
 11
6.9233137148
 21
6.696588346
  0
SPLINE
  5
342
100
AcDbEntity
  8
0
100
AcDbSpline
 62
6
  6
CONTINUOUS
 70
0
 71
3
 72
23
 73
19
 74
17
 42
0.0000001
 43
0.0000001
 44
0.0000000001
 12
0.0582920239
 22
0.0576518427
 32
0.0
 13
0.0819852304
 23
0.0003420797
 33
0.0
 40
0.0
 40
0.0
 40
0.0
 40
0.0
 40
0.0475563892
 40
0.0965132799
 40
0.1470530475
 40
0.1993389225
 40
0.2535202189
 40
0.3097266799
 40
0.3680677678
 40
0.4286353498
 40
0.4915066847
 40
0.5567437608
 40
0.6243970444
 40
0.6945079916
 40
0.7671104387
 40
0.8422300276
 40
0.9198663004
 40
1.0
 40
1.0
 40
1.0
 40
1.0
 10
6.834226105
 20
6.6821388109
 30
0.0
 10
6.8351501577
 20
6.6830527154
 30
0.0
 10
6.8370998031
 20
6.684833651
 30
0.0
 10
6.840261641
 20
6.6873194568
 30
0.0
 10
6.8436950472
 20
6.6896526986
 30
0.0
 10
6.8473952952
 20
6.6918305415
 30
0.0
 10
6.851358275
 20
6.6938507168
 30
0.0
 10
6.8555799874
 20
6.6957109902
 30
0.0
 10
6.8600564734
 20
6.6974089885
 30
0.0
 10
6.864783712
 20
6.69894216
 30
0.0
 10
6.8697575435
 20
6.7003078975
 30
0.0
 10
6.874973664
 20
6.7015036208
 30
0.0
 10
6.8804276698
 20
6.7025266945
 30
0.0
 10
6.8861151368
 20
6.7033744434
 30
0.0
 10
6.8920315947
 20
6.7040441464
 30
0.0
 10
6.8981719859
 20
6.7045330124
 30
0.0
 10
6.9045301622
 20
6.7048384467
 30
0.0
 10
6.9088418069
 20
6.7049167808
 30
0.0
 10
6.9110317335
 20
6.7049259182
 30
0.0
 11
6.834226105
 21
6.6821388109
 31
0.0
 11
6.8371019877
 21
6.6847715191
 31
0.0
 11
6.8402545679
 21
6.6872557982
 31
0.0
 11
6.8436790699
 21
6.6895885643
 31
0.0
 11
6.8473710161
 21
6.6917669556
 31
0.0
 11
6.8513264682
 21
6.6937885128
 31
0.0
 11
6.8555415369
 21
6.695650809
 31
0.0
 11
6.8600122141
 21
6.6973512682
 31
0.0
 11
6.8647343966
 21
6.6988871957
 31
0.0
 11
6.8697039257
 21
6.7002558919
 31
0.0
 11
6.8749163802
 21
6.7014546491
 31
0.0
 11
6.8803672587
 21
6.7024807572
 31
0.0
 11
6.8860520668
 21
6.7033314931
 31
0.0
 11
6.891966322
 21
6.7040041112
 31
0.0
 11
6.8981054086
 21
6.7044958656
 31
0.0
 11
6.9044630272
 21
6.7048040357
 31
0.0
 11
6.9110317335
 21
6.7049259182
 31
0.0
  0
SPLINE
  5
343
100
AcDbEntity
  8
0
100
AcDbSpline
 62
6
  6
CONTINUOUS
 70
0
 71
3
 72
25
 73
21
 74
19
 42
0.0000001
 43
0.0000001
 44
0.0000000001
 12
0.0133614353
 22
0.0033058819
 32
0.0
 13
0.0097864423
 23
0.0096789645
 33
0.0
 40
0.0
 40
0.0
 40
0.0
 40
0.0
 40
0.0123599634
 40
0.0256625286
 40
0.039982941
 40
0.0553803667
 40
0.0719013879
 40
0.0895828225
 40
0.1285341589
 40
0.1724110119
 40
0.2213255176
 40
0.2753621031
 40
0.3345886048
 40
0.3990588261
 40
0.468817395
 40
0.543902952
 40
0.6243444541
 40
0.7101593673
 40
0.801363347
 40
1.0
 40
1.0
 40
1.0
 40
1.0
 10
6.8240098204
 20
6.6730170405
 30
0.0
 10
6.8240648693
 20
6.6730306607
 30
0.0
 10
6.8241778953
 20
6.6730642214
 30
0.0
 10
6.8243494249
 20
6.6731296399
 30
0.0
 10
6.8245290755
 20
6.6732116869
 30
0.0
 10
6.8247170695
 20
6.6733101854
 30
0.0
 10
6.8249136513
 20
6.6734249663
 30
0.0
 10
6.8251967327
 20
6.6736054208
 30
0.0
 10
6.8255727406
 20
6.6738728891
 30
0.0
 10
6.8260482394
 20
6.6742462962
 30
0.0
 10
6.826563301
 20
6.6746806634
 30
0.0
 10
6.8271195838
 20
6.6751749345
 30
0.0
 10
6.8277187207
 20
6.6757281698
 30
0.0
 10
6.8283623625
 20
6.6763393852
 30
0.0
 10
6.8290521472
 20
6.6770075946
 30
0.0
 10
6.8297897049
 20
6.6777317633
 30
0.0
 10
6.8305765504
 20
6.6785108649
 30
0.0
 10
6.8314140223
 20
6.6793439371
 30
0.0
 10
6.8326350675
 20
6.6805603531
 30
0.0
 10
6.8335781229
 20
6.6814979452
 30
0.0
 10
6.834226105
 20
6.6821388109
 30
0.0
 11
6.8240098204
 21
6.6730170405
 31
0.0
 11
6.8241730637
 21
6.6730649436
 31
0.0
 11
6.8243443271
 21
6.6731297106
 31
0.0
 11
6.8245238174
 21
6.673211172
 31
0.0
 11
6.824711741
 21
6.6733091581
 31
0.0
 11
6.8249083046
 21
6.6734234991
 31
0.0
 11
6.8251137148
 21
6.6735540254
 31
0.0
 11
6.8255519015
 21
6.6738629551
 31
0.0
 11
6.8260279538
 21
6.6742345898
 31
0.0
 11
6.826543524
 21
6.6746675876
 31
0.0
 11
6.8271002585
 21
6.6751607932
 31
0.0
 11
6.8276997992
 21
6.675713173
 31
0.0
 11
6.8283437882
 21
6.6763236958
 31
0.0
 11
6.8290338677
 21
6.6769913305
 31
0.0
 11
6.8297716777
 21
6.6777150457
 31
0.0
 11
6.8305587406
 21
6.6784938112
 31
0.0
 11
6.8313963936
 21
6.6793265988
 31
0.0
 11
6.8322859579
 21
6.6802123801
 31
0.0
 11
6.834226105
 21
6.6821388109
 31
0.0
  0
LINE
  5
344
100
AcDbEntity
  8
0
100
AcDbLine
 62
6
  6
CONTINUOUS
 10
6.8240219409
 20
6.6265070938
 11
6.8240098204
 21
6.6730170405
  0
SPLINE
  5
345
100
AcDbEntity
  8
0
100
AcDbSpline
 62
2
  6
CONTINUOUS
 70
0
 71
3
 72
23
 73
19
 74
17
 42
0.0000001
 43
0.0000001
 44
0.0000000001
 12
0.0598931177
 22
0.040750067
 32
0.0
 13
0.0723697283
 23
-0.0032211703
 33
0.0
 40
0.0
 40
0.0
 40
0.0
 40
0.0
 40
0.0475695612
 40
0.096830693
 40
0.147889616
 40
0.2008345428
 40
0.2557445692
 40
0.3126864186
 40
0.3717132366
 40
0.4328630082
 40
0.4961615591
 40
0.5616262526
 40
0.6292680696
 40
0.6990927082
 40
0.7711005309
 40
0.845278801
 40
0.9215923119
 40
1.0
 40
1.0
 40
1.0
 40
1.0
 10
6.8532023712
 20
6.6016259549
 30
0.0
 10
6.8541520677
 20
6.6022721091
 30
0.0
 10
6.8561304564
 20
6.6035219648
 30
0.0
 10
6.8592639272
 20
6.6052390707
 30
0.0
 10
6.862608319
 20
6.6068284479
 30
0.0
 10
6.8661588789
 20
6.6082883976
 30
0.0
 10
6.8699112803
 20
6.6096176671
 30
0.0
 10
6.8738613618
 20
6.6108150927
 30
0.0
 10
6.8780049587
 20
6.6118794836
 30
0.0
 10
6.8823377322
 20
6.6128096655
 30
0.0
 10
6.8868552033
 20
6.6136044251
 30
0.0
 10
6.8915528571
 20
6.614262506
 30
0.0
 10
6.8964262043
 20
6.6147827006
 30
0.0
 10
6.9014707864
 20
6.6151638751
 30
0.0
 10
6.9066819559
 20
6.6154048513
 30
0.0
 10
6.9120544126
 20
6.6155045433
 30
0.0
 10
6.9175820913
 20
6.615462081
 30
0.0
 10
6.9213166062
 20
6.6153399911
 30
0.0
 10
6.9232080539
 20
6.6152558029
 30
0.0
 11
6.8532023712
 21
6.6016259549
 31
0.0
 11
6.8561135736
 21
6.6034698227
 31
0.0
 11
6.8592411493
 21
6.6051881879
 31
0.0
 11
6.8625802415
 21
6.6067792342
 31
0.0
 11
6.8661260764
 21
6.6082412108
 31
0.0
 11
6.8698743542
 21
6.6095727408
 31
0.0
 11
6.8738209435
 21
6.61077258
 31
0.0
 11
6.8779616874
 21
6.6118394822
 31
0.0
 11
6.882292157
 21
6.6127721819
 31
0.0
 11
6.8868077577
 21
6.6135694015
 31
0.0
 11
6.8915038941
 21
6.614229865
 31
0.0
 11
6.8963760252
 21
6.6147523508
 31
0.0
 11
6.9014196709
 21
6.6151356991
 31
0.0
 11
6.9066303513
 21
6.6153787535
 31
0.0
 11
6.9120029657
 21
6.6154804218
 31
0.0
 11
6.9175310721
 21
6.6154397502
 31
0.0
 11
6.9232080539
 21
6.6152558029
 31
0.0
  0
LINE
  5
346
100
AcDbEntity
  8
0
100
AcDbLine
 62
2
  6
CONTINUOUS
 10
6.9232226333
 20
6.7334517892
 11
6.923316109
 21
6.7965055645
  0
SPLINE
  5
347
100
AcDbEntity
  8
0
100
AcDbSpline
 62
6
  6
CONTINUOUS
 70
0
 71
3
 72
24
 73
20
 74
18
 42
0.0000001
 43
0.0000001
 44
0.0000000001
 12
0.0518289454
 22
0.0714428723
 32
0.0
 13
0.0875232642
 23
0.0114018336
 33
0.0
 40
0.0
 40
0.0
 40
0.0
 40
0.0
 40
0.052996242
 40
0.1066852518
 40
0.1612199357
 40
0.216742224
 40
0.2449181176
 40
0.273389052
 40
0.3312688555
 40
0.3905061869
 40
0.4512165214
 40
0.5135059084
 40
0.5774713031
 40
0.6432011522
 40
0.7107655051
 40
0.7802023357
 40
0.8515395558
 40
0.9247995369
 40
1.0
 40
1.0
 40
1.0
 40
1.0
 10
6.8342398378
 20
6.7670557911
 30
0.0
 10
6.8351554176
 20
6.768317859
 30
0.0
 10
6.8370856554
 20
6.7707964763
 30
0.0
 10
6.8402426353
 20
6.7743407702
 30
0.0
 10
6.8436727435
 20
6.7777280676
 30
0.0
 10
6.8467397103
 20
6.7804030595
 30
0.0
 10
6.8493210828
 20
6.7824597399
 30
0.0
 10
6.8520169619
 20
6.784481741
 30
0.0
 10
6.8555534599
 20
6.7869027544
 30
0.0
 10
6.8600286746
 20
6.7896176053
 30
0.0
 10
6.8647548803
 20
6.7921543773
 30
0.0
 10
6.8697283996
 20
6.7945093878
 30
0.0
 10
6.8749456947
 20
6.7966790482
 30
0.0
 10
6.8804029237
 20
6.7986596055
 30
0.0
 10
6.886095214
 20
6.800447148
 30
0.0
 10
6.8920165385
 20
6.8020376639
 30
0.0
 10
6.8981601673
 20
6.8034267593
 30
0.0
 10
6.9045191301
 20
6.8046100018
 30
0.0
 10
6.9088409292
 20
6.8052502655
 30
0.0
 10
6.9110348592
 20
6.8055360732
 30
0.0
 11
6.8342398378
 21
6.7670557911
 31
0.0
 11
6.8371123206
 21
6.770747506
 31
0.0
 11
6.8402624564
 21
6.7742876089
 31
0.0
 11
6.8436855424
 21
6.7776715639
 31
0.0
 11
6.847376876
 21
6.7808948352
 31
0.0
 11
6.8493216661
 21
6.7824447969
 31
0.0
 11
6.8513317545
 21
6.7839528867
 31
0.0
 11
6.8555455107
 21
6.7868412082
 31
0.0
 11
6.8600140825
 21
6.7895557228
 31
0.0
 11
6.8647339137
 21
6.7920927167
 31
0.0
 11
6.8697014635
 21
6.7944484869
 31
0.0
 11
6.8749131912
 21
6.7966193306
 31
0.0
 11
6.8803655526
 21
6.7986015442
 31
0.0
 11
6.8860540882
 21
6.800391219
 31
0.0
 11
6.8919721955
 21
6.8019839665
 31
0.0
 11
6.8981129656
 21
6.8033753294
 31
0.0
 11
6.9044694898
 21
6.8045608507
 31
0.0
 11
6.9110348592
 21
6.8055360732
 31
0.0
  0
SPLINE
  5
348
100
AcDbEntity
  8
0
100
AcDbSpline
 62
6
  6
CONTINUOUS
 70
0
 71
3
 72
18
 73
14
 74
12
 42
0.0000001
 43
0.0000001
 44
0.0000000001
 12
0.009955673
 22
0.0161197954
 32
0.0
 13
0.0111255017
 23
0.0153357895
 33
0.0
 40
0.0
 40
0.0
 40
0.0
 40
0.0
 40
0.0338532065
 40
0.0716237539
 40
0.1132848295
 40
0.1588076801
 40
0.2081631046
 40
0.261323244
 40
0.3789972712
 40
0.5117578776
 40
0.6595628855
 40
0.8223384511
 40
1.0
 40
1.0
 40
1.0
 40
1.0
 10
6.8240082467
 20
6.7511198896
 30
0.0
 10
6.8241205906
 20
6.7513017918
 30
0.0
 10
6.8243552371
 20
6.7516885224
 30
0.0
 10
6.8247210639
 20
6.752303367
 30
0.0
 10
6.8251217145
 20
6.7529832398
 30
0.0
 10
6.8255588512
 20
6.7537265318
 30
0.0
 10
6.826034143
 20
6.7545316348
 30
0.0
 10
6.8267454757
 20
6.7557265265
 30
0.0
 10
6.827739606
 20
6.7573660638
 30
0.0
 10
6.8290751133
 20
6.7594973781
 30
0.0
 10
6.8306034934
 20
6.7618435226
 30
0.0
 10
6.8323363922
 20
6.7643942116
 30
0.0
 10
6.8335809799
 20
6.7661475978
 30
0.0
 10
6.8342398378
 20
6.7670557911
 30
0.0
 11
6.8240082467
 21
6.7511198896
 31
0.0
 11
6.8243416541
 21
6.751667818
 31
0.0
 11
6.8247080892
 21
6.7522824947
 31
0.0
 11
6.8251092361
 21
6.7529622844
 31
0.0
 11
6.8255467788
 21
6.7537055519
 31
0.0
 11
6.8260224016
 21
6.754510662
 31
0.0
 11
6.8265377882
 21
6.7553759983
 31
0.0
 11
6.8276945724
 21
6.7572819042
 31
0.0
 11
6.8290305595
 21
6.7594131014
 31
0.0
 11
6.8305590477
 21
6.7617595347
 31
0.0
 11
6.8322918538
 21
6.7643106975
 31
0.0
 11
6.8342398378
 21
6.7670557911
 31
0.0
  0
LINE
  5
349
100
AcDbEntity
  8
0
100
AcDbLine
 62
6
  6
CONTINUOUS
 10
6.8240219409
 20
6.7111948767
 11
6.8240082467
 21
6.7511198896
  0
SPLINE
  5
34A
100
AcDbEntity
  8
0
100
AcDbSpline
 62
2
  6
CONTINUOUS
 70
0
 71
3
 72
23
 73
19
 74
17
 42
0.0000001
 43
0.0000001
 44
0.0000000001
 12
0.0511827756
 22
0.0674444393
 32
0.0
 13
0.0844542953
 23
0.005991737
 33
0.0
 40
0.0
 40
0.0
 40
0.0
 40
0.0
 40
0.0516818601
 40
0.1041815356
 40
0.1576774716
 40
0.2123366318
 40
0.2683181676
 40
0.3257633921
 40
0.3847939268
 40
0.4455139135
 40
0.5080122729
 40
0.5723623517
 40
0.6386249232
 40
0.7068507059
 40
0.7770819242
 40
0.8493509735
 40
0.9236621814
 40
1.0
 40
1.0
 40
1.0
 40
1.0
 10
6.8477026595
 20
6.7009080255
 30
0.0
 10
6.8485843999
 20
6.7020699102
 30
0.0
 10
6.8504525033
 20
6.7043446462
 30
0.0
 10
6.8535247143
 20
6.7075690243
 30
0.0
 10
6.8568792141
 20
6.7106248523
 30
0.0
 10
6.8605092131
 20
6.713507952
 30
0.0
 10
6.8644084117
 20
6.7162151539
 30
0.0
 10
6.8685707113
 20
6.7187433921
 30
0.0
 10
6.8729900192
 20
6.7210895763
 30
0.0
 10
6.8776601947
 20
6.7232505035
 30
0.0
 10
6.882575002
 20
6.7252229132
 30
0.0
 10
6.8877280245
 20
6.7270037607
 30
0.0
 10
6.8931128197
 20
6.7285899364
 30
0.0
 10
6.8987229613
 20
6.7299783441
 30
0.0
 10
6.9045519868
 20
6.7311659566
 30
0.0
 10
6.9105928582
 20
6.7321495862
 30
0.0
 10
6.9168373253
 20
6.7329263446
 30
0.0
 10
6.9210736144
 20
6.7332993239
 30
0.0
 10
6.9232226333
 20
6.7334517892
 30
0.0
 11
6.8477026595
 21
6.7009080255
 31
0.0
 11
6.8504776526
 21
6.7042912772
 31
0.0
 11
6.8535416041
 21
6.7075115161
 31
0.0
 11
6.8568876185
 21
6.7105642045
 31
0.0
 11
6.8605091832
 21
6.7134453219
 31
0.0
 11
6.8644003629
 21
6.7161516279
 31
0.0
 11
6.8685552567
 21
6.718679936
 31
0.0
 11
6.8729678166
 21
6.721026945
 31
0.0
 11
6.8776319027
 21
6.7231892822
 31
0.0
 11
6.8825413089
 21
6.7251636012
 31
0.0
 11
6.8876895778
 21
6.7269466628
 31
0.0
 11
6.8930701912
 21
6.7285352546
 31
0.0
 11
6.8986766644
 21
6.7299262098
 31
0.0
 11
6.9045025638
 21
6.731116431
 31
0.0
 11
6.9105413058
 21
6.7321028269
 31
0.0
 11
6.9167845092
 21
6.7328823087
 31
0.0
 11
6.9232226333
 21
6.7334517892
 31
0.0
  0
LINE
  5
34B
100
AcDbEntity
  8
0
100
AcDbLine
 62
2
  6
CONTINUOUS
 10
6.9232080539
 20
6.8173414885
 11
6.9233137148
 21
6.8723895907
  0
SPLINE
  5
34C
100
AcDbEntity
  8
0
100
AcDbSpline
 62
6
  6
CONTINUOUS
 70
0
 71
3
 72
21
 73
17
 74
15
 42
0.0000001
 43
0.0000001
 44
0.0000000001
 12
0.0478814907
 22
0.0831920694
 32
0.0
 13
0.0931029486
 23
0.0233537692
 33
0.0
 40
0.0
 40
0.0
 40
0.0
 40
0.0
 40
0.0572026824
 40
0.1146227232
 40
0.1723707767
 40
0.2305588939
 40
0.2893044268
 40
0.3487209622
 40
0.4089146023
 40
0.4699846123
 40
0.5320250019
 40
0.5951224253
 40
0.7247737359
 40
0.8595743167
 40
0.9290707344
 40
1.0
 40
1.0
 40
1.0
 40
1.0
 10
6.834226105
 20
6.828792611
 30
0.0
 10
6.8351390882
 20
6.8303788808
 30
0.0
 10
6.8370616022
 20
6.8335048856
 30
0.0
 10
6.8402185628
 20
6.8380305932
 30
0.0
 10
6.8436479762
 20
6.8423938488
 30
0.0
 10
6.8473453056
 20
6.8465890636
 30
0.0
 10
6.8513063945
 20
6.8506113797
 30
0.0
 10
6.8555271569
 20
6.8544561181
 30
0.0
 10
6.8600035327
 20
6.8581184658
 30
0.0
 10
6.8647313741
 20
6.8615933842
 30
0.0
 10
6.8697065294
 20
6.8648758252
 30
0.0
 10
6.8767264389
 20
6.869026048
 30
0.0
 10
6.8861256432
 20
6.8736988694
 30
0.0
 10
6.8960982201
 20
6.8775749626
 30
0.0
 10
6.9044936845
 20
6.8802390565
 30
0.0
 10
6.9088304922
 20
6.8814195316
 30
0.0
 10
6.9110317335
 20
6.8819716868
 30
0.0
 11
6.834226105
 21
6.828792611
 31
0.0
 11
6.8371019877
 21
6.8334699406
 31
0.0
 11
6.8402545679
 21
6.8379908807
 31
0.0
 11
6.8436790699
 21
6.8423496082
 31
0.0
 11
6.8473710161
 21
6.8465407085
 31
0.0
 11
6.8513264682
 21
6.8505595059
 31
0.0
 11
6.8555415369
 21
6.8544013863
 31
0.0
 11
6.8600122141
 21
6.8580614808
 31
0.0
 11
6.8647343966
 21
6.8615347185
 31
0.0
 11
6.8697039257
 21
6.8648160073
 31
0.0
 11
6.8749163802
 21
6.867900179
 31
0.0
 11
6.8860520668
 21
6.8734563857
 31
0.0
 11
6.8981054086
 21
6.878161523
 31
0.0
 11
6.9044630272
 21
6.8801813955
 31
0.0
 11
6.9110317335
 21
6.8819716868
 31
0.0
  0
SPLINE
  5
34D
100
AcDbEntity
  8
0
100
AcDbSpline
 62
6
  6
CONTINUOUS
 70
0
 71
3
 72
15
 73
11
 74
9
 42
0.0000001
 43
0.0000001
 44
0.0000000001
 12
0.0078430203
 22
0.0233452955
 32
0.0
 13
0.0122849966
 23
0.0213446632
 33
0.0
 40
0.0
 40
0.0
 40
0.0
 40
0.0
 40
0.0870131595
 40
0.1853376986
 40
0.2946567741
 40
0.4147303995
 40
0.5454205906
 40
0.6866211134
 40
0.8381963763
 40
1.0
 40
1.0
 40
1.0
 40
1.0
 10
6.8240098204
 20
6.806427921
 30
0.0
 10
6.8242373024
 20
6.807105037
 30
0.0
 10
6.824735612
 20
6.8085427061
 30
0.0
 10
6.825575026
 20
6.8108114778
 30
0.0
 10
6.8265663156
 20
6.8133127566
 30
0.0
 10
6.827722821
 20
6.8160334534
 30
0.0
 10
6.8290572328
 20
6.8189618206
 30
0.0
 10
6.8305825895
 20
6.822086076
 30
0.0
 10
6.832310281
 20
6.8253942675
 30
0.0
 10
6.8335635193
 20
6.8276413964
 30
0.0
 10
6.834226105
 20
6.828792611
 30
0.0
 11
6.8240098204
 21
6.806427921
 31
0.0
 11
6.824711741
 21
6.8084526221
 31
0.0
 11
6.8255519015
 21
6.8107236906
 31
0.0
 11
6.826543524
 21
6.8132266785
 31
0.0
 11
6.8276997992
 21
6.8159483647
 31
0.0
 11
6.8290338677
 21
6.8188774441
 31
0.0
 11
6.8305587406
 21
6.8220026999
 31
0.0
 11
6.8322859579
 21
6.8253119985
 31
0.0
 11
6.834226105
 21
6.828792611
 31
0.0
  0
LINE
  5
34E
100
AcDbEntity
  8
0
100
AcDbLine
 62
6
  6
CONTINUOUS
 10
6.8240219409
 20
6.7784895781
 11
6.8240098204
 21
6.806427921
  0
SPLINE
  5
34F
100
AcDbEntity
  8
0
100
AcDbSpline
 62
2
  6
CONTINUOUS
 70
0
 71
3
 72
15
 73
11
 74
9
 42
0.0000001
 43
0.0000001
 44
0.0000000001
 12
0.0496611791
 22
0.044665153
 32
0.0
 13
0.0657659908
 23
0.0116637497
 33
0.0
 40
0.0
 40
0.0
 40
0.0
 40
0.0
 40
0.1134997024
 40
0.2296293956
 40
0.3487914189
 40
0.4713167975
 40
0.597487235
 40
0.7275506179
 40
0.8616979479
 40
1.0
 40
1.0
 40
1.0
 40
1.0
 10
6.863102294
 20
6.790193524
 30
0.0
 10
6.864981137
 20
6.7918833512
 30
0.0
 10
6.8689299411
 20
6.7951414572
 30
0.0
 10
6.8753050925
 20
6.7995887702
 30
0.0
 10
6.8821758775
 20
6.8036356849
 30
0.0
 10
6.8895230264
 20
6.8072699891
 30
0.0
 10
6.8973278835
 20
6.8104797601
 30
0.0
 10
6.9055712569
 20
6.8132532874
 30
0.0
 10
6.9142313633
 20
6.8155785193
 30
0.0
 10
6.9201761967
 20
6.8168037817
 30
0.0
 10
6.9232080539
 20
6.8173414885
 30
0.0
 11
6.863102294
 21
6.790193524
 31
0.0
 11
6.8689453817
 21
6.7950234753
 31
0.0
 11
6.8753026351
 21
6.7994675342
 31
0.0
 11
6.8821565833
 21
6.8035136086
 31
0.0
 11
6.8894884709
 21
6.8071491522
 31
0.0
 11
6.8972793384
 21
6.81036167
 31
0.0
 11
6.9055105591
 21
6.8131392532
 31
0.0
 11
6.9141621093
 21
6.8154700011
 31
0.0
 11
6.9232080539
 21
6.8173414885
 31
0.0
  0
LINE
  5
350
100
AcDbEntity
  8
0
100
AcDbLine
 62
2
  6
CONTINUOUS
 10
6.9232226333
 20
6.8956919638
 11
6.923316109
 21
6.9324653889
  0
SPLINE
  5
351
100
AcDbEntity
  8
0
100
AcDbSpline
 62
6
  6
CONTINUOUS
 70
0
 71
3
 72
23
 73
19
 74
17
 42
0.0000001
 43
0.0000001
 44
0.0000000001
 12
0.0454308213
 22
0.0944693913
 32
0.0
 13
0.0982607298
 23
0.0365137561
 33
0.0
 40
0.0
 40
0.0
 40
0.0
 40
0.0
 40
0.0601465169
 40
0.1202443581
 40
0.1803651669
 40
0.2405853716
 40
0.3009905069
 40
0.3616660803
 40
0.4226937096
 40
0.4841518396
 40
0.5461174853
 40
0.608664108
 40
0.6718633779
 40
0.7357859561
 40
0.8005015497
 40
0.8660777887
 40
0.9325646938
 40
1.0
 40
1.0
 40
1.0
 40
1.0
 10
6.8342398378
 20
6.8749471459
 30
0.0
 10
6.8351506731
 20
6.8768411475
 30
0.0
 10
6.8370673211
 20
6.8805824451
 30
0.0
 10
6.8402210667
 20
6.8860418273
 30
0.0
 10
6.8436469966
 20
6.8913379034
 30
0.0
 10
6.8473407407
 20
6.8964639678
 30
0.0
 10
6.8512982681
 20
6.9014140685
 30
0.0
 10
6.8555156112
 20
6.9061824648
 30
0.0
 10
6.8599888148
 20
6.9107632428
 30
0.0
 10
6.864713876
 20
6.9151502438
 30
0.0
 10
6.8696866281
 20
6.9193371941
 30
0.0
 10
6.8749027214
 20
6.9233178237
 30
0.0
 10
6.8803577188
 20
6.927085789
 30
0.0
 10
6.8860471765
 20
6.9306347077
 30
0.0
 10
6.8919666183
 20
6.9339581258
 30
0.0
 10
6.8981110507
 20
6.9370492981
 30
0.0
 10
6.9044741606
 20
6.939901328
 30
0.0
 10
6.9088261117
 20
6.9416260524
 30
0.0
 10
6.9110348592
 20
6.9424468245
 30
0.0
 11
6.8342398378
 21
6.8749471459
 31
0.0
 11
6.8371146009
 21
6.8805585186
 31
0.0
 11
6.8402657694
 21
6.8860135702
 31
0.0
 11
6.843688644
 21
6.8913052354
 31
0.0
 11
6.8473788229
 21
6.8964269352
 31
0.0
 11
6.8513324423
 21
6.9013729684
 31
0.0
 11
6.8555456874
 21
6.9061377067
 31
0.0
 11
6.8600146256
 21
6.9107152136
 31
0.0
 11
6.8647352311
 21
6.9150993082
 31
0.0
 11
6.8697034218
 21
6.9192837785
 31
0.0
 11
6.8749148531
 21
6.9232622937
 31
0.0
 11
6.8803650997
 21
6.9270284862
 31
0.0
 11
6.8860497423
 21
6.9305759641
 31
0.0
 11
6.8919643721
 21
6.9338982927
 31
0.0
 11
6.8981044464
 21
6.9369889866
 31
0.0
 11
6.9044637347
 21
6.9398409825
 31
0.0
 11
6.9110348592
 21
6.9424468245
 31
0.0
  0
SPLINE
  5
352
100
AcDbEntity
  8
0
100
AcDbSpline
 62
6
  6
CONTINUOUS
 70
0
 71
3
 72
15
 73
11
 74
9
 42
0.0000001
 43
0.0000001
 44
0.0000000001
 12
0.0069005888
 22
0.0297071083
 32
0.0
 13
0.0132176661
 23
0.0274849725
 33
0.0
 40
0.0
 40
0.0
 40
0.0
 40
0.0
 40
0.0964554685
 40
0.2015739487
 40
0.3150218708
 40
0.4365357953
 40
0.5659460528
 40
0.7031112351
 40
0.8478578252
 40
1.0
 40
1.0
 40
1.0
 40
1.0
 10
6.8240082467
 20
6.846280589
 30
0.0
 10
6.8242301132
 20
6.8472357267
 30
0.0
 10
6.8247179397
 20
6.849226251
 30
0.0
 10
6.8255561812
 20
6.8523174542
 30
0.0
 10
6.826546944
 20
6.8556301365
 30
0.0
 10
6.8277038858
 20
6.8591495271
 30
0.0
 10
6.8290400649
 20
6.8628622541
 30
0.0
 10
6.8305688119
 20
6.8667549296
 30
0.0
 10
6.8323018035
 20
6.8708136429
 30
0.0
 10
6.8335695163
 20
6.8735532714
 30
0.0
 10
6.8342398378
 20
6.8749471459
 30
0.0
 11
6.8240082467
 21
6.846280589
 31
0.0
 11
6.8247080892
 21
6.8491378316
 31
0.0
 11
6.8255467788
 21
6.8522320913
 31
0.0
 11
6.8265377882
 21
6.8555470694
 31
0.0
 11
6.8276945724
 21
6.8590678385
 31
0.0
 11
6.8290305595
 21
6.8627816029
 31
0.0
 11
6.8305590477
 21
6.8666756323
 31
0.0
 11
6.8322918538
 21
6.8707358146
 31
0.0
 11
6.8342398378
 21
6.8749471459
 31
0.0
  0
LINE
  5
353
100
AcDbEntity
  8
0
100
AcDbLine
 62
6
  6
CONTINUOUS
 10
6.8240219409
 20
6.8273299205
 11
6.8240082467
 21
6.846280589
  0
SPLINE
  5
354
100
AcDbEntity
  8
0
100
AcDbSpline
 62
2
  6
CONTINUOUS
 70
0
 71
3
 72
19
 73
15
 74
13
 42
0.0000001
 43
0.0000001
 44
0.0000000001
 12
0.0464566371
 22
0.0481700962
 32
0.0
 13
0.0642666422
 23
0.0186648333
 33
0.0
 40
0.0
 40
0.0
 40
0.0
 40
0.0
 40
0.0590166458
 40
0.1183424896
 40
0.1780153479
 40
0.2380718414
 40
0.3594574305
 40
0.4827802544
 40
0.5452530716
 40
0.6083005404
 40
0.6719510667
 40
0.736232074
 40
0.8667568615
 40
1.0
 40
1.0
 40
1.0
 40
1.0
 10
6.8660412816
 20
6.8623864652
 30
0.0
 10
6.8669551865
 20
6.8633340777
 30
0.0
 10
6.8688222439
 20
6.8652013684
 30
0.0
 10
6.8717288679
 20
6.867908219
 30
0.0
 10
6.8747466576
 20
6.8705262124
 30
0.0
 10
6.878930538
 20
6.8739077457
 30
0.0
 10
6.8844368169
 20
6.8779048969
 30
0.0
 10
6.8902439359
 20
6.881552514
 30
0.0
 10
6.8950833948
 20
6.8842732651
 30
0.0
 10
6.8988270206
 20
6.8862224131
 30
0.0
 10
6.9026667985
 20
6.8880695386
 30
0.0
 10
6.9079385589
 20
6.8904059152
 30
0.0
 10
6.9147633887
 20
6.8930596644
 30
0.0
 10
6.9203682703
 20
6.8948629768
 30
0.0
 10
6.9232226333
 20
6.8956919638
 30
0.0
 11
6.8660412816
 21
6.8623864652
 31
0.0
 11
6.8688335886
 21
6.865179626
 31
0.0
 11
6.8717387597
 21
6.8678856532
 31
0.0
 11
6.8747550105
 21
6.8705028604
 31
0.0
 11
6.8778805564
 21
6.8730295611
 31
0.0
 11
6.8844522283
 21
6.8778047629
 31
0.0
 11
6.8914387491
 21
6.8821980594
 31
0.0
 11
6.8950828477
 21
6.8842473945
 31
0.0
 11
6.8988250035
 21
6.8861963787
 31
0.0
 11
6.9026633486
 21
6.8880434217
 31
0.0
 11
6.9065960148
 21
6.8897869333
 31
0.0
 11
6.914735577
 21
6.8929567592
 31
0.0
 11
6.9232226333
 21
6.8956919638
 31
0.0
  0
LINE
  5
355
100
AcDbEntity
  8
0
100
AcDbLine
 62
2
  6
CONTINUOUS
 10
6.9232080539
 20
6.9434595658
 11
6.9233137148
 21
6.9687643524
  0
SPLINE
  5
356
100
AcDbEntity
  8
0
100
AcDbSpline
 62
6
  6
CONTINUOUS
 70
0
 71
3
 72
23
 73
19
 74
17
 42
0.0000001
 43
0.0000001
 44
0.0000000001
 12
0.0440370048
 22
0.1046639404
 32
0.0
 13
0.1022990683
 23
0.0492818309
 33
0.0
 40
0.0
 40
0.0
 40
0.0
 40
0.0
 40
0.0620167978
 40
0.1238490919
 40
0.185539029
 40
0.247134826
 40
0.3086954652
 40
0.3702813874
 40
0.4319506566
 40
0.4937598155
 40
0.5557658627
 40
0.6180243575
 40
0.6805911613
 40
0.7435232367
 40
0.8068787327
 40
0.8707159164
 40
0.9350783648
 40
1.0
 40
1.0
 40
1.0
 40
1.0
 10
6.834226105
 20
6.8987592865
 30
0.0
 10
6.8351364497
 20
6.9009229273
 30
0.0
 10
6.8370513918
 20
6.9052037235
 30
0.0
 10
6.8402054236
 20
6.9114808441
 30
0.0
 10
6.84363175
 20
6.9175954998
 30
0.0
 10
6.8473259747
 20
6.9235399941
 30
0.0
 10
6.8512840123
 20
6.9293074384
 30
0.0
 10
6.8555018493
 20
6.9348911918
 30
0.0
 10
6.85997548
 20
6.9402844229
 30
0.0
 10
6.8647008548
 20
6.945480033
 30
0.0
 10
6.869673763
 20
6.9504707793
 30
0.0
 10
6.8748897971
 20
6.9552494093
 30
0.0
 10
6.8803444636
 20
6.9598085853
 30
0.0
 10
6.8860332622
 20
6.9641409291
 30
0.0
 10
6.8919516566
 20
6.9682389904
 30
0.0
 10
6.8980946116
 20
6.972094966
 30
0.0
 10
6.9044557227
 20
6.9757007744
 30
0.0
 10
6.9088179259
 20
6.9779224083
 30
0.0
 10
6.9110317335
 20
6.978988894
 30
0.0
 11
6.834226105
 21
6.8987592865
 31
0.0
 11
6.8371019877
 21
6.9051873437
 31
0.0
 11
6.8402545679
 21
6.9114608776
 31
0.0
 11
6.8436790699
 21
6.9175716916
 31
0.0
 11
6.8473710161
 21
6.9235121586
 31
0.0
 11
6.8513264682
 21
6.9292756805
 31
0.0
 11
6.8555415369
 21
6.9348557455
 31
0.0
 11
6.8600122141
 21
6.9402454982
 31
0.0
 11
6.8647343966
 21
6.9454378098
 31
0.0
 11
6.8697039257
 21
6.9504255157
 31
0.0
 11
6.8749163802
 21
6.9552013119
 31
0.0
 11
6.8803672587
 21
6.9597578511
 31
0.0
 11
6.8860520668
 21
6.9640877645
 31
0.0
 11
6.891966322
 21
6.9681836461
 31
0.0
 11
6.8981054086
 21
6.9720380257
 31
0.0
 11
6.9044630272
 21
6.9756426844
 31
0.0
 11
6.9110317335
 21
6.978988894
 31
0.0
  0
SPLINE
  5
357
100
AcDbEntity
  8
0
100
AcDbSpline
 62
6
  6
CONTINUOUS
 70
0
 71
3
 72
14
 73
10
 74
8
 42
0.0000001
 43
0.0000001
 44
0.0000000001
 12
0.0063769256
 22
0.0351922797
 32
0.0
 13
0.0138704345
 23
0.0329662369
 33
0.0
 40
0.0
 40
0.0
 40
0.0
 40
0.0
 40
0.2134214745
 40
0.3298433624
 40
0.4523662243
 40
0.5808124731
 40
0.7150287857
 40
0.8548260667
 40
1.0
 40
1.0
 40
1.0
 40
1.0
 10
6.8240098204
 20
6.8645569326
 30
0.0
 10
6.824463478
 20
6.8670605287
 30
0.0
 10
6.8252588536
 20
6.8709136077
 30
0.0
 10
6.8265434287
 20
6.8761518376
 30
0.0
 10
6.8276995273
 20
6.8803770642
 30
0.0
 10
6.8290334023
 20
6.8847717879
 30
0.0
 10
6.8305581072
 20
6.8893218543
 30
0.0
 10
6.8322850397
 20
6.8940122036
 30
0.0
 10
6.8335548965
 20
6.8971640071
 30
0.0
 10
6.834226105
 20
6.8987592865
 30
0.0
 11
6.8240098204
 21
6.8645569326
 31
0.0
 11
6.8255519015
 21
6.8720326381
 31
0.0
 11
6.826543524
 21
6.8760767096
 31
0.0
 11
6.8276997992
 21
6.8803034831
 31
0.0
 11
6.8290338677
 21
6.8846994395
 31
0.0
 11
6.8305587406
 21
6.8892510992
 31
0.0
 11
6.8322859579
 21
6.8939431921
 31
0.0
 11
6.834226105
 21
6.8987592865
 31
0.0
  0
LINE
  5
358
100
AcDbEntity
  8
0
100
AcDbLine
 62
6
  6
CONTINUOUS
 10
6.8240219409
 20
6.8569456624
 11
6.8240098204
 21
6.8645569326
  0
LINE
  5
359
100
AcDbEntity
  8
0
100
AcDbLine
 62
6
  6
CONTINUOUS
 10
6.8240219409
 20
6.866869746
 11
6.8240122296
 21
6.864655947
  0
SPLINE
  5
35A
100
AcDbEntity
  8
0
100
AcDbSpline
 62
6
  6
CONTINUOUS
 70
0
 71
3
 72
8
 73
4
 74
2
 42
0.0000001
 43
0.0000001
 44
0.0000000001
 12
-0.0000000077
 22
-0.000042211
 32
0.0
 13
-0.0000000077
 23
-0.000042211
 33
0.0
 40
0.0
 40
0.0
 40
0.0
 40
0.0
 40
1.0
 40
1.0
 40
1.0
 40
1.0
 10
6.8240218751
 20
6.8562210306
 30
0.0
 10
6.8240218726
 20
6.8562069603
 30
0.0
 10
6.82402187
 20
6.85619289
 30
0.0
 10
6.8240218674
 20
6.8561788196
 30
0.0
 11
6.8240218751
 21
6.8562210306
 31
0.0
 11
6.8240218674
 21
6.8561788196
 31
0.0
  0
LINE
  5
35B
100
AcDbEntity
  8
0
100
AcDbLine
 62
6
  6
CONTINUOUS
 10
6.8240218674
 20
6.8561788196
 11
6.8240133417
 21
6.8463755253
  0
LINE
  5
35C
100
AcDbEntity
  8
0
100
AcDbLine
 62
6
  6
CONTINUOUS
 10
6.9108793959
 20
6.9959489711
 11
6.910786493
 21
6.9958917477
  0
LINE
  5
35D
100
AcDbEntity
  8
0
100
AcDbLine
 62
6
  6
CONTINUOUS
 10
6.8240219409
 20
4.3892991995
 11
6.8240132016
 21
4.3739156142
  0
LINE
  5
35E
100
AcDbEntity
  8
0
100
AcDbLine
 62
6
  6
CONTINUOUS
 10
6.8240219409
 20
4.3596834576
 11
6.8240160457
 21
4.3539043966
  0
SPLINE
  5
35F
100
AcDbEntity
  8
0
100
AcDbSpline
 62
2
  6
CONTINUOUS
 70
0
 71
3
 72
11
 73
7
 74
5
 42
0.0000001
 43
0.0000001
 44
0.0000000001
 12
0.0130409562
 22
-0.0060546768
 32
0.0
 13
0.0125238164
 23
-0.0070625542
 33
0.0
 40
0.0
 40
0.0
 40
0.0
 40
0.0
 40
0.2829481758
 40
0.5443410014
 40
0.7837465898
 40
1.0
 40
1.0
 40
1.0
 40
1.0
 10
5.0025714946
 20
5.3152393269
 30
0.0
 10
5.0038014662
 20
5.3146682736
 30
0.0
 10
5.0061542798
 20
5.3135404928
 30
0.0
 10
5.0095046181
 20
5.3118416081
 30
0.0
 10
5.0125410362
 20
5.3102318224
 30
0.0
 10
5.0144526348
 20
5.3091757097
 30
0.0
 10
5.0153554074
 20
5.3086666092
 30
0.0
 11
5.0025714946
 21
5.3152393269
 31
0.0
 11
5.0062404564
 21
5.3134817413
 31
0.0
 11
5.0095931258
 21
5.3117833929
 31
0.0
 11
5.0126341268
 21
5.310170693
 31
0.0
 11
5.0153554074
 21
5.3086666092
 31
0.0
  0
SPLINE
  5
360
100
AcDbEntity
  8
0
100
AcDbSpline
 62
2
  6
CONTINUOUS
 70
0
 71
3
 72
20
 73
16
 74
14
 42
0.0000001
 43
0.0000001
 44
0.0000000001
 12
0.0477837875
 22
0.0153912386
 32
0.0
 13
0.0502013948
 23
-0.0000230937
 33
0.0
 40
0.0
 40
0.0
 40
0.0
 40
0.0
 40
0.1113395306
 40
0.2279509681
 40
0.2880202142
 40
0.3491536774
 40
0.4112666306
 40
0.4742755877
 40
0.6026560204
 40
0.6678759059
 40
0.7336458415
 40
0.7998532089
 40
0.8663870041
 40
0.93313821
 40
1.0
 40
1.0
 40
1.0
 40
1.0
 10
4.9234238915
 20
5.3101784179
 30
0.0
 10
4.9251972997
 20
5.3107496357
 30
0.0
 10
4.9288462687
 20
5.3118634675
 30
0.0
 10
4.933500003
 20
5.3131209873
 30
0.0
 10
4.9373677015
 20
5.3140585848
 30
0.0
 10
4.9403618355
 20
5.3147265874
 30
0.0
 10
4.9434162119
 20
5.3153480675
 30
0.0
 10
4.9475888269
 20
5.3161135475
 30
0.0
 10
4.9518351479
 20
5.3167616787
 30
0.0
 10
4.9561445071
 20
5.3172807162
 30
0.0
 10
4.9594285941
 20
5.3176056534
 30
0.0
 10
4.9627407983
 20
5.3178618491
 30
0.0
 10
4.9660741993
 20
5.3180469547
 30
0.0
 10
4.9694218216
 20
5.3181586285
 30
0.0
 10
4.9716577715
 20
5.3181825266
 30
0.0
 10
4.9727766232
 20
5.3181820119
 30
0.0
 11
4.9234238915
 21
5.3101784179
 31
0.0
 11
4.9287700335
 21
5.311809418
 31
0.0
 11
4.934421741
 21
5.3133352591
 31
0.0
 11
4.937352468
 21
5.3140455006
 31
0.0
 11
4.940347828
 21
5.3147136999
 31
0.0
 11
4.9434033995
 21
5.3153353005
 31
0.0
 11
4.9465146453
 21
5.315905906
 31
0.0
 11
4.9528860112
 21
5.3168765459
 31
0.0
 11
4.9561366386
 21
5.3172681406
 31
0.0
 11
4.9594223388
 21
5.3175932253
 31
0.0
 11
4.9627361503
 21
5.3178494505
 31
0.0
 11
4.9660711118
 21
5.3180344668
 31
0.0
 11
4.9694202617
 21
5.3181459246
 31
0.0
 11
4.9727766232
 21
5.3181820119
 31
0.0
  0
SPLINE
  5
361
100
AcDbEntity
  8
0
100
AcDbSpline
 62
2
  6
CONTINUOUS
 70
0
 71
3
 72
26
 73
22
 74
20
 42
0.0000001
 43
0.0000001
 44
0.0000000001
 12
0.023538612
 22
0.0052259276
 32
0.0
 13
0.0214212217
 23
0.0110683258
 33
0.0
 40
0.0
 40
0.0
 40
0.0
 40
0.0
 40
0.0089356553
 40
0.0193612087
 40
0.031296675
 40
0.0447533971
 40
0.0597375404
 40
0.0762520098
 40
0.0942975662
 40
0.1138734034
 40
0.1575797506
 40
0.2072546637
 40
0.2627641504
 40
0.3239700721
 40
0.3907247575
 40
0.4628645481
 40
0.5402233819
 40
0.6226351825
 40
0.7099449361
 40
0.8020241526
 40
1.0
 40
1.0
 40
1.0
 40
1.0
 10
4.9020457304
 20
5.2990654935
 30
0.0
 10
4.9021158414
 20
5.2990810592
 30
0.0
 10
4.902266387
 20
5.2991209544
 30
0.0
 10
4.9025058574
 20
5.2991981574
 30
0.0
 10
4.9027762258
 20
5.2992971944
 30
0.0
 10
4.9030774939
 20
5.2994179018
 30
0.0
 10
4.9034096755
 20
5.2995601154
 30
0.0
 10
4.9037727638
 20
5.2997236507
 30
0.0
 10
4.9041667542
 20
5.2999083083
 30
0.0
 10
4.9047551427
 20
5.3001930478
 30
0.0
 10
4.9055661286
 20
5.3006012262
 30
0.0
 10
4.9066278146
 20
5.301153397
 30
0.0
 10
4.9078086267
 20
5.3017812067
 30
0.0
 10
4.9091064464
 20
5.3024812847
 30
0.0
 10
4.9105190688
 20
5.3032500465
 30
0.0
 10
4.9120443669
 20
5.3040833499
 30
0.0
 10
4.9136800686
 20
5.3049770426
 30
0.0
 10
4.9154239469
 20
5.3059270316
 30
0.0
 10
4.917274169
 20
5.3069291202
 30
0.0
 10
4.919946876
 20
5.308362855
 30
0.0
 10
4.9220102633
 20
5.3094479975
 30
0.0
 10
4.9234238915
 20
5.3101784179
 30
0.0
 11
4.9020457304
 21
5.2990654935
 31
0.0
 11
4.9022542907
 21
5.2991195597
 31
0.0
 11
4.9024938026
 21
5.2991958823
 31
0.0
 11
4.9027642549
 21
5.2992942478
 31
0.0
 11
4.9030656364
 21
5.2994144426
 31
0.0
 11
4.903397936
 21
5.2995562534
 31
0.0
 11
4.9037611425
 21
5.2997194666
 31
0.0
 11
4.9041552447
 21
5.2999038687
 31
0.0
 11
4.9045802295
 21
5.3001092444
 31
0.0
 11
4.9055222753
 21
5.3005816016
 31
0.0
 11
4.9065854128
 21
5.3011332734
 31
0.0
 11
4.9077675966
 21
5.3017608392
 31
0.0
 11
4.909066781
 21
5.3024608766
 31
0.0
 11
4.910480851
 21
5.3032297261
 31
0.0
 11
4.9120075509
 21
5.3040632475
 31
0.0
 11
4.9136446082
 21
5.3049572425
 31
0.0
 11
4.9153897517
 21
5.3059075121
 31
0.0
 11
4.9172411105
 21
5.3069096599
 31
0.0
 11
4.91919777
 21
5.3079588179
 31
0.0
 11
4.9234238915
 21
5.3101784179
 31
0.0
  0
LINE
  5
362
100
AcDbEntity
  8
0
100
AcDbLine
 62
2
  6
CONTINUOUS
 10
5.0536139349
 20
5.2969204769
 11
5.0547865159
 21
5.2963112681
  0
SPLINE
  5
363
100
AcDbEntity
  8
0
100
AcDbSpline
 62
2
  6
CONTINUOUS
 70
0
 71
3
 72
14
 73
10
 74
8
 42
0.0000001
 43
0.0000001
 44
0.0000000001
 12
0.0220136555
 22
-0.0055614496
 32
0.0
 13
0.0216056448
 23
-0.0069804632
 33
0.0
 40
0.0
 40
0.0
 40
0.0
 40
0.0
 40
0.2814561424
 40
0.4161488426
 40
0.5460727171
 40
0.6704448683
 40
0.7884241792
 40
0.8988325305
 40
1.0
 40
1.0
 40
1.0
 40
1.0
 10
5.0318185706
 20
5.3032694135
 30
0.0
 10
5.0338838635
 20
5.3027476455
 30
0.0
 10
5.0369288244
 20
5.3019412612
 30
0.0
 10
5.0409072414
 20
5.300821666
 30
0.0
 10
5.0437335732
 20
5.2999973731
 30
0.0
 10
5.0464317036
 20
5.2991857132
 30
0.0
 10
5.0489825277
 20
5.2983973871
 30
0.0
 10
5.0513608013
 20
5.2976457265
 30
0.0
 10
5.0528853387
 20
5.2971558755
 30
0.0
 10
5.0536139349
 20
5.2969204769
 30
0.0
 11
5.0318185706
 21
5.3032694135
 31
0.0
 11
5.0379966977
 21
5.3016354508
 31
0.0
 11
5.0409406367
 21
5.3008071718
 31
0.0
 11
5.043772705
 21
5.2999815461
 31
0.0
 11
5.0464769758
 21
5.2991682984
 31
0.0
 11
5.0490363941
 21
5.2983776587
 31
0.0
 11
5.0514268562
 21
5.2976226667
 31
0.0
 11
5.0536139349
 21
5.2969204769
 31
0.0
  0
SPLINE
  5
364
100
AcDbEntity
  8
0
100
AcDbSpline
 62
6
  6
CONTINUOUS
 70
0
 71
3
 72
15
 73
11
 74
9
 42
0.0000001
 43
0.0000001
 44
0.0000000001
 12
-0.0007773816
 22
0.0004527938
 32
0.0
 13
0.0000002956
 23
0.0008996357
 33
0.0
 40
0.0
 40
0.0
 40
0.0
 40
0.0
 40
0.1723510772
 40
0.3285370875
 40
0.4693559766
 40
0.5959137921
 40
0.7097520953
 40
0.8130052105
 40
0.9085486435
 40
1.0
 40
1.0
 40
1.0
 40
1.0
 10
4.9082492457
 20
5.2978151241
 30
0.0
 10
4.9082045849
 20
5.2978411372
 30
0.0
 10
4.9081206871
 20
5.2978929113
 30
0.0
 10
4.9080058563
 20
5.2979745019
 30
0.0
 10
4.907908357
 20
5.2980561658
 30
0.0
 10
4.9078281962
 20
5.2981379881
 30
0.0
 10
4.907765412
 20
5.2982201031
 30
0.0
 10
4.9077201528
 20
5.2983027115
 30
0.0
 10
4.907692731
 20
5.2983858803
 30
0.0
 10
4.9076865608
 20
5.2984421279
 30
0.0
 10
4.9076865698
 20
5.2984695522
 30
0.0
 11
4.9082492457
 21
5.2978151241
 31
0.0
 11
4.9081175276
 21
5.2978969276
 31
0.0
 11
4.9080032849
 21
5.2979787311
 31
0.0
 11
4.907906551
 21
5.2980605346
 31
0.0
 11
4.907827359
 21
5.2981423381
 31
0.0
 11
4.9077657424
 21
5.2982241417
 31
0.0
 11
4.9077217336
 21
5.2983059452
 31
0.0
 11
4.9076953457
 21
5.2983877487
 31
0.0
 11
4.9076865698
 21
5.2984695522
 31
0.0
  0
LINE
  5
365
100
AcDbEntity
  8
0
100
AcDbLine
 62
2
  6
CONTINUOUS
 10
4.972776517
 20
5.3160450489
 11
4.9898066123
 21
5.3170855595
  0
SPLINE
  5
366
100
AcDbEntity
  8
0
100
AcDbSpline
 62
2
  6
CONTINUOUS
 70
0
 71
3
 72
15
 73
11
 74
9
 42
0.0000001
 43
0.0000001
 44
0.0000000001
 12
-0.0048725356
 22
0.0063698662
 32
0.0
 13
-0.0014724096
 23
0.0078834516
 33
0.0
 40
0.0
 40
0.0
 40
0.0
 40
0.0
 40
0.1086150091
 40
0.2205379815
 40
0.3365587374
 40
0.4573823331
 40
0.5836360004
 40
0.7158601415
 40
0.8545168202
 40
1.0
 40
1.0
 40
1.0
 40
1.0
 10
6.8405777329
 20
6.3423125574
 30
0.0
 10
6.8404013227
 20
6.3425431784
 30
0.0
 10
6.840062886
 20
6.343026858
 30
0.0
 10
6.8396058361
 20
6.3438027459
 30
0.0
 10
6.8391909516
 20
6.3446385142
 30
0.0
 10
6.8388162861
 20
6.3455345988
 30
0.0
 10
6.8384798255
 20
6.3464916528
 30
0.0
 10
6.8381795609
 20
6.3475103807
 30
0.0
 10
6.8379135065
 20
6.3485914957
 30
0.0
 10
6.837761399
 20
6.3493358962
 30
0.0
 10
6.8376899954
 20
6.3497181994
 30
0.0
 11
6.8405777329
 21
6.3423125574
 31
0.0
 11
6.8400774085
 21
6.3430256037
 31
0.0
 11
6.8396206574
 21
6.3437982996
 31
0.0
 11
6.8392056286
 21
6.3446310707
 31
0.0
 11
6.8388304448
 21
6.3455244663
 31
0.0
 11
6.8384931987
 21
6.3464791778
 31
0.0
 11
6.8381919812
 21
6.3474959044
 31
0.0
 11
6.8379248831
 21
6.3485753452
 31
0.0
 11
6.8376899954
 21
6.3497181994
 31
0.0
  0
SPLINE
  5
367
100
AcDbEntity
  8
0
100
AcDbSpline
 62
6
  6
CONTINUOUS
 70
0
 71
3
 72
33
 73
29
 74
27
 42
0.0000001
 43
0.0000001
 44
0.0000000001
 12
-0.0391710303
 22
0.0176901213
 32
0.0
 13
-0.0
 23
0.0429803445
 33
0.0
 40
0.0
 40
0.0
 40
0.0
 40
0.0
 40
0.0185983905
 40
0.0371603394
 40
0.0558248447
 40
0.0747274235
 40
0.0939973995
 40
0.1137570886
 40
0.1551825629
 40
0.1770723543
 40
0.1998558526
 40
0.2236070318
 40
0.248390428
 40
0.2742615824
 40
0.30126605
 40
0.3294421987
 40
0.3588228172
 40
0.3894359116
 40
0.4213053969
 40
0.4544516904
 40
0.4888890245
 40
0.5246196744
 40
0.5616421089
 40
0.6395460739
 40
0.7225597504
 40
0.8105405321
 40
0.9031459583
 40
1.0
 40
1.0
 40
1.0
 40
1.0
 10
6.833785138
 20
6.2425669693
 30
0.0
 10
6.8335422987
 20
6.2426766386
 30
0.0
 10
6.8330658783
 20
6.242915872
 30
0.0
 10
6.8323828039
 20
6.2433335863
 30
0.0
 10
6.8317331054
 20
6.2438090032
 30
0.0
 10
6.8311163901
 20
6.2443420338
 30
0.0
 10
6.8305321024
 20
6.2449326737
 30
0.0
 10
6.8297838822
 20
6.2458106226
 30
0.0
 10
6.8291098427
 20
6.2467963752
 30
0.0
 10
6.8285049661
 20
6.2478718228
 30
0.0
 10
6.8280711247
 20
6.2487514557
 30
0.0
 10
6.8276646907
 20
6.249689287
 30
0.0
 10
6.8272846997
 20
6.2506856007
 30
0.0
 10
6.8269302897
 20
6.2517405314
 30
0.0
 10
6.8266005764
 20
6.2528541884
 30
0.0
 10
6.8262947098
 20
6.2540266313
 30
0.0
 10
6.8260118471
 20
6.2552579113
 30
0.0
 10
6.8257511507
 20
6.2565480776
 30
0.0
 10
6.8255117871
 20
6.2578971775
 30
0.0
 10
6.8252929303
 20
6.2593052107
 30
0.0
 10
6.8250937853
 20
6.2607719966
 30
0.0
 10
6.8249136681
 20
6.2622971627
 30
0.0
 10
6.8246943004
 20
6.2644444912
 30
0.0
 10
6.8244672379
 20
6.2672715888
 30
0.0
 10
6.8242644581
 20
6.2708319768
 30
0.0
 10
6.8241224064
 20
6.2746060477
 30
0.0
 10
6.8240391696
 20
6.2785801556
 30
0.0
 10
6.8240219409
 20
6.2812945449
 30
0.0
 10
6.8240219409
 20
6.2826821516
 30
0.0
 11
6.833785138
 21
6.2425669693
 31
0.0
 11
6.8330708531
 21
6.2429258312
 31
0.0
 11
6.8323901761
 21
6.2433419585
 31
0.0
 11
6.8317425795
 21
6.2438154081
 31
0.0
 11
6.831127536
 21
6.2443462369
 31
0.0
 11
6.8305445183
 21
6.2449345018
 31
0.0
 11
6.8299929403
 21
6.2455802845
 31
0.0
 11
6.8289808329
 21
6.2470451229
 31
0.0
 11
6.8285185914
 21
6.2478645711
 31
0.0
 11
6.8280844166
 21
6.2487423002
 31
0.0
 11
6.8276774526
 21
6.2496785064
 31
0.0
 11
6.8272968433
 21
6.2506733859
 31
0.0
 11
6.8269417369
 21
6.2517271102
 31
0.0
 11
6.8266113007
 21
6.2528397407
 31
0.0
 11
6.8263047072
 21
6.2540113085
 31
0.0
 11
6.8260211288
 21
6.2552418448
 31
0.0
 11
6.8257597382
 21
6.2565313807
 31
0.0
 11
6.8255197077
 21
6.2578799473
 31
0.0
 11
6.82530021
 21
6.2592875756
 31
0.0
 11
6.8251004566
 21
6.2607541631
 31
0.0
 11
6.8249197743
 21
6.2622792128
 31
0.0
 11
6.8247575115
 21
6.2638621549
 31
0.0
 11
6.8244856366
 21
6.2671994382
 31
0.0
 11
6.8242796206
 21
6.2707614419
 31
0.0
 11
6.8241351377
 21
6.274540125
 31
0.0
 11
6.8240499082
 21
6.2785194255
 31
0.0
 11
6.8240219409
 21
6.2826821516
 31
0.0
  0
SPLINE
  5
368
100
AcDbEntity
  8
0
100
AcDbSpline
 62
6
  6
CONTINUOUS
 70
0
 71
3
 72
15
 73
11
 74
9
 42
0.0000001
 43
0.0000001
 44
0.0000000001
 12
0.0061765441
 22
-0.0033067288
 32
0.0
 13
0.0068970718
 23
0.0012306718
 33
0.0
 40
0.0
 40
0.0
 40
0.0
 40
0.0
 40
0.104319815
 40
0.211873971
 40
0.3242268423
 40
0.44277265
 40
0.5686913987
 40
0.7029870443
 40
0.8465143884
 40
1.0
 40
1.0
 40
1.0
 40
1.0
 10
6.8273693953
 20
6.4685738767
 30
0.0
 10
6.8275841739
 20
6.4684588909
 30
0.0
 10
6.82803468
 20
6.4682511321
 30
0.0
 10
6.8287549464
 20
6.4680130605
 30
0.0
 10
6.829528458
 20
6.4678442382
 30
0.0
 10
6.830356745
 20
6.4677436643
 30
0.0
 10
6.8312415512
 20
6.4677104795
 30
0.0
 10
6.8321845581
 20
6.4677439655
 30
0.0
 10
6.8331874474
 20
6.4678434644
 30
0.0
 10
6.8338732379
 20
6.4679497204
 30
0.0
 10
6.834226105
 20
6.4680126839
 30
0.0
 11
6.8273693953
 21
6.4685738767
 31
0.0
 11
6.8280326925
 21
6.4682669546
 31
0.0
 11
6.8287476498
 21
6.4680289706
 31
0.0
 11
6.8295162662
 21
6.4678591874
 31
0.0
 11
6.8303404774
 21
6.4677569089
 31
0.0
 11
6.8312219585
 21
6.4677216057
 31
0.0
 11
6.8321623179
 21
6.4677527913
 31
0.0
 11
6.833163164
 21
6.4678499795
 31
0.0
 11
6.834226105
 21
6.4680126839
 31
0.0
  0
SPLINE
  5
369
100
AcDbEntity
  8
0
100
AcDbSpline
 62
2
  6
CONTINUOUS
 70
0
 71
3
 72
15
 73
11
 74
9
 42
0.0000001
 43
0.0000001
 44
0.0000000001
 12
0.006449752
 22
-0.003453629
 32
0.0
 13
0.0073083287
 23
0.0003393886
 33
0.0
 40
0.0
 40
0.0
 40
0.0
 40
0.0
 40
0.1115339967
 40
0.2253426669
 40
0.3423089045
 40
0.4632524375
 40
0.5888906801
 40
0.7198597674
 40
0.8567280169
 40
1.0
 40
1.0
 40
1.0
 40
1.0
 10
6.8460944166
 20
6.3625073382
 30
0.0
 10
6.8463342055
 20
6.3623789392
 30
0.0
 10
6.8468299185
 20
6.3621399805
 30
0.0
 10
6.8476098108
 20
6.3618398646
 30
0.0
 10
6.8484327004
 20
6.3615948891
 30
0.0
 10
6.8492994014
 20
6.361404663
 30
0.0
 10
6.8502107173
 20
6.3612687257
 30
0.0
 10
6.8511673632
 20
6.3611866825
 30
0.0
 10
6.8521700206
 20
6.3611581502
 30
0.0
 10
6.852853345
 20
6.3611741794
 30
0.0
 10
6.8532023712
 20
6.3611903877
 30
0.0
 11
6.8460944166
 21
6.3625073382
 31
0.0
 11
6.8468292487
 21
6.3621525327
 31
0.0
 11
6.8476060571
 21
6.3618527485
 31
0.0
 11
6.8484259472
 21
6.3616076228
 31
0.0
 11
6.8492899739
 21
6.3614168005
 31
0.0
 11
6.8501989273
 21
6.361279967
 31
0.0
 11
6.8511535098
 21
6.3611968212
 31
0.0
 11
6.8521544236
 21
6.3611670618
 31
0.0
 11
6.8532023712
 21
6.3611903877
 31
0.0
  0
SPLINE
  5
36A
100
AcDbEntity
  8
0
100
AcDbSpline
 62
6
  6
CONTINUOUS
 70
0
 71
3
 72
34
 73
30
 74
28
 42
0.0000001
 43
0.0000001
 44
0.0000000001
 12
-0.0389377586
 22
0.0208451274
 32
0.0
 13
0.0
 23
0.0441663716
 33
0.0
 40
0.0
 40
0.0
 40
0.0
 40
0.0
 40
0.0190848134
 40
0.038121539
 40
0.0572417647
 40
0.0765757214
 40
0.0962486783
 40
0.1163787067
 40
0.1584195495
 40
0.1805412821
 40
0.2035032848
 40
0.2273785061
 40
0.2522315472
 40
0.2781190107
 40
0.305089279
 40
0.3331845321
 40
0.3624418199
 40
0.3928937454
 40
0.4245674978
 40
0.4574814498
 40
0.4916500066
 40
0.5270852304
 40
0.5637971769
 40
0.6410658342
 40
0.7234328041
 40
0.7665118198
 40
0.8108393595
 40
0.9031172916
 40
1.0
 40
1.0
 40
1.0
 40
1.0
 10
6.8337617994
 20
6.3691035982
 30
0.0
 10
6.8335140927
 20
6.3692362067
 30
0.0
 10
6.8330291303
 20
6.3695199613
 30
0.0
 10
6.832335934
 20
6.3700005706
 30
0.0
 10
6.8316785623
 20
6.3705350109
 30
0.0
 10
6.8310562256
 20
6.3711235035
 30
0.0
 10
6.8304679837
 20
6.3717663533
 30
0.0
 10
6.8297171592
 20
6.3727097262
 30
0.0
 10
6.8290419046
 20
6.373755223
 30
0.0
 10
6.8284370032
 20
6.3748866814
 30
0.0
 10
6.8280046632
 20
6.3758057565
 30
0.0
 10
6.827600487
 20
6.3767810952
 30
0.0
 10
6.8272233989
 20
6.3778131708
 30
0.0
 10
6.8268724097
 20
6.3789023353
 30
0.0
 10
6.8265465375
 20
6.3800489445
 30
0.0
 10
6.826244823
 20
6.3812533222
 30
0.0
 10
6.8259663127
 20
6.38251579
 30
0.0
 10
6.8257100619
 20
6.3838366449
 30
0.0
 10
6.8254751455
 20
6.3852160804
 30
0.0
 10
6.8252607285
 20
6.3866541788
 30
0.0
 10
6.8250659998
 20
6.3881509216
 30
0.0
 10
6.8248901447
 20
6.3897062723
 30
0.0
 10
6.8246761296
 20
6.3918956247
 30
0.0
 10
6.8244545601
 20
6.3947781066
 30
0.0
 10
6.8242926031
 20
6.397758304
 30
0.0
 10
6.8241914257
 20
6.4002557072
 30
0.0
 10
6.824106966
 20
6.4028997254
 30
0.0
 10
6.8240386649
 20
6.4063366251
 30
0.0
 10
6.8240219409
 20
6.4091215087
 30
0.0
 10
6.8240219409
 20
6.410547828
 30
0.0
 11
6.8337617994
 21
6.3691035982
 31
0.0
 11
6.8330343611
 21
6.3695294219
 31
0.0
 11
6.8323433618
 21
6.3700084169
 31
0.0
 11
6.8316879262
 21
6.3705408972
 31
0.0
 11
6.831067132
 21
6.3711272231
 31
0.0
 11
6.8304800489
 21
6.371767763
 31
0.0
 11
6.8299257465
 21
6.3724628852
 31
0.0
 11
6.8289117521
 21
6.3740183562
 31
0.0
 11
6.8284501469
 21
6.3748794725
 31
0.0
 11
6.8280174999
 21
6.3757967039
 31
0.0
 11
6.8276128323
 21
6.3767704473
 31
0.0
 11
6.8272351651
 21
6.3778010995
 31
0.0
 11
6.8268835275
 21
6.378889039
 31
0.0
 11
6.8265569755
 21
6.380034583
 31
0.0
 11
6.8262545707
 21
6.3812380356
 31
0.0
 11
6.8259753747
 21
6.3824997012
 31
0.0
 11
6.8257184492
 21
6.383819884
 31
0.0
 11
6.8254828801
 21
6.3851988219
 31
0.0
 11
6.8252678404
 21
6.3866365187
 31
0.0
 11
6.8250725216
 21
6.3881329267
 31
0.0
 11
6.8248961157
 21
6.3896879982
 31
0.0
 11
6.8247378142
 21
6.3913016857
 31
0.0
 11
6.8244726373
 21
6.3947040437
 31
0.0
 11
6.8242721921
 21
6.3983363675
 31
0.0
 11
6.824194843
 21
6.4002374384
 31
0.0
 11
6.8241320582
 21
6.402194218
 31
0.0
 11
6.8240492002
 21
6.4062689571
 31
0.0
 11
6.8240219409
 21
6.410547828
 31
0.0
  0
SPLINE
  5
36B
100
AcDbEntity
  8
0
100
AcDbSpline
 62
6
  6
CONTINUOUS
 70
0
 71
3
 72
23
 73
19
 74
17
 42
0.0000001
 43
0.0000001
 44
0.0000000001
 12
0.0088041597
 22
-0.0053812947
 32
0.0
 13
0.0088837152
 23
0.0052489203
 33
0.0
 40
0.0
 40
0.0
 40
0.0
 40
0.0
 40
0.0380485799
 40
0.0766516428
 40
0.1167081025
 40
0.15902103
 40
0.2042716513
 40
0.2530200745
 40
0.3057197408
 40
0.36273517
 40
0.4243599489
 40
0.4908324838
 40
0.5623452118
 40
0.6390480615
 40
0.7210653609
 40
0.80850337
 40
0.9014544101
 40
1.0
 40
1.0
 40
1.0
 40
1.0
 10
6.8247102646
 20
6.5835461142
 30
0.0
 10
6.8248219265
 20
6.5834778639
 30
0.0
 10
6.8250573678
 20
6.5833567374
 30
0.0
 10
6.8254385639
 20
6.5832268369
 30
0.0
 10
6.8258483098
 20
6.5831478084
 30
0.0
 10
6.8262872593
 20
6.5831185519
 30
0.0
 10
6.8267564799
 20
6.5831379084
 30
0.0
 10
6.8272571694
 20
6.583205018
 30
0.0
 10
6.8277905927
 20
6.5833191121
 30
0.0
 10
6.8283580185
 20
6.5834795269
 30
0.0
 10
6.8289606938
 20
6.5836856581
 30
0.0
 10
6.8295998263
 20
6.5839369276
 30
0.0
 10
6.8302765505
 20
6.5842327685
 30
0.0
 10
6.8309918687
 20
6.5845727357
 30
0.0
 10
6.8317467271
 20
6.5849563562
 30
0.0
 10
6.8325420553
 20
6.5853831564
 30
0.0
 10
6.8333787738
 20
6.5858526575
 30
0.0
 10
6.8339480208
 20
6.586184044
 30
0.0
 10
6.8342398378
 20
6.5863564633
 30
0.0
 11
6.8247102646
 21
6.5835461142
 31
0.0
 11
6.8250593411
 21
6.5833664371
 31
0.0
 11
6.8254361066
 21
6.5832371647
 31
0.0
 11
6.8258416877
 21
6.5831575424
 31
0.0
 11
6.8262772113
 21
6.5831268162
 31
0.0
 11
6.8267438033
 21
6.5831442836
 31
0.0
 11
6.8272425868
 21
6.5832093603
 31
0.0
 11
6.8277746847
 21
6.5833214784
 31
0.0
 11
6.82834122
 21
6.5834800697
 31
0.0
 11
6.8289433154
 21
6.5836845662
 31
0.0
 11
6.829582094
 21
6.5839344001
 31
0.0
 11
6.8302586312
 21
6.5842290193
 31
0.0
 11
6.8309738604
 21
6.5845679207
 31
0.0
 11
6.8317286887
 21
6.58495061
 31
0.0
 11
6.8325240231
 21
6.585376593
 31
0.0
 11
6.8333607705
 21
6.5858453755
 31
0.0
 11
6.8342398378
 21
6.5863564633
 31
0.0
  0
SPLINE
  5
36C
100
AcDbEntity
  8
0
100
AcDbSpline
 62
2
  6
CONTINUOUS
 70
0
 71
3
 72
21
 73
17
 74
15
 42
0.0000001
 43
0.0000001
 44
0.0000000001
 12
0.0059056305
 22
-0.0036101232
 32
0.0
 13
0.0060487009
 23
0.0033649187
 33
0.0
 40
0.0
 40
0.0
 40
0.0
 40
0.0
 40
0.0464990816
 40
0.0929883448
 40
0.140081265
 40
0.1883602319
 40
0.2904601629
 40
0.3452771321
 40
0.4030715963
 40
0.4641486591
 40
0.528764114
 40
0.5971228706
 40
0.6693913991
 40
0.7457083181
 40
0.8261892945
 40
1.0
 40
1.0
 40
1.0
 40
1.0
 10
6.8411868616
 20
6.4954048232
 30
0.0
 10
6.8412783971
 20
6.4953488674
 30
0.0
 10
6.8414676417
 20
6.4952467318
 30
0.0
 10
6.8417676989
 20
6.4951250156
 30
0.0
 10
6.8420830618
 20
6.4950350849
 30
0.0
 10
6.8425323741
 20
6.4949556424
 30
0.0
 10
6.843008561
 20
6.4949423579
 30
0.0
 10
6.8435022273
 20
6.4949863009
 30
0.0
 10
6.8438982188
 20
6.4950500225
 30
0.0
 10
6.844311363
 20
6.4951434446
 30
0.0
 10
6.8447421256
 20
6.4952662428
 30
0.0
 10
6.8451908112
 20
6.4954181536
 30
0.0
 10
6.8456577098
 20
6.4955989272
 30
0.0
 10
6.8461430962
 20
6.4958083093
 30
0.0
 10
6.8468330933
 20
6.4961337463
 30
0.0
 10
6.8473522165
 20
6.4964079161
 30
0.0
 10
6.8477026595
 20
6.4966028691
 30
0.0
 11
6.8411868616
 21
6.4954048232
 31
0.0
 11
6.8414701468
 21
6.4952520567
 31
0.0
 11
6.8417682769
 21
6.4951309665
 31
0.0
 11
6.842081641
 21
6.4950412232
 31
0.0
 11
6.8424106165
 21
6.4949825265
 31
0.0
 11
6.8431168639
 21
6.4949571938
 31
0.0
 11
6.843494866
 21
6.49499002
 31
0.0
 11
6.8438899405
 21
6.4950528161
 31
0.0
 11
6.8443024524
 21
6.4951453133
 31
0.0
 11
6.8447327574
 21
6.4952672442
 31
0.0
 11
6.8451811354
 21
6.4954183541
 31
0.0
 11
6.8456478306
 21
6.4955983937
 31
0.0
 11
6.8461330868
 21
6.495807114
 31
0.0
 11
6.8466371478
 21
6.4960442661
 31
0.0
 11
6.8477026595
 21
6.4966028691
 31
0.0
  0
SPLINE
  5
36D
100
AcDbEntity
  8
0
100
AcDbSpline
 62
6
  6
CONTINUOUS
 70
0
 71
3
 72
29
 73
25
 74
23
 42
0.0000001
 43
0.0000001
 44
0.0000000001
 12
-0.0200650582
 22
0.0122761386
 32
0.0
 13
0.0
 23
0.0235225454
 33
0.0
 40
0.0
 40
0.0
 40
0.0
 40
0.0
 40
0.0154722908
 40
0.0312560754
 40
0.0474860028
 40
0.0642872395
 40
0.1000279832
 40
0.1191801897
 40
0.1392898236
 40
0.1604265642
 40
0.1826514037
 40
0.206017772
 40
0.2305723554
 40
0.2563531095
 40
0.2833909838
 40
0.3413384397
 40
0.4045977359
 40
0.4732991848
 40
0.5474968955
 40
0.6272081254
 40
0.7124338134
 40
0.8030919687
 40
0.899008553
 40
1.0
 40
1.0
 40
1.0
 40
1.0
 10
6.8283383756
 20
6.5032639718
 30
0.0
 10
6.8282348915
 20
6.5033272851
 30
0.0
 10
6.8280316196
 20
6.5034648929
 30
0.0
 10
6.8277426965
 20
6.5037004388
 30
0.0
 10
6.8274672221
 20
6.5039668119
 30
0.0
 10
6.8271102115
 20
6.504371549
 30
0.0
 10
6.8267867715
 20
6.5048338199
 30
0.0
 10
6.8264939203
 20
6.5053439919
 30
0.0
 10
6.8262810315
 20
6.5057673016
 30
0.0
 10
6.826079689
 20
6.5062226108
 30
0.0
 10
6.8258895407
 20
6.5067102076
 30
0.0
 10
6.8257102818
 20
6.5072303151
 30
0.0
 10
6.8255416105
 20
6.5077831504
 30
0.0
 10
6.8253832306
 20
6.5083688814
 30
0.0
 10
6.8251807399
 20
6.5092135489
 30
0.0
 10
6.8249544757
 20
6.5103541632
 30
0.0
 10
6.8247255924
 20
6.5118258326
 30
0.0
 10
6.8245314256
 20
6.5134308478
 30
0.0
 10
6.8243703661
 20
6.5151690424
 30
0.0
 10
6.824240998
 20
6.5170397349
 30
0.0
 10
6.8241418407
 20
6.5190414695
 30
0.0
 10
6.824071829
 20
6.5211715509
 30
0.0
 10
6.8240305044
 20
6.5234260021
 30
0.0
 10
6.8240219409
 20
6.5249699478
 30
0.0
 10
6.8240219409
 20
6.5257618064
 30
0.0
 11
6.8283383756
 21
6.5032639718
 31
0.0
 11
6.8280368549
 21
6.5034677932
 31
0.0
 11
6.8277488439
 21
6.5037020893
 31
0.0
 11
6.8274740507
 21
6.5039671108
 31
0.0
 11
6.8272121833
 21
6.5042631086
 31
0.0
 11
6.8267260558
 21
6.5049490232
 31
0.0
 11
6.8265012071
 21
6.5053394091
 31
0.0
 11
6.8262881083
 21
6.5057617195
 31
0.0
 11
6.8260864642
 21
6.5062161835
 31
0.0
 11
6.8258959798
 21
6.5067030301
 31
0.0
 11
6.8257163598
 21
6.5072224883
 31
0.0
 11
6.8255473107
 21
6.507774782
 31
0.0
 11
6.825388558
 21
6.5083600629
 31
0.0
 11
6.8252398416
 21
6.5089784309
 31
0.0
 11
6.8249714777
 21
6.5103148234
 31
0.0
 11
6.824740139
 21
6.5117847503
 31
0.0
 11
6.8245438135
 21
6.5133888135
 31
0.0
 11
6.8243808839
 21
6.515126511
 31
0.0
 11
6.8242498767
 21
6.5169969396
 31
0.0
 11
6.8241493317
 21
6.5189991418
 31
0.0
 11
6.8240782001
 21
6.5211304657
 31
0.0
 11
6.824035916
 21
6.5233862717
 31
0.0
 11
6.8240219409
 21
6.5257618064
 31
0.0
  0
SPLINE
  5
36E
100
AcDbEntity
  8
0
100
AcDbSpline
 62
2
  6
CONTINUOUS
 70
0
 71
3
 72
26
 73
22
 74
20
 42
0.0000001
 43
0.0000001
 44
0.0000000001
 12
0.01148724
 22
-0.0077902397
 32
0.0
 13
0.0114754185
 23
0.0078076429
 33
0.0
 40
0.0
 40
0.0
 40
0.0
 40
0.0
 40
0.0177110464
 40
0.0353193274
 40
0.0529862541
 40
0.0708702301
 40
0.089122695
 40
0.1078849645
 40
0.1474176799
 40
0.1903665145
 40
0.2374009245
 40
0.2890247615
 40
0.3456142754
 40
0.4074503114
 40
0.4747463883
 40
0.5476686276
 40
0.6263485336
 40
0.7108774077
 40
0.801306248
 40
0.8976714578
 40
1.0
 40
1.0
 40
1.0
 40
1.0
 10
6.8407867847
 20
6.5968200761
 30
0.0
 10
6.8408546017
 20
6.596774085
 30
0.0
 10
6.8409939296
 20
6.5966882228
 30
0.0
 10
6.8412135799
 20
6.5965786636
 30
0.0
 10
6.8414429021
 20
6.5964888815
 30
0.0
 10
6.8416820455
 20
6.5964186978
 30
0.0
 10
6.8419312023
 20
6.5963678978
 30
0.0
 10
6.8422830642
 20
6.5963249634
 30
0.0
 10
6.8427531096
 20
6.5963212154
 30
0.0
 10
6.8433494068
 20
6.5963913874
 30
0.0
 10
6.843989805
 20
6.596533965
 30
0.0
 10
6.8446763281
 20
6.5967472639
 30
0.0
 10
6.8454110867
 20
6.5970297598
 30
0.0
 10
6.8461959625
 20
6.5973802296
 30
0.0
 10
6.8470327082
 20
6.5977975522
 30
0.0
 10
6.8479230126
 20
6.5982805961
 30
0.0
 10
6.8488684715
 20
6.5988281802
 30
0.0
 10
6.8498704701
 20
6.5994390897
 30
0.0
 10
6.8509301355
 20
6.6001121435
 30
0.0
 10
6.8520484984
 20
6.6008460693
 30
0.0
 10
6.8528109503
 20
6.6013596399
 30
0.0
 10
6.8532023712
 20
6.6016259549
 30
0.0
 11
6.8407867847
 21
6.5968200761
 31
0.0
 11
6.8409961167
 21
6.5966911999
 31
0.0
 11
6.8412148174
 21
6.596582114
 31
0.0
 11
6.8414431149
 21
6.5964926236
 31
0.0
 11
6.8416812371
 21
6.5964225339
 31
0.0
 11
6.8419294121
 21
6.5963716498
 31
0.0
 11
6.8421878678
 21
6.5963397767
 31
0.0
 11
6.842736517
 21
6.5963323092
 31
0.0
 11
6.8433289222
 21
6.5963987071
 31
0.0
 11
6.8439668021
 21
6.596537575
 31
0.0
 11
6.8446518755
 21
6.5967475177
 31
0.0
 11
6.8453858546
 21
6.5970271502
 31
0.0
 11
6.8461703741
 21
6.5973752065
 31
0.0
 11
6.8470070197
 21
6.5977904959
 31
0.0
 11
6.8478973764
 21
6.5982718289
 31
0.0
 11
6.8488430252
 21
6.5988180154
 31
0.0
 11
6.849845326
 21
6.5994278214
 31
0.0
 11
6.8509053124
 21
6.6000999488
 31
0.0
 11
6.8520239917
 21
6.6008330944
 31
0.0
 11
6.8532023712
 21
6.6016259549
 31
0.0
  0
SPLINE
  5
36F
100
AcDbEntity
  8
0
100
AcDbSpline
 62
6
  6
CONTINUOUS
 70
0
 71
3
 72
24
 73
20
 74
18
 42
0.0000001
 43
0.0000001
 44
0.0000000001
 12
-0.0180323524
 22
0.0122375092
 32
0.0
 13
0.0
 23
0.0217927136
 33
0.0
 40
0.0
 40
0.0
 40
0.0
 40
0.0
 40
0.0154765557
 40
0.0313023376
 40
0.0644763622
 40
0.1004432839
 40
0.1399236881
 40
0.1834819896
 40
0.2315480528
 40
0.2844324683
 40
0.3423728381
 40
0.4055567088
 40
0.4741107233
 40
0.5481046434
 40
0.6275886689
 40
0.7125928421
 40
0.8030645271
 40
0.8989023384
 40
1.0
 40
1.0
 40
1.0
 40
1.0
 10
6.8278761932
 20
6.6055843908
 30
0.0
 10
6.827783167
 20
6.6056475223
 30
0.0
 10
6.8276006034
 20
6.6057836598
 30
0.0
 10
6.8272499693
 20
6.6060948851
 30
0.0
 10
6.8268405426
 20
6.6065602902
 30
0.0
 10
6.8264058526
 20
6.6072212195
 30
0.0
 10
6.8260163195
 20
6.6079947294
 30
0.0
 10
6.8256688952
 20
6.6088826521
 30
0.0
 10
6.8253607105
 20
6.6098869666
 30
0.0
 10
6.8250893906
 20
6.6110094241
 30
0.0
 10
6.8248528055
 20
6.6122515389
 30
0.0
 10
6.8246489011
 20
6.6136145315
 30
0.0
 10
6.8244759073
 20
6.6150991872
 30
0.0
 10
6.8243324642
 20
6.6167058511
 30
0.0
 10
6.8242172179
 20
6.6184345253
 30
0.0
 10
6.8241287638
 20
6.6202845931
 30
0.0
 10
6.8240663514
 20
6.622254566
 30
0.0
 10
6.8240295411
 20
6.6243420932
 30
0.0
 10
6.8240219409
 20
6.6257726963
 30
0.0
 10
6.8240219409
 20
6.6265070938
 30
0.0
 11
6.8278761932
 21
6.6055843908
 31
0.0
 11
6.8276056557
 21
6.6057857975
 31
0.0
 11
6.8273474787
 21
6.6060144708
 31
0.0
 11
6.8268670014
 21
6.6065546571
 31
0.0
 11
6.8264324066
 21
6.6072069577
 31
0.0
 11
6.8260413665
 21
6.6079733455
 31
0.0
 11
6.8256915535
 21
6.6088557928
 31
0.0
 11
6.825380714
 21
6.6098560997
 31
0.0
 11
6.8251068054
 21
6.6109755722
 31
0.0
 11
6.8248678231
 21
6.6122154282
 31
0.0
 11
6.8246617692
 21
6.6135768714
 31
0.0
 11
6.8244869047
 21
6.6150605805
 31
0.0
 11
6.8243418187
 21
6.6166665685
 31
0.0
 11
6.8242251212
 21
6.6183948057
 31
0.0
 11
6.8241354742
 21
6.6202451069
 31
0.0
 11
6.8240720653
 21
6.6222157105
 31
0.0
 11
6.8240343883
 21
6.6243039366
 31
0.0
 11
6.8240219409
 21
6.6265070938
 31
0.0
  0
SPLINE
  5
370
100
AcDbEntity
  8
0
100
AcDbSpline
 62
2
  6
CONTINUOUS
 70
0
 71
3
 72
32
 73
28
 74
26
 42
0.0000001
 43
0.0000001
 44
0.0000000001
 12
0.0106846065
 22
-0.0079241244
 32
0.0
 13
0.0080415594
 23
0.0105965036
 33
0.0
 40
0.0
 40
0.0
 40
0.0
 40
0.0
 40
0.0106299271
 40
0.0208950803
 40
0.0312417669
 40
0.0420949688
 40
0.0538145545
 40
0.0666788955
 40
0.0808913234
 40
0.0965959
 40
0.1138932738
 40
0.132854015
 40
0.1535283518
 40
0.1759514776
 40
0.2001477291
 40
0.2261335559
 40
0.2539196055
 40
0.2835122064
 40
0.3481257166
 40
0.4199742877
 40
0.458604181
 40
0.4990292097
 40
0.5852302125
 40
0.6785051471
 40
0.7787775193
 40
0.8859688357
 40
1.0
 40
1.0
 40
1.0
 40
1.0
 10
6.8388848907
 20
6.6915087871
 30
0.0
 10
6.8389227496
 20
6.6914807095
 30
0.0
 10
6.8390022818
 20
6.6914318905
 30
0.0
 10
6.839133411
 20
6.6913843392
 30
0.0
 10
6.8392724871
 20
6.6913645886
 30
0.0
 10
6.8394190427
 20
6.6913720621
 30
0.0
 10
6.8395730953
 20
6.6914058701
 30
0.0
 10
6.8397349933
 20
6.6914652591
 30
0.0
 10
6.839905196
 20
6.6915496895
 30
0.0
 10
6.8400841335
 20
6.6916587659
 30
0.0
 10
6.8402721841
 20
6.6917921566
 30
0.0
 10
6.8404696773
 20
6.6919495682
 30
0.0
 10
6.8406769009
 20
6.6921307336
 30
0.0
 10
6.8408941311
 20
6.6923353796
 30
0.0
 10
6.841121632
 20
6.6925632286
 30
0.0
 10
6.8413596605
 20
6.6928139985
 30
0.0
 10
6.8416084743
 20
6.6930873992
 30
0.0
 10
6.8419655092
 20
6.693493789
 30
0.0
 10
6.8424391232
 20
6.6940576679
 30
0.0
 10
6.8429266994
 20
6.6946618842
 30
0.0
 10
6.8433417932
 20
6.6951866962
 30
0.0
 10
6.8437931502
 20
6.6957639528
 30
0.0
 10
6.8443884569
 20
6.696536212
 30
0.0
 10
6.8451402612
 20
6.6975228632
 30
0.0
 10
6.8459452896
 20
6.6985859631
 30
0.0
 10
6.8468048665
 20
6.6997232
 30
0.0
 10
6.8473969967
 20
6.7005052483
 30
0.0
 10
6.8477026595
 20
6.7009080255
 30
0.0
 11
6.8388848907
 21
6.6915087871
 31
0.0
 11
6.8390057845
 21
6.691435442
 31
0.0
 11
6.8391342077
 21
6.6913890354
 31
0.0
 11
6.8392704095
 21
6.6913692227
 31
0.0
 11
6.839414639
 21
6.6913756592
 31
0.0
 11
6.8395671456
 21
6.6914080003
 31
0.0
 11
6.8397281784
 21
6.6914659015
 31
0.0
 11
6.8398979866
 21
6.691549018
 31
0.0
 11
6.8400768195
 21
6.6916570054
 31
0.0
 11
6.8402649262
 21
6.6917895192
 31
0.0
 11
6.8404625563
 21
6.6919462308
 31
0.0
 11
6.8406699596
 21
6.6921268364
 31
0.0
 11
6.840887386
 21
6.6923310347
 31
0.0
 11
6.8411150853
 21
6.692558524
 31
0.0
 11
6.8413533076
 21
6.6928090029
 31
0.0
 11
6.8416023026
 21
6.6930821701
 31
0.0
 11
6.8418623204
 21
6.6933777238
 31
0.0
 11
6.8424164235
 21
6.6940347855
 31
0.0
 11
6.8430176161
 21
6.6947777761
 31
0.0
 11
6.8433364879
 21
6.695180742
 31
0.0
 11
6.843667813
 21
6.6956042943
 31
0.0
 11
6.8443684899
 21
6.6965119935
 31
0.0
 11
6.8451209798
 21
6.6974985451
 31
0.0
 11
6.845926616
 21
6.6985616201
 31
0.0
 11
6.8467867316
 21
6.6996988898
 31
0.0
 11
6.8477026595
 21
6.7009080255
 31
0.0
  0
SPLINE
  5
371
100
AcDbEntity
  8
0
100
AcDbSpline
 62
6
  6
CONTINUOUS
 70
0
 71
3
 72
22
 73
18
 74
16
 42
0.0000001
 43
0.0000001
 44
0.0000000001
 12
-0.0082205763
 22
0.0060808244
 32
0.0
 13
0.0
 23
0.0102251797
 33
0.0
 40
0.0
 40
0.0
 40
0.0
 40
0.0
 40
0.0268410963
 40
0.0566420527
 40
0.0902057152
 40
0.1281012398
 40
0.1707384222
 40
0.2184181643
 40
0.2713676279
 40
0.3297637685
 40
0.3937488361
 40
0.4634167525
 40
0.5387738154
 40
0.6198017429
 40
0.7064738532
 40
0.7987572144
 40
1.0
 40
1.0
 40
1.0
 40
1.0
 10
6.8255955838
 20
6.7012805926
 30
0.0
 10
6.8255220341
 20
6.7013349979
 30
0.0
 10
6.8253790591
 20
6.7014668133
 30
0.0
 10
6.8251916497
 20
6.7017119373
 30
0.0
 10
6.8250207684
 20
6.7020127773
 30
0.0
 10
6.8248654236
 20
6.7023698902
 30
0.0
 10
6.8247247671
 20
6.7027840461
 30
0.0
 10
6.8245982033
 20
6.7032559487
 30
0.0
 10
6.8244852091
 20
6.7037862605
 30
0.0
 10
6.8243853115
 20
6.7043755909
 30
0.0
 10
6.82429806
 20
6.7050244336
 30
0.0
 10
6.8242230487
 20
6.7057329405
 30
0.0
 10
6.8241600792
 20
6.706500901
 30
0.0
 10
6.8241089882
 20
6.7073278055
 30
0.0
 10
6.8240696067
 20
6.7082130947
 30
0.0
 10
6.8240314117
 20
6.7095084324
 30
0.0
 10
6.8240219409
 20
6.7105089621
 30
0.0
 10
6.8240219409
 20
6.7111948767
 30
0.0
 11
6.8255955838
 21
6.7012805926
 31
0.0
 11
6.8253922109
 21
6.7014648886
 31
0.0
 11
6.8252049336
 21
6.7017052666
 31
0.0
 11
6.8250332182
 21
6.7020024135
 31
0.0
 11
6.8248765954
 21
6.7023568379
 31
0.0
 11
6.8247345993
 21
6.7027690386
 31
0.0
 11
6.8246067641
 21
6.7032395144
 31
0.0
 11
6.8244926239
 21
6.7037687641
 31
0.0
 11
6.8243917128
 21
6.7043572864
 31
0.0
 11
6.8243035651
 21
6.70500558
 31
0.0
 11
6.8242277789
 21
6.7057139042
 31
0.0
 11
6.8241641411
 21
6.7064818114
 31
0.0
 11
6.8241124737
 21
6.7073087239
 31
0.0
 11
6.8240725982
 21
6.7081940643
 31
0.0
 11
6.8240443364
 21
6.7091372549
 31
0.0
 11
6.8240219409
 21
6.7111948767
 31
0.0
  0
SPLINE
  5
372
100
AcDbEntity
  8
0
100
AcDbSpline
 62
6
  6
CONTINUOUS
 70
0
 71
3
 72
22
 73
18
 74
16
 42
0.0000001
 43
0.0000001
 44
0.0000000001
 12
-0.0060459765
 22
0.0047058037
 32
0.0
 13
0.0
 23
0.0076614894
 33
0.0
 40
0.0
 40
0.0
 40
0.0
 40
0.0
 40
0.0263944496
 40
0.0559272939
 40
0.0893597607
 40
0.1272366997
 40
0.1699298525
 40
0.2177008822
 40
0.2707438892
 40
0.3292074515
 40
0.3932088729
 40
0.4628427054
 40
0.5381605488
 40
0.6191699495
 40
0.705868808
 40
0.7982493162
 40
1.0
 40
1.0
 40
1.0
 40
1.0
 10
6.8251658153
 20
6.7710455324
 30
0.0
 10
6.8251126219
 20
6.7710869348
 30
0.0
 10
6.8250093643
 20
6.7711871017
 30
0.0
 10
6.8248743809
 20
6.7713720634
 30
0.0
 10
6.8247509999
 20
6.7715987944
 30
0.0
 10
6.8246385343
 20
6.7718677503
 30
0.0
 10
6.8245364019
 20
6.7721794758
 30
0.0
 10
6.824444258
 20
6.7725343898
 30
0.0
 10
6.8243618055
 20
6.7729328514
 30
0.0
 10
6.8242887789
 20
6.7733751799
 30
0.0
 10
6.824224923
 20
6.773861668
 30
0.0
 10
6.8241699802
 20
6.7743925181
 30
0.0
 10
6.8241237629
 20
6.7749677735
 30
0.0
 10
6.824086192
 20
6.7755873164
 30
0.0
 10
6.8240571722
 20
6.7762509327
 30
0.0
 10
6.8240289539
 20
6.777223124
 30
0.0
 10
6.8240219409
 20
6.7779743412
 30
0.0
 10
6.8240219409
 20
6.7784895781
 30
0.0
 11
6.8251658153
 21
6.7710455324
 31
0.0
 11
6.8250193406
 21
6.7711849541
 31
0.0
 11
6.8248842478
 21
6.7713664646
 31
0.0
 11
6.8247601523
 21
6.7715905389
 31
0.0
 11
6.8246466818
 21
6.7718576285
 31
0.0
 11
6.8245435397
 21
6.7721680341
 31
0.0
 11
6.8244504595
 21
6.7725219974
 31
0.0
 11
6.8243671746
 21
6.7729197601
 31
0.0
 11
6.8242934185
 21
6.7733615639
 31
0.0
 11
6.8242289246
 21
6.7738476502
 31
0.0
 11
6.8241734286
 21
6.7743782548
 31
0.0
 11
6.8241267393
 21
6.7749534098
 31
0.0
 11
6.824088755
 21
6.775572899
 31
0.0
 11
6.8240593793
 21
6.7762364915
 31
0.0
 11
6.824038516
 21
6.7769439562
 31
0.0
 11
6.8240219409
 21
6.7784895781
 31
0.0
  0
SPLINE
  5
373
100
AcDbEntity
  8
0
100
AcDbSpline
 62
6
  6
CONTINUOUS
 70
0
 71
3
 72
19
 73
15
 74
13
 42
0.0000001
 43
0.0000001
 44
0.0000000001
 12
-0.00196295
 22
0.0015868566
 32
0.0
 13
-0.0
 23
0.0025241408
 33
0.0
 40
0.0
 40
0.0
 40
0.0
 40
0.0
 40
0.0241149657
 40
0.0519371897
 40
0.084162557
 40
0.1212525896
 40
0.1635209439
 40
0.2111788808
 40
0.2643547078
 40
0.3231355896
 40
0.4577332975
 40
0.6153089391
 40
0.7960340758
 40
1.0
 40
1.0
 40
1.0
 40
1.0
 10
6.8243698355
 20
6.8248669592
 30
0.0
 10
6.8243540566
 20
6.8248797149
 30
0.0
 10
6.8243234184
 20
6.8249113832
 30
0.0
 10
6.8242836875
 20
6.8249702769
 30
0.0
 10
6.8242470083
 20
6.8250435108
 30
0.0
 10
6.8242132528
 20
6.8251312309
 30
0.0
 10
6.8241823102
 20
6.8252336006
 30
0.0
 10
6.8241541368
 20
6.825350714
 30
0.0
 10
6.824128702
 20
6.8254826183
 30
0.0
 10
6.8240969993
 20
6.8256876653
 30
0.0
 10
6.8240656147
 20
6.8259814292
 30
0.0
 10
6.824039956
 20
6.8263785602
 30
0.0
 10
6.8240248531
 20
6.8268346221
 30
0.0
 10
6.8240219409
 20
6.8271583076
 30
0.0
 10
6.8240219409
 20
6.8273299205
 30
0.0
 11
6.8243698355
 21
6.8248669592
 31
0.0
 11
6.8243269247
 21
6.8249101307
 31
0.0
 11
6.824286984
 21
6.8249678939
 31
0.0
 11
6.8242499701
 21
6.8250403259
 31
0.0
 11
6.8242158403
 21
6.8251275036
 31
0.0
 11
6.8241845517
 21
6.8252295038
 31
0.0
 11
6.8241560684
 21
6.8253463784
 31
0.0
 11
6.8241303723
 21
6.8254781191
 31
0.0
 11
6.8241074477
 21
6.8256247086
 31
0.0
 11
6.8240698502
 21
6.8259623654
 31
0.0
 11
6.8240431502
 21
6.8263592113
 31
0.0
 11
6.8240272223
 21
6.8268151089
 31
0.0
 11
6.8240219409
 21
6.8273299205
 31
0.0
  0
SPLINE
  5
374
100
AcDbEntity
  8
0
100
AcDbSpline
 62
6
  6
CONTINUOUS
 70
0
 71
3
 72
15
 73
11
 74
9
 42
0.0000001
 43
0.0000001
 44
0.0000000001
 12
0.0427069048
 22
-0.1300671723
 32
0.0
 13
0.1086103437
 23
-0.0833375202
 33
0.0
 40
0.0
 40
0.0
 40
0.0
 40
0.0
 40
0.1276661598
 40
0.2544301354
 40
0.3803247048
 40
0.5054379393
 40
0.6298528938
 40
0.7536662962
 40
0.8770119736
 40
1.0
 40
1.0
 40
1.0
 40
1.0
 10
6.834226105
 20
4.3649329087
 30
0.0
 10
6.8360435138
 20
4.3593978499
 30
0.0
 10
6.8400500791
 20
4.3484887166
 30
0.0
 10
6.8471688483
 20
4.3326453824
 30
0.0
 10
6.8553440093
 20
4.3174511786
 30
0.0
 10
6.8645422213
 20
4.3029800812
 30
0.0
 10
6.8747313363
 20
4.2893062152
 30
0.0
 10
6.8858770068
 20
4.2765054833
 30
0.0
 10
6.8979408744
 20
4.2646593113
 30
0.0
 10
6.9065791429
 20
4.2574431894
 30
0.0
 10
6.9110317335
 20
4.2540266837
 30
0.0
 11
6.834226105
 21
4.3649329087
 31
0.0
 11
6.8402545679
 21
4.3485281444
 31
0.0
 11
6.8473710161
 21
4.3327005457
 31
0.0
 11
6.8555415369
 21
4.3175254831
 31
0.0
 11
6.8647343966
 21
4.3030736427
 31
0.0
 11
6.8749163802
 21
4.2894198495
 31
0.0
 11
6.8860520668
 21
4.2766410843
 31
0.0
 11
6.8981054086
 21
4.2648152328
 31
0.0
 11
6.9110317335
 21
4.2540266837
 31
0.0
  0
LINE
  5
375
100
AcDbEntity
  8
0
100
AcDbLine
 62
6
  6
CONTINUOUS
 10
6.9110348592
 20
6.3193664
 11
6.9109022319
 21
6.2170575795
  0
SPLINE
  5
376
100
AcDbEntity
  8
0
100
AcDbSpline
 62
6
  6
CONTINUOUS
 70
0
 71
3
 72
19
 73
15
 74
13
 42
0.0000001
 43
0.0000001
 44
0.0000000001
 12
0.0034378807
 22
-0.013347947
 32
0.0
 13
0.01256762
 23
-0.0056605337
 33
0.0
 40
0.0
 40
0.0
 40
0.0
 40
0.0
 40
0.1488417722
 40
0.2874378164
 40
0.4170920177
 40
0.5394365098
 40
0.5984974878
 40
0.6564998216
 40
0.7137440559
 40
0.7705486754
 40
0.8272457298
 40
0.88416987
 40
0.9416471415
 40
1.0
 40
1.0
 40
1.0
 40
1.0
 10
6.8240082467
 20
6.3558696787
 30
0.0
 10
6.8241788135
 20
6.3552074346
 30
0.0
 10
6.8245459173
 20
6.3539376552
 30
0.0
 10
6.8252138067
 20
6.3521392572
 30
0.0
 10
6.8259867597
 20
6.3505166822
 30
0.0
 10
6.8267348761
 20
6.3492950038
 30
0.0
 10
6.8273925797
 20
6.3484125525
 30
0.0
 10
6.8279111555
 20
6.3478015095
 30
0.0
 10
6.8284617361
 20
6.3472334642
 30
0.0
 10
6.8290452995
 20
6.3467082357
 30
0.0
 10
6.8296627653
 20
6.3462256835
 30
0.0
 10
6.830314985
 20
6.3457856818
 30
0.0
 10
6.831002701
 20
6.3453881947
 30
0.0
 10
6.831480949
 20
6.3451536728
 30
0.0
 10
6.8317254012
 20
6.34504357
 30
0.0
 11
6.8240082467
 21
6.3558696787
 31
0.0
 11
6.8245839854
 21
6.3539005503
 31
0.0
 11
6.8252551654
 21
6.3521119905
 31
0.0
 11
6.826029652
 21
6.3505014355
 31
0.0
 11
6.8269153084
 21
6.349066386
 31
0.0
 11
6.8274022775
 21
6.3484140267
 31
0.0
 11
6.8279199801
 21
6.3478048053
 31
0.0
 11
6.828469396
 21
6.3472384926
 31
0.0
 11
6.829051505
 21
6.3467148595
 31
0.0
 11
6.8296672863
 21
6.3462336773
 31
0.0
 11
6.8303176615
 21
6.345794773
 31
0.0
 11
6.831003436
 21
6.3453980863
 31
0.0
 11
6.8317254012
 21
6.34504357
 31
0.0
  0
SPLINE
  5
377
100
AcDbEntity
  8
0
100
AcDbSpline
 62
6
  6
CONTINUOUS
 70
0
 71
3
 72
15
 73
11
 74
9
 42
0.0000001
 43
0.0000001
 44
0.0000000001
 12
0.0434125106
 22
-0.1430393285
 32
0.0
 13
0.1084609278
 23
-0.1028645844
 33
0.0
 40
0.0
 40
0.0
 40
0.0
 40
0.0
 40
0.1259907759
 40
0.2518795919
 40
0.3775542985
 40
0.5029455861
 40
0.6279668794
 40
0.7525315976
 40
0.8765763667
 40
1.0
 40
1.0
 40
1.0
 40
1.0
 10
6.8342398378
 20
4.5899459863
 30
0.0
 10
6.8360630298
 20
4.5839387743
 30
0.0
 10
6.8400822108
 20
4.5720392031
 30
0.0
 10
6.8471966939
 20
4.5546114817
 30
0.0
 10
6.8553655265
 20
4.5376845653
 30
0.0
 10
6.8645559049
 20
4.5213393036
 30
0.0
 10
6.8747361143
 20
4.5056568993
 30
0.0
 10
6.885872198
 20
4.4907207504
 30
0.0
 10
6.8979266045
 20
4.4766202686
 30
0.0
 10
6.9065726453
 20
4.4678118712
 30
0.0
 10
6.9110348592
 20
4.4635798976
 30
0.0
 11
6.8342398378
 21
4.5899459863
 31
0.0
 11
6.8402657694
 21
4.5721026746
 31
0.0
 11
6.8473788229
 21
4.5546806701
 31
0.0
 11
6.8555456874
 21
4.5377626161
 31
0.0
 11
6.8647352311
 21
4.5214261378
 31
0.0
 11
6.8749148531
 21
4.5057534466
 31
0.0
 11
6.8860497423
 21
4.4908294429
 31
0.0
 11
6.8981044464
 21
4.476740179
 31
0.0
 11
6.9110348592
 21
4.4635798976
 31
0.0
  0
SPLINE
  5
378
100
AcDbEntity
  8
0
100
AcDbSpline
 62
6
  6
CONTINUOUS
 70
0
 71
3
 72
14
 73
10
 74
8
 42
0.0000001
 43
0.0000001
 44
0.0000000001
 12
0.0056232696
 22
-0.0485709401
 32
0.0
 13
0.0152533567
 23
-0.0464552741
 33
0.0
 40
0.0
 40
0.0
 40
0.0
 40
0.0
 40
0.2334543707
 40
0.3548690164
 40
0.4790608238
 40
0.6058502892
 40
0.7350763078
 40
0.8665344172
 40
1.0
 40
1.0
 40
1.0
 40
1.0
 10
6.8240098204
 20
4.4126656406
 30
0.0
 10
6.8244474127
 20
4.4088859412
 30
0.0
 10
6.8252252515
 20
4.4031524859
 30
0.0
 10
6.8265281859
 20
4.3954534882
 30
0.0
 10
6.8276830445
 20
4.3894942341
 30
0.0
 10
6.8290156277
 20
4.3834417138
 30
0.0
 10
6.8305389317
 20
4.3773121211
 30
0.0
 10
6.8322643557
 20
4.3711232583
 30
0.0
 10
6.8335475056
 20
4.3669996355
 30
0.0
 10
6.834226105
 20
4.3649329087
 30
0.0
 11
6.8240098204
 21
4.4126656406
 31
0.0
 11
6.8255519015
 21
4.4013554452
 31
0.0
 11
6.826543524
 21
4.3955022347
 31
0.0
 11
6.8276997992
 21
4.3895409324
 31
0.0
 11
6.8290338677
 21
4.3834867565
 31
0.0
 11
6.8305587406
 21
4.3773549632
 31
0.0
 11
6.8322859579
 21
4.3711636822
 31
0.0
 11
6.834226105
 21
4.3649329087
 31
0.0
  0
LINE
  5
379
100
AcDbEntity
  8
0
100
AcDbLine
 62
6
  6
CONTINUOUS
 10
6.9110317335
 20
5.1383619408
 11
6.9108793959
 21
5.0224697917
  0
SPLINE
  5
37A
100
AcDbEntity
  8
0
100
AcDbSpline
 62
6
  6
CONTINUOUS
 70
0
 71
3
 72
21
 73
17
 74
15
 42
0.0000001
 43
0.0000001
 44
0.0000000001
 12
-0.0746407623
 22
0.027238037
 32
0.0
 13
-0.0770344786
 23
0.0194638939
 33
0.0
 40
0.0
 40
0.0
 40
0.0
 40
0.0
 40
0.1661749161
 40
0.3217610812
 40
0.3953718038
 40
0.4661009671
 40
0.533878491
 40
0.5986340523
 40
0.6602983948
 40
0.7188055134
 40
0.7740903918
 40
0.8260899158
 40
0.8747434855
 40
0.919990696
 40
0.9617656294
 40
1.0
 40
1.0
 40
1.0
 40
1.0
 10
6.9109022319
 20
6.2170575795
 30
0.0
 10
6.9067677578
 20
6.218566339
 30
0.0
 10
6.8987538696
 20
6.2214648006
 30
0.0
 10
6.8888834601
 20
6.2249617482
 30
0.0
 10
6.8813808833
 20
6.227571739
 30
0.0
 10
6.8760674221
 20
6.2293962211
 30
0.0
 10
6.8709682206
 20
6.2311223747
 30
0.0
 10
6.8660886705
 20
6.2327484667
 30
0.0
 10
6.8614340785
 20
6.234272801
 30
0.0
 10
6.8570096443
 20
6.2356937467
 30
0.0
 10
6.8528204371
 20
6.2370097212
 30
0.0
 10
6.8488714196
 20
6.2382191793
 30
0.0
 10
6.8451674805
 20
6.2393206097
 30
0.0
 10
6.8417136299
 20
6.2403124789
 30
0.0
 10
6.8385151724
 20
6.2411932174
 30
0.0
 10
6.8364649462
 20
6.2417292634
 30
0.0
 10
6.8354831579
 20
6.2419773266
 30
0.0
 11
6.9109022319
 21
6.2170575795
 31
0.0
 11
6.8984851179
 21
6.2215461611
 31
0.0
 11
6.8868316853
 21
6.2256717368
 31
0.0
 11
6.8813074928
 21
6.2275930295
 31
0.0
 11
6.8759921415
 21
6.2294176708
 31
0.0
 11
6.8708910248
 21
6.2311439183
 31
0.0
 11
6.8660095674
 21
6.2327700221
 31
0.0
 11
6.8613531295
 21
6.2342942589
 31
0.0
 11
6.8569268499
 21
6.2357149977
 31
0.0
 11
6.8527358173
 21
6.2370306279
 31
0.0
 11
6.8487850068
 21
6.2382395745
 31
0.0
 11
6.8450792424
 21
6.2393403098
 31
0.0
 11
6.8416233882
 21
6.2403312968
 31
0.0
 11
6.8384228091
 21
6.2412108782
 31
0.0
 11
6.8354831579
 21
6.2419773266
 31
0.0
  0
LINE
  5
37B
100
AcDbEntity
  8
0
100
AcDbLine
 62
6
  6
CONTINUOUS
 10
6.9110317335
 20
6.4589760248
 11
6.9108793959
 21
6.3564944292
  0
SPLINE
  5
37C
100
AcDbEntity
  8
0
100
AcDbSpline
 62
6
  6
CONTINUOUS
 70
0
 71
3
 72
13
 73
9
 74
7
 42
0.0000001
 43
0.0000001
 44
0.0000000001
 12
0.0052332549
 22
-0.0557165109
 32
0.0
 13
0.0162523797
 23
-0.053549759
 33
0.0
 40
0.0
 40
0.0
 40
0.0
 40
0.0
 40
0.2453309167
 40
0.4947278872
 40
0.6204742538
 40
0.7467270114
 40
0.8733034988
 40
1.0
 40
1.0
 40
1.0
 40
1.0
 10
6.8240082467
 20
4.6448716333
 30
0.0
 10
6.8244362065
 20
4.6403153057
 30
0.0
 10
6.8254603941
 20
4.6311412347
 30
0.0
 10
6.827228411
 20
4.6196982621
 30
0.0
 10
6.829001334
 20
4.6105138709
 30
0.0
 10
6.8305270991
 20
4.6036177613
 30
0.0
 10
6.8322568742
 20
4.5967516638
 30
0.0
 10
6.8335534646
 20
4.5922075087
 30
0.0
 10
6.8342398378
 20
4.5899459863
 30
0.0
 11
6.8240082467
 21
4.6448716333
 31
0.0
 11
6.8255467788
 21
4.6312289667
 31
0.0
 11
6.8276945724
 21
4.6174385299
 31
0.0
 11
6.8290305595
 21
4.6105295281
 31
0.0
 11
6.8305590477
 21
4.6036315189
 31
0.0
 11
6.8322918538
 21
4.5967632939
 31
0.0
 11
6.8342398378
 21
4.5899459863
 31
0.0
  0
SPLINE
  5
37D
100
AcDbEntity
  8
0
100
AcDbSpline
 62
6
  6
CONTINUOUS
 70
0
 71
3
 72
18
 73
14
 74
12
 42
0.0000001
 43
0.0000001
 44
0.0000000001
 12
0.047926528
 22
-0.1282244733
 32
0.0
 13
0.0996150367
 23
-0.0938898934
 33
0.0
 40
0.0
 40
0.0
 40
0.0
 40
0.0
 40
0.0574663012
 40
0.1156858136
 40
0.2342909574
 40
0.2946629586
 40
0.355728957
 40
0.4798663254
 40
0.606561847
 40
0.7356271708
 40
0.866863025
 40
0.9332203093
 40
1.0
 40
1.0
 40
1.0
 40
1.0
 10
6.834226105
 20
5.2502851269
 30
0.0
 10
6.8351441584
 20
5.2478289315
 30
0.0
 10
6.8370755702
 20
5.2429149952
 30
0.0
 10
6.8413071633
 20
5.233096088
 30
0.0
 10
6.8460620231
 20
5.223364163
 30
0.0
 10
6.8513065461
 20
5.2137469906
 30
0.0
 10
6.856959007
 20
5.2040699412
 30
0.0
 10
6.8646687098
 20
5.1920974405
 30
0.0
 10
6.8748564646
 20
5.1780619957
 30
0.0
 10
6.8859959024
 20
5.1643495582
 30
0.0
 10
6.8960041479
 20
5.1532937573
 30
0.0
 10
6.9044483078
 20
5.1446773281
 30
0.0
 10
6.908814313
 20
5.1404519202
 30
0.0
 10
6.9110317335
 20
5.1383619408
 30
0.0
 11
6.834226105
 21
5.2502851269
 31
0.0
 11
6.8371019877
 21
5.2429631899
 31
0.0
 11
6.8402545679
 21
5.2356436618
 31
0.0
 11
6.8473710161
 21
5.2210507332
 31
0.0
 11
6.8513264682
 21
5.213794566
 31
0.0
 11
6.8555415369
 21
5.2065758408
 31
0.0
 11
6.8647343966
 21
5.1922841393
 31
0.0
 11
6.8749163802
 21
5.1782444631
 31
0.0
 11
6.8860520668
 21
5.1645280783
 31
0.0
 11
6.8981054086
 21
5.151207164
 31
0.0
 11
6.9044630272
 21
5.1447193617
 31
0.0
 11
6.9110317335
 21
5.1383619408
 31
0.0
  0
SPLINE
  5
37E
100
AcDbEntity
  8
0
100
AcDbSpline
 62
6
  6
CONTINUOUS
 70
0
 71
3
 72
18
 73
14
 74
12
 42
0.0000001
 43
0.0000001
 44
0.0000000001
 12
0.006559011
 22
-0.0550904226
 32
0.0
 13
0.0233122654
 23
-0.0503439527
 33
0.0
 40
0.0
 40
0.0
 40
0.0
 40
0.0
 40
0.0332298991
 40
0.0712387108
 40
0.1138160552
 40
0.160755218
 40
0.211854095
 40
0.2669167116
 40
0.3881835072
 40
0.523200197
 40
0.6708060721
 40
0.8300327738
 40
1.0
 40
1.0
 40
1.0
 40
1.0
 10
6.824004619
 20
4.353924111
 30
0.0
 10
6.8240772708
 20
4.3533138946
 30
0.0
 10
6.8242434353
 20
4.3520069304
 30
0.0
 10
6.8245387132
 20
4.3499228591
 30
0.0
 10
6.8249025833
 20
4.3475926675
 30
0.0
 10
6.8253417859
 20
4.3450295023
 30
0.0
 10
6.8258634255
 20
4.3422465241
 30
0.0
 10
6.8267062986
 20
4.3381258112
 30
0.0
 10
6.8280127053
 20
4.3325167385
 30
0.0
 10
6.8299898205
 20
4.3253118462
 30
0.0
 10
6.8324897302
 20
4.3175295045
 30
0.0
 10
6.8355770959
 20
4.3092666531
 30
0.0
 10
6.8379925857
 20
4.3036749728
 30
0.0
 10
6.8393133594
 20
4.3008226988
 30
0.0
 11
6.824004619
 21
4.353924111
 31
0.0
 11
6.8242363471
 21
4.3520951542
 31
0.0
 11
6.8245315035
 21
4.3500072029
 31
0.0
 11
6.8248956078
 21
4.3476732631
 31
0.0
 11
6.8253351699
 21
4.3451064671
 31
0.0
 11
6.8258572729
 21
4.3423200186
 31
0.0
 11
6.8264693624
 21
4.3393271213
 31
0.0
 11
6.8279951309
 21
4.332774594
 31
0.0
 11
6.8299773855
 21
4.3255509774
 31
0.0
 11
6.8324820196
 21
4.3177543001
 31
0.0
 11
6.835573968
 21
4.3094792652
 31
0.0
 11
6.8393133594
 21
4.3008226988
 31
0.0
  0
SPLINE
  5
37F
100
AcDbEntity
  8
0
100
AcDbSpline
 62
6
  6
CONTINUOUS
 70
0
 71
3
 72
15
 73
11
 74
9
 42
0.0000001
 43
0.0000001
 44
0.0000000001
 12
0.002021978
 22
-0.0050494381
 32
0.0
 13
0.0047952616
 23
-0.0025672333
 33
0.0
 40
0.0
 40
0.0
 40
0.0
 40
0.0
 40
0.1429691141
 40
0.2786641926
 40
0.4079848529
 40
0.5319713732
 40
0.6518068145
 40
0.7688059694
 40
0.8843815313
 40
1.0
 40
1.0
 40
1.0
 40
1.0
 10
6.8240098204
 20
6.4727069875
 30
0.0
 10
6.8241061805
 20
6.4724663496
 30
0.0
 10
6.8243073988
 20
6.472002493
 30
0.0
 10
6.8246464355
 20
6.471344392
 30
0.0
 10
6.8250157743
 20
6.4707426742
 30
0.0
 10
6.8254168849
 20
6.4701968075
 30
0.0
 10
6.8258512169
 20
6.4697063004
 30
0.0
 10
6.8263201535
 20
6.4692707194
 30
0.0
 10
6.8268248759
 20
6.468889736
 30
0.0
 10
6.8271845883
 20
6.4686728166
 30
0.0
 10
6.8273693953
 20
6.4685738767
 30
0.0
 11
6.8240098204
 21
6.4727069875
 31
0.0
 11
6.8243206407
 21
6.4719941638
 31
0.0
 11
6.8246599624
 21
6.4713387113
 31
0.0
 11
6.8250291246
 21
6.4707399647
 31
0.0
 11
6.8254294665
 21
6.4701972586
 31
0.0
 11
6.8258623271
 21
6.4697099279
 31
0.0
 11
6.8263290455
 21
6.4692773078
 31
0.0
 11
6.8268309579
 21
6.4688987913
 31
0.0
 11
6.8273693953
 21
6.4685738767
 31
0.0
  0
SPLINE
  5
380
100
AcDbEntity
  8
0
100
AcDbSpline
 62
6
  6
CONTINUOUS
 70
0
 71
3
 72
15
 73
11
 74
9
 42
0.0000001
 43
0.0000001
 44
0.0000000001
 12
0.004801198
 22
-0.0498857312
 32
0.0
 13
0.0175463758
 23
-0.0469442475
 33
0.0
 40
0.0
 40
0.0
 40
0.0
 40
0.0
 40
0.1318549549
 40
0.2618944467
 40
0.3899973748
 40
0.5160855629
 40
0.6401367964
 40
0.7621594627
 40
0.8821251771
 40
1.0
 40
1.0
 40
1.0
 40
1.0
 10
6.8240098204
 20
5.2992067522
 30
0.0
 10
6.824220841
 20
5.2970141919
 30
0.0
 10
6.8246834114
 20
5.2926632689
 30
0.0
 10
6.8255198368
 20
5.2862014954
 30
0.0
 10
6.8265076065
 20
5.2798584118
 30
0.0
 10
6.8276600719
 20
5.2736447082
 30
0.0
 10
6.8289902936
 20
5.26757035
 30
0.0
 10
6.8305112385
 20
5.2616461697
 30
0.0
 10
6.8322343525
 20
5.2558850882
 30
0.0
 10
6.8335366797
 20
5.2521296418
 30
0.0
 10
6.834226105
 20
5.2502851269
 30
0.0
 11
6.8240098204
 21
5.2992067522
 31
0.0
 11
6.824711741
 21
5.2926360628
 31
0.0
 11
6.8255519015
 21
5.2861733543
 31
0.0
 11
6.826543524
 21
5.2798303611
 31
0.0
 11
6.8276997992
 21
5.2736179844
 31
0.0
 11
6.8290338677
 21
5.2675458249
 31
0.0
 11
6.8305587406
 21
5.2616236741
 31
0.0
 11
6.8322859579
 21
5.2558648861
 31
0.0
 11
6.834226105
 21
5.2502851269
 31
0.0
  0
SPLINE
  5
381
100
AcDbEntity
  8
0
100
AcDbSpline
 62
6
  6
CONTINUOUS
 70
0
 71
3
 72
15
 73
11
 74
9
 42
0.0000001
 43
0.0000001
 44
0.0000000001
 12
-0.0077282469
 22
-0.0001931778
 32
0.0
 13
-0.0068154706
 23
0.0036486269
 33
0.0
 40
0.0
 40
0.0
 40
0.0
 40
0.0
 40
0.1408475037
 40
0.2760890041
 40
0.4061910952
 40
0.5316743387
 40
0.6531153843
 40
0.7711570288
 40
0.8865264424
 40
1.0
 40
1.0
 40
1.0
 40
1.0
 10
6.8412540072
 20
6.3675811164
 30
0.0
 10
6.8408911724
 20
6.3675720469
 30
0.0
 10
6.8401793852
 20
6.3675707213
 30
0.0
 10
6.8391334862
 20
6.3676228061
 30
0.0
 10
6.8381314403
 20
6.3677293554
 30
0.0
 10
6.8371727287
 20
6.3678907326
 30
0.0
 10
6.8362567958
 20
6.3681073089
 30
0.0
 10
6.8353830015
 20
6.3683795099
 30
0.0
 10
6.8345506762
 20
6.3687076666
 30
0.0
 10
6.8340195913
 20
6.3689655906
 30
0.0
 10
6.8337617994
 20
6.3691035982
 30
0.0
 11
6.8412540072
 21
6.3675811164
 31
0.0
 11
6.8401651632
 21
6.367580253
 31
0.0
 11
6.8391210097
 21
6.3676334185
 31
0.0
 11
6.8381209947
 21
6.3677409063
 31
0.0
 11
6.8371645663
 21
6.3679030094
 31
0.0
 11
6.8362511725
 21
6.368120021
 31
0.0
 11
6.8353801815
 21
6.3683922411
 31
0.0
 11
6.834550704
 21
6.3687199914
 31
0.0
 11
6.8337617994
 21
6.3691035982
 31
0.0
  0
SPLINE
  5
382
100
AcDbEntity
  8
0
100
AcDbSpline
 62
6
  6
CONTINUOUS
 70
0
 71
3
 72
23
 73
19
 74
17
 42
0.0000001
 43
0.0000001
 44
0.0000000001
 12
-0.0684846128
 22
0.0175077778
 32
0.0
 13
-0.0706650156
 23
-0.0017663664
 33
0.0
 40
0.0
 40
0.0
 40
0.0
 40
0.0
 40
0.0810530068
 40
0.1598675318
 40
0.2363725312
 40
0.3105065717
 40
0.3822230224
 40
0.45147724
 40
0.5182250504
 40
0.5824230974
 40
0.6440299296
 40
0.7030080471
 40
0.7593226198
 40
0.8129425523
 40
0.8638419495
 40
0.9119986964
 40
0.9573909517
 40
1.0
 40
1.0
 40
1.0
 40
1.0
 10
6.9108793959
 20
6.3564944292
 30
0.0
 10
6.9090291013
 20
6.3569674486
 30
0.0
 10
6.9053753773
 20
6.3578839627
 30
0.0
 10
6.8999604211
 20
6.3591872219
 30
0.0
 10
6.8946914496
 20
6.3603992023
 30
0.0
 10
6.8895732126
 20
6.3615191064
 30
0.0
 10
6.8846099103
 20
6.3625463486
 30
0.0
 10
6.8798054009
 20
6.3634804131
 30
0.0
 10
6.8751635359
 20
6.3643208099
 30
0.0
 10
6.8706881732
 20
6.3650670599
 30
0.0
 10
6.8663831094
 20
6.3657186887
 30
0.0
 10
6.8622520675
 20
6.3662752977
 30
0.0
 10
6.8582986694
 20
6.3667365105
 30
0.0
 10
6.8545264368
 20
6.3671019635
 30
0.0
 10
6.8509388167
 20
6.367371322
 30
0.0
 10
6.847539288
 20
6.3675442479
 30
0.0
 10
6.844331582
 20
6.3676204699
 30
0.0
 10
6.8422576635
 20
6.3676062041
 30
0.0
 10
6.8412540072
 20
6.3675811164
 30
0.0
 11
6.9108793959
 21
6.3564944292
 31
0.0
 11
6.9053220037
 21
6.3578877807
 31
0.0
 11
6.8999053312
 21
6.3591906951
 31
0.0
 11
6.8946348628
 21
6.3604021877
 31
0.0
 11
6.8895154677
 21
6.3615214478
 31
0.0
 11
6.8845510532
 21
6.3625479366
 31
0.0
 11
6.8797454453
 21
6.3634811397
 31
0.0
 11
6.8751025065
 21
6.3643205501
 31
0.0
 11
6.8706261238
 21
6.3650656655
 31
0.0
 11
6.8663201493
 21
6.3657159987
 31
0.0
 11
6.8621882828
 21
6.366271128
 31
0.0
 11
6.8582341814
 21
6.366730649
 31
0.0
 11
6.8544614175
 21
6.3670941715
 31
0.0
 11
6.8508734197
 21
6.3673613286
 31
0.0
 11
6.8474736285
 21
6.3675317577
 31
0.0
 11
6.844265821
 21
6.3676051251
 31
0.0
 11
6.8412540072
 21
6.3675811164
 31
0.0
  0
LINE
  5
383
100
AcDbEntity
  8
0
100
AcDbLine
 62
6
  6
CONTINUOUS
 10
6.9110348592
 20
6.5933994912
 11
6.9109022319
 21
6.5080512145
  0
SPLINE
  5
384
100
AcDbEntity
  8
0
100
AcDbSpline
 62
6
  6
CONTINUOUS
 70
0
 71
3
 72
48
 73
44
 74
42
 42
0.0000001
 43
0.0000001
 44
0.0000000001
 12
0.0000351382
 22
0.1069272209
 32
0.0
 13
0.1064158748
 23
0.0104447785
 33
0.0
 40
0.0
 40
0.0
 40
0.0
 40
0.0
 40
0.0008227783
 40
0.0016874248
 40
0.0026301293
 40
0.0036789724
 40
0.0048543986
 40
0.0061709205
 40
0.0076387918
 40
0.0092650823
 40
0.011054721
 40
0.0130112308
 40
0.0151371476
 40
0.0174343006
 40
0.0225468541
 40
0.0283556087
 40
0.0348609673
 40
0.0420596778
 40
0.0499469864
 40
0.0585171095
 40
0.0677620476
 40
0.0776714383
 40
0.0882344382
 40
0.0994399275
 40
0.1237270431
 40
0.1504174076
 40
0.1793867726
 40
0.2104938876
 40
0.2435902817
 40
0.2785136291
 40
0.3150949326
 40
0.3531547076
 40
0.3925072131
 40
0.4329595509
 40
0.5163658873
 40
0.6017388889
 40
0.6874041459
 40
0.7716813847
 40
0.8529182251
 40
0.8918963597
 40
0.9295235945
 40
0.9656173565
 40
1.0
 40
1.0
 40
1.0
 40
1.0
 10
4.9076865698
 20
5.2984695522
 30
0.0
 10
4.9076865795
 20
5.298498878
 30
0.0
 10
4.9076937167
 20
5.2985592229
 30
0.0
 10
4.9077251855
 20
5.2986482022
 30
0.0
 10
4.9077769297
 20
5.2987364639
 30
0.0
 10
4.9078485786
 20
5.298824143
 30
0.0
 10
4.907940008
 20
5.2989114977
 30
0.0
 10
4.9080512164
 20
5.2989986892
 30
0.0
 10
4.90818223
 20
5.2990858079
 30
0.0
 10
4.9083330479
 20
5.2991729107
 30
0.0
 10
4.90850365
 20
5.2992600244
 30
0.0
 10
4.9086940031
 20
5.2993471573
 30
0.0
 10
4.9089040634
 20
5.2994343176
 30
0.0
 10
4.9092218706
 20
5.2995549049
 30
0.0
 10
4.90966893
 20
5.2997041904
 30
0.0
 10
4.9102654263
 20
5.2998777629
 30
0.0
 10
4.9109389461
 20
5.3000515274
 30
0.0
 10
4.911688661
 20
5.3002254725
 30
0.0
 10
4.9125137047
 20
5.3003995526
 30
0.0
 10
4.9134131254
 20
5.3005737245
 30
0.0
 10
4.914385836
 20
5.3007479677
 30
0.0
 10
4.9154306121
 20
5.3009222854
 30
0.0
 10
4.9165461578
 20
5.3010966684
 30
0.0
 10
4.9181702124
 20
5.3013356977
 30
0.0
 10
4.9203667123
 20
5.3016322655
 30
0.0
 10
4.9231949931
 20
5.3019797481
 30
0.0
 10
4.9262680004
 20
5.3023274755
 30
0.0
 10
4.9295706472
 20
5.3026754862
 30
0.0
 10
4.9330865905
 20
5.3030236435
 30
0.0
 10
4.9367985297
 20
5.3033719675
 30
0.0
 10
4.9406881053
 20
5.3037203848
 30
0.0
 10
4.9447361428
 20
5.3040688994
 30
0.0
 10
4.9489226392
 20
5.3044174806
 30
0.0
 10
4.9547208953
 20
5.3048871053
 30
0.0
 10
4.9621556494
 20
5.3054695181
 30
0.0
 10
4.9711982035
 20
5.3061618375
 30
0.0
 10
4.9802718877
 20
5.3068541839
 30
0.0
 10
4.9891977321
 20
5.307546333
 30
0.0
 10
4.9964629064
 20
5.3081304265
 30
0.0
 10
5.0020690185
 20
5.3086016683
 30
0.0
 10
5.0060707483
 20
5.3089501694
 30
0.0
 10
5.0099080498
 20
5.3092985516
 30
0.0
 10
5.0124086779
 20
5.3095368994
 30
0.0
 10
5.0136282976
 20
5.3096566057
 30
0.0
 11
4.9076865698
 21
5.2984695522
 31
0.0
 11
4.9076966428
 21
5.2985569511
 31
0.0
 11
4.9077267963
 21
5.2986443499
 31
0.0
 11
4.9077770182
 21
5.2987317488
 31
0.0
 11
4.9078472964
 21
5.2988191476
 31
0.0
 11
4.9079376191
 21
5.2989065465
 31
0.0
 11
4.908047974
 21
5.2989939453
 31
0.0
 11
4.9081783444
 21
5.2990813442
 31
0.0
 11
4.9083286801
 21
5.299168743
 31
0.0
 11
4.9084989167
 21
5.2992561418
 31
0.0
 11
4.9086889899
 21
5.2993435407
 31
0.0
 11
4.9088988353
 21
5.2994309395
 31
0.0
 11
4.9091283885
 21
5.2995183384
 31
0.0
 11
4.9096463606
 21
5.2996931361
 31
0.0
 11
4.910242371
 21
5.2998679338
 31
0.0
 11
4.9109156503
 21
5.3000427315
 31
0.0
 11
4.9116652786
 21
5.3002175292
 31
0.0
 11
4.9124903334
 21
5.3003923269
 31
0.0
 11
4.9133898873
 21
5.3005671246
 31
0.0
 11
4.9143628459
 21
5.3007419223
 31
0.0
 11
4.915407912
 21
5.30091672
 31
0.0
 11
4.9165237764
 21
5.3010915177
 31
0.0
 11
4.9177091294
 21
5.3012663154
 31
0.0
 11
4.9202824449
 21
5.3016159108
 31
0.0
 11
4.9231148786
 21
5.3019655062
 31
0.0
 11
4.9261927016
 21
5.3023151016
 31
0.0
 11
4.9295004763
 21
5.302664697
 31
0.0
 11
4.9330220719
 21
5.3030142925
 31
0.0
 11
4.9367399283
 21
5.3033638879
 31
0.0
 11
4.9406358117
 21
5.3037134833
 31
0.0
 11
4.9446903943
 21
5.3040630787
 31
0.0
 11
4.948883701
 21
5.3044126742
 31
0.0
 11
4.9531950065
 21
5.3047622696
 31
0.0
 11
4.9620859647
 21
5.3054614605
 31
0.0
 11
4.9711878472
 21
5.3061606513
 31
0.0
 11
4.9803210715
 21
5.3068598422
 31
0.0
 11
4.9893054374
 21
5.3075590331
 31
0.0
 11
4.9979636819
 21
5.308258224
 31
0.0
 11
5.0021168179
 21
5.3086078194
 31
0.0
 11
5.0061249767
 21
5.3089574148
 31
0.0
 11
5.0099685163
 21
5.3093070103
 31
0.0
 11
5.0136282976
 21
5.3096566057
 31
0.0
  0
LINE
  5
385
100
AcDbEntity
  8
0
100
AcDbLine
 62
6
  6
CONTINUOUS
 10
6.9110348592
 20
5.3108512632
 11
6.9109022319
 21
5.1984330273
  0
SPLINE
  5
386
100
AcDbEntity
  8
0
100
AcDbSpline
 62
6
  6
CONTINUOUS
 70
0
 71
3
 72
21
 73
17
 74
15
 42
0.0000001
 43
0.0000001
 44
0.0000000001
 12
-0.0067390816
 22
-0.0032756478
 32
0.0
 13
-0.0063916355
 23
0.0039105096
 33
0.0
 40
0.0
 40
0.0
 40
0.0
 40
0.0
 40
0.1665164807
 40
0.2441718615
 40
0.3182169461
 40
0.3887721146
 40
0.455979436
 40
0.5200064363
 40
0.5810542875
 40
0.6951666107
 40
0.7489090053
 40
0.8008973988
 40
0.8515414787
 40
0.9012870956
 40
0.9506090341
 40
1.0
 40
1.0
 40
1.0
 40
1.0
 10
6.8354831579
 20
6.5040772609
 30
0.0
 10
6.8351091019
 20
6.5038954444
 30
0.0
 10
6.8345537738
 20
6.5036422415
 30
0.0
 10
6.8338150822
 20
6.5033485666
 30
0.0
 10
6.8332920426
 20
6.5031621759
 30
0.0
 10
6.8327868259
 20
6.503004717
 30
0.0
 10
6.832299236
 20
6.5028764428
 30
0.0
 10
6.8318289952
 20
6.5027775959
 30
0.0
 10
6.8312382561
 20
6.5026874302
 30
0.0
 10
6.8306654426
 20
6.5026525862
 30
0.0
 10
6.8301166451
 20
6.5026820867
 30
0.0
 10
6.8297291518
 20
6.5027346651
 30
0.0
 10
6.8293573841
 20
6.5028184363
 30
0.0
 10
6.8290010878
 20
6.502933696
 30
0.0
 10
6.8286600919
 20
6.5030806937
 30
0.0
 10
6.8284436053
 20
6.5031995905
 30
0.0
 10
6.8283383756
 20
6.5032639718
 30
0.0
 11
6.8354831579
 21
6.5040772609
 31
0.0
 11
6.8343463354
 21
6.5035630519
 31
0.0
 11
6.8338054303
 21
6.5033485836
 31
0.0
 11
6.8332826187
 21
6.5031628597
 31
0.0
 11
6.8327777178
 21
6.5030061207
 31
0.0
 11
6.8322905447
 21
6.5028786068
 31
0.0
 11
6.8318209163
 21
6.5027805582
 31
0.0
 11
6.8313686187
 21
6.5027122156
 31
0.0
 11
6.8305148456
 21
6.5026656154
 31
0.0
 11
6.8301127675
 21
6.5026878413
 31
0.0
 11
6.8297268268
 21
6.5027407402
 31
0.0
 11
6.8293567221
 21
6.502824554
 31
0.0
 11
6.8290021521
 21
6.5029395246
 31
0.0
 11
6.8286628089
 21
6.5030859068
 31
0.0
 11
6.8283383756
 21
6.5032639718
 31
0.0
  0
SPLINE
  5
387
100
AcDbEntity
  8
0
100
AcDbSpline
 62
6
  6
CONTINUOUS
 70
0
 71
3
 72
23
 73
19
 74
17
 42
0.0000001
 43
0.0000001
 44
0.0000000001
 12
-0.0757007781
 22
0.0105701448
 32
0.0
 13
-0.0687445201
 23
-0.0334144688
 33
0.0
 40
0.0
 40
0.0
 40
0.0
 40
0.0
 40
0.0831208425
 40
0.1636350953
 40
0.2414728028
 40
0.316579487
 40
0.3889228839
 40
0.458476069
 40
0.52521611
 40
0.58912534
 40
0.6501938442
 40
0.7084229596
 40
0.7638249653
 40
0.8164264065
 40
0.8662716758
 40
0.9134242887
 40
0.9579648741
 40
1.0
 40
1.0
 40
1.0
 40
1.0
 10
6.9109022319
 20
6.5080512145
 30
0.0
 10
6.9088047944
 20
6.5083440809
 30
0.0
 10
6.9046703635
 20
6.5088833255
 30
0.0
 10
6.8985550527
 20
6.5095608464
 30
0.0
 10
6.8926304333
 20
6.5100944334
 30
0.0
 10
6.8869032264
 20
6.510484238
 30
0.0
 10
6.8813792893
 20
6.5107307177
 30
0.0
 10
6.8760639735
 20
6.510834349
 30
0.0
 10
6.8709626098
 20
6.5107956628
 30
0.0
 10
6.8660805204
 20
6.5106152016
 30
0.0
 10
6.8614229317
 20
6.5102934914
 30
0.0
 10
6.8569949321
 20
6.5098312002
 30
0.0
 10
6.8528014565
 20
6.5092289742
 30
0.0
 10
6.8488473004
 20
6.5084874022
 30
0.0
 10
6.8451371785
 20
6.5076070479
 30
0.0
 10
6.8416758318
 20
6.5065883998
 30
0.0
 10
6.838468542
 20
6.5054323089
 30
0.0
 10
6.8364463861
 20
6.5045454547
 30
0.0
 10
6.8354831579
 20
6.5040772609
 30
0.0
 11
6.9109022319
 21
6.5080512145
 31
0.0
 11
6.9046020186
 21
6.5088712422
 31
0.0
 11
6.8984851179
 21
6.50954706
 31
0.0
 11
6.892559378
 21
6.5100786769
 31
0.0
 11
6.8868316853
 21
6.5104662785
 31
0.0
 11
6.8813074928
 21
6.510710314
 31
0.0
 11
6.8759921415
 21
6.5108112572
 31
0.0
 11
6.8708910248
 21
6.5107696124
 31
0.0
 11
6.8660095674
 21
6.5105859023
 31
0.0
 11
6.8613531295
 21
6.5102606766
 31
0.0
 11
6.8569268499
 21
6.5097945788
 31
0.0
 11
6.8527358173
 21
6.5091882719
 31
0.0
 11
6.8487850068
 21
6.5084424015
 31
0.0
 11
6.8450792424
 21
6.5075575904
 31
0.0
 11
6.8416233882
 21
6.5065344877
 31
0.0
 11
6.8384228091
 21
6.5053740171
 31
0.0
 11
6.8354831579
 21
6.5040772609
 31
0.0
  0
SPLINE
  5
388
100
AcDbEntity
  8
0
100
AcDbSpline
 62
6
  6
CONTINUOUS
 70
0
 71
3
 72
22
 73
18
 74
16
 42
0.0000001
 43
0.0000001
 44
0.0000000001
 12
0.0496738259
 22
-0.1202292321
 32
0.0
 13
0.0967744325
 23
-0.0869325395
 33
0.0
 40
0.0
 40
0.0
 40
0.0
 40
0.0
 40
0.0555607478
 40
0.1121213605
 40
0.1696653958
 40
0.2281782993
 40
0.2876520173
 40
0.3480768496
 40
0.4094383026
 40
0.4717180309
 40
0.5348956715
 40
0.5989469431
 40
0.6638458074
 40
0.7295654953
 40
0.8633461387
 40
0.9313425698
 40
1.0
 40
1.0
 40
1.0
 40
1.0
 10
6.8342398378
 20
5.4145613878
 30
0.0
 10
6.8351598095
 20
5.4123347124
 30
0.0
 10
6.8370954657
 20
5.4078735909
 30
0.0
 10
6.8402488476
 20
5.4012251993
 30
0.0
 10
6.8436738174
 20
5.3945682347
 30
0.0
 10
6.8473660682
 20
5.3879109938
 30
0.0
 10
6.851321595
 20
5.3812610205
 30
0.0
 10
6.8555364873
 20
5.3746255892
 30
0.0
 10
6.8600068316
 20
5.368012163
 30
0.0
 10
6.8647286609
 20
5.3614284638
 30
0.0
 10
6.8696978566
 20
5.3548823967
 30
0.0
 10
6.8749101046
 20
5.3483819891
 30
0.0
 10
6.8803610686
 20
5.3419353117
 30
0.0
 10
6.8879860413
 20
5.333372223
 30
0.0
 10
6.8960277938
 20
5.325005163
 30
0.0
 10
6.9044596541
 20
5.3168543109
 30
0.0
 10
6.9088200979
 20
5.3128407848
 30
0.0
 10
6.9110348592
 20
5.3108512632
 30
0.0
 11
6.8342398378
 21
5.4145613878
 31
0.0
 11
6.8371146009
 21
5.4079299765
 31
0.0
 11
6.8402657694
 21
5.4012811316
 31
0.0
 11
6.843688644
 21
5.394623815
 31
0.0
 11
6.8473788229
 21
5.3879663867
 31
0.0
 11
6.8513324423
 21
5.3813161188
 31
0.0
 11
6.8555456874
 21
5.3746801912
 31
0.0
 11
6.8600146256
 21
5.3680661246
 31
0.0
 11
6.8647352311
 21
5.3614817113
 31
0.0
 11
6.8697034218
 21
5.3549348023
 31
0.0
 11
6.8749148531
 21
5.3484335038
 31
0.0
 11
6.8803650997
 21
5.3419860006
 31
0.0
 11
6.8860497423
 21
5.3356004957
 31
0.0
 11
6.8981044464
 21
5.3230485427
 31
0.0
 11
6.9044637347
 21
5.3169002793
 31
0.0
 11
6.9110348592
 21
5.3108512632
 31
0.0
  0
LINE
  5
389
100
AcDbEntity
  8
0
100
AcDbLine
 62
6
  6
CONTINUOUS
 10
6.9110317335
 20
6.7049259182
 11
6.9108793959
 21
6.6236250613
  0
LINE
  5
38A
100
AcDbEntity
  8
0
100
AcDbLine
 62
6
  6
CONTINUOUS
 10
6.9110317335
 20
4.5674457996
 11
6.9108793959
 21
4.4889305982
  0
SPLINE
  5
38B
100
AcDbEntity
  8
0
100
AcDbSpline
 62
6
  6
CONTINUOUS
 70
0
 71
3
 72
15
 73
11
 74
9
 42
0.0000001
 43
0.0000001
 44
0.0000000001
 12
0.0046895795
 22
-0.046734526
 32
0.0
 13
0.0179352736
 23
-0.0434100683
 33
0.0
 40
0.0
 40
0.0
 40
0.0
 40
0.0
 40
0.1341336858
 40
0.2656991766
 40
0.3946192286
 40
0.5208642057
 40
0.6444654148
 40
0.7654934836
 40
0.8839896345
 40
1.0
 40
1.0
 40
1.0
 40
1.0
 10
6.8240082467
 20
5.4602369885
 30
0.0
 10
6.8242179236
 20
5.4581474305
 30
0.0
 10
6.8246775819
 20
5.4540125757
 30
0.0
 10
6.8255121647
 20
5.4478901836
 30
0.0
 10
6.8264989498
 20
5.4419154001
 30
0.0
 10
6.8276515675
 20
5.436097225
 30
0.0
 10
6.8289834235
 20
5.4304440617
 30
0.0
 10
6.8305078
 20
5.4249652181
 30
0.0
 10
6.8322364604
 20
5.4196720768
 30
0.0
 10
6.8335462786
 20
5.4162400604
 30
0.0
 10
6.8342398378
 20
5.4145613878
 30
0.0
 11
6.8240082467
 21
5.4602369885
 31
0.0
 11
6.8247080892
 21
5.4539758244
 31
0.0
 11
6.8255467788
 21
5.4478534736
 31
0.0
 11
6.8265377882
 21
5.4418798436
 31
0.0
 11
6.8276945724
 21
5.4360641453
 31
0.0
 11
6.8290305595
 21
5.4304145062
 31
0.0
 11
6.8305590477
 21
5.4249392583
 31
0.0
 11
6.8322918538
 21
5.4196502043
 31
0.0
 11
6.8342398378
 21
5.4145613878
 31
0.0
  0
SPLINE
  5
38C
100
AcDbEntity
  8
0
100
AcDbSpline
 62
6
  6
CONTINUOUS
 70
0
 71
3
 72
34
 73
30
 74
28
 42
0.0000001
 43
0.0000001
 44
0.0000000001
 12
-0.0678059122
 22
-0.0029392302
 32
0.0
 13
-0.0586546889
 23
-0.034145399
 33
0.0
 40
0.0
 40
0.0
 40
0.0
 40
0.0
 40
0.1860667202
 40
0.276754087
 40
0.3649234827
 40
0.4498736664
 40
0.5309101945
 40
0.6073720332
 40
0.6786270684
 40
0.7440737936
 40
0.7744443534
 40
0.8031565675
 40
0.8301499635
 40
0.8553662573
 40
0.878748428
 40
0.9002467443
 40
0.9198149107
 40
0.9374081829
 40
0.9529903121
 40
0.9600177071
 40
0.9665311615
 40
0.9725274146
 40
0.9780040942
 40
0.9829603807
 40
0.9873963399
 40
0.9913132123
 40
0.9947141359
 40
0.9976055023
 40
1.0
 40
1.0
 40
1.0
 40
1.0
 10
4.972776517
 20
5.2940550456
 30
0.0
 10
4.9685710425
 20
5.293872748
 30
0.0
 10
4.9623159362
 20
5.2935996612
 30
0.0
 10
4.9540686285
 20
5.2932266772
 30
0.0
 10
4.9481069641
 20
5.2929483282
 30
0.0
 10
4.9423639242
 20
5.292669016
 30
0.0
 10
4.9368861209
 20
5.2923887537
 30
0.0
 10
4.9317186194
 20
5.2921075908
 30
0.0
 10
4.9269044144
 20
5.291825582
 30
0.0
 10
4.923132384
 20
5.2915843268
 30
0.0
 10
4.9203218878
 20
5.291389199
 30
0.0
 10
4.9183798159
 20
5.291246267
 30
0.0
 10
4.9165547019
 20
5.2911031039
 30
0.0
 10
4.914850583
 20
5.2909597232
 30
0.0
 10
4.9132712706
 20
5.2908161211
 30
0.0
 10
4.9118203248
 20
5.2906723313
 30
0.0
 10
4.9105010529
 20
5.2905284101
 30
0.0
 10
4.9093165183
 20
5.2903843562
 30
0.0
 10
4.9084154291
 20
5.2902604085
 30
0.0
 10
4.907764242
 20
5.2901600957
 30
0.0
 10
4.9073282504
 20
5.290087435
 30
0.0
 10
4.9069278698
 20
5.2900147413
 30
0.0
 10
4.90656335
 20
5.2899420153
 30
0.0
 10
4.9062348951
 20
5.2898692792
 30
0.0
 10
4.9059426707
 20
5.2897965528
 30
0.0
 10
4.9056868321
 20
5.2897238649
 30
0.0
 10
4.9054674706
 20
5.2896512464
 30
0.0
 10
4.9052846915
 20
5.2895787434
 30
0.0
 10
4.9051772578
 20
5.2895256295
 30
0.0
 10
4.9051304416
 20
5.2894983758
 30
0.0
 11
4.972776517
 21
5.2940550456
 31
0.0
 11
4.9601603999
 21
5.2935011249
 31
0.0
 11
4.9540117917
 21
5.2932225845
 31
0.0
 11
4.948034308
 21
5.2929429622
 31
0.0
 11
4.9422756124
 21
5.2926622374
 31
0.0
 11
4.9367829219
 21
5.2923804158
 31
0.0
 11
4.9316012075
 21
5.2920974762
 31
0.0
 11
4.9267735083
 21
5.2918134019
 31
0.0
 11
4.9223408329
 21
5.2915281821
 31
0.0
 11
4.9202845649
 21
5.2913851391
 31
0.0
 11
4.9183411573
 21
5.2912418053
 31
0.0
 11
4.9165147653
 21
5.2910981788
 31
0.0
 11
4.9148094081
 21
5.2909542575
 31
0.0
 11
4.9132290366
 21
5.2908100392
 31
0.0
 11
4.9117771294
 21
5.2906655218
 31
0.0
 11
4.9104569654
 21
5.290520703
 31
0.0
 11
4.9092717691
 21
5.2903755806
 31
0.0
 11
4.9082242633
 21
5.2902301527
 31
0.0
 11
4.9077529101
 21
5.2901573238
 31
0.0
 11
4.907316898
 21
5.2900844178
 31
0.0
 11
4.9069165325
 21
5.2900114347
 31
0.0
 11
4.9065520835
 21
5.2899383743
 31
0.0
 11
4.9062237497
 21
5.2898652363
 31
0.0
 11
4.9059317213
 21
5.2897920205
 31
0.0
 11
4.9056761883
 21
5.2897187268
 31
0.0
 11
4.9054573411
 21
5.2896453549
 31
0.0
 11
4.9052753698
 21
5.2895719046
 31
0.0
 11
4.9051304416
 21
5.2894983758
 31
0.0
  0
SPLINE
  5
38D
100
AcDbEntity
  8
0
100
AcDbSpline
 62
6
  6
CONTINUOUS
 70
0
 71
3
 72
27
 73
23
 74
21
 42
0.0000001
 43
0.0000001
 44
0.0000000001
 12
-0.0747793053
 22
-0.0144792771
 32
0.0
 13
-0.076096735
 23
-0.0032986183
 33
0.0
 40
0.0
 40
0.0
 40
0.0
 40
0.0
 40
0.0048450676
 40
0.0101294159
 40
0.0220107994
 40
0.0356324713
 40
0.0509787832
 40
0.0680256238
 40
0.0867460355
 40
0.1071120306
 40
0.1290893272
 40
0.1526395895
 40
0.1777241084
 40
0.2323178648
 40
0.2924837999
 40
0.3577876664
 40
0.427752938
 40
0.5018564628
 40
0.5795423224
 40
0.6602206063
 40
0.8280195089
 40
1.0
 40
1.0
 40
1.0
 40
1.0
 10
5.0487952328
 20
5.2984668077
 30
0.0
 10
5.0486744626
 20
5.2984434233
 30
0.0
 10
5.0484215074
 20
5.2983969207
 30
0.0
 10
5.047870404
 20
5.2983041552
 30
0.0
 10
5.0470971224
 20
5.2981894316
 30
0.0
 10
5.0460685598
 20
5.2980560195
 30
0.0
 10
5.0449079293
 20
5.2979221886
 30
0.0
 10
5.0436171283
 20
5.2977879396
 30
0.0
 10
5.0421982947
 20
5.2976533232
 30
0.0
 10
5.0406537953
 20
5.2975183881
 30
0.0
 10
5.0389862642
 20
5.2973831431
 30
0.0
 10
5.0371985913
 20
5.2972475843
 30
0.0
 10
5.034584312
 20
5.2970611627
 30
0.0
 10
5.0310412866
 20
5.2968295021
 30
0.0
 10
5.0264776699
 20
5.2965573837
 30
0.0
 10
5.0215232148
 20
5.2962839987
 30
0.0
 10
5.0162144574
 20
5.2960094135
 30
0.0
 10
5.0105909919
 20
5.2957336559
 30
0.0
 10
5.0046952732
 20
5.2954567609
 30
0.0
 10
4.9964227091
 20
5.2950811693
 30
0.0
 10
4.9857577255
 20
5.2946148807
 30
0.0
 10
4.9771389016
 20
5.2942441449
 30
0.0
 10
4.972776517
 20
5.2940550456
 30
0.0
 11
5.0487952328
 21
5.2984668077
 31
0.0
 11
5.0484323254
 21
5.2983998094
 31
0.0
 11
5.0480354513
 21
5.2983327529
 31
0.0
 11
5.0471404865
 21
5.2981984647
 31
0.0
 11
5.0461117061
 21
5.2980639421
 31
0.0
 11
5.044950599
 21
5.2979291843
 31
0.0
 11
5.0436592085
 21
5.2977941903
 31
0.0
 11
5.0422397357
 21
5.2976589589
 31
0.0
 11
5.0406944212
 21
5.2975234892
 31
0.0
 11
5.0390259602
 21
5.2973877795
 31
0.0
 11
5.0372373386
 21
5.2972518281
 31
0.0
 11
5.0353315564
 21
5.2971156332
 31
0.0
 11
5.0311822279
 21
5.2968425071
 31
0.0
 11
5.0266077027
 21
5.2965683907
 31
0.0
 11
5.0216412392
 21
5.2962932744
 31
0.0
 11
5.0163192692
 21
5.2960171491
 31
0.0
 11
5.0106817455
 21
5.2957400068
 31
0.0
 11
5.0047710961
 21
5.2954618331
 31
0.0
 11
4.9986323239
 21
5.2951826071
 31
0.0
 11
4.985863729
 21
5.294621001
 31
0.0
 11
4.972776517
 21
5.2940550456
 31
0.0
  0
SPLINE
  5
38E
100
AcDbEntity
  8
0
100
AcDbSpline
 62
6
  6
CONTINUOUS
 70
0
 71
3
 72
16
 73
12
 74
10
 42
0.0000001
 43
0.0000001
 44
0.0000000001
 12
0.0439525424
 22
-0.1434732744
 32
0.0
 13
0.1074074095
 23
-0.1047857569
 33
0.0
 40
0.0
 40
0.0
 40
0.0
 40
0.0
 40
0.1247008607
 40
0.2497183927
 40
0.3749212188
 40
0.5002162282
 40
0.6254883049
 40
0.688085237
 40
0.7506323692
 40
0.8755139479
 40
1.0
 40
1.0
 40
1.0
 40
1.0
 10
6.834226105
 20
4.6945870255
 30
0.0
 10
6.8360530783
 20
4.6886232786
 30
0.0
 10
6.8400818981
 20
4.6767905993
 30
0.0
 10
6.8472010362
 20
4.6594297252
 30
0.0
 10
6.8553745029
 20
4.6425056537
 30
0.0
 10
6.8645685625
 20
4.6260995079
 30
0.0
 10
6.8730569231
 20
4.6129219524
 30
0.0
 10
6.880326058
 20
4.6027195458
 30
0.0
 10
6.8879013123
 20
4.5927667626
 30
0.0
 10
6.8979398284
 20
4.5808093567
 30
0.0
 10
6.9065748254
 20
4.5717939214
 30
0.0
 10
6.9110317335
 20
4.5674457996
 30
0.0
 11
6.834226105
 21
4.6945870255
 31
0.0
 11
6.8402545679
 21
4.6768727766
 31
0.0
 11
6.8473710161
 21
4.6595155386
 31
0.0
 11
6.8555415369
 21
4.6425979709
 31
0.0
 11
6.8647343966
 21
4.6261975813
 31
0.0
 11
6.8749163802
 21
4.6103963385
 31
0.0
 11
6.8803672587
 21
4.602746785
 31
0.0
 11
6.8860520668
 21
4.5952788284
 31
0.0
 11
6.8981054086
 21
4.5809306748
 31
0.0
 11
6.9110317335
 21
4.5674457996
 31
0.0
  0
SPLINE
  5
38F
100
AcDbEntity
  8
0
100
AcDbSpline
 62
6
  6
CONTINUOUS
 70
0
 71
3
 72
23
 73
19
 74
17
 42
0.0000001
 43
0.0000001
 44
0.0000000001
 12
-0.0123848959
 22
-0.007805487
 32
0.0
 13
-0.012113331
 23
0.0082206135
 33
0.0
 40
0.0
 40
0.0
 40
0.0
 40
0.0
 40
0.0983899292
 40
0.1913074583
 40
0.2787834361
 40
0.3608607748
 40
0.4375997677
 40
0.5091028437
 40
0.5755158968
 40
0.6370228826
 40
0.693857738
 40
0.746322103
 40
0.7948080076
 40
0.8398192441
 40
0.8819933651
 40
0.9221150798
 40
0.9611100066
 40
1.0
 40
1.0
 40
1.0
 40
1.0
 10
6.8412540072
 20
6.6097370523
 30
0.0
 10
6.8408478241
 20
6.6094810586
 30
0.0
 10
6.8400548081
 20
6.6089884178
 30
0.0
 10
6.8388878424
 20
6.608289079
 30
0.0
 10
6.8377767369
 20
6.607651788
 30
0.0
 10
6.836720672
 20
6.6070777831
 30
0.0
 10
6.8357187218
 20
6.6065682274
 30
0.0
 10
6.8347697238
 20
6.6061242966
 30
0.0
 10
6.8338723122
 20
6.6057471302
 30
0.0
 10
6.8330250228
 20
6.6054378351
 30
0.0
 10
6.8322263368
 20
6.6051975333
 30
0.0
 10
6.8314746335
 20
6.6050274458
 30
0.0
 10
6.8307681936
 20
6.6049290403
 30
0.0
 10
6.8301053061
 20
6.604903957
 30
0.0
 10
6.829484432
 20
6.6049540632
 30
0.0
 10
6.8289043315
 20
6.605081412
 30
0.0
 10
6.8283644433
 20
6.6052878339
 30
0.0
 10
6.8280332224
 20
6.6054778243
 30
0.0
 10
6.8278761932
 20
6.6055843908
 30
0.0
 11
6.8412540072
 21
6.6097370523
 31
0.0
 11
6.8400300653
 21
6.6089776952
 31
0.0
 11
6.8388627992
 21
6.6082792811
 31
0.0
 11
6.837751419
 21
6.6076430784
 31
0.0
 11
6.8366951346
 21
6.6070703554
 31
0.0
 11
6.8356931328
 21
6.6065623748
 31
0.0
 11
6.8347442919
 21
6.6061203249
 31
0.0
 11
6.8338472701
 21
6.6057453406
 31
0.0
 11
6.8330007206
 21
6.6054385558
 31
0.0
 11
6.8322032963
 21
6.6052011048
 31
0.0
 11
6.8314536127
 21
6.6050341667
 31
0.0
 11
6.830750218
 21
6.6049390007
 31
0.0
 11
6.8300916532
 21
6.6049168749
 31
0.0
 11
6.8294764596
 21
6.6049690569
 31
0.0
 11
6.8289031676
 21
6.6050968233
 31
0.0
 11
6.8283702571
 21
6.6053014914
 31
0.0
 11
6.8278761932
 21
6.6055843908
 31
0.0
  0
SPLINE
  5
390
100
AcDbEntity
  8
0
100
AcDbSpline
 62
6
  6
CONTINUOUS
 70
0
 71
3
 72
23
 73
19
 74
17
 42
0.0000001
 43
0.0000001
 44
0.0000000001
 12
-0.071922343
 22
0.0018676543
 32
0.0
 13
-0.060866742
 23
-0.0383608039
 33
0.0
 40
0.0
 40
0.0
 40
0.0
 40
0.0
 40
0.0772513702
 40
0.15254208
 40
0.2258404905
 40
0.2971264351
 40
0.3663964018
 40
0.4336518029
 40
0.498897888
 40
0.5621445833
 40
0.6234080954
 40
0.6827132093
 40
0.7400928467
 40
0.7955898747
 40
0.8492591948
 40
0.9011668532
 40
0.9513859824
 40
1.0
 40
1.0
 40
1.0
 40
1.0
 10
6.9108793959
 20
6.6236250613
 30
0.0
 10
6.9090273628
 20
6.6236731543
 30
0.0
 10
6.9053690766
 20
6.6237269939
 30
0.0
 10
6.899952637
 20
6.6236779096
 30
0.0
 10
6.8946820149
 20
6.6234987758
 30
0.0
 10
6.8895619812
 20
6.6231904236
 30
0.0
 10
6.8845967002
 20
6.6227538606
 30
0.0
 10
6.8797900112
 20
6.622190056
 30
0.0
 10
6.8751457388
 20
6.6215000279
 30
0.0
 10
6.8706677111
 20
6.6206848126
 30
0.0
 10
6.8663597126
 20
6.6197454153
 30
0.0
 10
6.8622254305
 20
6.618682958
 30
0.0
 10
6.8582684613
 20
6.6174985392
 30
0.0
 10
6.8544923132
 20
6.6161932122
 30
0.0
 10
6.8509004336
 20
6.6147680352
 30
0.0
 10
6.8474963186
 20
6.6132240427
 30
0.0
 10
6.844283816
 20
6.611562616
 30
0.0
 10
6.8422403328
 20
6.6103586766
 30
0.0
 10
6.8412540072
 20
6.6097370523
 30
0.0
 11
6.9108793959
 21
6.6236250613
 31
0.0
 11
6.9053220037
 21
6.6237053749
 31
0.0
 11
6.8999053312
 21
6.623654687
 31
0.0
 11
6.8946348628
 21
6.6234738309
 31
0.0
 11
6.8895154677
 21
6.6231636953
 31
0.0
 11
6.8845510532
 21
6.6227252544
 31
0.0
 11
6.8797454453
 21
6.6221594934
 31
0.0
 11
6.8751025065
 21
6.6214674349
 31
0.0
 11
6.8706261238
 21
6.6206501273
 31
0.0
 11
6.8663201493
 21
6.6197086341
 31
0.0
 11
6.8621882828
 21
6.6186440842
 31
0.0
 11
6.8582341814
 21
6.6174576238
 31
0.0
 11
6.8544614175
 21
6.6161503829
 31
0.0
 11
6.8508734197
 21
6.6147234639
 31
0.0
 11
6.8474736285
 21
6.6131779867
 31
0.0
 11
6.844265821
 21
6.6115153301
 31
0.0
 11
6.8412540072
 21
6.6097370523
 31
0.0
  0
SPLINE
  5
391
100
AcDbEntity
  8
0
100
AcDbSpline
 62
6
  6
CONTINUOUS
 70
0
 71
3
 72
14
 73
10
 74
8
 42
0.0000001
 43
0.0000001
 44
0.0000000001
 12
0.0051531191
 22
-0.0559463409
 32
0.0
 13
0.01645662
 23
-0.0537189665
 33
0.0
 40
0.0
 40
0.0
 40
0.0
 40
0.0
 40
0.1240560792
 40
0.2487555829
 40
0.4991828939
 40
0.6246019791
 40
0.7499902814
 40
0.8751842531
 40
1.0
 40
1.0
 40
1.0
 40
1.0
 10
6.8240098204
 20
4.7497357305
 30
0.0
 10
6.8242229123
 20
4.747422236
 30
0.0
 10
6.8246907186
 20
4.7427868069
 30
0.0
 10
6.8258088587
 20
4.7335050128
 30
0.0
 10
6.8272278928
 20
4.7242347745
 30
0.0
 10
6.8290018743
 20
4.7150159902
 30
0.0
 10
6.83052378
 20
4.7081397234
 30
0.0
 10
6.8322477112
 20
4.7013229355
 30
0.0
 10
6.8335414232
 20
4.6968220165
 30
0.0
 10
6.834226105
 20
4.6945870255
 30
0.0
 11
6.8240098204
 21
4.7497357305
 31
0.0
 11
6.824711741
 21
4.7428013023
 31
0.0
 11
6.8255519015
 21
4.7358458483
 31
0.0
 11
6.8276997992
 21
4.7219409658
 31
0.0
 11
6.8290338677
 21
4.7150219638
 31
0.0
 11
6.8305587406
 21
4.7081442665
 31
0.0
 11
6.8322859579
 21
4.701325838
 31
0.0
 11
6.834226105
 21
4.6945870255
 31
0.0
  0
LINE
  5
392
100
AcDbEntity
  8
0
100
AcDbLine
 62
6
  6
CONTINUOUS
 10
6.9110348592
 20
6.8055360732
 11
6.9109022319
 21
6.7425110865
  0
LINE
  5
393
100
AcDbEntity
  8
0
100
AcDbLine
 62
6
  6
CONTINUOUS
 10
6.9110317335
 20
5.4778512668
 11
6.9108793959
 21
5.3537054598
  0
LINE
  5
394
100
AcDbEntity
  8
0
100
AcDbLine
 62
6
  6
CONTINUOUS
 10
6.9110348592
 20
4.2272506189
 11
6.9109022319
 21
4.220797315
  0
SPLINE
  5
395
100
AcDbEntity
  8
0
100
AcDbSpline
 62
6
  6
CONTINUOUS
 70
0
 71
3
 72
23
 73
19
 74
17
 42
0.0000001
 43
0.0000001
 44
0.0000000001
 12
0.0520432462
 22
-0.1101537738
 32
0.0
 13
0.0934845005
 23
-0.0781217097
 33
0.0
 40
0.0
 40
0.0
 40
0.0
 40
0.0
 40
0.0532258028
 40
0.1077618719
 40
0.1635951147
 40
0.22071296
 40
0.279108057
 40
0.3387704783
 40
0.3996848783
 40
0.46183149
 40
0.5251878955
 40
0.5897271536
 40
0.6554200298
 40
0.7222361172
 40
0.7901440836
 40
0.8591105271
 40
0.9290838327
 40
1.0
 40
1.0
 40
1.0
 40
1.0
 10
6.834226105
 20
5.5712557563
 30
0.0
 10
6.8351494528
 20
5.5693014153
 30
0.0
 10
6.8370926059
 20
5.5653790623
 30
0.0
 10
6.8402479462
 20
5.5595312747
 30
0.0
 10
6.8436750123
 20
5.5536547504
 30
0.0
 10
6.84736942
 20
5.5477568718
 30
0.0
 10
6.8513270958
 20
5.5418443318
 30
0.0
 10
6.855544068
 20
5.5359235862
 30
0.0
 10
6.860016355
 20
5.530001255
 30
0.0
 10
6.8647399147
 20
5.5240841851
 30
0.0
 10
6.8697105525
 20
5.5181793912
 30
0.0
 10
6.8749238992
 20
5.5122939733
 30
0.0
 10
6.8803754913
 20
5.5064351494
 30
0.0
 10
6.8860608511
 20
5.5006101774
 30
0.0
 10
6.8919754714
 20
5.4948263799
 30
0.0
 10
6.8981142947
 20
5.489091615
 30
0.0
 10
6.904471101
 20
5.4834144534
 30
0.0
 10
6.9088218793
 20
5.4796979642
 30
0.0
 10
6.9110317335
 20
5.4778512668
 30
0.0
 11
6.834226105
 21
5.5712557563
 31
0.0
 11
6.8371019877
 21
5.5654439167
 31
0.0
 11
6.8402545679
 21
5.5595954032
 31
0.0
 11
6.8436790699
 21
5.553718192
 31
0.0
 11
6.8473710161
 21
5.5478197224
 31
0.0
 11
6.8513264682
 21
5.5419064631
 31
0.0
 11
6.8555415369
 21
5.5359847992
 31
0.0
 11
6.8600122141
 21
5.5300614092
 31
0.0
 11
6.8647343966
 21
5.5241432043
 31
0.0
 11
6.8697039257
 21
5.5182371485
 31
0.0
 11
6.8749163802
 21
5.5123504341
 31
0.0
 11
6.8803672587
 21
5.5064903232
 31
0.0
 11
6.8860520668
 21
5.500664089
 31
0.0
 11
6.891966322
 21
5.4948790239
 31
0.0
 11
6.8981054086
 21
5.4891425315
 31
0.0
 11
6.9044630272
 21
5.4834633803
 31
0.0
 11
6.9110317335
 21
5.4778512668
 31
0.0
  0
SPLINE
  5
396
100
AcDbEntity
  8
0
100
AcDbSpline
 62
6
  6
CONTINUOUS
 70
0
 71
3
 72
31
 73
27
 74
25
 42
0.0000001
 43
0.0000001
 44
0.0000000001
 12
-0.0087767563
 22
-0.0104817121
 32
0.0
 13
-0.0109909021
 23
0.008130056
 33
0.0
 40
0.0
 40
0.0
 40
0.0
 40
0.0
 40
0.1111028362
 40
0.2156104925
 40
0.3134473333
 40
0.4045417278
 40
0.4888283183
 40
0.5662513362
 40
0.6367775115
 40
0.7004212026
 40
0.7296797713
 40
0.757243799
 40
0.7831303795
 40
0.8073627792
 40
0.8299722657
 40
0.8510005489
 40
0.8705030356
 40
0.8885530737
 40
0.9052470473
 40
0.9207115172
 40
0.9351112017
 40
0.9486559347
 40
0.9616038321
 40
0.974256544
 40
0.9869438703
 40
1.0
 40
1.0
 40
1.0
 40
1.0
 10
6.8354831579
 20
6.7098931302
 30
0.0
 10
6.8351581171
 20
6.7095049476
 30
0.0
 10
6.8345265241
 20
6.7087522987
 30
0.0
 10
6.8336039249
 20
6.7076618347
 30
0.0
 10
6.8327338598
 20
6.706646384
 30
0.0
 10
6.8319153226
 20
6.705708181
 30
0.0
 10
6.8311473063
 20
6.7048494518
 30
0.0
 10
6.830428784
 20
6.7040723598
 30
0.0
 10
6.8297585948
 20
6.7033789852
 30
0.0
 10
6.8292251261
 20
6.7028590579
 30
0.0
 10
6.8288201232
 20
6.7024884037
 30
0.0
 10
6.8285360187
 20
6.7022406627
 30
0.0
 10
6.8282627531
 20
6.7020155358
 30
0.0
 10
6.8280001048
 20
6.7018132866
 30
0.0
 10
6.8277478511
 20
6.7016341725
 30
0.0
 10
6.8275057592
 20
6.7014784512
 30
0.0
 10
6.827273584
 20
6.7013463825
 30
0.0
 10
6.8270510659
 20
6.7012382351
 30
0.0
 10
6.8268379266
 20
6.7011543019
 30
0.0
 10
6.8266338736
 20
6.7010949191
 30
0.0
 10
6.8264386188
 20
6.7010604865
 30
0.0
 10
6.826251924
 20
6.7010514844
 30
0.0
 10
6.8260736768
 20
6.7010684412
 30
0.0
 10
6.8259039165
 20
6.7011118425
 30
0.0
 10
6.8257428317
 20
6.7011819591
 30
0.0
 10
6.8256434167
 20
6.7012452102
 30
0.0
 10
6.8255955838
 20
6.7012805926
 30
0.0
 11
6.8354831579
 21
6.7098931302
 31
0.0
 11
6.8345063991
 21
6.7087299544
 31
0.0
 11
6.8335831204
 21
6.7076396216
 31
0.0
 11
6.832712305
 21
6.7066244002
 31
0.0
 11
6.8318929361
 21
6.7056865583
 31
0.0
 11
6.8311239971
 21
6.7048283642
 31
0.0
 11
6.830404471
 21
6.704052086
 31
0.0
 11
6.8297332039
 21
6.7033599741
 31
0.0
 11
6.8291086242
 21
6.7027542241
 31
0.0
 11
6.8288133261
 21
6.7024844178
 31
0.0
 11
6.8285290809
 21
6.7022370214
 31
0.0
 11
6.828255682
 21
6.7020123081
 31
0.0
 11
6.8279929231
 21
6.7018105512
 31
0.0
 11
6.827740598
 21
6.7016320238
 31
0.0
 11
6.8274985001
 21
6.7014769989
 31
0.0
 11
6.8272664232
 21
6.7013457499
 31
0.0
 11
6.8270441614
 21
6.7012385505
 31
0.0
 11
6.8268315142
 21
6.7011556804
 31
0.0
 11
6.8266282838
 21
6.7010974227
 31
0.0
 11
6.8264342725
 21
6.7010640606
 31
0.0
 11
6.8262492826
 21
6.7010558772
 31
0.0
 11
6.8260731165
 21
6.7010731556
 31
0.0
 11
6.8259055764
 21
6.7011161788
 31
0.0
 11
6.8257464648
 21
6.7011852301
 31
0.0
 11
6.8255955838
 21
6.7012805926
 31
0.0
  0
SPLINE
  5
397
100
AcDbEntity
  8
0
100
AcDbSpline
 62
6
  6
CONTINUOUS
 70
0
 71
3
 72
15
 73
11
 74
9
 42
0.0000001
 43
0.0000001
 44
0.0000000001
 12
0.0427783557
 22
-0.1362340827
 32
0.0
 13
0.1091526112
 23
-0.0920620469
 33
0.0
 40
0.0
 40
0.0
 40
0.0
 40
0.0
 40
0.1275241437
 40
0.254330473
 40
0.3803844152
 40
0.5057028563
 40
0.6302941823
 40
0.7541768836
 40
0.8774033442
 40
1.0
 40
1.0
 40
1.0
 40
1.0
 10
6.8342398378
 20
4.4226363741
 30
0.0
 10
6.8360582622
 20
4.4168453292
 30
0.0
 10
6.8400662475
 20
4.4054115294
 30
0.0
 10
6.8471803533
 20
4.3887484945
 30
0.0
 10
6.8553498176
 20
4.3726931511
 30
0.0
 10
6.8645419123
 20
4.3573229914
 30
0.0
 10
6.8747250714
 20
4.3427158201
 30
0.0
 10
6.8858655327
 20
4.3289514631
 30
0.0
 10
6.8979256958
 20
4.3161156134
 30
0.0
 10
6.9065742775
 20
4.3082141853
 30
0.0
 10
6.9110348592
 20
4.3044520189
 30
0.0
 11
6.8342398378
 21
4.4226363741
 31
0.0
 11
6.8402657694
 21
4.4054528365
 31
0.0
 11
6.8473788229
 21
4.3888014733
 31
0.0
 11
6.8555456874
 21
4.3727613164
 31
0.0
 11
6.8647352311
 21
4.3574066151
 31
0.0
 11
6.8749148531
 21
4.3428160435
 31
0.0
 11
6.8860497423
 21
4.3290707311
 31
0.0
 11
6.8981044464
 21
4.3162528912
 31
0.0
 11
6.9110348592
 21
4.3044520189
 31
0.0
  0
SPLINE
  5
398
100
AcDbEntity
  8
0
100
AcDbSpline
 62
6
  6
CONTINUOUS
 70
0
 71
3
 72
23
 73
19
 74
17
 42
0.0000001
 43
0.0000001
 44
0.0000000001
 12
-0.0838417108
 22
-0.0079175125
 32
0.0
 13
-0.054065477
 23
-0.064568132
 33
0.0
 40
0.0
 40
0.0
 40
0.0
 40
0.0
 40
0.075271457
 40
0.1486726021
 40
0.2201953707
 40
0.2898482768
 40
0.3576624968
 40
0.4236770728
 40
0.4879376492
 40
0.5504977244
 40
0.6114207538
 40
0.6707824516
 40
0.7286701478
 40
0.7851849389
 40
0.8404431475
 40
0.8945741799
 40
0.9477121558
 40
1.0
 40
1.0
 40
1.0
 40
1.0
 10
6.9109022319
 20
6.7425110865
 30
0.0
 10
6.9087986027
 20
6.7423124322
 30
0.0
 10
6.9046495726
 20
6.7418530787
 30
0.0
 10
6.8985313616
 20
6.7409643745
 30
0.0
 10
6.8926035938
 20
6.7398871711
 30
0.0
 10
6.8868730774
 20
6.738623982
 30
0.0
 10
6.8813456299
 20
6.737177537
 30
0.0
 10
6.8760266258
 20
6.735550428
 30
0.0
 10
6.8709214137
 20
6.7337453257
 30
0.0
 10
6.8660353585
 20
6.7317649125
 30
0.0
 10
6.8613737921
 20
6.7296118303
 30
0.0
 10
6.856941881
 20
6.7272889093
 30
0.0
 10
6.8527447015
 20
6.724798915
 30
0.0
 10
6.8487872607
 20
6.7221445241
 30
0.0
 10
6.8450745346
 20
6.7193284059
 30
0.0
 10
6.8416116588
 20
6.7163533111
 30
0.0
 10
6.8384041731
 20
6.7132227993
 30
0.0
 10
6.8364254804
 20
6.7110185064
 30
0.0
 10
6.8354831579
 20
6.7098931302
 30
0.0
 11
6.9109022319
 21
6.7425110865
 31
0.0
 11
6.9046020186
 21
6.741811238
 31
0.0
 11
6.8984851179
 21
6.7409202064
 31
0.0
 11
6.892559378
 21
6.7398406748
 31
0.0
 11
6.8868316853
 21
6.7385753098
 31
0.0
 11
6.8813074928
 21
6.7371267546
 31
0.0
 11
6.8759921415
 21
6.7354976569
 31
0.0
 11
6.8708910248
 21
6.7336907366
 31
0.0
 11
6.8660095674
 21
6.7317087557
 31
0.0
 11
6.8613531295
 21
6.7295545027
 31
0.0
 11
6.8569268499
 21
6.7272308549
 31
0.0
 11
6.8527358173
 21
6.7247407074
 31
0.0
 11
6.8487850068
 21
6.7220868857
 31
0.0
 11
6.8450792424
 21
6.7192721243
 31
0.0
 11
6.8416233882
 21
6.716299217
 31
0.0
 11
6.8384228091
 21
6.7131716113
 31
0.0
 11
6.8354831579
 21
6.7098931302
 31
0.0
  0
LINE
  5
399
100
AcDbEntity
  8
0
100
AcDbLine
 62
6
  6
CONTINUOUS
 10
6.9110317335
 20
6.8819716868
 11
6.9108793959
 21
6.8269600005
  0
SPLINE
  5
39A
100
AcDbEntity
  8
0
100
AcDbSpline
 62
6
  6
CONTINUOUS
 70
0
 71
3
 72
15
 73
11
 74
9
 42
0.0000001
 43
0.0000001
 44
0.0000000001
 12
0.0046112808
 22
-0.0422373179
 32
0.0
 13
0.0181502355
 23
-0.0384164533
 33
0.0
 40
0.0
 40
0.0
 40
0.0
 40
0.0
 40
0.1364977412
 40
0.2696021388
 40
0.3993017847
 40
0.5256386637
 40
0.6487210233
 40
0.7687090022
 40
0.885747003
 40
1.0
 40
1.0
 40
1.0
 40
1.0
 10
6.8240098204
 20
5.6123021102
 30
0.0
 10
6.8242196302
 20
5.6103803441
 30
0.0
 10
6.8246790765
 20
5.6065892803
 30
0.0
 10
6.8255148576
 20
5.600995355
 30
0.0
 10
6.8265020232
 20
5.5955720984
 30
0.0
 10
6.8276539637
 20
5.5903264027
 30
0.0
 10
6.8289838707
 20
5.5852647572
 30
0.0
 10
6.8305048057
 20
5.580394571
 30
0.0
 10
6.8322283184
 20
5.5757252022
 30
0.0
 10
6.8335348654
 20
5.5727188213
 30
0.0
 10
6.834226105
 20
5.5712557563
 30
0.0
 11
6.8240098204
 21
5.6123021102
 31
0.0
 11
6.8247117383
 21
5.6065451875
 31
0.0
 11
6.8255518942
 21
5.6009525635
 31
0.0
 11
6.8265435153
 21
5.5955317994
 31
0.0
 11
6.8276997935
 21
5.5902899765
 31
0.0
 11
6.8290338663
 21
5.5852334422
 31
0.0
 11
6.8305587415
 21
5.5803687512
 31
0.0
 11
6.8322859586
 21
5.5757056073
 31
0.0
 11
6.834226105
 21
5.5712557563
 31
0.0
  0
SPLINE
  5
39B
100
AcDbEntity
  8
0
100
AcDbSpline
 62
6
  6
CONTINUOUS
 70
0
 71
3
 72
14
 73
10
 74
8
 42
0.0000001
 43
0.0000001
 44
0.0000000001
 12
0.0054634437
 22
-0.0519641698
 32
0.0
 13
0.0156534377
 23
-0.0498507176
 33
0.0
 40
0.0
 40
0.0
 40
0.0
 40
0.0
 40
0.2377738843
 40
0.3602569172
 40
0.4847980069
 40
0.6112211912
 40
0.7393683492
 40
0.8690360423
 40
1.0
 40
1.0
 40
1.0
 40
1.0
 10
6.8240082467
 20
4.4737887306
 30
0.0
 10
6.8244412682
 20
4.4696701565
 30
0.0
 10
6.8252133495
 20
4.4634410978
 30
0.0
 10
6.8265190755
 20
4.4550984593
 30
0.0
 10
6.8276740491
 20
4.4486968708
 30
0.0
 10
6.829008139
 20
4.442229382
 30
0.0
 10
6.8305346121
 20
4.4357126937
 30
0.0
 10
6.8322651422
 20
4.4291653222
 30
0.0
 10
6.8335564924
 20
4.4248125899
 30
0.0
 10
6.8342398378
 20
4.4226363741
 30
0.0
 11
6.8240082467
 21
4.4737887306
 31
0.0
 11
6.8255467788
 21
4.4614605367
 31
0.0
 11
6.8265377882
 21
4.4551379203
 31
0.0
 11
6.8276945724
 21
4.4487342187
 31
0.0
 11
6.8290305595
 21
4.4422650436
 31
0.0
 11
6.8305590477
 21
4.4357460723
 31
0.0
 11
6.8322918538
 21
4.4291961944
 31
0.0
 11
6.8342398378
 21
4.4226363741
 31
0.0
  0
SPLINE
  5
39C
100
AcDbEntity
  8
0
100
AcDbSpline
 62
6
  6
CONTINUOUS
 70
0
 71
3
 72
21
 73
17
 74
15
 42
0.0000001
 43
0.0000001
 44
0.0000000001
 12
0.0428159844
 22
-0.1230663741
 32
0.0
 13
0.1074767231
 23
-0.0736701769
 33
0.0
 40
0.0
 40
0.0
 40
0.0
 40
0.0
 40
0.1272279462
 40
0.2534860112
 40
0.3162978444
 40
0.3789219102
 40
0.4413804162
 40
0.5036948571
 40
0.5658882856
 40
0.627983617
 40
0.6900055615
 40
0.7519815289
 40
0.8139418332
 40
0.8759189623
 40
0.9379336773
 40
1.0
 40
1.0
 40
1.0
 40
1.0
 10
6.8342398378
 20
4.329827283
 30
0.0
 10
6.8360556344
 20
4.3246081223
 30
0.0
 10
6.8400593538
 20
4.3143394039
 30
0.0
 10
6.8460017019
 20
4.3019378397
 30
0.0
 10
6.8512830225
 20
4.2923635226
 30
0.0
 10
6.8554973195
 20
4.2853724084
 30
0.0
 10
6.859967357
 20
4.2785678881
 30
0.0
 10
6.8646892389
 20
4.2719585501
 30
0.0
 10
6.8696588462
 20
4.2655533165
 30
0.0
 10
6.8748718798
 20
4.2593611318
 30
0.0
 10
6.880323949
 20
4.2533910661
 30
0.0
 10
6.8860106578
 20
4.2476522423
 30
0.0
 10
6.8919275819
 20
4.2421538822
 30
0.0
 10
6.8980698092
 20
4.2369056756
 30
0.0
 10
6.9044310224
 20
4.2319178578
 30
0.0
 10
6.9088112975
 20
4.2287747646
 30
0.0
 10
6.9110348592
 20
4.2272506189
 30
0.0
 11
6.8342398378
 21
4.329827283
 31
0.0
 11
6.8402657694
 21
4.3143832244
 31
0.0
 11
6.8473788229
 21
4.2995487688
 31
0.0
 11
6.8513324423
 21
4.2923825439
 31
0.0
 11
6.8555456874
 21
4.285394371
 31
0.0
 11
6.8600146256
 21
4.2785926813
 31
0.0
 11
6.8647352311
 21
4.2719862391
 31
0.0
 11
6.8697034218
 21
4.2655838598
 31
0.0
 11
6.8749148531
 21
4.2593945663
 31
0.0
 11
6.8803650997
 21
4.2534274453
 31
0.0
 11
6.8860497423
 21
4.2476916138
 31
0.0
 11
6.8919643721
 21
4.2421962413
 31
0.0
 11
6.8981044464
 21
4.23695059
 31
0.0
 11
6.9044637347
 21
4.2319650161
 31
0.0
 11
6.9110348592
 21
4.2272506189
 31
0.0
  0
LINE
  5
39D
100
AcDbEntity
  8
0
100
AcDbLine
 62
6
  6
CONTINUOUS
 10
4.9362009712
 20
5.3137455576
 11
4.972776517
 21
5.3160450489
  0
SPLINE
  5
39E
100
AcDbEntity
  8
0
100
AcDbSpline
 62
6
  6
CONTINUOUS
 70
0
 71
3
 72
37
 73
33
 74
31
 42
0.0000001
 43
0.0000001
 44
0.0000000001
 12
-0.015769033
 22
-0.0188579988
 32
0.0
 13
-0.0193987926
 23
0.0150987869
 33
0.0
 40
0.0
 40
0.0
 40
0.0
 40
0.0
 40
0.1152676841
 40
0.2237638549
 40
0.3253501891
 40
0.4198998066
 40
0.5073340484
 40
0.5875815392
 40
0.6605680503
 40
0.6943145455
 40
0.7262177282
 40
0.7562694191
 40
0.784462593
 40
0.8107918236
 40
0.8352540446
 40
0.8578496687
 40
0.8785840998
 40
0.897469979
 40
0.9145305705
 40
0.9298047432
 40
0.9367917127
 40
0.9433586406
 40
0.9552874522
 40
0.9606941685
 40
0.96576298
 40
0.9750233818
 40
0.9793210152
 40
0.9834708278
 40
0.98754062
 40
0.9916031343
 40
0.9957324291
 40
1.0
 40
1.0
 40
1.0
 40
1.0
 10
6.8412540072
 20
6.7889699301
 30
0.0
 10
6.8406481205
 20
6.7882453575
 30
0.0
 10
6.8394791124
 20
6.7868327644
 30
0.0
 10
6.8377988294
 20
6.7847629611
 30
0.0
 10
6.8362414414
 20
6.7828121724
 30
0.0
 10
6.8348038969
 20
6.7809866248
 30
0.0
 10
6.8334821103
 20
6.7792925175
 30
0.0
 10
6.8322716963
 20
6.7777356326
 30
0.0
 10
6.8313290949
 20
6.7765277608
 30
0.0
 10
6.8306253569
 20
6.7756359939
 30
0.0
 10
6.830136338
 20
6.7750229574
 30
0.0
 10
6.8296715713
 20
6.7744488035
 30
0.0
 10
6.829230453
 20
6.7739143022
 30
0.0
 10
6.8288123638
 20
6.7734202329
 30
0.0
 10
6.8284166632
 20
6.7729673881
 30
0.0
 10
6.8280427126
 20
6.7725565479
 30
0.0
 10
6.8276898679
 20
6.7721884846
 30
0.0
 10
6.8273574717
 20
6.7718639419
 30
0.0
 10
6.8270448551
 20
6.7715836777
 30
0.0
 10
6.8267932806
 20
6.7713819744
 30
0.0
 10
6.8266009261
 20
6.7712447406
 30
0.0
 10
6.8264259363
 20
6.7711307693
 30
0.0
 10
6.8262543285
 20
6.7710353474
 30
0.0
 10
6.8260856209
 20
6.7709625293
 30
0.0
 10
6.8259326769
 20
6.7709097653
 30
0.0
 10
6.8257821156
 20
6.770878244
 30
0.0
 10
6.8256368102
 20
6.7708729779
 30
0.0
 10
6.825534341
 20
6.7708817392
 30
0.0
 10
6.8254357292
 20
6.7709032482
 30
0.0
 10
6.8253409923
 20
6.7709375975
 30
0.0
 10
6.825250168
 20
6.7709848165
 30
0.0
 10
6.8251934105
 20
6.771024054
 30
0.0
 10
6.8251658153
 20
6.7710455324
 30
0.0
 11
6.8412540072
 21
6.7889699301
 31
0.0
 11
6.8394472843
 21
6.7867871133
 31
0.0
 11
6.837766067
 21
6.7847166499
 31
0.0
 11
6.8362077248
 21
6.7827653234
 31
0.0
 11
6.8347692461
 21
6.7809397065
 31
0.0
 11
6.8334463935
 21
6.779245694
 31
0.0
 11
6.8322346827
 21
6.7776890448
 31
0.0
 11
6.8311295335
 21
6.7762756453
 31
0.0
 11
6.8306154155
 21
6.7756246001
 31
0.0
 11
6.8301261256
 21
6.7750117004
 31
0.0
 11
6.8296610566
 21
6.7744377278
 31
0.0
 11
6.8292196007
 21
6.7739034649
 31
0.0
 11
6.8288011345
 21
6.7734097093
 31
0.0
 11
6.8284050198
 21
6.7729572733
 31
0.0
 11
6.8280306177
 21
6.7725469698
 31
0.0
 11
6.8276772895
 21
6.7721796117
 31
0.0
 11
6.8273443962
 21
6.7718560118
 31
0.0
 11
6.8270313009
 21
6.7715769828
 31
0.0
 11
6.8267373822
 21
6.7713433333
 31
0.0
 11
6.8265974227
 21
6.7712437781
 31
0.0
 11
6.8264620277
 21
6.7711558703
 31
0.0
 11
6.826204625
 21
6.7710154006
 31
0.0
 11
6.8260824642
 21
6.7709630403
 31
0.0
 11
6.8259645617
 21
6.770922731
 31
0.0
 11
6.8257412255
 21
6.7708786683
 31
0.0
 11
6.8256356398
 21
6.7708751145
 31
0.0
 11
6.8255340156
 21
6.7708839978
 31
0.0
 11
6.825436287
 21
6.7709053998
 31
0.0
 11
6.8253423881
 21
6.7709394019
 31
0.0
 11
6.8252522528
 21
6.7709860856
 31
0.0
 11
6.8251658153
 21
6.7710455324
 31
0.0
  0
SPLINE
  5
39F
100
AcDbEntity
  8
0
100
AcDbSpline
 62
6
  6
CONTINUOUS
 70
0
 71
3
 72
18
 73
14
 74
12
 42
0.0000001
 43
0.0000001
 44
0.0000000001
 12
-0.0791548392
 22
-0.0162537943
 32
0.0
 13
-0.0518357483
 23
-0.061989754
 33
0.0
 40
0.0
 40
0.0
 40
0.0
 40
0.0
 40
0.139678101
 40
0.274517324
 40
0.4047238207
 40
0.5306160583
 40
0.6525739197
 40
0.712233554
 40
0.7710906013
 40
0.829218398
 40
0.8866950666
 40
0.9435968252
 40
1.0
 40
1.0
 40
1.0
 40
1.0
 10
6.9108793959
 20
6.8269600005
 30
0.0
 10
6.9071939967
 20
6.8262032342
 30
0.0
 10
6.8999963743
 20
6.8244804606
 30
0.0
 10
6.8895888748
 20
6.8212061155
 30
0.0
 10
6.8797964581
 20
6.8173058787
 30
0.0
 10
6.87065252
 20
6.812799766
 30
0.0
 10
6.8635455564
 20
6.8085235384
 30
0.0
 10
6.8582301801
 20
6.8048186273
 30
0.0
 10
6.8544535653
 20
6.8019216465
 30
0.0
 10
6.8508617406
 20
6.7988888813
 30
0.0
 10
6.8474582244
 20
6.7957228626
 30
0.0
 10
6.8442468872
 20
6.7924267163
 30
0.0
 10
6.8422285741
 20
6.7901354031
 30
0.0
 10
6.8412540072
 20
6.7889699301
 30
0.0
 11
6.9108793959
 21
6.8269600005
 31
0.0
 11
6.8999053312
 21
6.8243211245
 31
0.0
 11
6.8895154677
 21
6.8210392393
 31
0.0
 11
6.8797454453
 21
6.8171342412
 31
0.0
 11
6.8706261238
 21
6.8126258223
 31
0.0
 11
6.8621882828
 21
6.8075343207
 31
0.0
 11
6.8582341814
 21
6.8047764285
 31
0.0
 11
6.8544614175
 21
6.8018805629
 31
0.0
 11
6.8508734197
 21
6.7988492264
 31
0.0
 11
6.8474736285
 21
6.7956849509
 31
0.0
 11
6.844265821
 21
6.7923907412
 31
0.0
 11
6.8412540072
 21
6.7889699301
 31
0.0
  0
LINE
  5
3A0
100
AcDbEntity
  8
0
100
AcDbLine
 62
6
  6
CONTINUOUS
 10
6.9110348592
 20
4.6946356652
 11
6.9109022319
 21
4.610450888
  0
LINE
  5
3A1
100
AcDbEntity
  8
0
100
AcDbLine
 62
6
  6
CONTINUOUS
 10
6.9110348592
 20
5.6572920013
 11
6.9109022319
 21
5.5410091824
  0
SPLINE
  5
3A2
100
AcDbEntity
  8
0
100
AcDbSpline
 62
6
  6
CONTINUOUS
 70
0
 71
3
 72
49
 73
45
 74
43
 42
0.0000001
 43
0.0000001
 44
0.0000000001
 12
0.1061400774
 22
0.0618209855
 32
0.0
 13
0.1212242856
 23
0.0198046172
 33
0.0
 40
0.0
 40
0.0
 40
0.0
 40
0.0
 40
0.00167481
 40
0.0035310523
 40
0.0055724482
 40
0.0078016022
 40
0.0102200108
 40
0.0128284888
 40
0.0186167669
 40
0.0217968454
 40
0.0251671561
 40
0.0287272894
 40
0.0324765514
 40
0.0405377728
 40
0.049340895
 40
0.0588750463
 40
0.0691284141
 40
0.0800860865
 40
0.0917317263
 40
0.1170196544
 40
0.1448423018
 40
0.1750321939
 40
0.2074053102
 40
0.2417644331
 40
0.2778979829
 40
0.3155846462
 40
0.3545914184
 40
0.3946785938
 40
0.4355980548
 40
0.5189207887
 40
0.6025039188
 40
0.684285146
 40
0.7238666139
 40
0.7622478063
 40
0.7991920986
 40
0.8344720403
 40
0.8678711928
 40
0.8991844777
 40
0.9282217431
 40
0.954806
 40
0.9671283137
 40
0.9787796247
 40
0.9897420087
 40
1.0
 40
1.0
 40
1.0
 40
1.0
 10
4.9082492525
 20
5.2913139808
 30
0.0
 10
4.9083085073
 20
5.2913484936
 30
0.0
 10
4.908435905
 20
5.2914170498
 30
0.0
 10
4.908642183
 20
5.2915147138
 30
0.0
 10
4.9088732979
 20
5.2916124168
 30
0.0
 10
4.9091291884
 20
5.2917101446
 30
0.0
 10
4.9094097705
 20
5.2918079108
 30
0.0
 10
4.9098315017
 20
5.2919430381
 30
0.0
 10
4.9102875823
 20
5.2920726405
 30
0.0
 10
4.910776661
 20
5.2921992402
 30
0.0
 10
4.9111789027
 20
5.2922971196
 30
0.0
 10
4.9116050802
 20
5.2923950205
 30
0.0
 10
4.912220036
 20
5.2925288201
 30
0.0
 10
4.9130475284
 20
5.2926952077
 30
0.0
 10
4.9141106324
 20
5.2928905035
 30
0.0
 10
4.91526485
 20
5.2930859123
 30
0.0
 10
4.9165084295
 20
5.2932813896
 30
0.0
 10
4.917839437
 20
5.2934769461
 30
0.0
 10
4.9197818696
 20
5.2937452053
 30
0.0
 10
4.9224123757
 20
5.2940778278
 30
0.0
 10
4.9258007471
 20
5.2944673578
 30
0.0
 10
4.9294809241
 20
5.2948572418
 30
0.0
 10
4.9334300803
 20
5.2952474339
 30
0.0
 10
4.937623682
 20
5.2956378276
 30
0.0
 10
4.9420357125
 20
5.2960284036
 30
0.0
 10
4.9466387352
 20
5.2964190914
 30
0.0
 10
4.9514041846
 20
5.29680989
 30
0.0
 10
4.9563024222
 20
5.2972007508
 30
0.0
 10
4.963010228
 20
5.2977251197
 30
0.0
 10
4.9714945751
 20
5.2983744818
 30
0.0
 10
4.9816472496
 20
5.2991492259
 30
0.0
 10
4.9900131446
 20
5.2998013444
 30
0.0
 10
4.9965324181
 20
5.3003281828
 30
0.0
 10
5.0012208963
 20
5.300718934
 30
0.0
 10
5.0057326328
 20
5.3011095686
 30
0.0
 10
5.010039604
 20
5.3015000625
 30
0.0
 10
5.0141150465
 20
5.3018903592
 30
0.0
 10
5.0179336787
 20
5.3022804142
 30
0.0
 10
5.0214717626
 20
5.302670135
 30
0.0
 10
5.0242337996
 20
5.3030023863
 30
0.0
 10
5.0262864623
 20
5.3032701015
 30
0.0
 10
5.0277034531
 20
5.3034657123
 30
0.0
 10
5.0290350793
 20
5.3036612718
 30
0.0
 10
5.0298934122
 20
5.3037961362
 30
0.0
 10
5.0303079181
 20
5.3038638547
 30
0.0
 11
4.9082492525
 21
5.2913139808
 31
0.0
 11
4.9084301044
 21
5.2914120266
 31
0.0
 11
4.9086359519
 21
5.2915100725
 31
0.0
 11
4.9088667361
 21
5.2916081184
 31
0.0
 11
4.9091223901
 21
5.2917061643
 31
0.0
 11
4.9094027997
 21
5.2918042102
 31
0.0
 11
4.9097078326
 21
5.2919022561
 31
0.0
 11
4.9103912386
 21
5.2920983478
 31
0.0
 11
4.9107693469
 21
5.2921963937
 31
0.0
 11
4.9111715488
 21
5.2922944396
 31
0.0
 11
4.9115977118
 21
5.2923924855
 31
0.0
 11
4.9120476809
 21
5.2924905314
 31
0.0
 11
4.9130182409
 21
5.2926866231
 31
0.0
 11
4.9140816116
 21
5.2928827149
 31
0.0
 11
4.9152361708
 21
5.2930788067
 31
0.0
 11
4.916480247
 21
5.2932748984
 31
0.0
 11
4.9178118321
 21
5.2934709902
 31
0.0
 11
4.9192287779
 21
5.293667082
 31
0.0
 11
4.9223100712
 21
5.2940592655
 31
0.0
 11
4.9257049881
 21
5.2944514491
 31
0.0
 11
4.9293924576
 21
5.2948436326
 31
0.0
 11
4.9333495053
 21
5.2952358161
 31
0.0
 11
4.9375516225
 21
5.2956279997
 31
0.0
 11
4.9419725955
 21
5.2960201833
 31
0.0
 11
4.9465850577
 21
5.2964123668
 31
0.0
 11
4.9513602358
 21
5.2968045504
 31
0.0
 11
4.9562685561
 21
5.2971967339
 31
0.0
 11
4.9612794264
 21
5.2975889175
 31
0.0
 11
4.971483973
 21
5.2983732846
 31
0.0
 11
4.9817205985
 21
5.2991576518
 31
0.0
 11
4.9917352306
 21
5.2999420189
 31
0.0
 11
4.9965812336
 21
5.3003342025
 31
0.0
 11
5.001279308
 21
5.3007263861
 31
0.0
 11
5.005800248
 21
5.3011185697
 31
0.0
 11
5.0101159493
 21
5.3015107532
 31
0.0
 11
5.0141996248
 21
5.3019029368
 31
0.0
 11
5.0180258323
 21
5.3022951204
 31
0.0
 11
5.0215708927
 21
5.302687304
 31
0.0
 11
5.0248126371
 21
5.3030794876
 31
0.0
 11
5.0263134478
 21
5.3032755794
 31
0.0
 11
5.0277310969
 21
5.3034716712
 31
0.0
 11
5.029063267
 21
5.303667763
 31
0.0
 11
5.0303079181
 21
5.3038638547
 31
0.0
  0
SPLINE
  5
3A3
100
AcDbEntity
  8
0
100
AcDbSpline
 62
6
  6
CONTINUOUS
 70
0
 71
3
 72
15
 73
11
 74
9
 42
0.0000001
 43
0.0000001
 44
0.0000000001
 12
0.0446146588
 22
-0.1426819096
 32
0.0
 13
0.1060374007
 23
-0.1053786732
 33
0.0
 40
0.0
 40
0.0
 40
0.0
 40
0.0
 40
0.1230602407
 40
0.2469345413
 40
0.3714847988
 40
0.4966051639
 40
0.6221627029
 40
0.7480126855
 40
0.8740210346
 40
1.0
 40
1.0
 40
1.0
 40
1.0
 10
6.8342398378
 20
4.8212434412
 30
0.0
 10
6.8360699347
 20
4.8153906179
 30
0.0
 10
6.8401066006
 20
4.8037568731
 30
0.0
 10
6.8472240641
 20
4.7866567839
 30
0.0
 10
6.8553952214
 20
4.7699194154
 30
0.0
 10
6.8645871941
 20
4.7536240068
 30
0.0
 10
6.8747681145
 20
4.7378501398
 30
0.0
 10
6.8859038343
 20
4.722679648
 30
0.0
 10
6.8979567286
 20
4.7082002445
 30
0.0
 10
6.9065820319
 20
4.6990608306
 30
0.0
 10
6.9110348592
 20
4.6946356652
 30
0.0
 11
6.8342398378
 21
4.8212434412
 31
0.0
 11
6.8402657694
 21
4.8038615163
 31
0.0
 11
6.8473788229
 21
4.7867635592
 31
0.0
 11
6.8555456874
 21
4.7700306316
 31
0.0
 11
6.8647352311
 21
4.7537388574
 31
0.0
 11
6.8749148531
 21
4.7379688195
 31
0.0
 11
6.8860497423
 21
4.7228038544
 31
0.0
 11
6.8981044464
 21
4.7083284467
 31
0.0
 11
6.9110348592
 21
4.6946356652
 31
0.0
  0
SPLINE
  5
3A4
100
AcDbEntity
  8
0
100
AcDbSpline
 62
6
  6
CONTINUOUS
 70
0
 71
3
 72
23
 73
19
 74
17
 42
0.0000001
 43
0.0000001
 44
0.0000000001
 12
0.0551898015
 22
-0.0986966111
 32
0.0
 13
0.0898808529
 23
-0.0686175453
 33
0.0
 40
0.0
 40
0.0
 40
0.0
 40
0.0
 40
0.0504002253
 40
0.1024910216
 40
0.156261848
 40
0.2117011038
 40
0.2688008959
 40
0.327549877
 40
0.3879307731
 40
0.4499214664
 40
0.5134966938
 40
0.5786261192
 40
0.6452767217
 40
0.7134139893
 40
0.7830021791
 40
0.8540031204
 40
0.9263593067
 40
1.0
 40
1.0
 40
1.0
 40
1.0
 10
6.8342398378
 20
5.7393015307
 30
0.0
 10
6.8351670306
 20
5.7376434203
 30
0.0
 10
6.8371183453
 20
5.7343080255
 30
0.0
 10
6.8402727195
 20
5.7293325982
 30
0.0
 10
6.843698495
 20
5.7243083795
 30
0.0
 10
6.8473913671
 20
5.7192416428
 30
0.0
 10
6.8513473574
 20
5.71413807
 30
0.0
 10
6.8555625885
 20
5.7090031473
 30
0.0
 10
6.8600331682
 20
5.7038425074
 30
0.0
 10
6.8647551369
 20
5.6986619815
 30
0.0
 10
6.8697243802
 20
5.6934675492
 30
0.0
 10
6.8749366181
 20
5.6882652736
 30
0.0
 10
6.8803874694
 20
5.6830613284
 30
0.0
 10
6.8860725353
 20
5.6778619258
 30
0.0
 10
6.891987385
 20
5.6726733401
 30
0.0
 10
6.8981270205
 20
5.6675023378
 30
0.0
 10
6.9044853186
 20
5.6623563391
 30
0.0
 10
6.9088285631
 20
5.6589763492
 30
0.0
 10
6.9110348592
 20
5.6572920013
 30
0.0
 11
6.8342398378
 21
5.7393015307
 31
0.0
 11
6.8371146009
 21
5.7343804649
 31
0.0
 11
6.8402657694
 21
5.7294038335
 31
0.0
 11
6.843688644
 21
5.7243784163
 31
0.0
 11
6.8473788229
 21
5.7193105404
 31
0.0
 11
6.8513324423
 21
5.714205715
 31
0.0
 11
6.8555456874
 21
5.7090693796
 31
0.0
 11
6.8600146256
 21
5.7039072219
 31
0.0
 11
6.8647352311
 21
5.698725127
 31
0.0
 11
6.8697034218
 21
5.6935290286
 31
0.0
 11
6.8749148531
 21
5.688325074
 31
0.0
 11
6.8803650997
 21
5.6831194761
 31
0.0
 11
6.8860497423
 21
5.6779184589
 31
0.0
 11
6.8919643721
 21
5.6727282667
 31
0.0
 11
6.8981044464
 21
5.6675552466
 31
0.0
 11
6.9044637347
 21
5.6624070042
 31
0.0
 11
6.9110348592
 21
5.6572920013
 31
0.0
  0
SPLINE
  5
3A5
100
AcDbEntity
  8
0
100
AcDbSpline
 62
6
  6
CONTINUOUS
 70
0
 71
3
 72
36
 73
32
 74
30
 42
0.0000001
 43
0.0000001
 44
0.0000000001
 12
-0.0117666132
 22
-0.0215024163
 32
0.0
 13
-0.0190617685
 23
0.0154096097
 33
0.0
 40
0.0
 40
0.0
 40
0.0
 40
0.0
 40
0.1141399264
 40
0.2223227497
 40
0.3243166766
 40
0.4198975385
 40
0.5088770664
 40
0.5910688543
 40
0.6662731892
 40
0.7342681352
 40
0.7948264461
 40
0.8222453276
 40
0.8477190105
 40
0.8712193745
 40
0.8927193557
 40
0.9121936033
 40
0.9296199144
 40
0.9449823775
 40
0.9582729828
 40
0.9641428101
 40
0.9694984064
 40
0.974344587
 40
0.9786893567
 40
0.9825455513
 40
0.9859335428
 40
0.988885866
 40
0.9914539179
 40
0.9937173645
 40
0.9957933587
 40
0.9978337704
 40
1.0
 40
1.0
 40
1.0
 40
1.0
 10
6.8354831579
 20
6.8464927667
 30
0.0
 10
6.8350354778
 20
6.8456746719
 30
0.0
 10
6.8341743397
 20
6.8440752101
 30
0.0
 10
6.8329491941
 20
6.8417255498
 30
0.0
 10
6.8318219343
 20
6.839496089
 30
0.0
 10
6.8307899367
 20
6.8373944724
 30
0.0
 10
6.8298495218
 20
6.8354282761
 30
0.0
 10
6.828996902
 20
6.8336047365
 30
0.0
 10
6.8282282822
 20
6.8319312503
 30
0.0
 10
6.827539495
 20
6.8304156295
 30
0.0
 10
6.827012677
 20
6.8292552549
 30
0.0
 10
6.8266262052
 20
6.8284127167
 30
0.0
 10
6.8263634505
 20
6.8278465491
 30
0.0
 10
6.8261175639
 20
6.8273258785
 30
0.0
 10
6.8258880374
 20
6.8268517119
 30
0.0
 10
6.8256743732
 20
6.8264250434
 30
0.0
 10
6.8254760685
 20
6.8260468289
 30
0.0
 10
6.8252926888
 20
6.8257179653
 30
0.0
 10
6.8251465351
 20
6.8254765902
 30
0.0
 10
6.8250358391
 20
6.8253096156
 30
0.0
 10
6.8249597301
 20
6.8252025743
 30
0.0
 10
6.8248869916
 20
6.8251085302
 30
0.0
 10
6.8248175525
 20
6.8250275723
 30
0.0
 10
6.8247513333
 20
6.8249597743
 30
0.0
 10
6.8246882168
 20
6.824905202
 30
0.0
 10
6.8246280395
 20
6.8248639084
 30
0.0
 10
6.8245705561
 20
6.8248359835
 30
0.0
 10
6.824515448
 20
6.8248217385
 30
0.0
 10
6.8244626451
 20
6.8248218845
 30
0.0
 10
6.8244128501
 20
6.824836979
 30
0.0
 10
6.8243835995
 20
6.8248558323
 30
0.0
 10
6.8243698355
 20
6.8248669592
 30
0.0
 11
6.8354831579
 21
6.8464927667
 31
0.0
 11
6.8341568764
 21
6.8440293857
 31
0.0
 11
6.8329308734
 21
6.8416781145
 31
0.0
 11
6.8318027859
 21
6.8394470898
 31
0.0
 11
6.8307699235
 21
6.8373442371
 31
0.0
 11
6.8298285882
 21
6.8353768297
 31
0.0
 11
6.8289748879
 21
6.8335520169
 31
0.0
 11
6.8282048715
 21
6.8318771872
 31
0.0
 11
6.8275144561
 21
6.8303602674
 31
0.0
 11
6.8268995404
 21
6.8290092589
 31
0.0
 11
6.8266191098
 21
6.8283984869
 31
0.0
 11
6.8263560071
 21
6.8278322309
 31
0.0
 11
6.8261097142
 21
6.8273115143
 31
0.0
 11
6.825879713
 21
6.8268373602
 31
0.0
 11
6.8256654854
 21
6.8264107921
 31
0.0
 11
6.8254665215
 21
6.8260328182
 31
0.0
 11
6.8252823524
 21
6.8257043743
 31
0.0
 11
6.8251125218
 21
6.8254263738
 31
0.0
 11
6.8250328408
 21
6.8253065754
 31
0.0
 11
6.8249565733
 21
6.8251997304
 31
0.0
 11
6.8248836621
 21
6.825105953
 31
0.0
 11
6.8248140503
 21
6.8250253574
 31
0.0
 11
6.8247476808
 21
6.8249580578
 31
0.0
 11
6.8246844969
 21
6.8249041677
 31
0.0
 11
6.8246244492
 21
6.8248637815
 31
0.0
 11
6.8245674971
 21
6.8248369727
 31
0.0
 11
6.8245136001
 21
6.8248238136
 31
0.0
 11
6.8244627178
 21
6.8248243767
 31
0.0
 11
6.8244148097
 21
6.8248387345
 31
0.0
 11
6.8243698355
 21
6.8248669592
 31
0.0
  0
SPLINE
  5
3A6
100
AcDbEntity
  8
0
100
AcDbSpline
 62
6
  6
CONTINUOUS
 70
0
 71
3
 72
15
 73
11
 74
9
 42
0.0000001
 43
0.0000001
 44
0.0000000001
 12
0.0044829535
 22
-0.0377638145
 32
0.0
 13
0.018560521
 23
-0.0331920114
 33
0.0
 40
0.0
 40
0.0
 40
0.0
 40
0.0
 40
0.1393917026
 40
0.2743460235
 40
0.4049396453
 40
0.5313163795
 40
0.6537024502
 40
0.772399025
 40
0.887713339
 40
1.0
 40
1.0
 40
1.0
 40
1.0
 10
6.8240082467
 20
5.7756843188
 30
0.0
 10
6.8242165422
 20
5.7739296647
 30
0.0
 10
6.8246726086
 20
5.7704814184
 30
0.0
 10
6.8255064586
 20
5.7654154818
 30
0.0
 10
6.826492602
 20
5.7605448653
 30
0.0
 10
6.8276447547
 20
5.7558744169
 30
0.0
 10
6.8289765363
 20
5.751408735
 30
0.0
 10
6.8305014152
 20
5.7471533627
 30
0.0
 10
6.8322313403
 20
5.7431157793
 30
0.0
 10
6.8335451382
 20
5.7405438708
 30
0.0
 10
6.8342398378
 20
5.7393015307
 30
0.0
 11
6.8240082467
 21
5.7756843188
 31
0.0
 11
6.8247080892
 21
5.7704297966
 31
0.0
 11
6.8255467788
 21
5.765366615
 31
0.0
 11
6.8265377882
 21
5.760500154
 31
0.0
 11
6.8276945724
 21
5.7558354712
 31
0.0
 11
6.8290305595
 21
5.7513771232
 31
0.0
 11
6.8305590477
 21
5.7471298778
 31
0.0
 11
6.8322918538
 21
5.7431014657
 31
0.0
 11
6.8342398378
 21
5.7393015307
 31
0.0
  0
SPLINE
  5
3A7
100
AcDbEntity
  8
0
100
AcDbSpline
 62
6
  6
CONTINUOUS
 70
0
 71
3
 72
22
 73
18
 74
16
 42
0.0000001
 43
0.0000001
 44
0.0000000001
 12
-0.0934973935
 22
-0.0301589926
 32
0.0
 13
-0.0471603996
 23
-0.0861813445
 33
0.0
 40
0.0
 40
0.0
 40
0.0
 40
0.0
 40
0.134709614
 40
0.2006723581
 40
0.2657428766
 40
0.3299757002
 40
0.3934291693
 40
0.4561634956
 40
0.5182413125
 40
0.5797288234
 40
0.6406966737
 40
0.7012189193
 40
0.7613744457
 40
0.8212475272
 40
0.8809246153
 40
0.9404839436
 40
1.0
 40
1.0
 40
1.0
 40
1.0
 10
6.9109022319
 20
6.9057052194
 30
0.0
 10
6.9067038993
 20
6.904350984
 30
0.0
 10
6.900526435
 20
6.9020803973
 30
0.0
 10
6.8925661783
 20
6.8985593963
 30
0.0
 10
6.8868342091
 20
6.8957202151
 30
0.0
 10
6.8813057914
 20
6.8926695037
 30
0.0
 10
6.87598613
 20
6.8894118179
 30
0.0
 10
6.8708806808
 20
6.8859519308
 30
0.0
 10
6.8659948471
 20
6.882294627
 30
0.0
 10
6.8613340413
 20
6.8784446825
 30
0.0
 10
6.856903439
 20
6.8744070729
 30
0.0
 10
6.8527081372
 20
6.8701866982
 30
0.0
 10
6.8487531527
 20
6.8657883513
 30
0.0
 10
6.8450434321
 20
6.8612167978
 30
0.0
 10
6.8415840874
 20
6.8564770147
 30
0.0
 10
6.8383804552
 20
6.8515748996
 30
0.0
 10
6.8364187583
 20
6.8482024912
 30
0.0
 10
6.8354831579
 20
6.8464927667
 30
0.0
 11
6.9109022319
 21
6.9057052194
 31
0.0
 11
6.8984851179
 21
6.9011275747
 31
0.0
 11
6.892559378
 21
6.8985047254
 31
0.0
 11
6.8868316853
 21
6.8956659015
 31
0.0
 11
6.8813074928
 21
6.8926157735
 31
0.0
 11
6.8759921415
 21
6.8893589972
 31
0.0
 11
6.8708910248
 21
6.8859003368
 31
0.0
 11
6.8660095674
 21
6.8822446203
 31
0.0
 11
6.8613531295
 21
6.8783966995
 31
0.0
 11
6.8569268499
 21
6.8743615052
 31
0.0
 11
6.8527358173
 21
6.8701439821
 31
0.0
 11
6.8487850068
 21
6.8657489585
 31
0.0
 11
6.8450792424
 21
6.8611811086
 31
0.0
 11
6.8416233882
 21
6.8564451955
 31
0.0
 11
6.8384228091
 21
6.8515469735
 31
0.0
 11
6.8354831579
 21
6.8464927667
 31
0.0
  0
SPLINE
  5
3A8
100
AcDbEntity
  8
0
100
AcDbSpline
 62
6
  6
CONTINUOUS
 70
0
 71
3
 72
14
 73
10
 74
8
 42
0.0000001
 43
0.0000001
 44
0.0000000001
 12
0.005044875
 22
-0.0560638894
 32
0.0
 13
0.0167991338
 23
-0.0537252228
 33
0.0
 40
0.0
 40
0.0
 40
0.0
 40
0.0
 40
0.1259593523
 40
0.2519842159
 40
0.377859899
 40
0.5034126412
 40
0.7530707539
 40
0.8769591102
 40
1.0
 40
1.0
 40
1.0
 40
1.0
 10
6.8240082467
 20
4.8764911984
 30
0.0
 10
6.8242200631
 20
4.8741372746
 30
0.0
 10
6.8246851748
 20
4.8694317861
 30
0.0
 10
6.8255208686
 20
4.8623907804
 30
0.0
 10
6.8265088018
 20
4.8553769715
 30
0.0
 10
6.8280440898
 20
4.8461004716
 30
0.0
 10
6.8299383709
 20
4.8369227807
 30
0.0
 10
6.8322496851
 20
4.8278949481
 30
0.0
 10
6.8335508444
 20
4.8234469076
 30
0.0
 10
6.8342398378
 20
4.8212434412
 30
0.0
 11
6.8240082467
 21
4.8764911984
 31
0.0
 11
6.8247080892
 21
4.8694355178
 31
0.0
 11
6.8255467788
 21
4.8623912779
 31
0.0
 11
6.8265377882
 21
4.8553753287
 31
0.0
 11
6.8276945724
 21
4.8484032263
 31
0.0
 11
6.8305590477
 21
4.834644896
 31
0.0
 11
6.8322918538
 21
4.8278898797
 31
0.0
 11
6.8342398378
 21
4.8212434412
 31
0.0
  0
SPLINE
  5
3A9
100
AcDbEntity
  8
0
100
AcDbSpline
 62
6
  6
CONTINUOUS
 70
0
 71
3
 72
14
 73
10
 74
8
 42
0.0000001
 43
0.0000001
 44
0.0000000001
 12
0.0057909547
 22
-0.0450434536
 32
0.0
 13
0.0149226942
 23
-0.042892436
 33
0.0
 40
0.0
 40
0.0
 40
0.0
 40
0.0
 40
0.2279913514
 40
0.3480674444
 40
0.471829102
 40
0.5990889505
 40
0.7296797064
 40
0.8633925445
 40
1.0
 40
1.0
 40
1.0
 40
1.0
 10
6.8240082467
 20
4.3739922583
 30
0.0
 10
6.8244483426
 20
4.3705690857
 30
0.0
 10
6.8252291114
 20
4.3653560177
 30
0.0
 10
6.8265263412
 20
4.3583317212
 30
0.0
 10
6.8276820571
 20
4.3528335398
 30
0.0
 10
6.8290169251
 20
4.3472123191
 30
0.0
 10
6.8305442412
 20
4.3414841331
 30
0.0
 10
6.8322756817
 20
4.3356664848
 30
0.0
 10
6.8335603207
 20
4.3317804252
 30
0.0
 10
6.8342398378
 20
4.329827283
 30
0.0
 11
6.8240082467
 21
4.3739922583
 31
0.0
 11
6.8255467788
 21
4.3637531628
 31
0.0
 11
6.8265377882
 21
4.3583908101
 31
0.0
 11
6.8276945724
 21
4.352890605
 31
0.0
 11
6.8290305595
 21
4.3472677388
 31
0.0
 11
6.8305590477
 21
4.3415374161
 31
0.0
 11
6.8322918538
 21
4.3357174383
 31
0.0
 11
6.8342398378
 21
4.329827283
 31
0.0
  0
SPLINE
  5
3AA
100
AcDbEntity
  8
0
100
AcDbSpline
 62
6
  6
CONTINUOUS
 70
0
 71
3
 72
41
 73
37
 74
35
 42
0.0000001
 43
0.0000001
 44
0.0000000001
 12
-0.0212839011
 22
-0.0358929941
 32
0.0
 13
-0.0320552525
 23
0.0267165165
 33
0.0
 40
0.0
 40
0.0
 40
0.0
 40
0.0
 40
0.1118848344
 40
0.218342875
 40
0.3191006575
 40
0.4139405867
 40
0.502664173
 40
0.5850481796
 40
0.6608446168
 40
0.7297861893
 40
0.7615973327
 40
0.7915856876
 40
0.8197127445
 40
0.8459382597
 40
0.8702212244
 40
0.8925201572
 40
0.9127934854
 40
0.9310017351
 40
0.9471069924
 40
0.9610722283
 40
0.9672413262
 40
0.9728626065
 40
0.9779331397
 40
0.9824511709
 40
0.9864157851
 40
0.9898274325
 40
0.9926890089
 40
0.9950082015
 40
0.9959699176
 40
0.9968046206
 40
0.9975190564
 40
0.9981243455
 40
0.9986391359
 40
0.9990937601
 40
0.9995313976
 40
1.0
 40
1.0
 40
1.0
 40
1.0
 10
6.8412540072
 20
6.8940178888
 30
0.0
 10
6.8404602252
 20
6.8926792616
 30
0.0
 10
6.8389445333
 20
6.8900469702
 30
0.0
 10
6.8368279927
 20
6.886145016
 30
0.0
 10
6.8349168642
 20
6.88240286
 30
0.0
 10
6.8332026655
 20
6.8788384609
 30
0.0
 10
6.8316757721
 20
6.8754687048
 30
0.0
 10
6.8303258752
 20
6.8723104983
 30
0.0
 10
6.8291421415
 20
6.8693812555
 30
0.0
 10
6.8282631239
 20
6.8670880916
 30
0.0
 10
6.827632465
 20
6.865382367
 30
0.0
 10
6.827206854
 20
6.8642061431
 30
0.0
 10
6.8268144072
 20
6.8631005699
 30
0.0
 10
6.826453772
 20
6.8620679338
 30
0.0
 10
6.8261236009
 20
6.8611105377
 30
0.0
 10
6.8258225629
 20
6.860230677
 30
0.0
 10
6.8255492839
 20
6.8594306257
 30
0.0
 10
6.8253025821
 20
6.8587125348
 30
0.0
 10
6.8250813383
 20
6.8580784819
 30
0.0
 10
6.8249109416
 20
6.8576040571
 30
0.0
 10
6.8247855959
 20
6.857268443
 30
0.0
 10
6.8247011547
 20
6.8570496356
 30
0.0
 10
6.8246222202
 20
6.8568533391
 30
0.0
 10
6.8245487094
 20
6.8566797262
 30
0.0
 10
6.8244805348
 20
6.8565289591
 30
0.0
 10
6.8244176239
 20
6.8564011577
 30
0.0
 10
6.824359885
 20
6.8562964649
 30
0.0
 10
6.8243135682
 20
6.8562245022
 30
0.0
 10
6.8242783905
 20
6.8561792874
 30
0.0
 10
6.8242548749
 20
6.8561534055
 30
0.0
 10
6.8242325055
 20
6.8561333581
 30
0.0
 10
6.8242111741
 20
6.8561191395
 30
0.0
 10
6.824190691
 20
6.8561108165
 30
0.0
 10
6.824170891
 20
6.8561087467
 30
0.0
 10
6.824152152
 20
6.856113371
 30
0.0
 10
6.8241413913
 20
6.8561203439
 30
0.0
 10
6.8241363843
 20
6.856124517
 30
0.0
 11
6.8412540072
 21
6.8940178888
 31
0.0
 11
6.8389245755
 21
6.8899716731
 31
0.0
 11
6.8368069068
 21
6.8860665086
 31
0.0
 11
6.8348948877
 21
6.8823218852
 31
0.0
 11
6.8331798896
 21
6.8787552056
 31
0.0
 11
6.8316519817
 21
6.8753828351
 31
0.0
 11
6.830300818
 21
6.8722216874
 31
0.0
 11
6.8291156633
 21
6.8692892112
 31
0.0
 11
6.8280855754
 21
6.866603086
 31
0.0
 11
6.8276251601
 21
6.8653580415
 31
0.0
 11
6.8271992792
 21
6.8641813558
 31
0.0
 11
6.8268065335
 21
6.8630753011
 31
0.0
 11
6.8264455618
 21
6.8620421823
 31
0.0
 11
6.8261150089
 21
6.8610843093
 31
0.0
 11
6.8258135199
 21
6.8602039921
 31
0.0
 11
6.8255397504
 21
6.8594035279
 31
0.0
 11
6.8252924671
 21
6.858685081
 31
0.0
 11
6.8250705022
 21
6.8580507374
 31
0.0
 11
6.8248726884
 21
6.8575025825
 31
0.0
 11
6.8247824735
 21
6.8572614773
 31
0.0
 11
6.8246978598
 21
6.8570426992
 31
0.0
 11
6.8246187249
 21
6.8568464664
 31
0.0
 11
6.824544967
 21
6.85667296
 31
0.0
 11
6.8244764848
 21
6.8565223598
 31
0.0
 11
6.8244131773
 21
6.8563948456
 31
0.0
 11
6.8243549432
 21
6.8562905972
 31
0.0
 11
6.8243016815
 21
6.8562097943
 31
0.0
 11
6.8242768836
 21
6.8561782412
 31
0.0
 11
6.8242532909
 21
6.8561526168
 31
0.0
 11
6.8242308908
 21
6.8561329438
 31
0.0
 11
6.8242096704
 21
6.8561192444
 31
0.0
 11
6.8241896174
 21
6.8561115412
 31
0.0
 11
6.824170722
 21
6.8561098496
 31
0.0
 11
6.8241529791
 21
6.8561141738
 31
0.0
 11
6.8241363843
 21
6.856124517
 31
0.0
  0
SPLINE
  5
3AB
100
AcDbEntity
  8
0
100
AcDbSpline
 62
6
  6
CONTINUOUS
 70
0
 71
3
 72
22
 73
18
 74
16
 42
0.0000001
 43
0.0000001
 44
0.0000000001
 12
-0.0858906955
 22
-0.0363960792
 32
0.0
 13
-0.047579481
 23
-0.0802376417
 33
0.0
 40
0.0
 40
0.0
 40
0.0
 40
0.0
 40
0.1299133131
 40
0.1941169408
 40
0.2578443437
 40
0.3211335354
 40
0.3840239212
 40
0.4465546468
 40
0.5087649114
 40
0.5706948273
 40
0.6323860776
 40
0.6938812559
 40
0.7552248655
 40
0.8164641787
 40
0.8776468477
 40
0.9388134878
 40
1.0
 40
1.0
 40
1.0
 40
1.0
 10
6.9108793959
 20
6.9537229649
 30
0.0
 10
6.9071599477
 20
6.9521468531
 30
0.0
 10
6.9016861667
 20
6.9495852281
 30
0.0
 10
6.8946291095
 20
6.9457772206
 30
0.0
 10
6.8895070124
 20
6.9427544734
 30
0.0
 10
6.8845400309
 20
6.9395581766
 30
0.0
 10
6.8797318785
 20
6.9361919679
 30
0.0
 10
6.8750864598
 20
6.9326596696
 30
0.0
 10
6.8706076313
 20
6.9289651239
 30
0.0
 10
6.8662992705
 20
6.9251121603
 30
0.0
 10
6.8621650826
 20
6.9211047425
 30
0.0
 10
6.8582087147
 20
6.9169467866
 30
0.0
 10
6.8544337423
 20
6.9126421299
 30
0.0
 10
6.8508436536
 20
6.908194589
 30
0.0
 10
6.8474420423
 20
6.9036080942
 30
0.0
 10
6.8442326707
 20
6.8988871819
 30
0.0
 10
6.8422244147
 20
6.8956543759
 30
0.0
 10
6.8412540072
 20
6.8940178888
 30
0.0
 11
6.9108793959
 21
6.9537229649
 31
0.0
 11
6.8999053312
 21
6.9485813974
 31
0.0
 11
6.8946348628
 21
6.945736708
 31
0.0
 11
6.8895154677
 21
6.9427148316
 31
0.0
 11
6.8845510532
 21
6.9395194939
 31
0.0
 11
6.8797454453
 21
6.9361544028
 31
0.0
 11
6.8751025065
 21
6.932623356
 31
0.0
 11
6.8706261238
 21
6.9289302116
 31
0.0
 11
6.8663201493
 21
6.9250788411
 31
0.0
 11
6.8621882828
 21
6.9210731692
 31
0.0
 11
6.8582341814
 21
6.9169171338
 31
0.0
 11
6.8544614175
 21
6.9126146014
 31
0.0
 11
6.8508734197
 21
6.9081693174
 31
0.0
 11
6.8474736285
 21
6.9035850666
 31
0.0
 11
6.844265821
 21
6.8988662911
 31
0.0
 11
6.8412540072
 21
6.8940178888
 31
0.0
  0
LINE
  5
3AC
100
AcDbEntity
  8
0
100
AcDbLine
 62
6
  6
CONTINUOUS
 10
6.9110317335
 20
5.8255380814
 11
6.9108793959
 21
5.700939154
  0
SPLINE
  5
3AD
100
AcDbEntity
  8
0
100
AcDbSpline
 62
6
  6
CONTINUOUS
 70
0
 71
3
 72
14
 73
10
 74
8
 42
0.0000001
 43
0.0000001
 44
0.0000000001
 12
-0.0157576884
 22
-0.0369633983
 32
0.0
 13
-0.0069372634
 23
-0.0395772261
 33
0.0
 40
0.0
 40
0.0
 40
0.0
 40
0.0
 40
0.1076185976
 40
0.2108547276
 40
0.4027834057
 40
0.5732795098
 40
0.7195958451
 40
0.9269407303
 40
1.0
 40
1.0
 40
1.0
 40
1.0
 10
6.8354831579
 20
6.9052931127
 30
0.0
 10
6.8349178845
 20
6.9039671297
 30
0.0
 10
6.8338411378
 20
6.9013558957
 30
0.0
 10
6.8319010406
 20
6.8963215356
 30
0.0
 10
6.8298511588
 20
6.8904286721
 30
0.0
 10
6.8278792776
 20
6.8839043169
 30
0.0
 10
6.8260949733
 20
6.8771130642
 30
0.0
 10
6.8248716832
 20
6.8715273093
 30
0.0
 10
6.8241908847
 20
6.8678335737
 30
0.0
 10
6.8240219409
 20
6.866869746
 30
0.0
 11
6.8354831579
 21
6.9052931127
 31
0.0
 11
6.8338346794
 21
6.9012953128
 31
0.0
 11
6.8323432197
 21
6.8974244677
 31
0.0
 11
6.8298102821
 21
6.8901402011
 31
0.0
 11
6.8278288522
 21
6.883582111
 31
0.0
 11
6.8263352547
 21
6.8778957036
 31
0.0
 11
6.8245540016
 21
6.8697567997
 31
0.0
 11
6.8240219409
 21
6.866869746
 31
0.0
  0
SPLINE
  5
3AE
100
AcDbEntity
  8
0
100
AcDbSpline
 62
6
  6
CONTINUOUS
 70
0
 71
3
 72
23
 73
19
 74
17
 42
0.0000001
 43
0.0000001
 44
0.0000000001
 12
0.0596139945
 22
-0.0849339691
 32
0.0
 13
0.0859555789
 23
-0.0581312817
 33
0.0
 40
0.0
 40
0.0
 40
0.0
 40
0.0
 40
0.0469818021
 40
0.0961388245
 40
0.1474565195
 40
0.2009179423
 40
0.256508728
 40
0.3142105516
 40
0.3739990855
 40
0.435845144
 40
0.4997162656
 40
0.5655747581
 40
0.6333801767
 40
0.7030906024
 40
0.7746629329
 40
0.8480515221
 40
0.9231904731
 40
1.0
 40
1.0
 40
1.0
 40
1.0
 10
6.834226105
 20
5.8945549266
 30
0.0
 10
6.835159696
 20
5.8932248097
 30
0.0
 10
6.8371242219
 20
5.8905406682
 30
0.0
 10
6.8402800614
 20
5.8865327202
 30
0.0
 10
6.8437073837
 20
5.8824568232
 30
0.0
 10
6.8474018335
 20
5.8783181173
 30
0.0
 10
6.8513593872
 20
5.8741212552
 30
0.0
 10
6.8555761247
 20
5.8698707329
 30
0.0
 10
6.8600480961
 20
5.8655711651
 30
0.0
 10
6.864771271
 20
5.861227326
 30
0.0
 10
6.8697414659
 20
5.8568441121
 30
0.0
 10
6.8749543356
 20
5.8524264898
 30
0.0
 10
6.8804054304
 20
5.84797952
 30
0.0
 10
6.8860902802
 20
5.8435082928
 30
0.0
 10
6.8920043796
 20
5.8390179446
 30
0.0
 10
6.8981426461
 20
5.8345140444
 30
0.0
 10
6.9044989151
 20
5.8300027371
 30
0.0
 10
6.9088309977
 20
5.8270264268
 30
0.0
 10
6.9110317335
 20
5.8255380814
 30
0.0
 11
6.834226105
 21
5.8945549266
 31
0.0
 11
6.8371019877
 21
5.8906183637
 31
0.0
 11
6.8402545679
 21
5.8866083484
 31
0.0
 11
6.8436790699
 21
5.8825304392
 31
0.0
 11
6.8473710161
 21
5.8783898248
 31
0.0
 11
6.8513264682
 21
5.8741910252
 31
0.0
 11
6.8555415369
 21
5.8699385025
 31
0.0
 11
6.8600122141
 21
5.8656369126
 31
0.0
 11
6.8647343966
 21
5.8612910651
 31
0.0
 11
6.8697039257
 21
5.8569058111
 31
0.0
 11
6.8749163802
 21
5.852486184
 31
0.0
 11
6.8803672587
 21
5.8480372736
 31
0.0
 11
6.8860520668
 21
5.8435641747
 31
0.0
 11
6.891966322
 21
5.8390719909
 31
0.0
 11
6.8981054086
 21
5.8345659159
 31
0.0
 11
6.9044630272
 21
5.8300522576
 31
0.0
 11
6.9110317335
 21
5.8255380814
 31
0.0
  0
SPLINE
  5
3AF
100
AcDbEntity
  8
0
100
AcDbSpline
 62
6
  6
CONTINUOUS
 70
0
 71
3
 72
23
 73
19
 74
17
 42
0.0000001
 43
0.0000001
 44
0.0000000001
 12
-0.1004091338
 22
-0.0532598285
 32
0.0
 13
-0.0445726184
 23
-0.1045556558
 33
0.0
 40
0.0
 40
0.0
 40
0.0
 40
0.0
 40
0.0634734613
 40
0.1266537931
 40
0.1895624152
 40
0.2522288708
 40
0.3146950832
 40
0.377003051
 40
0.4391928542
 40
0.5013032271
 40
0.5633726575
 40
0.6254400584
 40
0.6875441356
 40
0.7497250388
 40
0.8120250868
 40
0.8744856291
 40
0.9371362741
 40
1.0
 40
1.0
 40
1.0
 40
1.0
 10
6.9109022319
 20
6.9873795258
 30
0.0
 10
6.9087777935
 20
6.9862526639
 30
0.0
 10
6.9045857627
 20
6.9839141264
 30
0.0
 10
6.8984662492
 20
6.9801510612
 30
0.0
 10
6.8925375862
 20
6.9761481096
 30
0.0
 10
6.8868067632
 20
6.9719121398
 30
0.0
 10
6.8812795451
 20
6.9674498693
 30
0.0
 10
6.8759613656
 20
6.9627677079
 30
0.0
 10
6.8708575906
 20
6.9578721774
 30
0.0
 10
6.8659736147
 20
6.9527698515
 30
0.0
 10
6.8613148273
 20
6.9474672958
 30
0.0
 10
6.8568863517
 20
6.9419712474
 30
0.0
 10
6.852693244
 20
6.9362883468
 30
0.0
 10
6.8487404804
 20
6.9304250944
 30
0.0
 10
6.84503296
 20
6.9243879284
 30
0.0
 10
6.841575761
 20
6.9181835934
 30
0.0
 10
6.8383741281
 20
6.9118198337
 30
0.0
 10
6.8364171582
 20
6.9074840321
 30
0.0
 10
6.8354831579
 20
6.9052931127
 30
0.0
 11
6.9109022319
 21
6.9873795258
 31
0.0
 11
6.9046020186
 21
6.9838645835
 31
0.0
 11
6.8984851179
 21
6.9801027465
 31
0.0
 11
6.892559378
 21
6.9761013829
 31
0.0
 11
6.8868316853
 21
6.9718674738
 31
0.0
 11
6.8813074928
 21
6.9674074238
 31
0.0
 11
6.8759921415
 21
6.9627276041
 31
0.0
 11
6.8708910248
 21
6.9578345239
 31
0.0
 11
6.8660095674
 21
6.952734774
 31
0.0
 11
6.8613531295
 21
6.9474349645
 31
0.0
 11
6.8569268499
 21
6.9419417697
 31
0.0
 11
6.8527358173
 21
6.9362618735
 31
0.0
 11
6.8487850068
 21
6.9304018035
 31
0.0
 11
6.8450792424
 21
6.9243678799
 31
0.0
 11
6.8416233882
 21
6.9181665358
 31
0.0
 11
6.8384228091
 21
6.9118054708
 31
0.0
 11
6.8354831579
 21
6.9052931127
 31
0.0
  0
SPLINE
  5
3B0
100
AcDbEntity
  8
0
100
AcDbSpline
 62
6
  6
CONTINUOUS
 70
0
 71
3
 72
15
 73
11
 74
9
 42
0.0000001
 43
0.0000001
 44
0.0000000001
 12
0.0043863922
 22
-0.0322545885
 32
0.0
 13
0.0187007648
 23
-0.0266435792
 33
0.0
 40
0.0
 40
0.0
 40
0.0
 40
0.0
 40
0.1423870189
 40
0.2791299303
 40
0.4104467684
 40
0.5366458159
 40
0.658143835
 40
0.7754708412
 40
0.889201818
 40
1.0
 40
1.0
 40
1.0
 40
1.0
 10
6.8240098204
 20
5.9251469158
 30
0.0
 10
6.8242180088
 20
5.9236160376
 30
0.0
 10
6.8246732313
 20
5.9206210326
 30
0.0
 10
6.8255082145
 20
5.9162452435
 30
0.0
 10
6.8264947962
 20
5.9120810052
 30
0.0
 10
6.8276465445
 20
5.9081309529
 30
0.0
 10
6.828977014
 20
5.9043976946
 30
0.0
 10
6.8304996097
 20
5.9008848257
 30
0.0
 10
6.8322261804
 20
5.8975978087
 30
0.0
 10
6.8335354347
 20
5.8955389467
 30
0.0
 10
6.834226105
 20
5.8945549266
 30
0.0
 11
6.8240098204
 21
5.9251469158
 31
0.0
 11
6.824711741
 21
5.920565466
 31
0.0
 11
6.8255519015
 21
5.9161942909
 31
0.0
 11
6.826543524
 21
5.9120363434
 31
0.0
 11
6.8276997992
 21
5.9080944642
 31
0.0
 11
6.8290338677
 21
5.9043713183
 31
0.0
 11
6.8305587406
 21
5.900869775
 31
0.0
 11
6.8322859579
 21
5.8975952748
 31
0.0
 11
6.834226105
 21
5.8945549266
 31
0.0
  0
LINE
  5
3B1
100
AcDbEntity
  8
0
100
AcDbLine
 62
6
  6
CONTINUOUS
 10
6.9110317335
 20
4.8284014662
 11
6.9108793959
 21
4.728044905
  0
SPLINE
  5
3B2
100
AcDbEntity
  8
0
100
AcDbSpline
 62
6
  6
CONTINUOUS
 70
0
 71
3
 72
15
 73
11
 74
9
 42
0.0000001
 43
0.0000001
 44
0.0000000001
 12
0.0454825895
 22
-0.1394581537
 32
0.0
 13
0.1042349614
 23
-0.1032100547
 33
0.0
 40
0.0
 40
0.0
 40
0.0
 40
0.0
 40
0.1210547695
 40
0.2435126466
 40
0.3672353058
 40
0.492110321
 40
0.6179924437
 40
0.7447181399
 40
0.8721279205
 40
1.0
 40
1.0
 40
1.0
 40
1.0
 10
6.834226105
 20
4.9518108035
 30
0.0
 10
6.8360613998
 20
4.9461834452
 30
0.0
 10
6.8401115229
 20
4.9349771282
 30
0.0
 10
6.8472347426
 20
4.9184830055
 30
0.0
 10
6.8554116032
 20
4.9022750226
 30
0.0
 10
6.8646085851
 20
4.8864298228
 30
0.0
 10
6.8747931531
 20
4.8710242632
 30
0.0
 10
6.885930484
 20
4.8561373279
 30
0.0
 10
6.8979823205
 20
4.8418535935
 30
0.0
 10
6.9065888197
 20
4.8328006943
 30
0.0
 10
6.9110317335
 20
4.8284014662
 30
0.0
 11
6.834226105
 21
4.9518108035
 31
0.0
 11
6.8402545679
 21
4.9351082036
 31
0.0
 11
6.8473710161
 21
4.9186149545
 31
0.0
 11
6.8555415369
 21
4.9024096036
 31
0.0
 11
6.8647343966
 21
4.8865657957
 31
0.0
 11
6.8749163802
 21
4.8711613781
 31
0.0
 11
6.8860520668
 21
4.8562768043
 31
0.0
 11
6.8981054086
 21
4.8419935352
 31
0.0
 11
6.9110317335
 21
4.8284014662
 31
0.0
  0
SPLINE
  5
3B3
100
AcDbEntity
  8
0
100
AcDbSpline
 62
6
  6
CONTINUOUS
 70
0
 71
3
 72
16
 73
12
 74
10
 42
0.0000001
 43
0.0000001
 44
0.0000000001
 12
0.043037651
 22
-0.140184814
 32
0.0
 13
0.1090139191
 23
-0.098081532
 33
0.0
 40
0.0
 40
0.0
 40
0.0
 40
0.0
 40
0.1268700971
 40
0.2533980069
 40
0.3794166016
 40
0.5048176897
 40
0.6295977093
 40
0.7537815948
 40
0.8156405453
 40
0.8773109653
 40
1.0
 40
1.0
 40
1.0
 40
1.0
 10
6.834226105
 20
4.494776109
 30
0.0
 10
6.8360461686
 20
4.4888476887
 30
0.0
 10
6.8400605192
 20
4.4771194299
 30
0.0
 10
6.8471779256
 20
4.4599802729
 30
0.0
 10
6.8553501601
 20
4.4433971579
 30
0.0
 10
6.8645443308
 20
4.427456253
 30
0.0
 10
6.8747293324
 20
4.4122370514
 30
0.0
 10
6.8840286229
 20
4.4002054783
 30
0.0
 10
6.8919282078
 20
4.39102577
 30
0.0
 10
6.9000991185
 20
4.3821867805
 30
0.0
 10
6.9065734627
 20
4.3759029215
 30
0.0
 10
6.9110317335
 20
4.3718917453
 30
0.0
 11
6.834226105
 21
4.494776109
 31
0.0
 11
6.8402512136
 21
4.4771741984
 31
0.0
 11
6.8473690236
 21
4.4600393984
 31
0.0
 11
6.8555414413
 21
4.4434650144
 31
0.0
 11
6.8647333994
 21
4.4275380576
 31
0.0
 11
6.8749151717
 21
4.4123344306
 31
0.0
 11
6.8860567221
 21
4.3979298106
 31
0.0
 11
6.8919743529
 21
4.3910546798
 31
0.0
 11
6.8981140428
 21
4.3844147116
 31
0.0
 11
6.9110317335
 21
4.3718917453
 31
0.0
  0
LINE
  5
3B4
100
AcDbEntity
  8
0
100
AcDbLine
 62
6
  6
CONTINUOUS
 10
6.9110348592
 20
6.0006553067
 11
6.9109022319
 21
5.8878143818
  0
SPLINE
  5
3B5
100
AcDbEntity
  8
0
100
AcDbSpline
 62
6
  6
CONTINUOUS
 70
0
 71
3
 72
14
 73
10
 74
8
 42
0.0000001
 43
0.0000001
 44
0.0000000001
 12
0.0049753578
 22
-0.0545702874
 32
0.0
 13
0.0169904824
 23
-0.0520960072
 33
0.0
 40
0.0
 40
0.0
 40
0.0
 40
0.0
 40
0.1278697515
 40
0.2552036535
 40
0.3818156095
 40
0.5075593236
 40
0.7560648156
 40
0.8786705705
 40
1.0
 40
1.0
 40
1.0
 40
1.0
 10
6.8240098204
 20
5.0055337746
 30
0.0
 10
6.8242218863
 20
5.0032078115
 30
0.0
 10
6.8246871171
 20
4.9985693118
 30
0.0
 10
6.8255240809
 20
4.9916451532
 30
0.0
 10
6.82651242
 20
4.9847799325
 30
0.0
 10
6.8280436291
 20
4.975759887
 30
0.0
 10
6.82993282
 20
4.9668764239
 30
0.0
 10
6.8322408826
 20
4.9581814186
 30
0.0
 10
6.8335389565
 20
4.9539177297
 30
0.0
 10
6.834226105
 20
4.9518108035
 30
0.0
 11
6.8240098204
 21
5.0055337746
 31
0.0
 11
6.8247117408
 21
4.99856219
 31
0.0
 11
6.8255519021
 21
4.9916354884
 31
0.0
 11
6.8265435283
 21
4.9847688117
 31
0.0
 11
6.8276998089
 21
4.9779761919
 31
0.0
 11
6.8305587453
 21
4.964662427
 31
0.0
 11
6.8322859589
 21
4.9581698628
 31
0.0
 11
6.834226105
 21
4.9518108035
 31
0.0
  0
SPLINE
  5
3B6
100
AcDbEntity
  8
0
100
AcDbSpline
 62
6
  6
CONTINUOUS
 70
0
 71
3
 72
23
 73
19
 74
17
 42
0.0000001
 43
0.0000001
 44
0.0000000001
 12
0.0655859287
 22
-0.0684641551
 32
0.0
 13
0.0819923743
 23
-0.0476036253
 33
0.0
 40
0.0
 40
0.0
 40
0.0
 40
0.0
 40
0.0430809557
 40
0.0889111353
 40
0.1374622564
 40
0.1887041577
 40
0.2426096338
 40
0.2991484236
 40
0.3582854097
 40
0.4199816238
 40
0.4841955142
 40
0.5508807693
 40
0.6199888331
 40
0.6914701596
 40
0.7652744294
 40
0.8413490152
 40
0.9196202327
 40
1.0
 40
1.0
 40
1.0
 40
1.0
 10
6.8342398378
 20
6.0558112806
 30
0.0
 10
6.8351816727
 20
6.0548281135
 30
0.0
 10
6.8371618608
 20
6.05283372
 30
0.0
 10
6.8403153493
 20
6.049844957
 30
0.0
 10
6.8437400791
 20
6.0467699343
 30
0.0
 10
6.847431802
 20
6.0436125271
 30
0.0
 10
6.8513865919
 20
6.0403762624
 30
0.0
 10
6.8556006264
 20
6.0370645413
 30
0.0
 10
6.8600700381
 20
6.0336808514
 30
0.0
 10
6.8647908684
 20
6.030228795
 30
0.0
 10
6.8697590062
 20
6.0267120681
 30
0.0
 10
6.8749701878
 20
6.0231344301
 30
0.0
 10
6.8804200381
 20
6.0194997181
 30
0.0
 10
6.8861041587
 20
6.015811791
 30
0.0
 10
6.892018113
 20
6.0120745453
 30
0.0
 10
6.8981568717
 20
6.0082922453
 30
0.0
 10
6.9045143639
 20
6.0044696638
 30
0.0
 10
6.9088380165
 20
6.0019307628
 30
0.0
 10
6.9110348592
 20
6.0006553067
 30
0.0
 11
6.8342398378
 21
6.0558112806
 31
0.0
 11
6.8371146009
 21
6.0529097688
 31
0.0
 11
6.8402657694
 21
6.049918051
 31
0.0
 11
6.843688644
 21
6.0468402987
 31
0.0
 11
6.8473788229
 21
6.0436804084
 31
0.0
 11
6.8513324423
 21
6.0404417805
 31
0.0
 11
6.8555456874
 21
6.0371277722
 31
0.0
 11
6.8600146256
 21
6.0337418807
 31
0.0
 11
6.8647352311
 21
6.0302877142
 31
0.0
 11
6.8697034218
 21
6.0267689165
 31
0.0
 11
6.8749148531
 21
6.0231892894
 31
0.0
 11
6.8803650997
 21
6.0195526835
 31
0.0
 11
6.8860497423
 21
6.0158629531
 31
0.0
 11
6.8919643721
 21
6.012123959
 31
0.0
 11
6.8981044464
 21
6.0083396402
 31
0.0
 11
6.9044637347
 21
6.004514902
 31
0.0
 11
6.9110348592
 21
6.0006553067
 31
0.0
  0
SPLINE
  5
3B7
100
AcDbEntity
  8
0
100
AcDbSpline
 62
6
  6
CONTINUOUS
 70
0
 71
3
 72
17
 73
13
 74
11
 42
0.0000001
 43
0.0000001
 44
0.0000000001
 12
0.0042363334
 22
-0.0269126845
 32
0.0
 13
0.0188464871
 23
-0.0196735618
 33
0.0
 40
0.0
 40
0.0
 40
0.0
 40
0.0
 40
0.1460771964
 40
0.2848262501
 40
0.4167041589
 40
0.5423101623
 40
0.6624129834
 40
0.7779723272
 40
0.8343972964
 40
0.8901009672
 40
0.9452440046
 40
1.0
 40
1.0
 40
1.0
 40
1.0
 10
6.8240082467
 20
6.0806151916
 30
0.0
 10
6.824214524
 20
6.0793047484
 30
0.0
 10
6.824665305
 20
6.0767568019
 30
0.0
 10
6.825498266
 20
6.0730637512
 30
0.0
 10
6.8264840223
 20
6.0696008246
 30
0.0
 10
6.8276367239
 20
6.0663683503
 30
0.0
 10
6.8289705621
 20
6.0633671606
 30
0.0
 10
6.8302552325
 20
6.0610417391
 30
0.0
 10
6.831384886
 20
6.0593090005
 30
0.0
 10
6.8322782166
 20
6.0580795159
 30
0.0
 10
6.8332255975
 20
6.0569106607
 30
0.0
 10
6.8338958518
 20
6.0561703624
 30
0.0
 10
6.8342398378
 20
6.0558112806
 30
0.0
 11
6.8240082467
 21
6.0806151916
 31
0.0
 11
6.8247080892
 21
6.0766974722
 31
0.0
 11
6.8255467788
 21
6.0730115982
 31
0.0
 11
6.8265377882
 21
6.0695580838
 31
0.0
 11
6.8276945724
 21
6.0663375157
 31
0.0
 11
6.8290305595
 21
6.0633505932
 31
0.0
 11
6.8305590477
 21
6.0605982203
 31
0.0
 11
6.8313992313
 21
6.0593108915
 31
0.0
 11
6.8322918538
 21
6.05808357
 31
0.0
 11
6.8332382708
 21
6.0569168388
 31
0.0
 11
6.8342398378
 21
6.0558112806
 31
0.0
  0
SPLINE
  5
3B8
100
AcDbEntity
  8
0
100
AcDbSpline
 62
6
  6
CONTINUOUS
 70
0
 71
3
 72
14
 73
10
 74
8
 42
0.0000001
 43
0.0000001
 44
0.0000000001
 12
0.0053565804
 22
-0.0539048672
 32
0.0
 13
0.0158982902
 23
-0.051784863
 33
0.0
 40
0.0
 40
0.0
 40
0.0
 40
0.0
 40
0.2418262382
 40
0.3652839623
 40
0.4901229546
 40
0.6161802815
 40
0.7433102428
 40
0.8713211518
 40
1.0
 40
1.0
 40
1.0
 40
1.0
 10
6.8240098204
 20
4.547885352
 30
0.0
 10
6.8244416076
 20
4.5435401482
 30
0.0
 10
6.8252119844
 20
4.5369872153
 30
0.0
 10
6.8265220334
 20
4.5282341033
 30
0.0
 10
6.8276762178
 20
4.5215730511
 30
0.0
 10
6.8290080948
 20
4.5148775566
 30
0.0
 10
6.8305306388
 20
4.5081639335
 30
0.0
 10
6.8322552461
 20
4.5014504238
 30
0.0
 10
6.8335441804
 20
4.4969973146
 30
0.0
 10
6.834226105
 20
4.494776109
 30
0.0
 11
6.8240098204
 21
4.547885352
 31
0.0
 11
6.8255519015
 21
4.53487662
 31
0.0
 11
6.826543524
 21
4.5282627956
 31
0.0
 11
6.8276997992
 21
4.5215998068
 31
0.0
 11
6.8290338677
 21
4.5149028197
 31
0.0
 11
6.8305587406
 21
4.5081870873
 31
0.0
 11
6.8322859579
 21
4.5014712419
 31
0.0
 11
6.834226105
 21
4.494776109
 31
0.0
  0
LINE
  5
3B9
100
AcDbEntity
  8
0
100
AcDbLine
 62
6
  6
CONTINUOUS
 10
6.9110317335
 20
6.1595759431
 11
6.9108793959
 21
6.0423529044
  0
LINE
  5
3BA
100
AcDbEntity
  8
0
100
AcDbLine
 62
6
  6
CONTINUOUS
 10
6.9110348592
 20
4.983101238
 11
6.9109022319
 21
4.8816112364
  0
SPLINE
  5
3BB
100
AcDbEntity
  8
0
100
AcDbSpline
 62
6
  6
CONTINUOUS
 70
0
 71
3
 72
22
 73
18
 74
16
 42
0.0000001
 43
0.0000001
 44
0.0000000001
 12
0.0729799182
 22
-0.0469524647
 32
0.0
 13
0.0784028689
 23
-0.0371966741
 33
0.0
 40
0.0
 40
0.0
 40
0.0
 40
0.0
 40
0.0391817812
 40
0.0817150375
 40
0.1275450799
 40
0.1766193803
 40
0.2288913181
 40
0.2843139289
 40
0.3428378322
 40
0.4044117509
 40
0.4689832425
 40
0.5364961611
 40
0.6068930484
 40
0.680116296
 40
0.7561082491
 40
0.834809404
 40
1.0
 40
1.0
 40
1.0
 40
1.0
 10
6.834226105
 20
6.199868562
 30
0.0
 10
6.8351792661
 20
6.199255335
 30
0.0
 10
6.8371795767
 20
6.1979957402
 30
0.0
 10
6.8403319903
 20
6.1960787349
 30
0.0
 10
6.8437561717
 20
6.1940585971
 30
0.0
 10
6.8474477723
 20
6.1919379485
 30
0.0
 10
6.8514027399
 20
6.1897192057
 30
0.0
 10
6.8556171553
 20
6.1874046825
 30
0.0
 10
6.8600870435
 20
6.1849967348
 30
0.0
 10
6.8648083362
 20
6.1824977791
 30
0.0
 10
6.8697768216
 20
6.1799102981
 30
0.0
 10
6.8749881476
 20
6.1772368272
 30
0.0
 10
6.88043785
 20
6.1744799578
 30
0.0
 10
6.8861214431
 20
6.1716422949
 30
0.0
 10
6.8920344023
 20
6.1687264565
 30
0.0
 10
6.9003522235
 20
6.1646726256
 30
0.0
 10
6.9067145946
 20
6.1616241234
 30
0.0
 10
6.9110317335
 20
6.1595759431
 30
0.0
 11
6.834226105
 21
6.199868562
 31
0.0
 11
6.8371019877
 21
6.1980546244
 31
0.0
 11
6.8402545679
 21
6.1961350713
 31
0.0
 11
6.8436790699
 21
6.1941126942
 31
0.0
 11
6.8473710161
 21
6.191990105
 31
0.0
 11
6.8513264682
 21
6.1897695911
 31
0.0
 11
6.8555415369
 21
6.1874534113
 31
0.0
 11
6.8600122141
 21
6.1850439062
 31
0.0
 11
6.8647343966
 21
6.1825434817
 31
0.0
 11
6.8697039257
 21
6.179954571
 31
0.0
 11
6.8749163802
 21
6.1772797328
 31
0.0
 11
6.8803672587
 21
6.1745215643
 31
0.0
 11
6.8860520668
 21
6.1716826619
 31
0.0
 11
6.891966322
 21
6.1687656198
 31
0.0
 11
6.8981054086
 21
6.1657730955
 31
0.0
 11
6.9110317335
 21
6.1595759431
 31
0.0
  0
SPLINE
  5
3BC
100
AcDbEntity
  8
0
100
AcDbSpline
 62
6
  6
CONTINUOUS
 70
0
 71
3
 72
22
 73
18
 74
16
 42
0.0000001
 43
0.0000001
 44
0.0000000001
 12
0.0041451824
 22
-0.0210784996
 32
0.0
 13
0.0180662339
 23
-0.0116231181
 33
0.0
 40
0.0
 40
0.0
 40
0.0
 40
0.0
 40
0.0756142329
 40
0.1487951121
 40
0.2196367915
 40
0.288247126
 40
0.3547493001
 40
0.419283261
 40
0.5430530834
 40
0.6026957065
 40
0.6611139334
 40
0.7185465233
 40
0.7752440023
 40
0.8314618156
 40
0.8874702653
 40
0.9435523951
 40
1.0
 40
1.0
 40
1.0
 40
1.0
 10
6.8240098204
 20
6.2180839793
 30
0.0
 10
6.8241142986
 20
6.2175527011
 30
0.0
 10
6.8243331157
 20
6.2165097743
 30
0.0
 10
6.8246997413
 20
6.2149801112
 30
0.0
 10
6.8251009654
 20
6.2135110261
 30
0.0
 10
6.8255384555
 20
6.212102306
 30
0.0
 10
6.8260139351
 20
6.2107536278
 30
0.0
 10
6.8266912306
 20
6.2090590463
 30
0.0
 10
6.8274595689
 20
6.2074547041
 30
0.0
 10
6.8283291512
 20
6.2059563511
 30
0.0
 10
6.829019805
 20
6.2049056446
 30
0.0
 10
6.8297585195
 20
6.2039142918
 30
0.0
 10
6.8305468201
 20
6.2029823556
 30
0.0
 10
6.8313860909
 20
6.2021100863
 30
0.0
 10
6.8322776626
 20
6.2012978052
 30
0.0
 10
6.8332227587
 20
6.2005458859
 30
0.0
 10
6.8338861731
 20
6.2000872611
 30
0.0
 10
6.834226105
 20
6.199868562
 30
0.0
 11
6.8240098204
 21
6.2180839793
 31
0.0
 11
6.8243443271
 21
6.2164944337
 31
0.0
 11
6.824711741
 21
6.2149658832
 31
0.0
 11
6.8251137148
 21
6.2134980947
 31
0.0
 11
6.8255519015
 21
6.212090835
 31
0.0
 11
6.8260279538
 21
6.2107438707
 31
0.0
 11
6.826543524
 21
6.2094569732
 31
0.0
 11
6.8276997992
 21
6.2070627065
 31
0.0
 11
6.8283437882
 21
6.2059550538
 31
0.0
 11
6.8290338677
 21
6.204906866
 31
0.0
 11
6.8297716777
 21
6.2039180041
 31
0.0
 11
6.8305587406
 21
6.2029884742
 31
0.0
 11
6.8313963936
 21
6.2021185108
 31
0.0
 11
6.8322859579
 21
6.2013083681
 31
0.0
 11
6.8332287547
 21
6.2005583004
 31
0.0
 11
6.834226105
 21
6.199868562
 31
0.0
  0
SPLINE
  5
3BD
100
AcDbEntity
  8
0
100
AcDbSpline
 62
6
  6
CONTINUOUS
 70
0
 71
3
 72
16
 73
12
 74
10
 42
0.0000001
 43
0.0000001
 44
0.0000000001
 12
0.0465393474
 22
-0.1349805977
 32
0.0
 13
0.1021409931
 23
-0.0997641727
 33
0.0
 40
0.0
 40
0.0
 40
0.0
 40
0.0
 40
0.1186217175
 40
0.2393387747
 40
0.3620236173
 40
0.4865662694
 40
0.6128174936
 40
0.7406022648
 40
0.8697422116
 40
0.9347555199
 40
1.0
 40
1.0
 40
1.0
 40
1.0
 10
6.8342398378
 20
5.1019954692
 30
0.0
 10
6.8360800303
 20
5.0966582591
 30
0.0
 10
6.8401425846
 20
5.0860070133
 30
0.0
 10
6.8472651502
 20
5.0703075293
 30
0.0
 10
6.8554407294
 20
5.0548100834
 30
0.0
 10
6.8646363744
 20
5.0395873412
 30
0.0
 10
6.874820215
 20
5.0247121048
 30
0.0
 10
6.8859575982
 20
5.010259928
 30
0.0
 10
6.8959813214
 20
4.9986600605
 30
0.0
 10
6.9044398491
 20
4.9896659101
 30
0.0
 10
6.9088134805
 20
4.9852709252
 30
0.0
 10
6.9110348592
 20
4.983101238
 30
0.0
 11
6.8342398378
 21
5.1019954692
 31
0.0
 11
6.8402657694
 21
5.0861671014
 31
0.0
 11
6.8473788229
 21
5.0704675191
 31
0.0
 11
6.8555456874
 21
5.0549711094
 31
0.0
 11
6.8647352311
 21
5.0397477112
 31
0.0
 11
6.8749148531
 21
5.0248712161
 31
0.0
 11
6.8860497423
 21
5.0104181602
 31
0.0
 11
6.8981044464
 21
4.9964661518
 31
0.0
 11
6.9044637347
 21
4.9897041853
 31
0.0
 11
6.9110348592
 21
4.983101238
 31
0.0
  0
SPLINE
  5
3BE
100
AcDbEntity
  8
0
100
AcDbSpline
 62
6
  6
CONTINUOUS
 70
0
 71
3
 72
15
 73
11
 74
9
 42
0.0000001
 43
0.0000001
 44
0.0000000001
 12
0.0048703694
 22
-0.0529953512
 32
0.0
 13
0.0173468991
 23
-0.0503121539
 33
0.0
 40
0.0
 40
0.0
 40
0.0
 40
0.0
 40
0.1298402353
 40
0.2585239923
 40
0.3858907316
 40
0.511821722
 40
0.6362537481
 40
0.7591491954
 40
0.8804284174
 40
1.0
 40
1.0
 40
1.0
 40
1.0
 10
6.8240082467
 20
5.1540939167
 30
0.0
 10
6.8242190367
 20
5.1518002737
 30
0.0
 10
6.824681552
 20
5.1472371965
 30
0.0
 10
6.8255167276
 20
5.1404422384
 30
0.0
 10
6.8265041006
 20
5.1337376429
 30
0.0
 10
6.8276572825
 20
5.1271359619
 30
0.0
 10
6.8289895863
 20
5.1206488578
 30
0.0
 10
6.8305142446
 20
5.1142888281
 30
0.0
 10
6.8322429583
 20
5.1080705399
 30
0.0
 10
6.8335484391
 20
5.1040007705
 30
0.0
 10
6.8342398378
 20
5.1019954692
 30
0.0
 11
6.8240082467
 21
5.1540939167
 31
0.0
 11
6.8247080892
 21
5.1472195226
 31
0.0
 11
6.8255467788
 21
5.1404226923
 31
0.0
 11
6.8265377882
 21
5.1337172386
 31
0.0
 11
6.8276945724
 21
5.1271159465
 31
0.0
 11
6.8290305595
 21
5.1206300038
 31
0.0
 11
6.8305590477
 21
5.1142707834
 31
0.0
 11
6.8322918538
 21
5.1080534183
 31
0.0
 11
6.8342398378
 21
5.1019954692
 31
0.0
  0
ENDSEC
  0
SECTION
  2
OBJECTS
  0
DICTIONARY
  5
C
100
AcDbDictionary
280
0
281
1
  3
ACAD_GROUP
350
D
  3
ACAD_MLINESTYLE
350
17
  3
ACAD_LAYOUT
350
1A
  3
ACAD_PLOTSETTINGS
350
19
  3
ACAD_PLOTSTYLENAME
350
E
  0
DICTIONARY
  5
D
102
{ACAD_REACTORS
330
C
102
}
100
AcDbDictionary
280
0
281
1
  0
ACDBDICTIONARYWDFLT
  5
E
102
{ACAD_REACTORS
330
C
102
}
100
AcDbDictionary
281
1
  3
Normal
350
F
100
AcDbDictionaryWithDefault
340
F
  0
DICTIONARY
  5
17
102
{ACAD_REACTORS
330
C
102
}
100
AcDbDictionary
280
0
281
1
  3
Standard
350
18
  0
DICTIONARY
  5
19
102
{ACAD_REACTORS
330
C
102
}
100
AcDbDictionary
281
1
  0
DICTIONARY
  5
1A
102
{ACAD_REACTORS
330
C
102
}
100
AcDbDictionary
281
1
  3
Model
350
3BF
  3
Layout1
350
3C0
  0
ACDBPLACEHOLDER
  5
F
102
{ACAD_REACTORS
330
E
102
}
  0
MLINESTYLE
  5
18
102
{ACAD_REACTORS
330
17
102
}
100
AcDbMlineStyle
  2
STANDARD
 70
0
  3

 62
256
 51
90.0
 52
90.0
 71
2
 49
0.5
 62
256
  6
BYLAYER
 49
-0.5
 62
256
  6
BYLAYER
  0
LAYOUT
  5
3BF
102
{ACAD_REACTORS
330
1A
102
}
100
AcDbPlotSettings
  1

  2
none_device
  4
ISO_A4_(297.00_x_210.00_MM)
  6

 40
0.0
 41
0.0
 42
0.0
 43
0.0
 44
297.0
 45
210.0
 46
0.0
 47
0.0
 48
0.0
 49
0.0
140
0.0
141
0.0
142
1.0
143
1.0
 70
1024
 72
0
 73
0
 74
0
  7

 75
0
147
1.0
148
0.0
149
0.0
100
AcDbLayout
  1
Model
 70
0
 71
0
 10
0.0
 20
0.0
 11
11.6929133858
 21
8.2677165354
 12
0.0
 22
0.0
 32
0.0
 14
0.0
 24
0.0
 34
0.0
 15
0.0
 25
0.0
 35
0.0
146
0.0
 13
0.0
 23
0.0
 33
0.0
 16
1.0
 26
0.0
 36
0.0
 17
0.0
 27
1.0
 37
0.0
 76
0
330
203
345
0
346
0
  0
LAYOUT
  5
3C0
102
{ACAD_REACTORS
330
1A
102
}
100
AcDbPlotSettings
  1

  2
none_device
  4
ISO_A4_(297.00_x_210.00_MM)
  6

 40
0.0
 41
0.0
 42
0.0
 43
0.0
 44
297.0
 45
210.0
 46
0.0
 47
0.0
 48
0.0
 49
0.0
140
0.0
141
0.0
142
1.0
143
1.0
 70
0
 72
0
 73
0
 74
0
  7

 75
0
147
1.0
148
0.0
149
0.0
100
AcDbLayout
  1
Layout1
 70
0
 71
1
 10
0.0
 20
0.0
 11
11.6929133858
 21
8.2677165354
 12
0.0
 22
0.0
 32
0.0
 14
0.0
 24
0.0
 34
0.0
 15
0.0
 25
0.0
 35
0.0
146
0.0
 13
0.0
 23
0.0
 33
0.0
 16
1.0
 26
0.0
 36
0.0
 17
0.0
 27
1.0
 37
0.0
 76
0
330
204
345
0
346
0
  0
ENDSEC
  0
EOF
