999
DXF file: 1500-4273_top.dxf
999
Pro/ENGINEER 2019352 by Parametric Technology Corporation
  0
SECTION
  2
HEADER
  9
$ACADVER
  1
AC1032
  9
$DWGCODEPAGE
  3
ANSI_1252
  9
$EXTMAX
 10
11.0
 20
8.5
 30
0.0
  9
$EXTMIN
 10
0.0
 20
0.0
 30
0.0
  9
$LIMMIN
 10
0.0
 20
0.0
  9
$LIMMAX
 10
11.0
 20
8.5
  9
$VIEWCTR
 10
5.5
 20
4.25
  9
$VIEWSIZE
 40
8.5
  9
$CLAYER
  8
0
  9
$LTSCALE
 40
0.605
  9
$CELTYPE
  6
BYLAYER
  9
$DIMSCALE
 40
1.0
  9
$DIMASZ
 40
0.1
  9
$DIMEXO
 40
0.0625
  9
$DIMDLI
 40
0.418
  9
$DIMEXE
 40
0.125
  9
$DIMCEN
 40
0.099
  9
$DIMLFAC
 40
1.0
  9
$DIMBLK
  1
_FILLED
  9
$DIMALT
 70
1
  9
$DIMALTD
 70
2
  9
$DIMALTTD
 70
2
  9
$DIMALTF
 40
25.4
  9
$DIMTXT
 40
0.08
  9
$DIMTOL
 70
1
  9
$DIMLIM
 70
0
  9
$DIMTFAC
 40
1.0
  9
$DIMTP
 40
0.001
  9
$DIMTM
 40
0.001
  9
$DIMGAP
 40
0.09
  9
$DIMDSEP
 70
46
  9
$AUNITS
 70
0
  9
$PDMODE
 70
3
  9
$PDSIZE
 40
0.3125
  9
$HANDSEED
  5
29A
  9
$TILEMODE
 70
1
  9
$MEASUREMENT
 70
0
  9
$INSUNITS
 70
1
  0
ENDSEC
  0
SECTION
  2
CLASSES
  0
CLASS
  1
ACDBDICTIONARYWDFLT
  2
AcDbDictionaryWithDefault
  3
AutoCAD 2000
 90
0
 91
1
280
0
281
0
  0
CLASS
  1
ACDBPLACEHOLDER
  2
AcDbPlaceHolder
  3
AutoCAD 2000
 90
0
 91
1
280
0
281
0
  0
CLASS
  1
LAYOUT
  2
AcDbLayout
  3
AutoCAD 2000
 90
0
 91
0
280
0
281
0
  0
ENDSEC
  0
SECTION
  2
TABLES
  0
TABLE
  2
VPORT
  5
8
100
AcDbSymbolTable
 70
2
  0
VPORT
  5
1F4
100
AcDbSymbolTableRecord
100
AcDbViewportTableRecord
  2
*ACTIVE
 70
0
 10
0.0
 20
0.0
 11
1.0
 21
1.0
 12
5.5
 22
4.25
 13
0.0
 23
0.0
 14
1.0
 24
1.0
 15
0.0
 25
0.0
 16
0.0
 26
0.0
 36
1.0
 17
0.0
 27
0.0
 37
0.0
 40
8.5
 41
1.2941176471
 42
50.0
 43
0.0
 44
0.0
 50
0.0
 51
0.0
 71
0
 72
100
 73
1
 74
1
 75
0
 76
0
 77
0
 78
0
  0
ENDTAB
  0
TABLE
  2
LTYPE
  5
5
100
AcDbSymbolTable
 70
6
  0
LTYPE
  5
14
100
AcDbSymbolTableRecord
100
AcDbLinetypeTableRecord
  2
BYBLOCK
 70
0
  3

 72
65
 73
0
 40
0.0
  0
LTYPE
  5
15
100
AcDbSymbolTableRecord
100
AcDbLinetypeTableRecord
  2
BYLAYER
 70
0
  3

 72
65
 73
0
 40
0.0
  0
LTYPE
  5
16
100
AcDbSymbolTableRecord
100
AcDbLinetypeTableRecord
  2
CONTINUOUS
 70
64
  3
Solid line
 72
65
 73
0
 40
0.0
  0
LTYPE
  5
1F5
100
AcDbSymbolTableRecord
100
AcDbLinetypeTableRecord
  2
CENTER
 70
64
  3
____ _ ____ _ ____ _ ____ _ ____ _ ____ _ ____
 72
65
 73
4
 40
0.6
 49
0.375
 74
0
 49
-0.075
 74
0
 49
0.075
 74
0
 49
-0.075
 74
0
  0
LTYPE
  5
1F6
100
AcDbSymbolTableRecord
100
AcDbLinetypeTableRecord
  2
HIDDEN
 70
64
  3
- - - - - - - - - - - - - - - - - - - -
 72
65
 73
2
 40
0.2
 49
0.1
 74
0
 49
-0.1
 74
0
  0
LTYPE
  5
1F7
100
AcDbSymbolTableRecord
100
AcDbLinetypeTableRecord
  2
PHANTOM
 70
64
  3
_____ _ _ _____ _ _ _____ _ _ _____
 72
65
 73
6
 40
0.8
 49
0.45
 74
0
 49
-0.05
 74
0
 49
0.1
 74
0
 49
-0.05
 74
0
 49
0.1
 74
0
 49
-0.05
 74
0
  0
LTYPE
  5
1F8
100
AcDbSymbolTableRecord
100
AcDbLinetypeTableRecord
  2
DOT
 70
64
  3
. . . . . . . . . . . . . . . . . . . .
 72
65
 73
2
 40
0.2
 49
0.1
 74
0
 49
-0.1
 74
0
  0
LTYPE
  5
1F9
100
AcDbSymbolTableRecord
100
AcDbLinetypeTableRecord
  2
DASHED
 70
64
  3
- - - - - - - - - - - - - - - - - - - -
 72
65
 73
2
 40
0.2
 49
0.1
 74
0
 49
-0.1
 74
0
  0
ENDTAB
  0
TABLE
  2
LAYER
  5
2
100
AcDbSymbolTable
 70
36
  0
LAYER
  5
10
100
AcDbSymbolTableRecord
100
AcDbLayerTableRecord
  2
0
 70
0
 62
7
  6
CONTINUOUS
370
-3
390
F
  0
LAYER
  5
1FA
100
AcDbSymbolTableRecord
100
AcDbLayerTableRecord
  2
DEFAULT_1
 70
0
 62
7
  6
CENTER
370
-3
390
F
  0
LAYER
  5
1FB
100
AcDbSymbolTableRecord
100
AcDbLayerTableRecord
  2
DEFAULT_2
 70
0
 62
8
  6
HIDDEN
370
-3
390
F
  0
LAYER
  5
1FC
100
AcDbSymbolTableRecord
100
AcDbLayerTableRecord
  2
DEFAULT_3
 70
0
 62
7
  6
PHANTOM
370
-3
390
F
  0
LAYER
  5
1FD
100
AcDbSymbolTableRecord
100
AcDbLayerTableRecord
  2
DEFAULT_COORDINATE_SYSTEM
 70
0
 62
7
  6
CONTINUOUS
370
-3
390
F
  0
LAYER
  5
1FE
100
AcDbSymbolTableRecord
100
AcDbLayerTableRecord
  2
DEFAULT_DATUM_AXES
 70
0
 62
7
  6
CONTINUOUS
370
-3
390
F
  0
LAYER
  5
1FF
100
AcDbSymbolTableRecord
100
AcDbLayerTableRecord
  2
DEFAULT_DATUM_PLANES
 70
0
 62
7
  6
CONTINUOUS
370
-3
390
F
  0
ENDTAB
  0
TABLE
  2
STYLE
  5
3
100
AcDbSymbolTable
 70
1
  0
STYLE
  5
11
100
AcDbSymbolTableRecord
100
AcDbTextStyleTableRecord
  2
STANDARD
 70
0
 40
0.0
 41
0.8
 50
0.0
 71
0
 42
0.2
  3
txt
  4

  0
STYLE
  5
200
100
AcDbSymbolTableRecord
100
AcDbTextStyleTableRecord
  2
TEXTSTYLE_1
 70
0
 40
0.0
 41
0.8
 50
0.0
 71
0
 42
0.2
  3
gdt
  4

  0
ENDTAB
  0
TABLE
  2
VIEW
  5
6
100
AcDbSymbolTable
 70
0
  0
ENDTAB
  0
TABLE
  2
UCS
  5
7
100
AcDbSymbolTable
 70
0
  0
ENDTAB
  0
TABLE
  2
APPID
  5
9
100
AcDbSymbolTable
 70
1
  0
APPID
  5
201
100
AcDbSymbolTableRecord
100
AcDbRegAppTableRecord
  2
ACAD
 70
0
  0
ENDTAB
  0
TABLE
  2
BLOCK_RECORD
  5
1
100
AcDbSymbolTable
 70
0
  0
BLOCK_RECORD
  5
202
100
AcDbSymbolTableRecord
100
AcDbBlockTableRecord
  2
*Model_Space
  0
BLOCK_RECORD
  5
203
100
AcDbSymbolTableRecord
100
AcDbBlockTableRecord
  2
*Paper_Space
  0
BLOCK_RECORD
  5
204
100
AcDbSymbolTableRecord
100
AcDbBlockTableRecord
  2
_FILLED
  0
ENDTAB
  0
TABLE
  2
DIMSTYLE
  5
A
100
AcDbSymbolTable
 70
1
100
AcDbDimStyleTable
 71
0
  0
DIMSTYLE
105
205
100
AcDbSymbolTableRecord
100
AcDbDimStyleTableRecord
  2
STANDARD
 70
0
  3

  4

 40
1.0
 41
0.1
 42
0.0625
 43
0.38
 44
0.125
 45
0.0
 46
0.0
 47
0.001
 48
0.001
140
0.08
141
0.09
142
0.0
143
25.4
144
1.0
145
0.0
146
1.0
147
0.09
 71
1.0
 72
0.0
 73
1
 74
1
 75
0
 76
0
 77
0
 78
4
 79
1
170
1
171
2
172
0
173
0
174
0
175
0
176
0
177
0
178
0
270
2
179
3
271
3
272
3
273
2
274
2
275
0
280
0
281
0
282
0
283
1
284
4
285
0
286
0
287
3
288
0
340
11
278
46
341
204
342
204
343
204
344
204
  0
ENDTAB
  0
ENDSEC
  0
SECTION
  2
BLOCKS
  0
BLOCK
  5
20
100
AcDbEntity
  8
0
100
AcDbBlockBegin
  2
*Model_Space
 70
0
 10
0.0
 20
0.0
 30
0.0
  3
*Model_Space
  1

  0
ENDBLK
  5
21
100
AcDbEntity
  8
0
100
AcDbBlockEnd
  0
BLOCK
  5
1C
100
AcDbEntity
  8
0
100
AcDbBlockBegin
  2
*Paper_Space
 70
0
 10
0.0
 20
0.0
 30
0.0
  3
*Paper_Space
  1

  0
ENDBLK
  5
1D
100
AcDbEntity
  8
0
100
AcDbBlockEnd
  0
BLOCK
  5
206
100
AcDbEntity
  8
0
100
AcDbBlockBegin
  2
_FILLED
 70
64
 10
0.0
 20
0.0
  3
_FILLED
  1

  0
SOLID
  5
207
100
AcDbEntity
  8
0
  6
BYBLOCK
 62
0
100
AcDbTrace
 10
0.0
 20
0.0
 11
-1.0
 21
0.2
 12
-1.0
 22
-0.2
 13
-1.0
 23
-0.2
  0
ENDBLK
  5
208
100
AcDbEntity
  8
0
  6
BYBLOCK
 62
0
100
AcDbBlockEnd
  0
ENDSEC
  0
SECTION
  2
ENTITIES
  0
MTEXT
  5
209
100
AcDbEntity
  8
0
100
AcDbMText
 62
2
  6
CONTINUOUS
  7
STANDARD
 71
3
 72
1
 10
5.8630136024
 20
2.8825778336
 30
0.0
 11
1.0
 21
0.0
 31
0.0
 73
2
 44
0.9
  1
SCALE 0.175
 40
0.08
 41
0.704
  0
LINE
  5
20A
100
AcDbEntity
  8
0
100
AcDbLine
 62
7
  6
CONTINUOUS
 10
0.0
 20
0.0
 11
0.0
 21
8.5
  0
LINE
  5
20B
100
AcDbEntity
  8
0
100
AcDbLine
 62
7
  6
CONTINUOUS
 10
0.0
 20
0.0
 11
11.0
 21
0.0
  0
LINE
  5
20C
100
AcDbEntity
  8
0
100
AcDbLine
 62
7
  6
CONTINUOUS
 10
0.0
 20
8.5
 11
11.0
 21
8.5
  0
LINE
  5
20D
100
AcDbEntity
  8
0
100
AcDbLine
 62
7
  6
CONTINUOUS
 10
11.0
 20
0.0
 11
11.0
 21
8.5
  0
LINE
  5
20E
100
AcDbEntity
  8
0
100
AcDbLine
 62
7
  6
CONTINUOUS
 10
4.1229115747
 20
4.9902012998
 11
4.1264115747
 21
4.9937012998
  0
LINE
  5
20F
100
AcDbEntity
  8
0
100
AcDbLine
 62
7
  6
CONTINUOUS
 10
4.1229115747
 20
4.8878262998
 11
4.1229115747
 21
4.9902012998
  0
LINE
  5
210
100
AcDbEntity
  8
0
100
AcDbLine
 62
7
  6
CONTINUOUS
 10
4.1264115747
 20
4.8843262998
 11
4.1264115747
 21
4.9937012998
  0
LINE
  5
211
100
AcDbEntity
  8
0
100
AcDbLine
 62
7
  6
CONTINUOUS
 10
4.8010365748
 20
4.8878262999
 11
4.7975365748
 21
4.8843262999
  0
LINE
  5
212
100
AcDbEntity
  8
0
100
AcDbLine
 62
7
  6
CONTINUOUS
 10
4.7975365747
 20
4.9937012998
 11
4.7975365747
 21
4.8843262998
  0
LINE
  5
213
100
AcDbEntity
  8
0
100
AcDbLine
 62
7
  6
CONTINUOUS
 10
4.8010365747
 20
4.9902012998
 11
4.8010365747
 21
4.8878262998
  0
LINE
  5
214
100
AcDbEntity
  8
0
100
AcDbLine
 62
7
  6
CONTINUOUS
 10
4.1229115747
 20
4.8878262999
 11
4.1264115747
 21
4.8843262999
  0
LINE
  5
215
100
AcDbEntity
  8
0
100
AcDbLine
 62
7
  6
CONTINUOUS
 10
5.7217115747
 20
4.9902012998
 11
5.7252115747
 21
4.9937012998
  0
LINE
  5
216
100
AcDbEntity
  8
0
100
AcDbLine
 62
7
  6
CONTINUOUS
 10
5.1607490747
 20
4.8121387998
 11
5.1607490747
 21
4.6983887998
  0
LINE
  5
217
100
AcDbEntity
  8
0
100
AcDbLine
 62
7
  6
CONTINUOUS
 10
5.1738740747
 20
3.3640137998
 11
5.1738740747
 21
4.9390137998
  0
LINE
  5
218
100
AcDbEntity
  8
0
100
AcDbLine
 62
7
  6
CONTINUOUS
 10
5.3488740747
 20
3.3640137998
 11
5.3488740747
 21
4.9390137998
  0
LINE
  5
219
100
AcDbEntity
  8
0
100
AcDbLine
 62
7
  6
CONTINUOUS
 10
5.3619990747
 20
4.8121387998
 11
5.3619990747
 21
4.6983887998
  0
LINE
  5
21A
100
AcDbEntity
  8
0
100
AcDbLine
 62
7
  6
CONTINUOUS
 10
6.7167727879
 20
4.9996755646
 11
6.7124042497
 21
4.9967637998
  0
LINE
  5
21B
100
AcDbEntity
  8
0
100
AcDbLine
 62
7
  6
CONTINUOUS
 10
4.8010365748
 20
4.9902012998
 11
4.7975365748
 21
4.9937012998
  0
LINE
  5
21C
100
AcDbEntity
  8
0
100
AcDbLine
 62
7
  6
CONTINUOUS
 10
6.3998365748
 20
4.8878262999
 11
6.3963365748
 21
4.8843262999
  0
LINE
  5
21D
100
AcDbEntity
  8
0
100
AcDbLine
 62
7
  6
CONTINUOUS
 10
5.7217115747
 20
4.8878262998
 11
5.7217115747
 21
4.9902012998
  0
LINE
  5
21E
100
AcDbEntity
  8
0
100
AcDbLine
 62
7
  6
CONTINUOUS
 10
5.7252115747
 20
4.8843262998
 11
5.7252115747
 21
4.9937012998
  0
LINE
  5
21F
100
AcDbEntity
  8
0
100
AcDbLine
 62
7
  6
CONTINUOUS
 10
6.5333867894
 20
4.9975790737
 11
6.5333309723
 21
4.9974926713
  0
LINE
  5
220
100
AcDbEntity
  8
0
100
AcDbLine
 62
7
  6
CONTINUOUS
 10
5.1607490747
 20
4.6983887998
 11
5.1738740747
 21
4.6983887998
  0
LINE
  5
221
100
AcDbEntity
  8
0
100
AcDbLine
 62
7
  6
CONTINUOUS
 10
5.3488740747
 20
4.6983887998
 11
5.3619990747
 21
4.6983887998
  0
LINE
  5
222
100
AcDbEntity
  8
0
100
AcDbLine
 62
7
  6
CONTINUOUS
 10
5.8767321343
 20
4.8296387998
 11
5.3794990747
 21
4.8296387998
  0
LINE
  5
223
100
AcDbEntity
  8
0
100
AcDbLine
 62
7
  6
CONTINUOUS
 10
5.1432490747
 20
4.8296387998
 11
4.6462066428
 21
4.8296387998
  0
LINE
  5
224
100
AcDbEntity
  8
0
100
AcDbLine
 62
7
  6
CONTINUOUS
 10
5.8719857397
 20
4.8297256371
 11
5.8720525198
 21
4.8297235042
  0
LINE
  5
225
100
AcDbEntity
  8
0
100
AcDbLine
 62
7
  6
CONTINUOUS
 10
6.7124042497
 20
4.8812637998
 11
6.6914967671
 21
4.8812637998
  0
LINE
  5
226
100
AcDbEntity
  8
0
100
AcDbLine
 62
7
  6
CONTINUOUS
 10
6.3963365747
 20
4.8843262998
 11
5.7252115747
 21
4.8843262998
  0
LINE
  5
227
100
AcDbEntity
  8
0
100
AcDbLine
 62
7
  6
CONTINUOUS
 10
4.1264115747
 20
4.8843262998
 11
4.7975365747
 21
4.8843262998
  0
LINE
  5
228
100
AcDbEntity
  8
0
100
AcDbLine
 62
7
  6
CONTINUOUS
 10
6.7124042497
 20
4.8865137998
 11
6.6957604012
 21
4.8865137998
  0
LINE
  5
229
100
AcDbEntity
  8
0
100
AcDbLine
 62
7
  6
CONTINUOUS
 10
6.5205010003
 20
4.8900137998
 11
6.3998365747
 21
4.8900137998
  0
LINE
  5
22A
100
AcDbEntity
  8
0
100
AcDbLine
 62
7
  6
CONTINUOUS
 10
6.6982533171
 20
4.8900137998
 11
6.7569533715
 21
4.8900137998
  0
LINE
  5
22B
100
AcDbEntity
  8
0
100
AcDbLine
 62
7
  6
CONTINUOUS
 10
6.4288865747
 20
4.8908887998
 11
6.5142548485
 21
4.8908887998
  0
LINE
  5
22C
100
AcDbEntity
  8
0
100
AcDbLine
 62
7
  6
CONTINUOUS
 10
6.3998365747
 20
4.9062012998
 11
6.4288865747
 21
4.9062012998
  0
LINE
  5
22D
100
AcDbEntity
  8
0
100
AcDbLine
 62
7
  6
CONTINUOUS
 10
5.7217115747
 20
4.8878262999
 11
5.7252115747
 21
4.8843262999
  0
LINE
  5
22E
100
AcDbEntity
  8
0
100
AcDbLine
 62
7
  6
CONTINUOUS
 10
6.5907615747
 20
4.8578586837
 11
6.588026434
 21
4.8501898764
  0
LINE
  5
22F
100
AcDbEntity
  8
0
100
AcDbLine
 62
7
  6
CONTINUOUS
 10
6.3998365747
 20
4.9718262998
 11
6.4288865747
 21
4.9718262998
  0
LINE
  5
230
100
AcDbEntity
  8
0
100
AcDbLine
 62
7
  6
CONTINUOUS
 10
6.4288865747
 20
4.9871387998
 11
6.5142548485
 21
4.9871387998
  0
LINE
  5
231
100
AcDbEntity
  8
0
100
AcDbLine
 62
7
  6
CONTINUOUS
 10
6.5205010003
 20
4.9880137998
 11
6.3998365747
 21
4.9880137998
  0
LINE
  5
232
100
AcDbEntity
  8
0
100
AcDbLine
 62
7
  6
CONTINUOUS
 10
6.6982533171
 20
4.9880137998
 11
6.7569533715
 21
4.9880137998
  0
LINE
  5
233
100
AcDbEntity
  8
0
100
AcDbLine
 62
7
  6
CONTINUOUS
 10
6.6957604012
 20
4.9915137998
 11
6.7124042497
 21
4.9915137998
  0
LINE
  5
234
100
AcDbEntity
  8
0
100
AcDbLine
 62
7
  6
CONTINUOUS
 10
6.3963365747
 20
4.9937012998
 11
5.7252115747
 21
4.9937012998
  0
LINE
  5
235
100
AcDbEntity
  8
0
100
AcDbLine
 62
7
  6
CONTINUOUS
 10
4.1264115747
 20
4.9937012998
 11
4.7975365747
 21
4.9937012998
  0
LINE
  5
236
100
AcDbEntity
  8
0
100
AcDbLine
 62
7
  6
CONTINUOUS
 10
6.6914967671
 20
4.9967637998
 11
6.7124042497
 21
4.9967637998
  0
LINE
  5
237
100
AcDbEntity
  8
0
100
AcDbLine
 62
7
  6
CONTINUOUS
 10
5.8765415976
 20
5.0483887998
 11
4.6460156828
 21
5.0483887998
  0
LINE
  5
238
100
AcDbEntity
  8
0
100
AcDbLine
 62
7
  6
CONTINUOUS
 10
6.3963365747
 20
4.9937012998
 11
6.3963365747
 21
4.8843262998
  0
LINE
  5
239
100
AcDbEntity
  8
0
100
AcDbLine
 62
7
  6
CONTINUOUS
 10
6.3998365747
 20
4.9902012998
 11
6.3998365747
 21
4.8878262998
  0
LINE
  5
23A
100
AcDbEntity
  8
0
100
AcDbLine
 62
7
  6
CONTINUOUS
 10
6.4288865747
 20
4.8908887998
 11
6.4288865747
 21
4.9871387998
  0
LINE
  5
23B
100
AcDbEntity
  8
0
100
AcDbLine
 62
7
  6
CONTINUOUS
 10
6.650244075
 20
4.8545194314
 11
6.6470879474
 21
4.8440982111
  0
LINE
  5
23C
100
AcDbEntity
  8
0
100
AcDbLine
 62
7
  6
CONTINUOUS
 10
6.6205290745
 20
4.8515654665
 11
6.6174534675
 21
4.8424479821
  0
LINE
  5
23D
100
AcDbEntity
  8
0
100
AcDbLine
 62
7
  6
CONTINUOUS
 10
6.5909052026
 20
4.8587569836
 11
6.5907615747
 21
4.8578586837
  0
LINE
  5
23E
100
AcDbEntity
  8
0
100
AcDbLine
 62
7
  6
CONTINUOUS
 10
6.650333148
 20
4.8550358863
 11
6.650244075
 21
4.8545194314
  0
LINE
  5
23F
100
AcDbEntity
  8
0
100
AcDbLine
 62
7
  6
CONTINUOUS
 10
6.6205497503
 20
4.8516702018
 11
6.6205290745
 21
4.8515654665
  0
LINE
  5
240
100
AcDbEntity
  8
0
100
AcDbLine
 62
7
  6
CONTINUOUS
 10
6.6800115747
 20
4.8677244128
 11
6.6769176502
 21
4.8558868205
  0
LINE
  5
241
100
AcDbEntity
  8
0
100
AcDbLine
 62
7
  6
CONTINUOUS
 10
6.5712249469
 20
4.8705898582
 11
6.5715115747
 21
4.8677244128
  0
LINE
  5
242
100
AcDbEntity
  8
0
100
AcDbLine
 62
7
  6
CONTINUOUS
 10
6.6802982026
 20
4.8705898582
 11
6.6800115747
 21
4.8677244128
  0
LINE
  5
243
100
AcDbEntity
  8
0
100
AcDbLine
 62
7
  6
CONTINUOUS
 10
6.7124042497
 20
4.9967637998
 11
6.7124042497
 21
4.9915137998
  0
LINE
  5
244
100
AcDbEntity
  8
0
100
AcDbLine
 62
7
  6
CONTINUOUS
 10
6.7124042497
 20
4.8865137998
 11
6.7124042497
 21
4.8812637998
  0
LINE
  5
245
100
AcDbEntity
  8
0
100
AcDbLine
 62
7
  6
CONTINUOUS
 10
6.7124042497
 20
4.8812637998
 11
6.7167727879
 21
4.8783520351
  0
LINE
  5
246
100
AcDbEntity
  8
0
100
AcDbLine
 62
7
  6
CONTINUOUS
 10
6.3998365748
 20
4.9902012998
 11
6.3963365748
 21
4.9937012998
  0
LINE
  5
247
100
AcDbEntity
  8
0
100
AcDbLine
 62
7
  6
CONTINUOUS
 10
6.5333309701
 20
4.8805349317
 11
6.5333859307
 21
4.8804498679
  0
LINE
  5
248
100
AcDbEntity
  8
0
100
AcDbLine
 62
7
  6
CONTINUOUS
 10
6.5333839962
 20
4.8804528722
 11
6.5333849185
 21
4.8804514312
  0
LINE
  5
249
100
AcDbEntity
  8
0
100
AcDbLine
 62
7
  6
CONTINUOUS
 10
6.5333859307
 20
4.8804498679
 11
6.5333868113
 21
4.8804484919
  0
LINE
  5
24A
100
AcDbEntity
  8
0
100
AcDbLine
 62
7
  6
CONTINUOUS
 10
6.5325220077
 20
4.8818362365
 11
6.53254665
 21
4.8817960716
  0
LINE
  5
24B
100
AcDbEntity
  8
0
100
AcDbLine
 62
7
  6
CONTINUOUS
 10
6.6012790745
 20
4.8545194314
 11
6.6044352021
 21
4.8440982111
  0
LINE
  5
24C
100
AcDbEntity
  8
0
100
AcDbLine
 62
7
  6
CONTINUOUS
 10
6.5715115747
 20
4.8677244128
 11
6.5746054994
 21
4.8558868204
  0
LINE
  5
24D
100
AcDbEntity
  8
0
100
AcDbLine
 62
7
  6
CONTINUOUS
 10
6.6309733992
 20
4.8516702018
 11
6.630994075
 21
4.8515654665
  0
LINE
  5
24E
100
AcDbEntity
  8
0
100
AcDbLine
 62
7
  6
CONTINUOUS
 10
6.6011900015
 20
4.8550358863
 11
6.6012790745
 21
4.8545194314
  0
LINE
  5
24F
100
AcDbEntity
  8
0
100
AcDbLine
 62
7
  6
CONTINUOUS
 10
6.6606179469
 20
4.8587569836
 11
6.6607615747
 21
4.8578586837
  0
LINE
  5
250
100
AcDbEntity
  8
0
100
AcDbLine
 62
7
  6
CONTINUOUS
 10
6.6607615747
 20
4.8578586837
 11
6.6634967155
 21
4.8501898762
  0
LINE
  5
251
100
AcDbEntity
  8
0
100
AcDbLine
 62
7
  6
CONTINUOUS
 10
6.630994075
 20
4.8515654665
 11
6.634069682
 21
4.8424479821
  0
ARC
  5
252
100
AcDbEntity
  8
0
100
AcDbCircle
 62
7
  6
CONTINUOUS
 10
5.2613740747
 20
3.3640137998
 40
0.0875
100
AcDbArc
 50
180.0
 51
360.0
  0
ARC
  5
253
100
AcDbEntity
  8
0
100
AcDbCircle
 62
7
  6
CONTINUOUS
 10
4.6459865747
 20
4.9390137998
 40
0.17325
100
AcDbArc
 50
198.4005741656
 51
320.8526158537
  0
ARC
  5
254
100
AcDbEntity
  8
0
100
AcDbCircle
 62
7
  6
CONTINUOUS
 10
4.6459865747
 20
4.9390137998
 40
0.17325
100
AcDbArc
 50
39.1473841463
 51
161.5994258344
  0
ARC
  5
255
100
AcDbEntity
  8
0
100
AcDbCircle
 62
7
  6
CONTINUOUS
 10
4.6459865747
 20
4.9390137998
 40
0.168
100
AcDbArc
 50
40.6206229547
 51
161.0026888818
  0
ARC
  5
256
100
AcDbEntity
  8
0
100
AcDbCircle
 62
7
  6
CONTINUOUS
 10
4.6459865747
 20
4.9390137998
 40
0.168
100
AcDbArc
 50
198.9973111183
 51
319.3793770454
  0
ARC
  5
257
100
AcDbEntity
  8
0
100
AcDbCircle
 62
7
  6
CONTINUOUS
 10
4.6459812686
 20
4.9173004278
 40
0.1310886905
100
AcDbArc
 50
88.0441869106
 51
89.4942870767
  0
ARC
  5
258
100
AcDbEntity
  8
0
100
AcDbCircle
 62
7
  6
CONTINUOUS
 10
5.2613740747
 20
4.9390137998
 40
0.109375
100
AcDbArc
 50
323.1308426061
 51
216.8691573939
  0
ARC
  5
259
100
AcDbEntity
  8
0
100
AcDbCircle
 62
7
  6
CONTINUOUS
 10
4.6459865747
 20
4.9390137998
 40
0.109375
100
AcDbArc
 50
30.0
 51
149.9999999999
  0
ARC
  5
25A
100
AcDbEntity
  8
0
100
AcDbCircle
 62
7
  6
CONTINUOUS
 10
4.6459865747
 20
4.9390137998
 40
0.109375
100
AcDbArc
 50
210.0
 51
329.9999999999
  0
ARC
  5
25B
100
AcDbEntity
  8
0
100
AcDbCircle
 62
7
  6
CONTINUOUS
 10
4.6459865747
 20
4.9390137998
 40
0.104125
100
AcDbArc
 50
31.6827880746
 51
148.3172119255
  0
ARC
  5
25C
100
AcDbEntity
  8
0
100
AcDbCircle
 62
7
  6
CONTINUOUS
 10
4.6459865747
 20
4.9390137998
 40
0.104125
100
AcDbArc
 50
211.6827880746
 51
328.3172119255
  0
ARC
  5
25D
100
AcDbEntity
  8
0
100
AcDbCircle
 62
7
  6
CONTINUOUS
 10
5.2613740747
 20
4.9390137998
 40
0.104125
100
AcDbArc
 50
327.1773205668
 51
212.8226794329
  0
ARC
  5
25E
100
AcDbEntity
  8
0
100
AcDbCircle
 62
7
  6
CONTINUOUS
 10
5.2613740747
 20
4.9390137998
 40
0.0875
100
AcDbArc
 50
0.0
 51
180.0
  0
ARC
  5
25F
100
AcDbEntity
  8
0
100
AcDbCircle
 62
7
  6
CONTINUOUS
 10
5.1432490748
 20
4.8121387998
 40
0.0175
100
AcDbArc
 50
0.0
 51
90.0000000004
  0
ARC
  5
260
100
AcDbEntity
  8
0
100
AcDbCircle
 62
7
  6
CONTINUOUS
 10
5.3794982716
 20
4.8121395779
 40
0.017499881
100
AcDbArc
 50
89.9973704478
 51
180.0025474063
  0
ARC
  5
261
100
AcDbEntity
  8
0
100
AcDbCircle
 62
7
  6
CONTINUOUS
 10
5.8767615747
 20
4.9390137998
 40
0.17325
100
AcDbArc
 50
219.1473841463
 51
341.5994258344
  0
ARC
  5
262
100
AcDbEntity
  8
0
100
AcDbCircle
 62
7
  6
CONTINUOUS
 10
5.8767615747
 20
4.9390137998
 40
0.17325
100
AcDbArc
 50
18.4005741656
 51
140.8526158537
  0
ARC
  5
263
100
AcDbEntity
  8
0
100
AcDbCircle
 62
7
  6
CONTINUOUS
 10
5.8767615747
 20
4.9390137998
 40
0.168
100
AcDbArc
 50
18.9973111183
 51
139.3793770454
  0
ARC
  5
264
100
AcDbEntity
  8
0
100
AcDbCircle
 62
7
  6
CONTINUOUS
 10
5.8767615747
 20
4.9390137998
 40
0.168
100
AcDbArc
 50
220.6206229547
 51
341.0026888818
  0
ARC
  5
265
100
AcDbEntity
  8
0
100
AcDbCircle
 62
7
  6
CONTINUOUS
 10
5.8767620666
 20
4.9606174648
 40
0.1309788789
100
AcDbArc
 50
267.939386283
 51
269.662891627
  0
ARC
  5
266
100
AcDbEntity
  8
0
100
AcDbCircle
 62
7
  6
CONTINUOUS
 10
5.8767615747
 20
4.9390137998
 40
0.109375
100
AcDbArc
 50
210.0004819332
 51
329.9995180668
  0
ARC
  5
267
100
AcDbEntity
  8
0
100
AcDbCircle
 62
7
  6
CONTINUOUS
 10
5.8767615747
 20
4.9390137998
 40
0.109375
100
AcDbArc
 50
30.0004819332
 51
149.9995180668
  0
ARC
  5
268
100
AcDbEntity
  8
0
100
AcDbCircle
 62
7
  6
CONTINUOUS
 10
5.8767615747
 20
4.9390137998
 40
0.104125
100
AcDbArc
 50
211.6828470241
 51
328.3171529758
  0
ARC
  5
269
100
AcDbEntity
  8
0
100
AcDbCircle
 62
7
  6
CONTINUOUS
 10
5.8767615747
 20
4.9390137998
 40
0.104125
100
AcDbArc
 50
31.6828470241
 51
148.3171529758
  0
ARC
  5
26A
100
AcDbEntity
  8
0
100
AcDbCircle
 62
7
  6
CONTINUOUS
 10
6.5759599997
 20
4.8562408386
 40
0.0014
100
AcDbArc
 50
194.6474175539
 51
238.9661593059
  0
ARC
  5
26B
100
AcDbEntity
  8
0
100
AcDbCircle
 62
7
  6
CONTINUOUS
 10
6.5867077929
 20
4.8506601801
 40
0.0014
100
AcDbArc
 50
246.1537673741
 51
340.3708257369
  0
ARC
  5
26C
100
AcDbEntity
  8
0
100
AcDbCircle
 62
7
  6
CONTINUOUS
 10
6.6057751011
 20
4.8445040074
 40
0.0014
100
AcDbArc
 50
196.8492439121
 51
258.0592943439
  0
ARC
  5
26D
100
AcDbEntity
  8
0
100
AcDbCircle
 62
7
  6
CONTINUOUS
 10
6.5142548485
 20
4.8681387998
 40
0.02275
100
AcDbArc
 50
32.4405244247
 51
32.9883964341
  0
ARC
  5
26E
100
AcDbEntity
  8
0
100
AcDbCircle
 62
7
  6
CONTINUOUS
 10
6.5142548485
 20
4.8681387998
 40
0.02275
100
AcDbArc
 50
33.0167996344
 51
90.0000000001
  0
ARC
  5
26F
100
AcDbEntity
  8
0
100
AcDbCircle
 62
7
  6
CONTINUOUS
 10
6.6161269103
 20
4.8428954705
 40
0.0014
100
AcDbArc
 50
264.2788379897
 51
341.3591723378
  0
ARC
  5
270
100
AcDbEntity
  8
0
100
AcDbCircle
 62
7
  6
CONTINUOUS
 10
6.6353962392
 20
4.8428954705
 40
0.0014
100
AcDbArc
 50
198.6408276687
 51
275.724067847
  0
ARC
  5
271
100
AcDbEntity
  8
0
100
AcDbCircle
 62
7
  6
CONTINUOUS
 10
6.6457480484
 20
4.8445040074
 40
0.0014
100
AcDbArc
 50
281.9407056562
 51
343.1507561468
  0
ARC
  5
272
100
AcDbEntity
  8
0
100
AcDbCircle
 62
7
  6
CONTINUOUS
 10
6.6648153566
 20
4.8506601801
 40
0.0014
100
AcDbArc
 50
199.6291731679
 51
293.8462326331
  0
ARC
  5
273
100
AcDbEntity
  8
0
100
AcDbCircle
 62
7
  6
CONTINUOUS
 10
6.6755631498
 20
4.8562408386
 40
0.0014
100
AcDbArc
 50
301.0338407132
 51
345.3525838163
  0
ARC
  5
274
100
AcDbEntity
  8
0
100
AcDbCircle
 62
7
  6
CONTINUOUS
 10
6.7124042497
 20
4.8812637998
 40
0.00525
100
AcDbArc
 50
326.3153273875
 51
90.0
  0
ARC
  5
275
100
AcDbEntity
  8
0
100
AcDbCircle
 62
7
  6
CONTINUOUS
 10
6.6257615747
 20
4.9390137998
 40
0.109375
100
AcDbArc
 50
33.6846726124
 51
326.3153273875
  0
ARC
  5
276
100
AcDbEntity
  8
0
100
AcDbCircle
 62
7
  6
CONTINUOUS
 10
6.6257615747
 20
4.9390137998
 40
0.104125
100
AcDbArc
 50
33.684672613
 51
326.3153273869
  0
ARC
  5
277
100
AcDbEntity
  8
0
100
AcDbCircle
 62
7
  6
CONTINUOUS
 10
6.6257611177
 20
4.9498646441
 40
0.0984383414
100
AcDbArc
 50
273.0472647317
 51
284.4013911082
  0
ARC
  5
278
100
AcDbEntity
  8
0
100
AcDbCircle
 62
7
  6
CONTINUOUS
 10
6.6257620324
 20
4.949864644
 40
0.0984383414
100
AcDbArc
 50
255.5986085649
 51
266.9527349404
  0
ARC
  5
279
100
AcDbEntity
  8
0
100
AcDbCircle
 62
7
  6
CONTINUOUS
 10
6.6257622028
 20
4.9498626203
 40
0.0984361578
100
AcDbArc
 50
290.8273993922
 51
303.4433466323
  0
ARC
  5
27A
100
AcDbEntity
  8
0
100
AcDbCircle
 62
7
  6
CONTINUOUS
 10
6.6257609651
 20
4.9498626103
 40
0.0984361578
100
AcDbArc
 50
236.5566412456
 51
249.1725885509
  0
ARC
  5
27B
100
AcDbEntity
  8
0
100
AcDbCircle
 62
7
  6
CONTINUOUS
 10
6.6257615747
 20
4.9390137998
 40
0.098
100
AcDbArc
 50
293.8462325994
 51
301.0338407167
  0
ARC
  5
27C
100
AcDbEntity
  8
0
100
AcDbCircle
 62
7
  6
CONTINUOUS
 10
6.6257615747
 20
4.9390137998
 40
0.098
100
AcDbArc
 50
275.724067847
 51
281.9407056562
  0
ARC
  5
27D
100
AcDbEntity
  8
0
100
AcDbCircle
 62
7
  6
CONTINUOUS
 10
6.6257615747
 20
4.9390137998
 40
0.098
100
AcDbArc
 50
258.0592943438
 51
264.2759321531
  0
ARC
  5
27E
100
AcDbEntity
  8
0
100
AcDbCircle
 62
7
  6
CONTINUOUS
 10
6.6257615747
 20
4.9390137998
 40
0.098
100
AcDbArc
 50
238.9661592833
 51
246.1537674006
  0
CIRCLE
  5
27F
100
AcDbEntity
  8
0
100
AcDbCircle
 62
7
  6
CONTINUOUS
 10
6.6257615747
 20
4.9390137998
 40
0.0875
  0
ARC
  5
280
100
AcDbEntity
  8
0
100
AcDbCircle
 62
7
  6
CONTINUOUS
 10
6.5142548485
 20
5.0098887998
 40
0.02275
100
AcDbArc
 50
327.0115600215
 51
327.5594755753
  0
ARC
  5
281
100
AcDbEntity
  8
0
100
AcDbCircle
 62
7
  6
CONTINUOUS
 10
6.5142548485
 20
5.0098887998
 40
0.02275
100
AcDbArc
 50
269.9999999999
 51
326.982690476
  0
ARC
  5
282
100
AcDbEntity
  8
0
100
AcDbCircle
 62
7
  6
CONTINUOUS
 10
6.7569573483
 20
4.9390137998
 40
0.049
100
AcDbArc
 50
270.0
 51
90.0
  0
ARC
  5
283
100
AcDbEntity
  8
0
100
AcDbCircle
 62
7
  6
CONTINUOUS
 10
6.755054786
 20
4.9393131809
 40
0.048700619
100
AcDbArc
 50
87.7673672268
 51
89.9998965363
  0
ARC
  5
284
100
AcDbEntity
  8
0
100
AcDbCircle
 62
7
  6
CONTINUOUS
 10
6.7124042497
 20
4.9967637998
 40
0.00525
100
AcDbArc
 50
270.0
 51
33.6846726125
  0
SPLINE
  5
285
100
AcDbEntity
  8
0
100
AcDbSpline
 62
7
  6
CONTINUOUS
 70
0
 71
3
 72
77
 73
73
 74
0
 42
0.0000001
 43
0.0000001
 44
0.0000000001
 40
0.0
 40
0.0
 40
0.0
 40
0.0
 40
0.0000092165
 40
0.0000368886
 40
0.0000831059
 40
0.0001479582
 40
0.0002315351
 40
0.0003339262
 40
0.00059551
 40
0.0009334252
 40
0.001348208
 40
0.001840057
 40
0.0024091335
 40
0.0037795842
 40
0.0054587796
 40
0.0074426245
 40
0.0097268044
 40
0.0123073504
 40
0.015180505
 40
0.0183441473
 40
0.021797332
 40
0.0295687647
 40
0.0384868624
 40
0.0485366176
 40
0.0596831211
 40
0.0718856969
 40
0.0851070082
 40
0.0993120763
 40
0.1144677013
 40
0.147499638
 40
0.1839171115
 40
0.2233470074
 40
0.2654033239
 40
0.309695218
 40
0.3558113711
 40
0.4032925845
 40
0.5005656037
 40
0.5978850675
 40
0.6453965414
 40
0.691524212
 40
0.7358104643
 40
0.7778490958
 40
0.8172527095
 40
0.8536285589
 40
0.8865806453
 40
0.9016678817
 40
0.9157838111
 40
0.9288988281
 40
0.9409863734
 40
0.9520187879
 40
0.9619620187
 40
0.9707842162
 40
0.97846949
 40
0.9818834096
 40
0.9850104312
 40
0.9878496504
 40
0.9903989754
 40
0.9926549955
 40
0.994614031
 40
0.9962717668
 40
0.9976241452
 40
0.9981855567
 40
0.9986706938
 40
0.9990797446
 40
0.9994129396
 40
0.9996708425
 40
0.9997717843
 40
0.9998541732
 40
0.999918099
 40
0.9999636521
 40
0.9999909224
 40
1.0
 40
1.0
 40
1.0
 40
1.0
 10
6.6470879474
 20
4.8440982111
 30
0.0
 10
6.6470879251
 20
4.8440981775
 30
0.0
 10
6.647087724
 20
4.8440982125
 30
0.0
 10
6.6470874071
 20
4.8440980858
 30
0.0
 10
6.6470867863
 20
4.844098013
 30
0.0
 10
6.6470859585
 20
4.844097846
 30
0.0
 10
6.6470848743
 20
4.8440976573
 30
0.0
 10
6.6470829488
 20
4.8440973074
 30
0.0
 10
6.6470799245
 20
4.8440967665
 30
0.0
 10
6.6470755562
 20
4.8440959833
 30
0.0
 10
6.6470701948
 20
4.8440950262
 30
0.0
 10
6.6470638375
 20
4.8440938935
 30
0.0
 10
6.6470533623
 20
4.8440920316
 30
0.0
 10
6.6470377698
 20
4.8440892706
 30
0.0
 10
6.6470160794
 20
4.8440854412
 30
0.0
 10
6.6469904518
 20
4.8440809151
 30
0.0
 10
6.6469609417
 20
4.844075694
 30
0.0
 10
6.6469275997
 20
4.8440697942
 30
0.0
 10
6.6468904671
 20
4.8440632302
 30
0.0
 10
6.6468495724
 20
4.8440560117
 30
0.0
 10
6.6467875672
 20
4.8440450824
 30
0.0
 10
6.6467007548
 20
4.8440298315
 30
0.0
 10
6.6465854788
 20
4.8440097766
 30
0.0
 10
6.6464556316
 20
4.8439873106
 30
0.0
 10
6.646311608
 20
4.8439624781
 30
0.0
 10
6.6461538835
 20
4.8439354284
 30
0.0
 10
6.6459829289
 20
4.8439063445
 30
0.0
 10
6.6457991861
 20
4.8438753826
 30
0.0
 10
6.6455298786
 20
4.8438305004
 30
0.0
 10
6.6451644837
 20
4.8437709155
 30
0.0
 10
6.6446939982
 20
4.8436958136
 30
0.0
 10
6.6441842347
 20
4.843616274
 30
0.0
 10
6.6436401187
 20
4.8435334083
 30
0.0
 10
6.6430666363
 20
4.8434490867
 30
0.0
 10
6.6424693098
 20
4.8433637855
 30
0.0
 10
6.6416419664
 20
4.8432493127
 30
0.0
 10
6.6405916424
 20
4.8431116925
 30
0.0
 10
6.6395398282
 20
4.8429848841
 30
0.0
 10
6.6387096179
 20
4.8428900373
 30
0.0
 10
6.6381096814
 20
4.8428241374
 30
0.0
 10
6.6375332819
 20
4.8427633488
 30
0.0
 10
6.6369859167
 20
4.8427078447
 30
0.0
 10
6.6364728152
 20
4.8426575869
 30
0.0
 10
6.6359991164
 20
4.8426129643
 30
0.0
 10
6.6356312181
 20
4.8425798017
 30
0.0
 10
6.635360297
 20
4.842555791
 30
0.0
 10
6.6351758208
 20
4.8425396761
 30
0.0
 10
6.635004405
 20
4.84252489
 30
0.0
 10
6.6348464195
 20
4.8425114111
 30
0.0
 10
6.6347022492
 20
4.8424992762
 30
0.0
 10
6.6345723018
 20
4.8424885262
 30
0.0
 10
6.6344569396
 20
4.8424791238
 30
0.0
 10
6.6343700531
 20
4.8424720585
 30
0.0
 10
6.6343080041
 20
4.8424670347
 30
0.0
 10
6.6342670911
 20
4.8424637296
 30
0.0
 10
6.634229949
 20
4.8424607306
 30
0.0
 10
6.6341966058
 20
4.8424580398
 30
0.0
 10
6.634167101
 20
4.842455668
 30
0.0
 10
6.6341414838
 20
4.8424536251
 30
0.0
 10
6.6341198073
 20
4.842451909
 30
0.0
 10
6.634104227
 20
4.8424506825
 30
0.0
 10
6.6340937617
 20
4.8424498617
 30
0.0
 10
6.6340874117
 20
4.8424493648
 30
0.0
 10
6.634082057
 20
4.8424489462
 30
0.0
 10
6.6340776941
 20
4.8424486066
 30
0.0
 10
6.6340746743
 20
4.8424483691
 30
0.0
 10
6.6340727503
 20
4.8424482222
 30
0.0
 10
6.6340716697
 20
4.8424481318
 30
0.0
 10
6.6340708376
 20
4.8424480832
 30
0.0
 10
6.6340702297
 20
4.8424479996
 30
0.0
 10
6.6340698922
 20
4.8424480369
 30
0.0
 10
6.6340697132
 20
4.8424479575
 30
0.0
 10
6.634069682
 20
4.8424479821
 30
0.0
  0
SPLINE
  5
286
100
AcDbEntity
  8
0
100
AcDbSpline
 62
7
  6
CONTINUOUS
 70
0
 71
3
 72
31
 73
27
 74
0
 42
0.0000001
 43
0.0000001
 44
0.0000000001
 40
0.0
 40
0.0
 40
0.0
 40
0.0
 40
0.0312049949
 40
0.0624107939
 40
0.0936178323
 40
0.1248265335
 40
0.187232562
 40
0.2496498836
 40
0.2808725918
 40
0.3120990592
 40
0.3433295308
 40
0.3745642151
 40
0.4370289332
 40
0.499512024
 40
0.5620136839
 40
0.6245334311
 40
0.6558086891
 40
0.6870879875
 40
0.7183710871
 40
0.7496577146
 40
0.812222459
 40
0.874797289
 40
0.9060964271
 40
0.9373968794
 40
0.9686981832
 40
1.0
 40
1.0
 40
1.0
 40
1.0
 10
6.7569520128
 20
4.9879768307
 30
0.0
 10
6.7577308596
 20
4.9879464647
 30
0.0
 10
6.7592873762
 20
4.9878483081
 30
0.0
 10
6.7616122111
 20
4.9875891845
 30
0.0
 10
6.7639221239
 20
4.9872187342
 30
0.0
 10
6.7669743233
 20
4.9865776733
 30
0.0
 10
6.7707271026
 20
4.9855025185
 30
0.0
 10
6.7743598176
 20
4.9840723635
 30
0.0
 10
6.7771732056
 20
4.9827237591
 30
0.0
 10
6.7792331491
 20
4.9816118954
 30
0.0
 10
6.7812376819
 20
4.9804024016
 30
0.0
 10
6.7838300165
 20
4.9786635946
 30
0.0
 10
6.7869105166
 20
4.9762594062
 30
0.0
 10
6.790314138
 20
4.9730339637
 30
0.0
 10
6.7933948308
 20
4.9694969743
 30
0.0
 10
6.7956696618
 20
4.966316269
 30
0.0
 10
6.7973008264
 20
4.9636506631
 30
0.0
 10
6.7984277817
 20
4.9615944354
 30
0.0
 10
6.7994553309
 20
4.9594864623
 30
0.0
 10
6.8006895698
 20
4.9566137775
 30
0.0
 10
6.8019731263
 20
4.9529167062
 30
0.0
 10
6.8028982237
 20
4.9491137479
 30
0.0
 10
6.8034182234
 20
4.9460296846
 30
0.0
 10
6.8036975243
 20
4.9436999682
 30
0.0
 10
6.8038653513
 20
4.9413596174
 30
0.0
 10
6.803902676
 20
4.9397956569
 30
0.0
 10
6.803902676
 20
4.9390137998
 30
0.0
  0
SPLINE
  5
287
100
AcDbEntity
  8
0
100
AcDbSpline
 62
7
  6
CONTINUOUS
 70
0
 71
3
 72
31
 73
27
 74
0
 42
0.0000001
 43
0.0000001
 44
0.0000000001
 40
0.0
 40
0.0
 40
0.0
 40
0.0
 40
0.0313032765
 40
0.0626060239
 40
0.0939078702
 40
0.125208336
 40
0.1877846256
 40
0.2503503424
 40
0.2816376989
 40
0.3129213711
 40
0.3442010799
 40
0.3754765843
 40
0.4379954184
 40
0.5004955695
 40
0.5629766659
 40
0.625439068
 40
0.656673001
 40
0.6879027233
 40
0.7191284754
 40
0.7503505358
 40
0.8127659775
 40
0.8751708192
 40
0.9063797378
 40
0.9375872694
 40
0.9687938689
 40
1.0
 40
1.0
 40
1.0
 40
1.0
 10
6.803902676
 20
4.9390137998
 30
0.0
 10
6.803902676
 20
4.9382121204
 30
0.0
 10
6.803863434
 20
4.9366084955
 30
0.0
 10
6.8036869929
 20
4.9342090842
 30
0.0
 10
6.8033933786
 20
4.9318211362
 30
0.0
 10
6.8028468036
 20
4.92866116
 30
0.0
 10
6.8018746158
 20
4.9247673603
 30
0.0
 10
6.8005263481
 20
4.9209876367
 30
0.0
 10
6.7992305697
 20
4.9180553436
 30
0.0
 10
6.7981521687
 20
4.9159062153
 30
0.0
 10
6.7969699204
 20
4.9138127593
 30
0.0
 10
6.7952595177
 20
4.9111032415
 30
0.0
 10
6.7928758312
 20
4.90787899
 30
0.0
 10
6.7896515207
 20
4.904310399
 30
0.0
 10
6.7860940913
 20
4.9010759175
 30
0.0
 10
6.7828794063
 20
4.8986843273
 30
0.0
 10
6.7801779152
 20
4.8969683227
 30
0.0
 10
6.7780909534
 20
4.8957823683
 30
0.0
 10
6.7759484872
 20
4.8947005845
 30
0.0
 10
6.7730255908
 20
4.893400877
 30
0.0
 10
6.769257846
 20
4.8920484111
 30
0.0
 10
6.7653756971
 20
4.8910730258
 30
0.0
 10
6.7622253022
 20
4.8905246996
 30
0.0
 10
6.7598447359
 20
4.8902301615
 30
0.0
 10
6.7574527427
 20
4.8900531658
 30
0.0
 10
6.7558540655
 20
4.8900137998
 30
0.0
 10
6.755054874
 20
4.8900137998
 30
0.0
  0
SPLINE
  5
288
100
AcDbEntity
  8
0
100
AcDbSpline
 62
7
  6
CONTINUOUS
 70
0
 71
3
 72
27
 73
23
 74
0
 42
0.0000001
 43
0.0000001
 44
0.0000000001
 40
0.0
 40
0.0
 40
0.0
 40
0.0
 40
0.0676195984
 40
0.1013671418
 40
0.1350357534
 40
0.1686012765
 40
0.2020412785
 40
0.2353352844
 40
0.2684649549
 40
0.3341616993
 40
0.3667116496
 40
0.3990472963
 40
0.4630427979
 40
0.526122105
 40
0.5882786186
 40
0.6495263755
 40
0.7098930265
 40
0.7694155655
 40
0.8281391422
 40
0.8861119906
 40
0.9433822731
 40
1.0
 40
1.0
 40
1.0
 40
1.0
 10
5.3882490747
 20
4.9390137998
 30
0.0
 10
5.3882489946
 20
4.9369533224
 30
0.0
 10
5.3881465674
 20
4.9338632704
 30
0.0
 10
5.3878099458
 20
4.9297618367
 30
0.0
 10
5.3874591307
 20
4.9267042375
 30
0.0
 10
5.3870109808
 20
4.9236689137
 30
0.0
 10
5.3864667284
 20
4.9206609424
 30
0.0
 10
5.3858293471
 20
4.9176848827
 30
0.0
 10
5.3848625229
 20
4.9137762642
 30
0.0
 10
5.383720668
 20
4.9099361518
 30
0.0
 10
5.3824124423
 20
4.9061777998
 30
0.0
 10
5.3810099612
 20
4.9025089892
 30
0.0
 10
5.3790753352
 20
4.8980501255
 30
0.0
 10
5.3764801463
 20
4.8928976367
 30
0.0
 10
5.3736448431
 20
4.8879697806
 30
0.0
 10
5.3705937998
 20
4.8832710583
 30
0.0
 10
5.3673505252
 20
4.8788019773
 30
0.0
 10
5.3639365907
 20
4.8745604002
 30
0.0
 10
5.3603699524
 20
4.870543653
 30
0.0
 10
5.3566672083
 20
4.8667475014
 30
0.0
 10
5.352843853
 20
4.8631664269
 30
0.0
 10
5.3502084215
 20
4.8609066345
 30
0.0
 10
5.3488750092
 20
4.8598119018
 30
0.0
  0
SPLINE
  5
289
100
AcDbEntity
  8
0
100
AcDbSpline
 62
7
  6
CONTINUOUS
 70
0
 71
3
 72
25
 73
21
 74
0
 42
0.0000001
 43
0.0000001
 44
0.0000000001
 40
0.0
 40
0.0
 40
0.0
 40
0.0
 40
0.0702339089
 40
0.1388792752
 40
0.172646902
 40
0.2060619048
 40
0.2718906525
 40
0.3365091182
 40
0.4000478189
 40
0.4626316127
 40
0.5243780969
 40
0.5853968985
 40
0.6457904759
 40
0.7056540681
 40
0.7650768641
 40
0.8241432536
 40
0.8829340809
 40
0.9415264436
 40
0.9707741811
 40
1.0
 40
1.0
 40
1.0
 40
1.0
 10
5.7729475315
 20
4.884325095
 30
0.0
 10
5.7744196021
 20
4.8819988358
 30
0.0
 10
5.777508482
 20
4.8775090784
 30
0.0
 10
5.7817530847
 20
4.8722307769
 30
0.0
 10
5.7853089358
 20
4.8682670947
 30
0.0
 10
5.7889249829
 20
4.8645101398
 30
0.0
 10
5.7936142551
 20
4.8601134174
 30
0.0
 10
5.7994970209
 20
4.8552878843
 30
0.0
 10
5.8055723547
 20
4.8509221345
 30
0.0
 10
5.8118101939
 20
4.8470002656
 30
0.0
 10
5.8181851232
 20
4.8435071517
 30
0.0
 10
5.8246752531
 20
4.8404289557
 30
0.0
 10
5.8312616663
 20
4.8377534399
 30
0.0
 10
5.8379277425
 20
4.8354698808
 30
0.0
 10
5.844658714
 20
4.8335691621
 30
0.0
 10
5.8514413435
 20
4.8320437035
 30
0.0
 10
5.8582633708
 20
4.8308874457
 30
0.0
 10
5.8639756473
 20
4.8302274214
 30
0.0
 10
5.8685514621
 20
4.8298805252
 30
0.0
 10
5.8708409339
 20
4.829767352
 30
0.0
 10
5.8719857175
 20
4.8297256966
 30
0.0
  0
SPLINE
  5
28A
100
AcDbEntity
  8
0
100
AcDbSpline
 62
7
  6
CONTINUOUS
 70
0
 71
3
 72
26
 73
22
 74
0
 42
0.0000001
 43
0.0000001
 44
0.0000000001
 40
0.0
 40
0.0
 40
0.0
 40
0.0
 40
0.0292531864
 40
0.058522211
 40
0.0878176156
 40
0.1171491991
 40
0.1759536069
 40
0.2350199828
 40
0.294430774
 40
0.3542726756
 40
0.4146376007
 40
0.4756234553
 40
0.5373353814
 40
0.5998862882
 40
0.6633970396
 40
0.7279967377
 40
0.7938203561
 40
0.8272396431
 40
0.8610168795
 40
0.9296997403
 40
1.0
 40
1.0
 40
1.0
 40
1.0
 10
5.8739962447
 20
5.0483600172
 30
0.0
 10
5.8728302756
 20
5.0483353808
 30
0.0
 10
5.8704982532
 20
5.0482547506
 30
0.0
 10
5.8670033698
 20
5.048041445
 30
0.0
 10
5.8635122678
 20
5.0477344442
 30
0.0
 10
5.8588608654
 20
5.0471995086
 30
0.0
 10
5.8530594887
 20
5.0462942656
 30
0.0
 10
5.8461422874
 20
5.0448272615
 30
0.0
 10
5.8392757064
 20
5.0429726458
 30
0.0
 10
5.8324736246
 20
5.0407227498
 30
0.0
 10
5.8257512318
 20
5.0380682749
 30
0.0
 10
5.8191256931
 20
5.0349981806
 30
0.0
 10
5.8126165739
 20
5.031499752
 30
0.0
 10
5.806246477
 20
5.0275586821
 30
0.0
 10
5.8000418186
 20
5.0231590224
 30
0.0
 10
5.7940337575
 20
5.0182841764
 30
0.0
 10
5.7892454916
 20
5.01383324
 30
0.0
 10
5.7855540213
 20
5.0100245852
 30
0.0
 10
5.781924241
 20
5.006002079
 30
0.0
 10
5.7775933303
 20
5.0006384267
 30
0.0
 10
5.7744459589
 20
4.9960704422
 30
0.0
 10
5.7729473149
 20
4.9937021367
 30
0.0
  0
SPLINE
  5
28B
100
AcDbEntity
  8
0
100
AcDbSpline
 62
7
  6
CONTINUOUS
 70
0
 71
3
 72
38
 73
34
 74
0
 42
0.0000001
 43
0.0000001
 44
0.0000000001
 40
0.0
 40
0.0
 40
0.0
 40
0.0
 40
0.0279913123
 40
0.0560010959
 40
0.1121276754
 40
0.1685104414
 40
0.22527865
 40
0.2825725175
 40
0.3405471164
 40
0.3698490958
 40
0.3993888428
 40
0.4592696072
 40
0.4896806307
 40
0.5204403258
 40
0.5515804138
 40
0.5831329643
 40
0.6151311902
 40
0.647606527
 40
0.6805887284
 40
0.7141027042
 40
0.7481655818
 40
0.7827833478
 40
0.8179458036
 40
0.8357251474
 40
0.853627424
 40
0.8716449102
 40
0.889768205
 40
0.9079861689
 40
0.9262860252
 40
0.9446534671
 40
0.9630728774
 40
0.981527488
 40
1.0
 40
1.0
 40
1.0
 40
1.0
 10
5.2627730029
 20
5.0483821289
 30
0.0
 10
5.264493262
 20
5.0483657649
 30
0.0
 10
5.2679346928
 20
5.0482727476
 30
0.0
 10
5.2748138015
 20
5.0478446161
 30
0.0
 10
5.2834008479
 20
5.0468526243
 30
0.0
 10
5.2936331274
 20
5.0449239323
 30
0.0
 10
5.3037685731
 20
5.0422389682
 30
0.0
 10
5.313768387
 20
5.0387738767
 30
0.0
 10
5.3219237482
 20
5.0352219898
 30
0.0
 10
5.3283234146
 20
5.0319638915
 30
0.0
 10
5.3346855883
 20
5.0283879961
 30
0.0
 10
5.3408723209
 20
5.0243720017
 30
0.0
 10
5.3468302766
 20
5.0199129828
 30
0.0
 10
5.3512124951
 20
5.0163062678
 30
0.0
 10
5.3554700337
 20
5.0124478671
 30
0.0
 10
5.3595857803
 20
5.00832989
 30
0.0
 10
5.36354116
 20
5.0039461854
 30
0.0
 10
5.3673136124
 20
4.9992901191
 30
0.0
 10
5.3708786741
 20
4.994357664
 30
0.0
 10
5.3742085096
 20
4.9891469059
 30
0.0
 10
5.3772714127
 20
4.9836590688
 30
0.0
 10
5.3800342097
 20
4.9779013582
 30
0.0
 10
5.3820482588
 20
4.9729065799
 30
0.0
 10
5.3834755021
 20
4.9687923913
 30
0.0
 10
5.3844520456
 20
4.9656391548
 30
0.0
 10
5.3853259329
 20
4.9624340409
 30
0.0
 10
5.3860933609
 20
4.9591818183
 30
0.0
 10
5.3867502614
 20
4.9558877623
 30
0.0
 10
5.3872927226
 20
4.9525577191
 30
0.0
 10
5.3877182226
 20
4.9491982316
 30
0.0
 10
5.3880238737
 20
4.94581615
 30
0.0
 10
5.3882079337
 20
4.9424188543
 30
0.0
 10
5.3882490652
 20
4.9401491144
 30
0.0
 10
5.3882490747
 20
4.9390137998
 30
0.0
  0
SPLINE
  5
28C
100
AcDbEntity
  8
0
100
AcDbSpline
 62
7
  6
CONTINUOUS
 70
0
 71
3
 72
38
 73
34
 74
0
 42
0.0000001
 43
0.0000001
 44
0.0000000001
 40
0.0
 40
0.0
 40
0.0
 40
0.0
 40
0.0369207671
 40
0.0553400118
 40
0.0737072756
 40
0.0920069437
 40
0.1102247391
 40
0.1283478813
 40
0.1463652152
 40
0.164267298
 40
0.1820464357
 40
0.2172086643
 40
0.2518261227
 40
0.2858886043
 40
0.3194023282
 40
0.3523843781
 40
0.3848594736
 40
0.4168574176
 40
0.4484097672
 40
0.4795496271
 40
0.510309012
 40
0.5407198772
 40
0.570812056
 40
0.6006143186
 40
0.6301538374
 40
0.6594556328
 40
0.7174297468
 40
0.7747231404
 40
0.8314908635
 40
0.8878731708
 40
0.9439992635
 40
0.9720087647
 40
1.0
 40
1.0
 40
1.0
 40
1.0
 10
5.1344990779
 20
4.9390137998
 30
0.0
 10
5.1344991809
 20
4.9412829264
 30
0.0
 10
5.1346234025
 20
4.9446857296
 30
0.0
 10
5.1350311366
 20
4.9491979693
 30
0.0
 10
5.1354556328
 20
4.9525576012
 30
0.0
 10
5.1359977098
 20
4.9558876484
 30
0.0
 10
5.1366548763
 20
4.9591816105
 30
0.0
 10
5.1374226119
 20
4.9624337108
 30
0.0
 10
5.1382966292
 20
4.9656387343
 30
0.0
 10
5.1392726748
 20
4.9687920656
 30
0.0
 10
5.1406993807
 20
4.9729063876
 30
0.0
 10
5.1427141842
 20
4.9779007911
 30
0.0
 10
5.1454765927
 20
4.9836585586
 30
0.0
 10
5.1485391635
 20
4.9891464898
 30
0.0
 10
5.1518689973
 20
4.9943571581
 30
0.0
 10
5.1554341287
 20
4.9992894728
 30
0.0
 10
5.1592064775
 20
5.0039455248
 30
0.0
 10
5.1631617322
 20
5.0083292461
 30
0.0
 10
5.1672774183
 20
5.0124471687
 30
0.0
 10
5.1715348986
 20
5.0163055649
 30
0.0
 10
5.1759168791
 20
5.0199122764
 30
0.0
 10
5.1804090162
 20
5.0232741857
 30
0.0
 10
5.1849981418
 20
5.0263988549
 30
0.0
 10
5.1896729667
 20
5.0292930573
 30
0.0
 10
5.1944235738
 20
5.0319632857
 30
0.0
 10
5.2008230109
 20
5.0352213081
 30
0.0
 10
5.208978274
 20
5.0387733023
 30
0.0
 10
5.2189778933
 20
5.0422384516
 30
0.0
 10
5.2291131714
 20
5.0449235161
 30
0.0
 10
5.2393452848
 20
5.0468523163
 30
0.0
 10
5.2479321977
 20
5.047844413
 30
0.0
 10
5.2548112119
 20
5.0482726531
 30
0.0
 10
5.2582526017
 20
5.0483657078
 30
0.0
 10
5.2599728469
 20
5.0483821016
 30
0.0
  0
SPLINE
  5
28D
100
AcDbEntity
  8
0
100
AcDbSpline
 62
7
  6
CONTINUOUS
 70
0
 71
3
 72
106
 73
102
 74
0
 42
0.0000001
 43
0.0000001
 44
0.0000000001
 40
0.0
 40
0.0
 40
0.0
 40
0.0
 40
0.0000032003
 40
0.0000127328
 40
0.0000285931
 40
0.0000507768
 40
0.0000792794
 40
0.0001140965
 40
0.0002026565
 40
0.0003164211
 40
0.000455351
 40
0.0006193887
 40
0.0008084718
 40
0.0010225376
 40
0.0012615236
 40
0.0018139858
 40
0.0024652409
 40
0.0032146424
 40
0.0040615135
 40
0.0050051369
 40
0.0060447652
 40
0.0071794567
 40
0.0097298237
 40
0.0126464023
 40
0.0159182249
 40
0.0195343356
 40
0.0234836037
 40
0.0277549775
 40
0.0323372202
 40
0.037218201
 40
0.0478290803
 40
0.0594974934
 40
0.0721404318
 40
0.0856813945
 40
0.1000515644
 40
0.1151895735
 40
0.1310412175
 40
0.1475598276
 40
0.1647046694
 40
0.200729678
 40
0.2388779933
 40
0.2789483474
 40
0.2996473081
 40
0.3207536442
 40
0.3422390236
 40
0.3640717954
 40
0.386216007
 40
0.4086306706
 40
0.4312698402
 40
0.4540825557
 40
0.4999953702
 40
0.5229864584
 40
0.5459175257
 40
0.5687302431
 40
0.5913694049
 40
0.6137840885
 40
0.6359282846
 40
0.6577610368
 40
0.6792464545
 40
0.7003527757
 40
0.7210517133
 40
0.7611220792
 40
0.7992703993
 40
0.8352953191
 40
0.8524402051
 40
0.8689588992
 40
0.884810484
 40
0.8999483648
 40
0.9143185909
 40
0.9278596
 40
0.9405026284
 40
0.9521710608
 40
0.9627818472
 40
0.9676627941
 40
0.9722450313
 40
0.9765164081
 40
0.9804656504
 40
0.9840817112
 40
0.9873535055
 40
0.9902700973
 40
0.9928205536
 40
0.9939553104
 40
0.9949949907
 40
0.9959386385
 40
0.9967855121
 40
0.9975349021
 40
0.9981861369
 40
0.9987385726
 40
0.9989775439
 40
0.9991915947
 40
0.9993806628
 40
0.9995446862
 40
0.9996836028
 40
0.9997973557
 40
0.9998859063
 40
0.9999207201
 40
0.9999492203
 40
0.9999714027
 40
0.999987263
 40
0.9999967969
 40
1.0
 40
1.0
 40
1.0
 40
1.0
 10
6.5142548485
 20
4.8908887998
 30
0.0
 10
6.5142547455
 20
4.8908888497
 30
0.0
 10
6.5142544896
 20
4.8908892591
 30
0.0
 10
6.5142537313
 20
4.8908899251
 30
0.0
 10
6.5142525939
 20
4.8908912043
 30
0.0
 10
6.514250946
 20
4.8908929145
 30
0.0
 10
6.5142488528
 20
4.8908951449
 30
0.0
 10
6.5142451242
 20
4.8908990915
 30
0.0
 10
6.5142393117
 20
4.890905265
 30
0.0
 10
6.5142309504
 20
4.8909141502
 30
0.0
 10
6.5142207483
 20
4.8909250092
 30
0.0
 10
6.5142087101
 20
4.8909378379
 30
0.0
 10
6.5141948429
 20
4.8909526344
 30
0.0
 10
6.5141791533
 20
4.8909693954
 30
0.0
 10
6.5141546008
 20
4.8909956559
 30
0.0
 10
6.5141194076
 20
4.8910333667
 30
0.0
 10
6.5140718216
 20
4.8910844734
 30
0.0
 10
6.5140171297
 20
4.8911433463
 30
0.0
 10
6.5139553957
 20
4.8912099449
 30
0.0
 10
6.5138866809
 20
4.8912842214
 30
0.0
 10
6.5138110525
 20
4.8913661207
 30
0.0
 10
6.5136965785
 20
4.891490342
 30
0.0
 10
6.5135369187
 20
4.8916641797
 30
0.0
 10
6.5133262674
 20
4.8918949301
 30
0.0
 10
6.5130909171
 20
4.8921547235
 30
0.0
 10
6.5128319834
 20
4.8924429682
 30
0.0
 10
6.5125506057
 20
4.8927590851
 30
0.0
 10
6.5122478951
 20
4.893102451
 30
0.0
 10
6.5119249841
 20
4.89347241
 30
0.0
 10
6.5114560477
 20
4.8940157536
 30
0.0
 10
6.5108284303
 20
4.8947567899
 30
0.0
 10
6.5100344933
 20
4.8957205031
 30
0.0
 10
6.5091895597
 20
4.8967777597
 30
0.0
 10
6.5083028914
 20
4.8979250903
 30
0.0
 10
6.5073832802
 20
4.899159422
 30
0.0
 10
6.5064391763
 20
4.9004781887
 30
0.0
 10
6.5054787896
 20
4.9018793531
 30
0.0
 10
6.5045097002
 20
4.9033610747
 30
0.0
 10
6.5031938442
 20
4.9054770846
 30
0.0
 10
6.5015730746
 20
4.9083131198
 30
0.0
 10
6.4997391076
 20
4.9119651557
 30
0.0
 10
6.4983406127
 20
4.9152162781
 30
0.0
 10
6.4973138603
 20
4.9179581116
 30
0.0
 10
6.4965913097
 20
4.9201029914
 30
0.0
 10
6.4959322733
 20
4.9223105957
 30
0.0
 10
6.4953438778
 20
4.9245764661
 30
0.0
 10
6.4948320868
 20
4.9268949372
 30
0.0
 10
6.4944040126
 20
4.9292596515
 30
0.0
 10
6.4940648917
 20
4.9316629656
 30
0.0
 10
6.4937359646
 20
4.9349136114
 30
0.0
 10
6.4936036459
 20
4.938194406
 30
0.0
 10
6.4936697521
 20
4.941477824
 30
0.0
 10
6.4938189204
 20
4.9439315171
 30
0.0
 10
6.4940648947
 20
4.9463646674
 30
0.0
 10
6.494403838
 20
4.9487679745
 30
0.0
 10
6.4948322858
 20
4.951132631
 30
0.0
 10
6.4953438803
 20
4.9534511363
 30
0.0
 10
6.4959321778
 20
4.9557170384
 30
0.0
 10
6.4965914078
 20
4.9579245843
 30
0.0
 10
6.4973138807
 20
4.9600694881
 30
0.0
 10
6.4983405945
 20
4.9628113366
 30
0.0
 10
6.4997391217
 20
4.9660624461
 30
0.0
 10
6.5015731077
 20
4.9697144669
 30
0.0
 10
6.5031938121
 20
4.9725505382
 30
0.0
 10
6.5045096937
 20
4.9746665346
 30
0.0
 10
6.5054788205
 20
4.9761482345
 30
0.0
 10
6.5064391873
 20
4.9775494074
 30
0.0
 10
6.5073832459
 20
4.9788682013
 30
0.0
 10
6.5083028864
 20
4.9801025102
 30
0.0
 10
6.5091895606
 20
4.9812498447
 30
0.0
 10
6.5100345168
 20
4.9823070905
 30
0.0
 10
6.5108284581
 20
4.9832708007
 30
0.0
 10
6.5114560588
 20
4.9840118461
 30
0.0
 10
6.5119249864
 20
4.9845551911
 30
0.0
 10
6.5122478962
 20
4.9849251493
 30
0.0
 10
6.5125506074
 20
4.9852685134
 30
0.0
 10
6.5128319809
 20
4.9855846305
 30
0.0
 10
6.5130909062
 20
4.9858728778
 30
0.0
 10
6.5133262523
 20
4.9861326719
 30
0.0
 10
6.5135369055
 20
4.9863634241
 30
0.0
 10
6.5136965762
 20
4.9865372599
 30
0.0
 10
6.5138110639
 20
4.9866614787
 30
0.0
 10
6.5138867007
 20
4.9867433772
 30
0.0
 10
6.5139554195
 20
4.9868176538
 30
0.0
 10
6.514017154
 20
4.9868842527
 30
0.0
 10
6.5140718441
 20
4.9869431258
 30
0.0
 10
6.514119427
 20
4.9869942325
 30
0.0
 10
6.5141546168
 20
4.9870319435
 30
0.0
 10
6.5141791662
 20
4.9870582042
 30
0.0
 10
6.5141948534
 20
4.9870749653
 30
0.0
 10
6.5142087182
 20
4.9870897617
 30
0.0
 10
6.5142207542
 20
4.9871025905
 30
0.0
 10
6.5142309542
 20
4.9871134495
 30
0.0
 10
6.5142393138
 20
4.9871223346
 30
0.0
 10
6.514245125
 20
4.9871285081
 30
0.0
 10
6.514248853
 20
4.9871324545
 30
0.0
 10
6.5142509456
 20
4.9871346853
 30
0.0
 10
6.5142525938
 20
4.9871363945
 30
0.0
 10
6.5142537301
 20
4.9871376762
 30
0.0
 10
6.5142544904
 20
4.9871383379
 30
0.0
 10
6.5142547445
 20
4.9871387519
 30
0.0
 10
6.5142548485
 20
4.9871387998
 30
0.0
  0
LINE
  5
28E
100
AcDbEntity
  8
0
100
AcDbLine
 62
7
  6
CONTINUOUS
 10
5.3619990747
 20
4.8121387998
 11
5.3488751148
 21
4.8263422309
  0
SPLINE
  5
28F
100
AcDbEntity
  8
0
100
AcDbSpline
 62
7
  6
CONTINUOUS
 70
0
 71
3
 72
68
 73
64
 74
0
 42
0.0000001
 43
0.0000001
 44
0.0000000001
 40
0.0
 40
0.0
 40
0.0
 40
0.0
 40
0.0000108218
 40
0.0000429305
 40
0.0000963041
 40
0.0001709203
 40
0.0003837915
 40
0.0006813661
 40
0.001063469
 40
0.0015299419
 40
0.0020806328
 40
0.0027153897
 40
0.0042364504
 40
0.0060916148
 40
0.0082790222
 40
0.0107948786
 40
0.0136346048
 40
0.0167944177
 40
0.0240601555
 40
0.032557503
 40
0.0422407501
 40
0.0530647524
 40
0.0649839254
 40
0.0779462309
 40
0.0918986675
 40
0.1067908186
 40
0.122569971
 40
0.1565784299
 40
0.1935174743
 40
0.232994351
 40
0.274621467
 40
0.3180316502
 40
0.3628756471
 40
0.408808633
 40
0.4554844372
 40
0.5025552521
 40
0.5496680006
 40
0.5964607491
 40
0.6425582608
 40
0.6875684272
 40
0.7310982664
 40
0.7727482563
 40
0.8120951234
 40
0.8487111053
 40
0.8821906328
 40
0.9121482884
 40
0.9382092363
 40
0.9496702424
 40
0.9600324315
 40
0.9692631419
 40
0.9773308197
 40
0.9842058861
 40
0.989864639
 40
0.9922315771
 40
0.9942867432
 40
0.9960283274
 40
0.9974553469
 40
0.9985669015
 40
0.9993621624
 40
0.9996409115
 40
0.9998402282
 40
0.9999599715
 40
1.0
 40
1.0
 40
1.0
 40
1.0
 10
6.6769176502
 20
4.8558868204
 30
0.0
 10
6.6769176188
 20
4.8558867781
 30
0.0
 10
6.6769173973
 20
4.8558867235
 30
0.0
 10
6.6769170165
 20
4.8558864671
 30
0.0
 10
6.6769163056
 20
4.8558861311
 30
0.0
 10
6.6769148455
 20
4.8558853539
 30
0.0
 10
6.6769123099
 20
4.8558840545
 30
0.0
 10
6.6769084593
 20
4.8558820515
 30
0.0
 10
6.6769035077
 20
4.8558794874
 30
0.0
 10
6.6768974652
 20
4.855876354
 30
0.0
 10
6.6768903307
 20
4.8558726561
 30
0.0
 10
6.6768786415
 20
4.8558665975
 30
0.0
 10
6.6768613174
 20
4.8558576209
 30
0.0
 10
6.6768372848
 20
4.8558451737
 30
0.0
 10
6.6768089522
 20
4.8558305066
 30
0.0
 10
6.6767763584
 20
4.855813653
 30
0.0
 10
6.6767395493
 20
4.8557946526
 30
0.0
 10
6.6766821883
 20
4.8557650923
 30
0.0
 10
6.6766003221
 20
4.8557230038
 30
0.0
 10
6.6764901935
 20
4.8556664839
 30
0.0
 10
6.676364568
 20
4.85560225
 30
0.0
 10
6.6762239864
 20
4.8555307037
 30
0.0
 10
6.6760690633
 20
4.8554521693
 30
0.0
 10
6.6759004022
 20
4.8553670781
 30
0.0
 10
6.6757186058
 20
4.8552759163
 30
0.0
 10
6.6755243389
 20
4.8551790554
 30
0.0
 10
6.675242449
 20
4.8550392845
 30
0.0
 10
6.6748637318
 20
4.8548533698
 30
0.0
 10
6.6743801566
 20
4.8546194761
 30
0.0
 10
6.6738617717
 20
4.8543724561
 30
0.0
 10
6.673313334
 20
4.8541153518
 30
0.0
 10
6.6727394783
 20
4.8538509892
 30
0.0
 10
6.6721446756
 20
4.853582074
 30
0.0
 10
6.6715334752
 20
4.8533109071
 30
0.0
 10
6.6709104624
 20
4.8530396938
 30
0.0
 10
6.6702802278
 20
4.8527707358
 30
0.0
 10
6.6696475712
 20
4.8525060494
 30
0.0
 10
6.6690174784
 20
4.8522475436
 30
0.0
 10
6.6683950051
 20
4.85199746
 30
0.0
 10
6.6677856527
 20
4.8517573395
 30
0.0
 10
6.6671951575
 20
4.8515284043
 30
0.0
 10
6.6666289413
 20
4.8513130902
 30
0.0
 10
6.6660928503
 20
4.8511132186
 30
0.0
 10
6.6655930997
 20
4.85092967
 30
0.0
 10
6.6651354258
 20
4.8507640562
 30
0.0
 10
6.6647254165
 20
4.8506176327
 30
0.0
 10
6.6644158814
 20
4.850508351
 30
0.0
 10
6.6641960106
 20
4.8504314365
 30
0.0
 10
6.6640533572
 20
4.8503817346
 30
0.0
 10
6.6639262374
 20
4.8503376205
 30
0.0
 10
6.6638150948
 20
4.8502992079
 30
0.0
 10
6.6637203453
 20
4.8502665575
 30
0.0
 10
6.6636517958
 20
4.850242996
 30
0.0
 10
6.6636054084
 20
4.8502270891
 30
0.0
 10
6.6635770435
 20
4.8502173705
 30
0.0
 10
6.6635530033
 20
4.850209136
 30
0.0
 10
6.6635333037
 20
4.8502023942
 30
0.0
 10
6.6635179627
 20
4.8501971358
 30
0.0
 10
6.6635078979
 20
4.8501937073
 30
0.0
 10
6.663502044
 20
4.8501916861
 30
0.0
 10
6.6634992801
 20
4.850190775
 30
0.0
 10
6.6634976482
 20
4.8501901589
 30
0.0
 10
6.6634968907
 20
4.8501899612
 30
0.0
 10
6.6634967155
 20
4.8501898762
 30
0.0
  0
SPLINE
  5
290
100
AcDbEntity
  8
0
100
AcDbSpline
 62
7
  6
CONTINUOUS
 70
0
 71
3
 72
25
 73
21
 74
0
 42
0.0000001
 43
0.0000001
 44
0.0000000001
 40
0.0
 40
0.0
 40
0.0
 40
0.0
 40
0.070244306
 40
0.1388956392
 40
0.1726648453
 40
0.2060806086
 40
0.2719087556
 40
0.3365244958
 40
0.400059067
 40
0.4626379308
 40
0.5243791901
 40
0.5853930083
 40
0.6457822252
 40
0.705642444
 40
0.7650632286
 40
0.8241296017
 40
0.8829224962
 40
0.9415193465
 40
0.9707702069
 40
1.0
 40
1.0
 40
1.0
 40
1.0
 10
4.7498008712
 20
4.9937021044
 30
0.0
 10
4.7483247381
 20
4.9960348042
 30
0.0
 10
4.7452269303
 20
5.0005365579
 30
0.0
 10
4.7409691523
 20
5.005827963
 30
0.0
 10
4.7374020167
 20
5.0098006926
 30
0.0
 10
4.7337744547
 20
5.01356561
 30
0.0
 10
4.7290700698
 20
5.0179707034
 30
0.0
 10
4.7231681743
 20
5.022803893
 30
0.0
 10
4.7170730819
 20
5.0271749453
 30
0.0
 10
4.7108150343
 20
5.0310998843
 30
0.0
 10
4.7044195937
 20
5.0345939533
 30
0.0
 10
4.6979087553
 20
5.0376710539
 30
0.0
 10
4.691301548
 20
5.0403435218
 30
0.0
 10
4.684614665
 20
5.0426220989
 30
0.0
 10
4.6778629452
 20
5.044515951
 30
0.0
 10
4.6710596906
 20
5.0460326664
 30
0.0
 10
4.6642172285
 20
5.0471782917
 30
0.0
 10
4.6584882102
 20
5.0478278953
 30
0.0
 10
4.6538991904
 20
5.0481654297
 30
0.0
 10
4.6516031901
 20
5.0482735943
 30
0.0
 10
4.6504551616
 20
5.0483127518
 30
0.0
  0
LINE
  5
291
100
AcDbEntity
  8
0
100
AcDbLine
 62
7
  6
CONTINUOUS
 10
5.1738730534
 20
4.826342344
 11
5.1607490747
 21
4.8121387998
  0
SPLINE
  5
292
100
AcDbEntity
  8
0
100
AcDbSpline
 62
7
  6
CONTINUOUS
 70
0
 71
3
 72
39
 73
35
 74
0
 42
0.0000001
 43
0.0000001
 44
0.0000000001
 40
0.0
 40
0.0
 40
0.0
 40
0.0
 40
0.0000303461
 40
0.0000993509
 40
0.0002068272
 40
0.000352582
 40
0.0007581531
 40
0.0013145211
 40
0.0020203494
 40
0.002875598
 40
0.003880735
 40
0.005036226
 40
0.0077995389
 40
0.0111640007
 40
0.0151259307
 40
0.0196827142
 40
0.0248324514
 40
0.0305714651
 40
0.0437941065
 40
0.0592986162
 40
0.0770282628
 40
0.0969243689
 40
0.1189267805
 40
0.1429742433
 40
0.1690012219
 40
0.2266992528
 40
0.2914332736
 40
0.3626355126
 40
0.4397667889
 40
0.5223018647
 40
0.6097424028
 40
0.7016255359
 40
0.797539088
 40
1.0
 40
1.0
 40
1.0
 40
1.0
 10
5.3794990228
 20
4.8296388273
 30
0.0
 10
5.3794986883
 20
4.829639035
 30
0.0
 10
5.379497665
 20
4.8296398237
 30
0.0
 10
5.3794955074
 20
4.8296414168
 30
0.0
 10
5.3794921896
 20
4.8296439641
 30
0.0
 10
5.3794854121
 20
4.8296491742
 30
0.0
 10
5.3794740769
 20
4.8296580149
 30
0.0
 10
5.3794570778
 20
4.82967141
 30
0.0
 10
5.3794355869
 20
4.8296885331
 30
0.0
 10
5.3794096005
 20
4.829709359
 30
0.0
 10
5.3793790964
 20
4.8297338787
 30
0.0
 10
5.3793293169
 20
4.8297739408
 30
0.0
 10
5.3792556758
 20
4.8298331869
 30
0.0
 10
5.3791536452
 20
4.8299152452
 30
0.0
 10
5.3790334932
 20
4.8300119081
 30
0.0
 10
5.3788952723
 20
4.8301230709
 30
0.0
 10
5.3787390069
 20
4.8302485946
 30
0.0
 10
5.3784949488
 20
4.8304443967
 30
0.0
 10
5.3781459
 20
4.8307240643
 30
0.0
 10
5.3776753033
 20
4.8311008831
 30
0.0
 10
5.3771370568
 20
4.8315317702
 30
0.0
 10
5.3765329122
 20
4.8320152681
 30
0.0
 10
5.3758646048
 20
4.8325498049
 30
0.0
 10
5.3751338607
 20
4.8331336546
 30
0.0
 10
5.3740406093
 20
4.8340058872
 30
0.0
 10
5.3725336518
 20
4.83520618
 30
0.0
 10
5.3705666056
 20
4.8367697925
 30
0.0
 10
5.3684000245
 20
4.8384876593
 30
0.0
 10
5.3660491249
 20
4.8403448692
 30
0.0
 10
5.3635289621
 20
4.842327747
 30
0.0
 10
5.3608538544
 20
4.8444232729
 30
0.0
 10
5.3580371943
 20
4.8466196185
 30
0.0
 10
5.354035299
 20
4.8497233026
 30
0.0
 10
5.350964037
 20
4.8520813047
 30
0.0
 10
5.3488740867
 20
4.8536734821
 30
0.0
  0
SPLINE
  5
293
100
AcDbEntity
  8
0
100
AcDbSpline
 62
7
  6
CONTINUOUS
 70
0
 71
3
 72
50
 73
46
 74
0
 42
0.0000001
 43
0.0000001
 44
0.0000000001
 40
0.0
 40
0.0
 40
0.0
 40
0.0
 40
0.1029763666
 40
0.2026371843
 40
0.2986317732
 40
0.3905828453
 40
0.4780802366
 40
0.5606633549
 40
0.6378327518
 40
0.7090615126
 40
0.7422790426
 40
0.7738046281
 40
0.8035657084
 40
0.8314882488
 40
0.8574985273
 40
0.8815271016
 40
0.9035095347
 40
0.923381773
 40
0.9410805904
 40
0.9490957312
 40
0.9565446828
 40
0.9634201679
 40
0.9697152548
 40
0.9754253171
 40
0.9805468661
 40
0.9850768407
 40
0.9890124936
 40
0.9907564897
 40
0.9923506579
 40
0.9937945349
 40
0.9950876765
 40
0.9962299693
 40
0.9972215799
 40
0.9980626849
 40
0.9987534598
 40
0.9990424379
 40
0.9992936502
 40
0.9995069564
 40
0.9996822157
 40
0.9998192873
 40
0.9999180306
 40
0.9999529855
 40
0.9999783067
 40
0.9999939789
 40
1.0
 40
1.0
 40
1.0
 40
1.0
 10
5.1738741114
 20
4.8536733654
 30
0.0
 10
5.1728112008
 20
4.8528634301
 30
0.0
 10
5.1707225275
 20
4.8512657946
 30
0.0
 10
5.1676524965
 20
4.8489007676
 30
0.0
 10
5.1647030491
 20
4.8466136898
 30
0.0
 10
5.1618843864
 20
4.8444155636
 30
0.0
 10
5.1592076455
 20
4.8423184799
 30
0.0
 10
5.1566860521
 20
4.8403344141
 30
0.0
 10
5.1543339691
 20
4.8384763388
 30
0.0
 10
5.1524870953
 20
4.8370121907
 30
0.0
 10
5.1511054416
 20
4.8359146761
 30
0.0
 10
5.1501455999
 20
4.8351513125
 30
0.0
 10
5.1492399313
 20
4.8344302245
 30
0.0
 10
5.1483906404
 20
4.8337532336
 30
0.0
 10
5.1475999193
 20
4.8331221126
 30
0.0
 10
5.1468697828
 20
4.8325386562
 30
0.0
 10
5.1462020502
 20
4.8320047028
 30
0.0
 10
5.1455985762
 20
4.8315219166
 30
0.0
 10
5.145136712
 20
4.8311522666
 30
0.0
 10
5.1448007882
 20
4.8308832649
 30
0.0
 10
5.144574545
 20
4.830702
 30
0.0
 10
5.1443657845
 20
4.8305346132
 30
0.0
 10
5.1441747202
 20
4.8303812291
 30
0.0
 10
5.1440014795
 20
4.830242001
 30
0.0
 10
5.1438461342
 20
4.8301170713
 30
0.0
 10
5.1437087465
 20
4.8300065551
 30
0.0
 10
5.143605495
 20
4.8299235314
 30
0.0
 10
5.1435319131
 20
4.8298644073
 30
0.0
 10
5.1434835308
 20
4.829825546
 30
0.0
 10
5.1434397035
 20
4.8297903568
 30
0.0
 10
5.1434004448
 20
4.8297588438
 30
0.0
 10
5.1433657546
 20
4.8297310153
 30
0.0
 10
5.1433356201
 20
4.8297068824
 30
0.0
 10
5.1433100277
 20
4.8296864514
 30
0.0
 10
5.1432915201
 20
4.8296717606
 30
0.0
 10
5.143278972
 20
4.8296618751
 30
0.0
 10
5.1432712768
 20
4.829655842
 30
0.0
 10
5.1432647294
 20
4.8296507374
 30
0.0
 10
5.1432593385
 20
4.8296465567
 30
0.0
 10
5.1432551088
 20
4.8296433092
 30
0.0
 10
5.1432523172
 20
4.8296411687
 30
0.0
 10
5.1432506628
 20
4.829639944
 30
0.0
 10
5.143249878
 20
4.8296393329
 30
0.0
 10
5.1432493696
 20
4.8296390215
 30
0.0
 10
5.1432491519
 20
4.829638812
 30
0.0
 10
5.1432490747
 20
4.8296387998
 30
0.0
  0
SPLINE
  5
294
100
AcDbEntity
  8
0
100
AcDbSpline
 62
7
  6
CONTINUOUS
 70
0
 71
3
 72
28
 73
24
 74
0
 42
0.0000001
 43
0.0000001
 44
0.0000000001
 40
0.0
 40
0.0
 40
0.0
 40
0.0
 40
0.0566173218
 40
0.1138867724
 40
0.1718591081
 40
0.2305825569
 40
0.2901044574
 40
0.3504702556
 40
0.4117175984
 40
0.473873956
 40
0.5369530053
 40
0.6009479153
 40
0.6332831978
 40
0.6658328912
 40
0.6985879594
 40
0.7315370558
 40
0.7646664647
 40
0.7979601946
 40
0.8313999603
 40
0.8649652709
 40
0.8986336229
 40
0.9323809004
 40
1.0
 40
1.0
 40
1.0
 40
1.0
 10
5.1738731398
 20
4.8598117801
 30
0.0
 10
5.1725397068
 20
4.8609064952
 30
0.0
 10
5.1699042605
 20
4.8631662685
 30
0.0
 10
5.1660810167
 20
4.8667474621
 30
0.0
 10
5.1623783094
 20
4.8705436534
 30
0.0
 10
5.1588114773
 20
4.8745602475
 30
0.0
 10
5.1553976096
 20
4.8788018945
 30
0.0
 10
5.1521546318
 20
4.8832711849
 30
0.0
 10
5.1491035698
 20
4.8879699
 30
0.0
 10
5.1462679666
 20
4.8928976166
 30
0.0
 10
5.1436723821
 20
4.8980499315
 30
0.0
 10
5.1417377973
 20
4.902508864
 30
0.0
 10
5.1403358633
 20
4.9061778441
 30
0.0
 10
5.1393577308
 20
4.908988245
 30
0.0
 10
5.1384598636
 20
4.9118449081
 30
0.0
 10
5.1376455599
 20
4.9147448819
 30
0.0
 10
5.1369184184
 20
4.9176848572
 30
0.0
 10
5.1362815932
 20
4.9206610114
 30
0.0
 10
5.1357374868
 20
4.9236690151
 30
0.0
 10
5.135288418
 20
4.9267042043
 30
0.0
 10
5.1349370281
 20
4.9297617553
 30
0.0
 10
5.1346008175
 20
4.9338632447
 30
0.0
 10
5.1344991109
 20
4.9369533171
 30
0.0
 10
5.1344990747
 20
4.9390137998
 30
0.0
  0
SPLINE
  5
295
100
AcDbEntity
  8
0
100
AcDbSpline
 62
7
  6
CONTINUOUS
 70
0
 71
3
 72
27
 73
23
 74
0
 42
0.0000001
 43
0.0000001
 44
0.0000000001
 40
0.0
 40
0.0
 40
0.0
 40
0.0
 40
0.0146260293
 40
0.029253725
 40
0.0585220929
 40
0.0878172237
 40
0.1171482313
 40
0.175951665
 40
0.2350171072
 40
0.2944273548
 40
0.3542692872
 40
0.4146344909
 40
0.4756206708
 40
0.537332915
 40
0.5998841539
 40
0.6633952284
 40
0.7279952616
 40
0.7938192291
 40
0.8272386936
 40
0.8610161087
 40
0.9296993453
 40
1.0
 40
1.0
 40
1.0
 40
1.0
 10
4.648752058
 20
4.829667773
 30
0.0
 10
4.6493350191
 20
4.8296801273
 30
0.0
 10
4.6505008596
 20
4.8297125943
 30
0.0
 10
4.6528320376
 20
4.8298082038
 30
0.0
 10
4.6557448769
 20
4.8299861472
 30
0.0
 10
4.6592358935
 20
4.830293204
 30
0.0
 10
4.663887238
 20
4.8308280497
 30
0.0
 10
4.6696885064
 20
4.8317333266
 30
0.0
 10
4.6766056173
 20
4.8332002755
 30
0.0
 10
4.683472144
 20
4.8350548664
 30
0.0
 10
4.6902742222
 20
4.8373047384
 30
0.0
 10
4.6969966434
 20
4.8399592065
 30
0.0
 10
4.7036222203
 20
4.8430293021
 30
0.0
 10
4.7101313793
 20
4.8465277353
 30
0.0
 10
4.716501516
 20
4.850468812
 30
0.0
 10
4.7227062104
 20
4.8548684864
 30
0.0
 10
4.728714308
 20
4.8597433484
 30
0.0
 10
4.7335026019
 20
4.8641943034
 30
0.0
 10
4.7371940928
 20
4.8680029758
 30
0.0
 10
4.7408238913
 20
4.8720255034
 30
0.0
 10
4.7451548279
 20
4.8773891816
 30
0.0
 10
4.7483022141
 20
4.881957192
 30
0.0
 10
4.7498008649
 20
4.8843255111
 30
0.0
  0
SPLINE
  5
296
100
AcDbEntity
  8
0
100
AcDbSpline
 62
7
  6
CONTINUOUS
 70
0
 71
3
 72
66
 73
62
 74
0
 42
0.0000001
 43
0.0000001
 44
0.0000000001
 40
0.0
 40
0.0
 40
0.0
 40
0.0
 40
0.000040035
 40
0.0001597793
 40
0.000359094
 40
0.0006378402
 40
0.0014330991
 40
0.0025446561
 40
0.0039716789
 40
0.0057132654
 40
0.0077684323
 40
0.0101353723
 40
0.0157941294
 40
0.0226691991
 40
0.0307368754
 40
0.0399676053
 40
0.0503298372
 40
0.0617908424
 40
0.0878517241
 40
0.1178095066
 40
0.1512890406
 40
0.1879049722
 40
0.2272516969
 40
0.3124314024
 40
0.357441902
 40
0.4035394891
 40
0.4974443163
 40
0.544515107
 40
0.5911906401
 40
0.6371235948
 40
0.6819676376
 40
0.7253790961
 40
0.7670059896
 40
0.8064814547
 40
0.8434210261
 40
0.8774299836
 40
0.8932093476
 40
0.9081016317
 40
0.9220539954
 40
0.9350161483
 40
0.9469352123
 40
0.957759412
 40
0.9674428497
 40
0.9759394752
 40
0.9832048437
 40
0.9863653759
 40
0.9892058062
 40
0.9917218704
 40
0.9939088643
 40
0.9957631483
 40
0.9972835423
 40
0.997918234
 40
0.9984690144
 40
0.9989356817
 40
0.9993180338
 40
0.9996158636
 40
0.9998289501
 40
0.9999036448
 40
0.99995707
 40
0.9999891977
 40
1.0
 40
1.0
 40
1.0
 40
1.0
 10
6.588026434
 20
4.8501898764
 30
0.0
 10
6.5880262571
 20
4.8501899578
 30
0.0
 10
6.5880255036
 20
4.8501901641
 30
0.0
 10
6.5880238678
 20
4.8501907718
 30
0.0
 10
6.5880211061
 20
4.8501916875
 30
0.0
 10
6.5880152508
 20
4.8501937056
 30
0.0
 10
6.588005187
 20
4.8501971361
 30
0.0
 10
6.5879898454
 20
4.8502023933
 30
0.0
 10
6.5879701459
 20
4.8502091353
 30
0.0
 10
6.5879461057
 20
4.8502173696
 30
0.0
 10
6.5879177407
 20
4.850227088
 30
0.0
 10
6.5878713532
 20
4.8502429947
 30
0.0
 10
6.5878028039
 20
4.8502665567
 30
0.0
 10
6.5877080545
 20
4.8502992071
 30
0.0
 10
6.5875969139
 20
4.8503376255
 30
0.0
 10
6.5874697922
 20
4.8503817345
 30
0.0
 10
6.5873271323
 20
4.8504314182
 30
0.0
 10
6.5871072668
 20
4.850508347
 30
0.0
 10
6.5867977451
 20
4.8506176664
 30
0.0
 10
6.5863877158
 20
4.8507640334
 30
0.0
 10
6.585930051
 20
4.8509296723
 30
0.0
 10
6.5854303038
 20
4.851113226
 30
0.0
 10
6.5846958123
 20
4.8513870995
 30
0.0
 10
6.5839259926
 20
4.8516830503
 30
0.0
 10
6.5831281121
 20
4.8519973848
 30
0.0
 10
6.5822929849
 20
4.8523329239
 30
0.0
 10
6.5814523253
 20
4.8526815074
 30
0.0
 10
6.5806127102
 20
4.8530397438
 30
0.0
 10
6.5799896529
 20
4.8533108508
 30
0.0
 10
6.5793784656
 20
4.8535820423
 30
0.0
 10
6.578783641
 20
4.8538509234
 30
0.0
 10
6.5782098427
 20
4.8541154221
 30
0.0
 10
6.5776613949
 20
4.8543724982
 30
0.0
 10
6.577142971
 20
4.8546194231
 30
0.0
 10
6.5766594196
 20
4.8548533606
 30
0.0
 10
6.5762807
 20
4.8550392831
 30
0.0
 10
6.5759988102
 20
4.8551790627
 30
0.0
 10
6.575804544
 20
4.8552759274
 30
0.0
 10
6.5756227468
 20
4.8553670862
 30
0.0
 10
6.5754540855
 20
4.8554521731
 30
0.0
 10
6.5752991612
 20
4.8555307039
 30
0.0
 10
6.5751585801
 20
4.8556022539
 30
0.0
 10
6.5750329603
 20
4.8556664952
 30
0.0
 10
6.5749228287
 20
4.8557229992
 30
0.0
 10
6.5748409561
 20
4.8557650712
 30
0.0
 10
6.5747836
 20
4.8557946521
 30
0.0
 10
6.5747467902
 20
4.8558136682
 30
0.0
 10
6.5747141961
 20
4.8558305267
 30
0.0
 10
6.5746858654
 20
4.8558451858
 30
0.0
 10
6.5746618339
 20
4.8558576141
 30
0.0
 10
6.5746445112
 20
4.8558665765
 30
0.0
 10
6.5746328242
 20
4.8558726323
 30
0.0
 10
6.5746256894
 20
4.855876332
 30
0.0
 10
6.574619646
 20
4.8558794694
 30
0.0
 10
6.5746146932
 20
4.8558820386
 30
0.0
 10
6.5746108412
 20
4.8558840465
 30
0.0
 10
6.5746083049
 20
4.8558853501
 30
0.0
 10
6.5746068438
 20
4.8558861294
 30
0.0
 10
6.5746061334
 20
4.855886467
 30
0.0
 10
6.5746057512
 20
4.8558867231
 30
0.0
 10
6.5746055313
 20
4.8558867788
 30
0.0
 10
6.5746054993
 20
4.8558868205
 30
0.0
  0
SPLINE
  5
297
100
AcDbEntity
  8
0
100
AcDbSpline
 62
7
  6
CONTINUOUS
 70
0
 71
3
 72
83
 73
79
 74
0
 42
0.0000001
 43
0.0000001
 44
0.0000000001
 40
0.0
 40
0.0
 40
0.0
 40
0.0
 40
0.0000090701
 40
0.0000363362
 40
0.0000818879
 40
0.0001458145
 40
0.0002282056
 40
0.0003291505
 40
0.0005870595
 40
0.0009202565
 40
0.0013293036
 40
0.0018144345
 40
0.0023758399
 40
0.0030137105
 40
0.0037282174
 40
0.0053859741
 40
0.0073450249
 40
0.00960103
 40
0.0121503302
 40
0.0149895472
 40
0.0181165845
 40
0.0215305088
 40
0.0292157518
 40
0.0380380198
 40
0.0479812057
 40
0.059013555
 40
0.0711011398
 40
0.084216189
 40
0.0983320739
 40
0.1134193225
 40
0.1463713207
 40
0.1827471153
 40
0.2221511302
 40
0.264189194
 40
0.3084752889
 40
0.3546036613
 40
0.4021151463
 40
0.4505463345
 40
0.4994342776
 40
0.5483082358
 40
0.5967076354
 40
0.6441894135
 40
0.6903040442
 40
0.734596895
 40
0.7766532518
 40
0.8160829778
 40
0.8346931171
 40
0.8525002525
 40
0.8694589642
 40
0.8855324077
 40
0.9006880988
 40
0.9148930001
 40
0.9281143299
 40
0.9403168866
 40
0.9514634457
 40
0.9615132275
 40
0.9704310517
 40
0.9782026742
 40
0.9816559461
 40
0.9848195941
 40
0.9876926819
 40
0.9902731281
 40
0.992557272
 40
0.9945412048
 40
0.996220506
 40
0.9969445062
 40
0.9975909521
 40
0.9981599899
 40
0.9986517965
 40
0.9990665489
 40
0.9994044599
 40
0.9996660613
 40
0.9997684641
 40
0.9998520517
 40
0.9999169115
 40
0.9999631312
 40
0.9999907982
 40
1.0
 40
1.0
 40
1.0
 40
1.0
 10
6.6174534675
 20
4.8424479821
 30
0.0
 10
6.6174534524
 20
4.8424479454
 30
0.0
 10
6.6174532344
 20
4.8424480544
 30
0.0
 10
6.6174529347
 20
4.8424479885
 30
0.0
 10
6.6174523052
 20
4.8424480884
 30
0.0
 10
6.6174514827
 20
4.8424481297
 30
0.0
 10
6.6174503983
 20
4.8424482229
 30
0.0
 10
6.617448476
 20
4.8424483684
 30
0.0
 10
6.6174454551
 20
4.8424486067
 30
0.0
 10
6.6174410926
 20
4.8424489461
 30
0.0
 10
6.6174357378
 20
4.8424493651
 30
0.0
 10
6.6174293879
 20
4.8424498623
 30
0.0
 10
6.6174220397
 20
4.8424504389
 30
0.0
 10
6.6174136911
 20
4.8424510953
 30
0.0
 10
6.6174005598
 20
4.8424521299
 30
0.0
 10
6.6173816656
 20
4.8424536245
 30
0.0
 10
6.6173560482
 20
4.8424556665
 30
0.0
 10
6.6173265435
 20
4.8424580393
 30
0.0
 10
6.6172932006
 20
4.8424607315
 30
0.0
 10
6.6172560586
 20
4.8424637307
 30
0.0
 10
6.6172151454
 20
4.8424670348
 30
0.0
 10
6.6171530964
 20
4.8424720581
 30
0.0
 10
6.6170662099
 20
4.842479127
 30
0.0
 10
6.616950847
 20
4.8424885212
 30
0.0
 10
6.6168209
 20
4.8424992756
 30
0.0
 10
6.6166767304
 20
4.8425114152
 30
0.0
 10
6.6165187444
 20
4.8425248898
 30
0.0
 10
6.6163473281
 20
4.8425396729
 30
0.0
 10
6.6161628523
 20
4.8425557932
 30
0.0
 10
6.6158919311
 20
4.8425797982
 30
0.0
 10
6.6155240335
 20
4.8426129655
 30
0.0
 10
6.615050335
 20
4.8426576057
 30
0.0
 10
6.6145372272
 20
4.8427077933
 30
0.0
 10
6.6139898725
 20
4.8427633911
 30
0.0
 10
6.6134134755
 20
4.8428242034
 30
0.0
 10
6.6128135204
 20
4.8428899568
 30
0.0
 10
6.6121958502
 20
4.8429605068
 30
0.0
 10
6.6115665128
 20
4.8430352601
 30
0.0
 10
6.6109315889
 20
4.8431134771
 30
0.0
 10
6.6102971799
 20
4.8431946843
 30
0.0
 10
6.6096693286
 20
4.8432785863
 30
0.0
 10
6.6090538644
 20
4.8433639534
 30
0.0
 10
6.6084564906
 20
4.843448925
 30
0.0
 10
6.6078830395
 20
4.8435334483
 30
0.0
 10
6.607338916
 20
4.8436162884
 30
0.0
 10
6.6069061379
 20
4.8436837785
 30
0.0
 10
6.6065783573
 20
4.8437358853
 30
0.0
 10
6.6063477371
 20
4.8437728661
 30
0.0
 10
6.6061281382
 20
4.8438084676
 30
0.0
 10
6.6059200735
 20
4.8438427113
 30
0.0
 10
6.6057239639
 20
4.8438753885
 30
0.0
 10
6.60554022
 20
4.8439063423
 30
0.0
 10
6.6053692664
 20
4.8439354291
 30
0.0
 10
6.6052115415
 20
4.8439624774
 30
0.0
 10
6.6050675176
 20
4.8439873108
 30
0.0
 10
6.6049376723
 20
4.8440097834
 30
0.0
 10
6.6048223936
 20
4.8440298216
 30
0.0
 10
6.6047355827
 20
4.8440450814
 30
0.0
 10
6.6046735769
 20
4.8440560146
 30
0.0
 10
6.6046326821
 20
4.8440632333
 30
0.0
 10
6.6045955498
 20
4.8440697952
 30
0.0
 10
6.6045622082
 20
4.8440756919
 30
0.0
 10
6.604532698
 20
4.8440809114
 30
0.0
 10
6.6045070701
 20
4.8440854402
 30
0.0
 10
6.6044881651
 20
4.8440887811
 30
0.0
 10
6.6044750241
 20
4.8440911071
 30
0.0
 10
6.6044666675
 20
4.8440925886
 30
0.0
 10
6.6044593116
 20
4.844093895
 30
0.0
 10
6.6044529548
 20
4.8440950265
 30
0.0
 10
6.604447593
 20
4.8440959826
 30
0.0
 10
6.6044432262
 20
4.8440967655
 30
0.0
 10
6.6044401985
 20
4.8440973067
 30
0.0
 10
6.604438278
 20
4.8440976568
 30
0.0
 10
6.604437183
 20
4.8440978459
 30
0.0
 10
6.6044363826
 20
4.8440980127
 30
0.0
 10
6.6044357
 20
4.8440980866
 30
0.0
 10
6.6044354912
 20
4.8440982116
 30
0.0
 10
6.6044351786
 20
4.8440981784
 30
0.0
 10
6.6044352021
 20
4.8440982111
 30
0.0
  0
ENDSEC
  0
SECTION
  2
OBJECTS
  0
DICTIONARY
  5
C
100
AcDbDictionary
280
0
281
1
  3
ACAD_GROUP
350
D
  3
ACAD_MLINESTYLE
350
17
  3
ACAD_LAYOUT
350
1A
  3
ACAD_PLOTSETTINGS
350
19
  3
ACAD_PLOTSTYLENAME
350
E
  0
DICTIONARY
  5
D
102
{ACAD_REACTORS
330
C
102
}
100
AcDbDictionary
280
0
281
1
  0
ACDBDICTIONARYWDFLT
  5
E
102
{ACAD_REACTORS
330
C
102
}
100
AcDbDictionary
281
1
  3
Normal
350
F
100
AcDbDictionaryWithDefault
340
F
  0
DICTIONARY
  5
17
102
{ACAD_REACTORS
330
C
102
}
100
AcDbDictionary
280
0
281
1
  3
Standard
350
18
  0
DICTIONARY
  5
19
102
{ACAD_REACTORS
330
C
102
}
100
AcDbDictionary
281
1
  0
DICTIONARY
  5
1A
102
{ACAD_REACTORS
330
C
102
}
100
AcDbDictionary
281
1
  3
Model
350
298
  3
Layout1
350
299
  0
ACDBPLACEHOLDER
  5
F
102
{ACAD_REACTORS
330
E
102
}
  0
MLINESTYLE
  5
18
102
{ACAD_REACTORS
330
17
102
}
100
AcDbMlineStyle
  2
STANDARD
 70
0
  3

 62
256
 51
90.0
 52
90.0
 71
2
 49
0.5
 62
256
  6
BYLAYER
 49
-0.5
 62
256
  6
BYLAYER
  0
LAYOUT
  5
298
102
{ACAD_REACTORS
330
1A
102
}
100
AcDbPlotSettings
  1

  2
none_device
  4
ANSI_A_(11.00_x_8.50_Inches)
  6

 40
0.0
 41
0.0
 42
0.0
 43
0.0
 44
279.4
 45
215.9
 46
0.0
 47
0.0
 48
0.0
 49
0.0
140
0.0
141
0.0
142
1.0
143
1.0
 70
1024
 72
0
 73
0
 74
0
  7

 75
0
147
1.0
148
0.0
149
0.0
100
AcDbLayout
  1
Model
 70
0
 71
0
 10
0.0
 20
0.0
 11
11.0
 21
8.5
 12
0.0
 22
0.0
 32
0.0
 14
0.0
 24
0.0
 34
0.0
 15
0.0
 25
0.0
 35
0.0
146
0.0
 13
0.0
 23
0.0
 33
0.0
 16
1.0
 26
0.0
 36
0.0
 17
0.0
 27
1.0
 37
0.0
 76
0
330
202
345
0
346
0
  0
LAYOUT
  5
299
102
{ACAD_REACTORS
330
1A
102
}
100
AcDbPlotSettings
  1

  2
none_device
  4
ANSI_A_(11.00_x_8.50_Inches)
  6

 40
0.0
 41
0.0
 42
0.0
 43
0.0
 44
279.4
 45
215.9
 46
0.0
 47
0.0
 48
0.0
 49
0.0
140
0.0
141
0.0
142
1.0
143
1.0
 70
0
 72
0
 73
0
 74
0
  7

 75
0
147
1.0
148
0.0
149
0.0
100
AcDbLayout
  1
Layout1
 70
0
 71
1
 10
0.0
 20
0.0
 11
11.0
 21
8.5
 12
0.0
 22
0.0
 32
0.0
 14
0.0
 24
0.0
 34
0.0
 15
0.0
 25
0.0
 35
0.0
146
0.0
 13
0.0
 23
0.0
 33
0.0
 16
1.0
 26
0.0
 36
0.0
 17
0.0
 27
1.0
 37
0.0
 76
0
330
203
345
0
346
0
  0
ENDSEC
  0
EOF
