999
DXF file: E:\BT Custom\CADOUTPUT\_RIGHT.dxf
999
Pro/ENGINEER 2018400 by Parametric Technology Corporation
  0
SECTION
  2
HEADER
  9
$ACADVER
  1
AC1018
  9
$DWGCODEPAGE
  3
ANSI_1252
  9
$EXTMAX
 10
22.0
 20
17.0
 30
0.0
  9
$EXTMIN
 10
0.0
 20
0.0
 30
0.0
  9
$LIMMIN
 10
0.0
 20
0.0
  9
$LIMMAX
 10
22.0
 20
17.0
  9
$VIEWCTR
 10
11.0
 20
8.5
  9
$VIEWSIZE
 40
17.0
  9
$CLAYER
  8
0
  9
$LTSCALE
 40
1.21
  9
$CELTYPE
  6
BYLAYER
  9
$DIMSCALE
 40
1.0
  9
$DIMASZ
 40
0.1
  9
$DIMEXO
 40
0.0625
  9
$DIMDLI
 40
0.836
  9
$DIMEXE
 40
0.125
  9
$DIMCEN
 40
0.198
  9
$DIMLFAC
 40
1.0
  9
$DIMBLK
  1
_FILLED
  9
$DIMALT
 70
1
  9
$DIMALTD
 70
2
  9
$DIMALTTD
 70
2
  9
$DIMALTF
 40
25.4
  9
$DIMTXT
 40
0.08
  9
$DIMTOL
 70
1
  9
$DIMLIM
 70
0
  9
$DIMTFAC
 40
1.0
  9
$DIMTP
 40
0.001
  9
$DIMTM
 40
0.001
  9
$DIMGAP
 40
0.09
  9
$DIMDSEP
 70
46
  9
$AUNITS
 70
0
  9
$PDMODE
 70
3
  9
$PDSIZE
 40
0.06
  9
$HANDSEED
  5
2B8
  9
$TILEMODE
 70
1
  9
$MEASUREMENT
 70
0
  9
$INSUNITS
 70
1
  0
ENDSEC
  0
SECTION
  2
CLASSES
  0
CLASS
  1
ACDBDICTIONARYWDFLT
  2
AcDbDictionaryWithDefault
  3
AutoCAD 2000
 90
0
 91
1
280
0
281
0
  0
CLASS
  1
ACDBPLACEHOLDER
  2
AcDbPlaceHolder
  3
AutoCAD 2000
 90
0
 91
1
280
0
281
0
  0
CLASS
  1
LAYOUT
  2
AcDbLayout
  3
AutoCAD 2000
 90
0
 91
0
280
0
281
0
  0
ENDSEC
  0
SECTION
  2
TABLES
  0
TABLE
  2
VPORT
  5
8
100
AcDbSymbolTable
 70
2
  0
VPORT
  5
1F4
100
AcDbSymbolTableRecord
100
AcDbViewportTableRecord
  2
*ACTIVE
 70
0
 10
0.0
 20
0.0
 11
1.0
 21
1.0
 12
11.0
 22
8.5
 13
0.0
 23
0.0
 14
1.0
 24
1.0
 15
0.0
 25
0.0
 16
0.0
 26
0.0
 36
1.0
 17
0.0
 27
0.0
 37
0.0
 40
17.0
 41
1.2941176471
 42
50.0
 43
0.0
 44
0.0
 50
0.0
 51
0.0
 71
0
 72
100
 73
1
 74
1
 75
0
 76
0
 77
0
 78
0
  0
ENDTAB
  0
TABLE
  2
LTYPE
  5
5
100
AcDbSymbolTable
 70
6
  0
LTYPE
  5
14
100
AcDbSymbolTableRecord
100
AcDbLinetypeTableRecord
  2
BYBLOCK
 70
0
  3

 72
65
 73
0
 40
0.0
  0
LTYPE
  5
15
100
AcDbSymbolTableRecord
100
AcDbLinetypeTableRecord
  2
BYLAYER
 70
0
  3

 72
65
 73
0
 40
0.0
  0
LTYPE
  5
16
100
AcDbSymbolTableRecord
100
AcDbLinetypeTableRecord
  2
CONTINUOUS
 70
64
  3
Solid line
 72
65
 73
0
 40
0.0
  0
LTYPE
  5
1F5
100
AcDbSymbolTableRecord
100
AcDbLinetypeTableRecord
  2
CENTER
 70
64
  3
____ _ ____ _ ____ _ ____ _ ____ _ ____ _ ____
 72
65
 73
4
 40
0.6
 49
0.375
 74
0
 49
-0.075
 74
0
 49
0.075
 74
0
 49
-0.075
 74
0
  0
LTYPE
  5
1F6
100
AcDbSymbolTableRecord
100
AcDbLinetypeTableRecord
  2
HIDDEN
 70
64
  3
- - - - - - - - - - - - - - - - - - - -
 72
65
 73
2
 40
0.2
 49
0.1
 74
0
 49
-0.1
 74
0
  0
LTYPE
  5
1F7
100
AcDbSymbolTableRecord
100
AcDbLinetypeTableRecord
  2
PHANTOM
 70
64
  3
_____ _ _ _____ _ _ _____ _ _ _____
 72
65
 73
6
 40
0.8
 49
0.45
 74
0
 49
-0.05
 74
0
 49
0.1
 74
0
 49
-0.05
 74
0
 49
0.1
 74
0
 49
-0.05
 74
0
  0
LTYPE
  5
1F8
100
AcDbSymbolTableRecord
100
AcDbLinetypeTableRecord
  2
DOT
 70
64
  3
. . . . . . . . . . . . . . . . . . . .
 72
65
 73
2
 40
0.2
 49
0.1
 74
0
 49
-0.1
 74
0
  0
LTYPE
  5
1F9
100
AcDbSymbolTableRecord
100
AcDbLinetypeTableRecord
  2
DASHED
 70
64
  3
- - - - - - - - - - - - - - - - - - - -
 72
65
 73
2
 40
0.2
 49
0.1
 74
0
 49
-0.1
 74
0
  0
ENDTAB
  0
TABLE
  2
LAYER
  5
2
100
AcDbSymbolTable
 70
36
  0
LAYER
  5
10
100
AcDbSymbolTableRecord
100
AcDbLayerTableRecord
  2
0
 70
0
 62
7
  6
CONTINUOUS
370
-3
390
F
  0
LAYER
  5
1FA
100
AcDbSymbolTableRecord
100
AcDbLayerTableRecord
  2
DEFAULT_1
 70
0
 62
7
  6
CENTER
370
-3
390
F
  0
LAYER
  5
1FB
100
AcDbSymbolTableRecord
100
AcDbLayerTableRecord
  2
DEFAULT_2
 70
0
 62
8
  6
HIDDEN
370
-3
390
F
  0
LAYER
  5
1FC
100
AcDbSymbolTableRecord
100
AcDbLayerTableRecord
  2
DEFAULT_3
 70
0
 62
7
  6
PHANTOM
370
-3
390
F
  0
LAYER
  5
1FD
100
AcDbSymbolTableRecord
100
AcDbLayerTableRecord
  2
ALL_FEATURES
 70
0
 62
7
  6
CONTINUOUS
370
-3
390
F
  0
LAYER
  5
1FE
100
AcDbSymbolTableRecord
100
AcDbLayerTableRecord
  2
AXES_FEATURES
 70
0
 62
7
  6
CONTINUOUS
370
-3
390
F
  0
LAYER
  5
1FF
100
AcDbSymbolTableRecord
100
AcDbLayerTableRecord
  2
DEFAULT_COORDINATE_SYSTEM
 70
0
 62
7
  6
CONTINUOUS
370
-3
390
F
  0
LAYER
  5
200
100
AcDbSymbolTableRecord
100
AcDbLayerTableRecord
  2
DEFAULT_DATUM_AXES
 70
0
 62
7
  6
CONTINUOUS
370
-3
390
F
  0
LAYER
  5
201
100
AcDbSymbolTableRecord
100
AcDbLayerTableRecord
  2
DEFAULT_DATUM_PLANES
 70
0
 62
7
  6
CONTINUOUS
370
-3
390
F
  0
LAYER
  5
202
100
AcDbSymbolTableRecord
100
AcDbLayerTableRecord
  2
DIMENSIONS
 70
0
 62
7
  6
CONTINUOUS
370
-3
390
F
  0
ENDTAB
  0
TABLE
  2
STYLE
  5
3
100
AcDbSymbolTable
 70
1
  0
STYLE
  5
11
100
AcDbSymbolTableRecord
100
AcDbTextStyleTableRecord
  2
STANDARD
 70
0
 40
0.0
 41
0.8
 50
0.0
 71
0
 42
0.2
  3
txt
  4

  0
STYLE
  5
203
100
AcDbSymbolTableRecord
100
AcDbTextStyleTableRecord
  2
TEXTSTYLE_1
 70
0
 40
0.0
 41
0.8
 50
0.0
 71
0
 42
0.2
  3
gdt
  4

  0
ENDTAB
  0
TABLE
  2
VIEW
  5
6
100
AcDbSymbolTable
 70
0
  0
ENDTAB
  0
TABLE
  2
UCS
  5
7
100
AcDbSymbolTable
 70
0
  0
ENDTAB
  0
TABLE
  2
APPID
  5
9
100
AcDbSymbolTable
 70
1
  0
APPID
  5
204
100
AcDbSymbolTableRecord
100
AcDbRegAppTableRecord
  2
ACAD
 70
0
  0
ENDTAB
  0
TABLE
  2
BLOCK_RECORD
  5
1
100
AcDbSymbolTable
 70
0
  0
BLOCK_RECORD
  5
205
100
AcDbSymbolTableRecord
100
AcDbBlockTableRecord
  2
*Model_Space
  0
BLOCK_RECORD
  5
206
100
AcDbSymbolTableRecord
100
AcDbBlockTableRecord
  2
*Paper_Space
  0
BLOCK_RECORD
  5
207
100
AcDbSymbolTableRecord
100
AcDbBlockTableRecord
  2
_FILLED
  0
ENDTAB
  0
TABLE
  2
DIMSTYLE
  5
A
100
AcDbSymbolTable
 70
1
100
AcDbDimStyleTable
 71
0
  0
DIMSTYLE
105
208
100
AcDbSymbolTableRecord
100
AcDbDimStyleTableRecord
  2
STANDARD
 70
0
  3

  4

 40
1.0
 41
0.1
 42
0.0625
 43
0.38
 44
0.125
 45
0.0
 46
0.0
 47
0.001
 48
0.001
140
0.08
141
0.09
142
0.0
143
25.4
144
1.0
145
0.0
146
1.0
147
0.09
 71
1.0
 72
0.0
 73
1
 74
1
 75
0
 76
0
 77
0
 78
4
 79
1
170
1
171
2
172
0
173
0
174
0
175
0
176
0
177
0
178
0
270
2
179
3
271
3
272
3
273
2
274
2
275
0
280
0
281
0
282
0
283
1
284
4
285
0
286
0
287
3
288
0
340
11
278
46
341
207
342
207
343
207
344
207
  0
ENDTAB
  0
ENDSEC
  0
SECTION
  2
BLOCKS
  0
BLOCK
  5
20
100
AcDbEntity
  8
0
100
AcDbBlockBegin
  2
*Model_Space
 70
0
 10
0.0
 20
0.0
 30
0.0
  3
*Model_Space
  1

  0
ENDBLK
  5
21
100
AcDbEntity
  8
0
100
AcDbBlockEnd
  0
BLOCK
  5
1C
100
AcDbEntity
  8
0
100
AcDbBlockBegin
  2
*Paper_Space
 70
0
 10
0.0
 20
0.0
 30
0.0
  3
*Paper_Space
  1

  0
ENDBLK
  5
1D
100
AcDbEntity
  8
0
100
AcDbBlockEnd
  0
BLOCK
  5
209
100
AcDbEntity
  8
0
100
AcDbBlockBegin
  2
_FILLED
 70
64
 10
0.0
 20
0.0
  3
_FILLED
  1

  0
SOLID
  5
20A
100
AcDbEntity
  8
0
  6
BYBLOCK
 62
0
100
AcDbTrace
 10
0.0
 20
0.0
 11
-1.0
 21
0.2
 12
-1.0
 22
-0.2
 13
-1.0
 23
-0.2
  0
ENDBLK
  5
20B
100
AcDbEntity
  8
0
  6
BYBLOCK
 62
0
100
AcDbBlockEnd
  0
ENDSEC
  0
SECTION
  2
ENTITIES
  0
LINE
  5
20C
100
AcDbEntity
  8
0
100
AcDbLine
 62
7
  6
CONTINUOUS
 10
15.843281774
 20
0.8718050195
 11
13.9432813014
 21
0.8718050195
  0
LINE
  5
20D
100
AcDbEntity
  8
0
100
AcDbLine
 62
7
  6
CONTINUOUS
 10
5.5781454477
 20
10.1995283777
 11
5.9693059289
 21
12.755773569
  0
LINE
  5
20E
100
AcDbEntity
  8
0
100
AcDbLine
 62
7
  6
CONTINUOUS
 10
6.2198400222
 20
13.203023687
 11
6.1631172146
 21
12.8323384795
  0
LINE
  5
20F
100
AcDbEntity
  8
0
100
AcDbLine
 62
7
  6
CONTINUOUS
 10
5.834129574
 20
10.0696862064
 11
5.8360488292
 21
10.099365212
  0
LINE
  5
210
100
AcDbEntity
  8
0
100
AcDbLine
 62
7
  6
CONTINUOUS
 10
5.8613962913
 20
10.0954865052
 11
5.8594770361
 21
10.0658074996
  0
LINE
  5
211
100
AcDbEntity
  8
0
100
AcDbLine
 62
7
  6
CONTINUOUS
 10
5.9343813995
 20
10.0843182143
 11
5.9324621443
 21
10.0546392087
  0
LINE
  5
212
100
AcDbEntity
  8
0
100
AcDbLine
 62
7
  6
CONTINUOUS
 10
6.0462010728
 20
10.0672073998
 11
6.0442818176
 21
10.0375283942
  0
LINE
  5
213
100
AcDbEntity
  8
0
100
AcDbLine
 62
7
  6
CONTINUOUS
 10
6.1833682082
 20
10.0462178786
 11
6.181448953
 21
10.016538873
  0
LINE
  5
214
100
AcDbEntity
  8
0
100
AcDbLine
 62
7
  6
CONTINUOUS
 10
6.3293384247
 20
10.0238812967
 11
6.3274191696
 21
9.9942022911
  0
LINE
  5
215
100
AcDbEntity
  8
0
100
AcDbLine
 62
7
  6
CONTINUOUS
 10
6.0425551938
 20
10.0677652977
 11
6.0355113912
 21
10.038870458
  0
LINE
  5
216
100
AcDbEntity
  8
0
100
AcDbLine
 62
7
  6
CONTINUOUS
 10
6.1543748671
 20
10.0506544832
 11
6.1473310644
 21
10.0217596436
  0
LINE
  5
217
100
AcDbEntity
  8
0
100
AcDbLine
 62
7
  6
CONTINUOUS
 10
6.2915420024
 20
10.029664962
 11
6.2844981998
 21
10.0007701224
  0
LINE
  5
218
100
AcDbEntity
  8
0
100
AcDbLine
 62
7
  6
CONTINUOUS
 10
14.6332815377
 20
4.1118050195
 11
15.1532815377
 21
4.1118050195
  0
LINE
  5
219
100
AcDbEntity
  8
0
100
AcDbLine
 62
9
  6
CONTINUOUS
 10
14.6132815377
 20
4.1318050195
 11
15.1732815377
 21
4.1318050195
  0
LINE
  5
21A
100
AcDbEntity
  8
0
100
AcDbLine
 62
9
  6
CONTINUOUS
 10
15.2507815377
 20
4.2076944861
 11
15.2307815377
 21
4.2076944861
  0
LINE
  5
21B
100
AcDbEntity
  8
0
100
AcDbLine
 62
9
  6
CONTINUOUS
 10
14.5557815377
 20
4.2076944861
 11
14.5357815377
 21
4.2076944861
  0
LINE
  5
21C
100
AcDbEntity
  8
0
100
AcDbLine
 62
7
  6
CONTINUOUS
 10
6.4665055601
 20
10.0028917755
 11
6.4645863049
 21
9.9732127698
  0
LINE
  5
21D
100
AcDbEntity
  8
0
100
AcDbLine
 62
7
  6
CONTINUOUS
 10
6.5783252334
 20
9.985780961
 11
6.5764059782
 21
9.9561019554
  0
LINE
  5
21E
100
AcDbEntity
  8
0
100
AcDbLine
 62
7
  6
CONTINUOUS
 10
7.3467230532
 20
13.030586352
 11
7.2900002456
 21
12.6599011444
  0
LINE
  5
21F
100
AcDbEntity
  8
0
100
AcDbLine
 62
7
  6
CONTINUOUS
 10
6.437512219
 20
10.0073283801
 11
6.4304684164
 21
9.9784335404
  0
LINE
  5
220
100
AcDbEntity
  8
0
100
AcDbLine
 62
7
  6
CONTINUOUS
 10
6.5746793544
 20
9.9863388589
 11
6.5676355517
 21
9.9574440192
  0
LINE
  5
221
100
AcDbEntity
  8
0
100
AcDbLine
 62
7
  6
CONTINUOUS
 10
6.6864990276
 20
9.9692280444
 11
6.679455225
 21
9.9403332047
  0
LINE
  5
222
100
AcDbEntity
  8
0
100
AcDbLine
 62
7
  6
CONTINUOUS
 10
6.7594841359
 20
9.9580597534
 11
6.7524403333
 21
9.9291649138
  0
LINE
  5
223
100
AcDbEntity
  8
0
100
AcDbLine
 62
7
  6
CONTINUOUS
 10
6.7777877954
 20
9.925286207
 11
6.784831598
 21
9.9541810467
  0
LINE
  5
224
100
AcDbEntity
  8
0
100
AcDbLine
 62
9
  6
CONTINUOUS
 10
14.5557815377
 20
5.0243050195
 11
14.5357815377
 21
5.0243050195
  0
LINE
  5
225
100
AcDbEntity
  8
0
100
AcDbLine
 62
9
  6
CONTINUOUS
 10
15.2307815377
 20
5.0243050195
 11
15.2507815377
 21
5.0243050195
  0
LINE
  5
226
100
AcDbEntity
  8
0
100
AcDbLine
 62
9
  6
CONTINUOUS
 10
7.4895421383
 20
11.0076195049
 11
7.4849220291
 21
11.9766894527
  0
LINE
  5
227
100
AcDbEntity
  8
0
100
AcDbLine
 62
7
  6
CONTINUOUS
 10
7.5480539314
 20
11.0136275536
 11
7.5434884106
 21
11.971247538
  0
LINE
  5
228
100
AcDbEntity
  8
0
100
AcDbLine
 62
9
  6
CONTINUOUS
 10
7.5516108567
 20
11.1935493263
 11
7.5521318552
 21
11.0842696619
  0
LINE
  5
229
100
AcDbEntity
  8
0
100
AcDbLine
 62
7
  6
CONTINUOUS
 10
7.5555519658
 20
11.0925085662
 11
7.5551093692
 21
11.185343407
  0
LINE
  5
22A
100
AcDbEntity
  8
0
100
AcDbLine
 62
7
  6
CONTINUOUS
 10
7.0608862779
 20
9.9726371474
 11
7.204539373
 21
10.9114143274
  0
LINE
  5
22B
100
AcDbEntity
  8
0
100
AcDbLine
 62
7
  6
CONTINUOUS
 10
7.3835400187
 20
12.0811887856
 11
7.4520467591
 21
12.5288823387
  0
LINE
  5
22C
100
AcDbEntity
  8
0
100
AcDbLine
 62
7
  6
CONTINUOUS
 10
7.5521318552
 20
11.0842696619
 11
7.5477382875
 21
11.0798340001
  0
LINE
  5
22D
100
AcDbEntity
  8
0
100
AcDbLine
 62
9
  6
CONTINUOUS
 10
14.5363414167
 20
5.8161642365
 11
14.5563100948
 21
5.8161642365
  0
LINE
  5
22E
100
AcDbEntity
  8
0
100
AcDbLine
 62
9
  6
CONTINUOUS
 10
15.2302529806
 20
5.8161642365
 11
15.2502216587
 21
5.8161642365
  0
LINE
  5
22F
100
AcDbEntity
  8
0
100
AcDbLine
 62
9
  6
CONTINUOUS
 10
15.8432815377
 20
7.0918050195
 11
15.1732815377
 21
7.0918050195
  0
LINE
  5
230
100
AcDbEntity
  8
0
100
AcDbLine
 62
9
  6
CONTINUOUS
 10
14.6132815377
 20
7.0918050195
 11
13.9432815377
 21
7.0918050195
  0
LINE
  5
231
100
AcDbEntity
  8
0
100
AcDbLine
 62
7
  6
CONTINUOUS
 10
15.8132806323
 20
7.1218050195
 11
15.1732815377
 21
7.1218050195
  0
LINE
  5
232
100
AcDbEntity
  8
0
100
AcDbLine
 62
7
  6
CONTINUOUS
 10
14.6132815377
 20
7.1218050195
 11
13.9732824431
 21
7.1218050195
  0
LINE
  5
233
100
AcDbEntity
  8
0
100
AcDbLine
 62
7
  6
CONTINUOUS
 10
14.3232815377
 20
7.1418050195
 11
14.6132815377
 21
7.1418050195
  0
LINE
  5
234
100
AcDbEntity
  8
0
100
AcDbLine
 62
7
  6
CONTINUOUS
 10
15.1732815377
 20
7.1418050195
 11
15.4632815377
 21
7.1418050195
  0
LINE
  5
235
100
AcDbEntity
  8
0
100
AcDbLine
 62
7
  6
CONTINUOUS
 10
7.547175195
 20
11.1979428941
 11
7.5516108567
 21
11.1935493263
  0
LINE
  5
236
100
AcDbEntity
  8
0
100
AcDbLine
 62
9
  6
CONTINUOUS
 10
14.6132815377
 20
8.5918050195
 11
15.1732815377
 21
8.5918050195
  0
LINE
  5
237
100
AcDbEntity
  8
0
100
AcDbLine
 62
7
  6
CONTINUOUS
 10
14.6332815377
 20
8.6118050195
 11
15.1532815377
 21
8.6118050195
  0
LINE
  5
238
100
AcDbEntity
  8
0
100
AcDbLine
 62
7
  6
CONTINUOUS
 10
6.4171689114
 20
9.969561527
 11
6.3374569996
 21
9.9817591635
  0
LINE
  5
239
100
AcDbEntity
  8
0
100
AcDbLine
 62
7
  6
CONTINUOUS
 10
6.1340695297
 20
10.0128818199
 11
6.0542816774
 21
10.0250910769
  0
LINE
  5
23A
100
AcDbEntity
  8
0
100
AcDbLine
 62
7
  6
CONTINUOUS
 10
5.8441294338
 20
10.0572488891
 11
6.0222118862
 21
10.0299984446
  0
LINE
  5
23B
100
AcDbEntity
  8
0
100
AcDbLine
 62
7
  6
CONTINUOUS
 10
6.1914489701
 20
10.0041015316
 11
6.2712365078
 21
9.9918923227
  0
LINE
  5
23C
100
AcDbEntity
  8
0
100
AcDbLine
 62
7
  6
CONTINUOUS
 10
6.4745864028
 20
9.9607754162
 11
6.554373779
 21
9.9485662319
  0
LINE
  5
23D
100
AcDbEntity
  8
0
100
AcDbLine
 62
7
  6
CONTINUOUS
 10
6.5864059306
 20
9.9436646239
 11
6.7645262606
 21
9.9164083833
  0
LINE
  5
23E
100
AcDbEntity
  8
0
100
AcDbLine
 62
9
  6
CONTINUOUS
 10
5.834129574
 20
10.0696862064
 11
6.0355113912
 21
10.038870458
  0
LINE
  5
23F
100
AcDbEntity
  8
0
100
AcDbLine
 62
9
  6
CONTINUOUS
 10
6.0442818176
 20
10.0375283942
 11
6.1473310644
 21
10.0217596436
  0
LINE
  5
240
100
AcDbEntity
  8
0
100
AcDbLine
 62
9
  6
CONTINUOUS
 10
6.181448953
 20
10.016538873
 11
6.2844981998
 21
10.0007701224
  0
LINE
  5
241
100
AcDbEntity
  8
0
100
AcDbLine
 62
9
  6
CONTINUOUS
 10
6.3274191696
 20
9.9942022911
 11
6.4304684164
 21
9.9784335404
  0
LINE
  5
242
100
AcDbEntity
  8
0
100
AcDbLine
 62
9
  6
CONTINUOUS
 10
6.4645863049
 20
9.9732127698
 11
6.5676355517
 21
9.9574440192
  0
LINE
  5
243
100
AcDbEntity
  8
0
100
AcDbLine
 62
9
  6
CONTINUOUS
 10
6.5764059782
 20
9.9561019554
 11
6.7777877954
 21
9.925286207
  0
LINE
  5
244
100
AcDbEntity
  8
0
100
AcDbLine
 62
7
  6
CONTINUOUS
 10
5.6283797501
 20
10.1311430466
 11
6.992500677
 21
9.9224032121
  0
LINE
  5
245
100
AcDbEntity
  8
0
100
AcDbLine
 62
9
  6
CONTINUOUS
 10
5.5781454477
 20
10.1995283777
 11
7.0608862779
 21
9.9726371474
  0
LINE
  5
246
100
AcDbEntity
  8
0
100
AcDbLine
 62
7
  6
CONTINUOUS
 10
7.1917429422
 20
10.9112416396
 11
7.4509579912
 21
10.9147397466
  0
LINE
  5
247
100
AcDbEntity
  8
0
100
AcDbLine
 62
7
  6
CONTINUOUS
 10
7.46169225
 20
12.0677922967
 11
7.3716183777
 21
12.0832323374
  0
LINE
  5
248
100
AcDbEntity
  8
0
100
AcDbLine
 62
9
  6
CONTINUOUS
 10
15.2589065377
 20
4.1894192467
 11
15.2507815377
 21
4.2076944861
  0
LINE
  5
249
100
AcDbEntity
  8
0
100
AcDbLine
 62
9
  6
CONTINUOUS
 10
14.5282291412
 20
5.8344451278
 11
14.5363414167
 21
5.8161642365
  0
LINE
  5
24A
100
AcDbEntity
  8
0
100
AcDbLine
 62
7
  6
CONTINUOUS
 10
13.9432815377
 20
0.8718050195
 11
13.9432815377
 21
7.0918050195
  0
LINE
  5
24B
100
AcDbEntity
  8
0
100
AcDbLine
 62
9
  6
CONTINUOUS
 10
7.5440800634
 20
11.8471481144
 11
7.5519539896
 21
11.8471856539
  0
LINE
  5
24C
100
AcDbEntity
  8
0
100
AcDbLine
 62
9
  6
CONTINUOUS
 10
5.9693059289
 20
12.755773569
 11
7.4520467591
 21
12.5288823387
  0
LINE
  5
24D
100
AcDbEntity
  8
0
100
AcDbLine
 62
7
  6
CONTINUOUS
 10
6.0604866146
 20
12.822752167
 11
7.3850678045
 21
12.6200627625
  0
LINE
  5
24E
100
AcDbEntity
  8
0
100
AcDbLine
 62
7
  6
CONTINUOUS
 10
7.2900002456
 20
12.6599011444
 11
6.1631172146
 21
12.8323384795
  0
LINE
  5
24F
100
AcDbEntity
  8
0
100
AcDbLine
 62
7
  6
CONTINUOUS
 10
14.3232815377
 20
7.1418050195
 11
14.3232815377
 21
12.4998932652
  0
LINE
  5
250
100
AcDbEntity
  8
0
100
AcDbLine
 62
9
  6
CONTINUOUS
 10
14.5357815377
 20
5.0243050195
 11
14.5357815377
 21
4.2077184104
  0
LINE
  5
251
100
AcDbEntity
  8
0
100
AcDbLine
 62
9
  6
CONTINUOUS
 10
14.5363414167
 20
5.0443050195
 11
14.5363414167
 21
5.8161702834
  0
LINE
  5
252
100
AcDbEntity
  8
0
100
AcDbLine
 62
7
  6
CONTINUOUS
 10
14.5557815377
 20
5.0243050195
 11
14.5557815377
 21
4.2076944861
  0
LINE
  5
253
100
AcDbEntity
  8
0
100
AcDbLine
 62
9
  6
CONTINUOUS
 10
14.5563100948
 20
5.043737979
 11
14.5563100946
 21
5.8161707272
  0
LINE
  5
254
100
AcDbEntity
  8
0
100
AcDbLine
 62
7
  6
CONTINUOUS
 10
14.6132815377
 20
4.1318050195
 11
14.6132815377
 21
8.5918050195
  0
LINE
  5
255
100
AcDbEntity
  8
0
100
AcDbLine
 62
9
  6
CONTINUOUS
 10
14.3232815377
 20
12.4998932652
 11
15.4632815377
 21
12.4998932652
  0
LINE
  5
256
100
AcDbEntity
  8
0
100
AcDbLine
 62
9
  6
CONTINUOUS
 10
7.3467230532
 20
13.030586352
 11
6.2198400222
 21
13.203023687
  0
LINE
  5
257
100
AcDbEntity
  8
0
100
AcDbLine
 62
7
  6
CONTINUOUS
 10
15.1732815377
 20
4.1318050195
 11
15.1732815377
 21
8.5918050195
  0
LINE
  5
258
100
AcDbEntity
  8
0
100
AcDbLine
 62
9
  6
CONTINUOUS
 10
15.2302529808
 20
5.8161645629
 11
15.2302529806
 21
5.043737979
  0
LINE
  5
259
100
AcDbEntity
  8
0
100
AcDbLine
 62
7
  6
CONTINUOUS
 10
15.2307815377
 20
4.2076944861
 11
15.2307815377
 21
5.0243050195
  0
LINE
  5
25A
100
AcDbEntity
  8
0
100
AcDbLine
 62
9
  6
CONTINUOUS
 10
15.2502216587
 20
5.8161558523
 11
15.2502216587
 21
5.0443050195
  0
LINE
  5
25B
100
AcDbEntity
  8
0
100
AcDbLine
 62
9
  6
CONTINUOUS
 10
15.2507815377
 20
4.2076870204
 11
15.2507815377
 21
5.0243050195
  0
LINE
  5
25C
100
AcDbEntity
  8
0
100
AcDbLine
 62
7
  6
CONTINUOUS
 10
15.4632815377
 20
7.1418050195
 11
15.4632815377
 21
12.4998932652
  0
LINE
  5
25D
100
AcDbEntity
  8
0
100
AcDbLine
 62
7
  6
CONTINUOUS
 10
15.8432815377
 20
0.8718050195
 11
15.8432815377
 21
7.0918050195
  0
LINE
  5
25E
100
AcDbEntity
  8
0
100
AcDbLine
 62
9
  6
CONTINUOUS
 10
15.2502216587
 20
5.8161642365
 11
15.2583339342
 21
5.8344451278
  0
LINE
  5
25F
100
AcDbEntity
  8
0
100
AcDbLine
 62
9
  6
CONTINUOUS
 10
14.5357815377
 20
4.2076944861
 11
14.5276565377
 21
4.1894192467
  0
ARC
  5
260
100
AcDbEntity
  8
0
100
AcDbCircle
 62
7
  6
CONTINUOUS
 10
1.2453499034
 20
-23.5205136114
 40
36.0742624435
100
AcDbArc
 50
80.092524579
 51
80.256080751
  0
ARC
  5
261
100
AcDbEntity
  8
0
100
AcDbCircle
 62
7
  6
CONTINUOUS
 10
5.6374550809
 20
10.1904527285
 40
0.06
100
AcDbArc
 50
171.3
 51
261.3
  0
ARC
  5
262
100
AcDbEntity
  8
0
100
AcDbCircle
 62
7
  6
CONTINUOUS
 10
6.4189934268
 20
9.9812308414
 40
0.0118110236
100
AcDbArc
 50
261.3
 51
346.3
  0
ARC
  5
263
100
AcDbEntity
  8
0
100
AcDbCircle
 62
7
  6
CONTINUOUS
 10
6.3392055745
 20
9.9934400984
 40
0.0118110236
100
AcDbArc
 50
176.3
 51
261.3
  0
ARC
  5
264
100
AcDbEntity
  8
0
100
AcDbCircle
 62
7
  6
CONTINUOUS
 10
6.5561605621
 20
9.9602413201
 40
0.0118110236
100
AcDbArc
 50
261.3
 51
346.3
  0
ARC
  5
265
100
AcDbEntity
  8
0
100
AcDbCircle
 62
7
  6
CONTINUOUS
 10
6.4763727099
 20
9.9724505772
 40
0.0118110236
100
AcDbArc
 50
176.3
 51
261.3
  0
ARC
  5
266
100
AcDbEntity
  8
0
100
AcDbCircle
 62
7
  6
CONTINUOUS
 10
6.5881923831
 20
9.9553397628
 40
0.0118110236
100
AcDbArc
 50
176.3
 51
261.3
  0
ARC
  5
267
100
AcDbEntity
  8
0
100
AcDbCircle
 62
7
  6
CONTINUOUS
 10
5.871263441
 20
10.065045307
 40
0.0118110236
100
AcDbArc
 50
176.3
 51
261.3
  0
ARC
  5
268
100
AcDbEntity
  8
0
100
AcDbCircle
 62
7
  6
CONTINUOUS
 10
5.9442485493
 20
10.053877016
 40
0.0118110236
100
AcDbArc
 50
176.3
 51
261.3
  0
ARC
  5
269
100
AcDbEntity
  8
0
100
AcDbCircle
 62
7
  6
CONTINUOUS
 10
6.0240364015
 20
10.041667759
 40
0.0118110236
100
AcDbArc
 50
261.3
 51
346.3
  0
ARC
  5
26A
100
AcDbEntity
  8
0
100
AcDbCircle
 62
7
  6
CONTINUOUS
 10
6.0560682226
 20
10.0367662016
 40
0.0118110236
100
AcDbArc
 50
176.3
 51
261.3
  0
ARC
  5
26B
100
AcDbEntity
  8
0
100
AcDbCircle
 62
7
  6
CONTINUOUS
 10
6.1358560748
 20
10.0245569445
 40
0.0118110236
100
AcDbArc
 50
261.3
 51
346.3
  0
ARC
  5
26C
100
AcDbEntity
  8
0
100
AcDbCircle
 62
7
  6
CONTINUOUS
 10
6.1932353579
 20
10.0157766804
 40
0.0118110236
100
AcDbArc
 50
176.3
 51
261.3
  0
ARC
  5
26D
100
AcDbEntity
  8
0
100
AcDbCircle
 62
7
  6
CONTINUOUS
 10
6.2730232102
 20
10.0035674233
 40
0.0118110236
100
AcDbArc
 50
261.3
 51
346.3
  0
ARC
  5
26E
100
AcDbEntity
  8
0
100
AcDbCircle
 62
7
  6
CONTINUOUS
 10
5.8459159789
 20
10.0689240138
 40
0.0118110236
100
AcDbArc
 50
176.3000000044
 51
261.3
  0
ARC
  5
26F
100
AcDbEntity
  8
0
100
AcDbCircle
 62
7
  6
CONTINUOUS
 10
6.0483854398
 20
12.7436727034
 40
0.08
100
AcDbArc
 50
81.3
 51
171.3
  0
ARC
  5
270
100
AcDbEntity
  8
0
100
AcDbCircle
 62
7
  6
CONTINUOUS
 10
7.4496298642
 20
11.0131559823
 40
0.0984251969
100
AcDbArc
 50
270.7731595888
 51
0.2731595949
  0
ARC
  5
271
100
AcDbEntity
  8
0
100
AcDbCircle
 62
7
  6
CONTINUOUS
 10
7.0015766447
 20
9.9817127966
 40
0.06
100
AcDbArc
 50
261.3
 51
351.3
  0
ARC
  5
272
100
AcDbEntity
  8
0
100
AcDbCircle
 62
7
  6
CONTINUOUS
 10
6.6679802354
 20
9.9431305057
 40
0.0118110236
100
AcDbArc
 50
261.3
 51
346.3
  0
ARC
  5
273
100
AcDbEntity
  8
0
100
AcDbCircle
 62
7
  6
CONTINUOUS
 10
6.7409653437
 20
9.9319622147
 40
0.0118110236
100
AcDbArc
 50
261.3
 51
346.3
  0
ARC
  5
274
100
AcDbEntity
  8
0
100
AcDbCircle
 62
7
  6
CONTINUOUS
 10
6.7663128058
 20
9.928083508
 40
0.0118110236
100
AcDbArc
 50
261.3
 51
346.2999999956
  0
ARC
  5
275
100
AcDbEntity
  8
0
100
AcDbCircle
 62
7
  6
CONTINUOUS
 10
7.5432990954
 20
11.1851579675
 40
0.0118110236
100
AcDbArc
 50
0.2730396967
 51
45.2730368898
  0
ARC
  5
276
100
AcDbEntity
  8
0
100
AcDbCircle
 62
7
  6
CONTINUOUS
 10
7.5437404608
 20
11.0925813872
 40
0.0118110236
100
AcDbArc
 50
315.2732823001
 51
0.2732794932
  0
ARC
  5
277
100
AcDbEntity
  8
0
100
AcDbCircle
 62
7
  6
CONTINUOUS
 10
7.4450643155
 20
11.9707818273
 40
0.0984251969
100
AcDbArc
 50
0.2731595949
 51
80.2738166472
  0
ARC
  5
278
100
AcDbEntity
  8
0
100
AcDbCircle
 62
7
  6
CONTINUOUS
 10
7.3729672481
 20
12.5409832043
 40
0.08
100
AcDbArc
 50
351.3
 51
81.3
  0
ARC
  5
279
100
AcDbEntity
  8
0
100
AcDbCircle
 62
7
  6
CONTINUOUS
 10
7.5043786266
 20
11.9165567501
 40
0.0472440945
100
AcDbArc
 50
326.715849833
 51
33.8304693569
  0
ARC
  5
27A
100
AcDbEntity
  8
0
100
AcDbCircle
 62
7
  6
CONTINUOUS
 10
7.5050422375
 20
11.7773640837
 40
0.0472440945
100
AcDbArc
 50
326.715849833
 51
33.8304693569
  0
ARC
  5
27B
100
AcDbEntity
  8
0
100
AcDbCircle
 62
7
  6
CONTINUOUS
 10
7.5047104321
 20
11.8469604169
 40
0.0472440945
100
AcDbArc
 50
326.715849833
 51
33.8304693569
  0
ARC
  5
27C
100
AcDbEntity
  8
0
100
AcDbCircle
 62
7
  6
CONTINUOUS
 10
7.5042411883
 20
11.9453844952
 40
0.0472440945
100
AcDbArc
 50
342.4815567029
 51
33.8326021211
  0
ARC
  5
27D
100
AcDbEntity
  8
0
100
AcDbCircle
 62
7
  6
CONTINUOUS
 10
7.5051796758
 20
11.7485363386
 40
0.0472440945
100
AcDbArc
 50
326.715849833
 51
18.0647624871
  0
ARC
  5
27E
100
AcDbEntity
  8
0
100
AcDbCircle
 62
7
  6
CONTINUOUS
 10
13.9732815377
 20
7.0918050195
 40
0.03
100
AcDbArc
 50
90.0
 51
180.0
  0
ARC
  5
27F
100
AcDbEntity
  8
0
100
AcDbCircle
 62
7
  6
CONTINUOUS
 10
14.5357815377
 20
4.2076944861
 40
0.02
100
AcDbArc
 50
246.0305176822
 51
360.0
  0
ARC
  5
280
100
AcDbEntity
  8
0
100
AcDbCircle
 62
7
  6
CONTINUOUS
 10
14.6332815377
 20
4.1318050195
 40
0.02
100
AcDbArc
 50
180.0
 51
270.0
  0
ARC
  5
281
100
AcDbEntity
  8
0
100
AcDbCircle
 62
7
  6
CONTINUOUS
 10
10.8148179025
 20
12.4998932241
 40
4.6484636352
100
AcDbArc
 50
0.0000005064
 51
171.2999994936
  0
ARC
  5
282
100
AcDbEntity
  8
0
100
AcDbCircle
 62
7
  6
CONTINUOUS
 10
10.8148179056
 20
12.4998932652
 40
3.5084636321
100
AcDbArc
 50
0.0
 51
171.3
  0
ARC
  5
283
100
AcDbEntity
  8
0
100
AcDbCircle
 62
7
  6
CONTINUOUS
 10
14.6332815377
 20
8.5918050195
 40
0.02
100
AcDbArc
 50
90.0
 51
180.0
  0
ARC
  5
284
100
AcDbEntity
  8
0
100
AcDbCircle
 62
7
  6
CONTINUOUS
 10
28.3394131967
 20
8.1847916526
 40
21.338606087
100
AcDbArc
 50
169.6094641904
 51
170.4647050326
  0
ARC
  5
285
100
AcDbEntity
  8
0
100
AcDbCircle
 62
7
  6
CONTINUOUS
 10
27.2553110176
 20
8.3850652426
 40
20.2363137267
100
AcDbArc
 50
170.5154410322
 51
170.7062598384
  0
ARC
  5
286
100
AcDbEntity
  8
0
100
AcDbCircle
 62
7
  6
CONTINUOUS
 10
14.8932815377
 20
5.0118050195
 40
0.9
100
AcDbArc
 50
108.1366934917
 51
251.8732253091
  0
ARC
  5
287
100
AcDbEntity
  8
0
100
AcDbCircle
 62
7
  6
CONTINUOUS
 10
14.8932815377
 20
5.0118050195
 40
0.9
100
AcDbArc
 50
288.127793438
 51
71.8631857134
  0
ARC
  5
288
100
AcDbEntity
  8
0
100
AcDbCircle
 62
9
  6
CONTINUOUS
 10
14.8932815377
 20
5.0118050195
 40
0.88
100
AcDbArc
 50
113.9294353986
 51
246.0298848572
  0
ARC
  5
289
100
AcDbEntity
  8
0
100
AcDbCircle
 62
9
  6
CONTINUOUS
 10
14.8932815377
 20
5.0118050195
 40
0.88
100
AcDbArc
 50
293.9692848496
 51
66.0701834904
  0
ARC
  5
28A
100
AcDbEntity
  8
0
100
AcDbCircle
 62
9
  6
CONTINUOUS
 10
14.9011631555
 20
5.0819647096
 40
0.811158968
100
AcDbArc
 50
110.8073565987
 51
115.1592200372
  0
ARC
  5
28B
100
AcDbEntity
  8
0
100
AcDbCircle
 62
9
  6
CONTINUOUS
 10
14.8877807229
 20
5.0876246761
 40
0.8050202458
100
AcDbArc
 50
64.8227065779
 51
69.2079354601
  0
ARC
  5
28C
100
AcDbEntity
  8
0
100
AcDbCircle
 62
9
  6
CONTINUOUS
 10
14.8932815377
 20
5.0243050195
 40
0.3575
100
AcDbArc
 50
176.7929673581
 51
180.0
  0
ARC
  5
28D
100
AcDbEntity
  8
0
100
AcDbCircle
 62
9
  6
CONTINUOUS
 10
14.8932815377
 20
5.0243050195
 40
0.3575
100
AcDbArc
 50
0.0
 51
3.2070326419
  0
ARC
  5
28E
100
AcDbEntity
  8
0
100
AcDbCircle
 62
7
  6
CONTINUOUS
 10
14.8932815377
 20
5.0243050195
 40
0.3375
100
AcDbArc
 50
176.6219290168
 51
180.0
  0
ARC
  5
28F
100
AcDbEntity
  8
0
100
AcDbCircle
 62
7
  6
CONTINUOUS
 10
14.8932815377
 20
5.0243050195
 40
0.3375
100
AcDbArc
 50
0.0
 51
3.3778543393
  0
ARC
  5
290
100
AcDbEntity
  8
0
100
AcDbCircle
 62
7
  6
CONTINUOUS
 10
14.8932815377
 20
5.0243050195
 40
0.3375
100
AcDbArc
 50
146.1587489368
 51
176.6027297653
  0
ARC
  5
291
100
AcDbEntity
  8
0
100
AcDbCircle
 62
7
  6
CONTINUOUS
 10
14.8932815377
 20
5.0243050195
 40
0.3375
100
AcDbArc
 50
3.3972703262
 51
33.8411365577
  0
ARC
  5
292
100
AcDbEntity
  8
0
100
AcDbCircle
 62
7
  6
CONTINUOUS
 10
14.8932815377
 20
4.5993050195
 40
0.3375
100
AcDbArc
 50
326.1530605293
 51
360.0
  0
ARC
  5
293
100
AcDbEntity
  8
0
100
AcDbCircle
 62
7
  6
CONTINUOUS
 10
14.8932815377
 20
4.5993050195
 40
0.3375
100
AcDbArc
 50
180.0
 51
213.8469486454
  0
ARC
  5
294
100
AcDbEntity
  8
0
100
AcDbCircle
 62
7
  6
CONTINUOUS
 10
15.8132815377
 20
7.0918050195
 40
0.03
100
AcDbArc
 50
0.0
 51
90.0
  0
ARC
  5
295
100
AcDbEntity
  8
0
100
AcDbCircle
 62
7
  6
CONTINUOUS
 10
15.2507815377
 20
4.2076944861
 40
0.02
100
AcDbArc
 50
180.0
 51
293.9694823178
  0
ARC
  5
296
100
AcDbEntity
  8
0
100
AcDbCircle
 62
7
  6
CONTINUOUS
 10
15.1532815377
 20
4.1318050195
 40
0.02
100
AcDbArc
 50
270.0
 51
360.0
  0
ARC
  5
297
100
AcDbEntity
  8
0
100
AcDbCircle
 62
7
  6
CONTINUOUS
 10
15.1532815377
 20
8.5918050195
 40
0.02
100
AcDbArc
 50
0.0
 51
90.0
  0
LINE
  5
298
100
AcDbEntity
  8
0
100
AcDbLine
 62
7
  6
CONTINUOUS
 10
15.230188424
 20
5.0443048692
 11
15.2302529806
 21
5.043737979
  0
LINE
  5
299
100
AcDbEntity
  8
0
100
AcDbLine
 62
7
  6
CONTINUOUS
 10
14.5563100948
 20
5.043737979
 11
14.5563746513
 21
5.0443048687
  0
SPLINE
  5
29A
100
AcDbEntity
  8
0
100
AcDbSpline
 62
9
  6
CONTINUOUS
 70
0
 71
3
 72
27
 73
23
 74
0
 42
0.0000001
 43
0.0000001
 44
0.0000000001
 40
0.0
 40
0.0
 40
0.0
 40
0.0
 40
0.001358625
 40
0.0030841976
 40
0.0052455572
 40
0.0078755219
 40
0.0145962947
 40
0.0233047996
 40
0.0340084333
 40
0.0466979855
 40
0.0779598981
 40
0.1169160747
 40
0.1633673758
 40
0.217114744
 40
0.2779634357
 40
0.3457193816
 40
0.4202058007
 40
0.5012586795
 40
0.5887170353
 40
0.6824410942
 40
0.782307152
 40
1.0
 40
1.0
 40
1.0
 40
1.0
 10
15.2307815377
 20
4.2076944861
 30
0.0
 10
15.2307815355
 20
4.2076654554
 30
0.0
 10
15.2307670806
 20
4.2075997365
 30
0.0
 10
15.2307169804
 20
4.2074989713
 30
0.0
 10
15.2306371705
 20
4.207384403
 30
0.0
 10
15.2304770198
 20
4.2071973732
 30
0.0
 10
15.2301957295
 20
4.2069319934
 30
0.0
 10
15.2297634625
 20
4.2065782929
 30
0.0
 10
15.2292125868
 20
4.2061692028
 30
0.0
 10
15.2282527922
 20
4.2055036634
 30
0.0
 10
15.2267598152
 20
4.2045490695
 30
0.0
 10
15.2246217057
 20
4.2032668496
 30
0.0
 10
15.2220398796
 20
4.20179155
 30
0.0
 10
15.2190241597
 20
4.2001337965
 30
0.0
 10
15.215583371
 20
4.1983051171
 30
0.0
 10
15.2117263154
 20
4.1963161632
 30
0.0
 10
15.2074605895
 20
4.1941784536
 30
0.0
 10
15.2027930138
 20
4.1919036649
 30
0.0
 10
15.1977299106
 20
4.1895028951
 30
0.0
 10
15.1922764594
 20
4.1869878341
 30
0.0
 10
15.184256956
 20
4.1833932314
 30
0.0
 10
15.1780191014
 20
4.1807207832
 30
0.0
 10
15.1737241175
 20
4.178934628
 30
0.0
  0
SPLINE
  5
29B
100
AcDbEntity
  8
0
100
AcDbSpline
 62
9
  6
CONTINUOUS
 70
0
 71
3
 72
27
 73
23
 74
0
 42
0.0000001
 43
0.0000001
 44
0.0000000001
 40
0.0
 40
0.0
 40
0.0
 40
0.0
 40
0.2176929021
 40
0.3175589437
 40
0.4112829635
 40
0.4987413885
 40
0.5797942638
 40
0.6542806741
 40
0.7220367436
 40
0.7828855563
 40
0.8366328945
 40
0.8830838884
 40
0.9220395052
 40
0.9533009507
 40
0.9659904414
 40
0.9766941788
 40
0.9854029168
 40
0.992124001
 40
0.9947541295
 40
0.9969156407
 40
0.9986413303
 40
1.0
 40
1.0
 40
1.0
 40
1.0
 10
14.6128376506
 20
4.1789351642
 30
0.0
 10
14.6085427618
 20
4.1807212868
 30
0.0
 10
14.6023050441
 20
4.1833936805
 30
0.0
 10
14.5942857243
 20
4.186988224
 30
0.0
 10
14.5888324001
 20
4.1895032482
 30
0.0
 10
14.5837694111
 20
4.1919039748
 30
0.0
 10
14.5791019419
 20
4.1941787262
 30
0.0
 10
14.5748363152
 20
4.1963164068
 30
0.0
 10
14.5709793495
 20
4.1983053394
 30
0.0
 10
14.5675386465
 20
4.2001340088
 30
0.0
 10
14.5645230044
 20
4.2017917381
 30
0.0
 10
14.5619412348
 20
4.2032669664
 30
0.0
 10
14.5598031607
 20
4.2045490835
 30
0.0
 10
14.5583102089
 20
4.2055036028
 30
0.0
 10
14.5573504408
 20
4.2061691202
 30
0.0
 10
14.5567995826
 20
4.2065782189
 30
0.0
 10
14.5563673308
 20
4.206931941
 30
0.0
 10
14.5560860521
 20
4.207197343
 30
0.0
 10
14.5559259073
 20
4.2073843883
 30
0.0
 10
14.5558460992
 20
4.2074989654
 30
0.0
 10
14.5557959991
 20
4.2075997351
 30
0.0
 10
14.5557815414
 20
4.2076654551
 30
0.0
 10
14.5557815377
 20
4.2076944861
 30
0.0
  0
SPLINE
  5
29C
100
AcDbEntity
  8
0
100
AcDbSpline
 62
9
  6
CONTINUOUS
 70
0
 71
3
 72
11
 73
7
 74
0
 42
0.0000001
 43
0.0000001
 44
0.0000000001
 40
0.0
 40
0.0
 40
0.0
 40
0.0
 40
0.2469905743
 40
0.4952010379
 40
0.7458219293
 40
1.0
 40
1.0
 40
1.0
 40
1.0
 10
14.5557815377
 20
4.5399905135
 30
0.0
 10
14.5557815377
 20
4.5414242321
 30
0.0
 10
14.5558925118
 20
4.5442999585
 30
0.0
 10
14.5563912272
 20
4.5486045156
 30
0.0
 10
14.5572216837
 20
4.5528999606
 30
0.0
 10
14.557989415
 20
4.555730963
 30
0.0
 10
14.5584257547
 20
4.5571404066
 30
0.0
  0
SPLINE
  5
29D
100
AcDbEntity
  8
0
100
AcDbSpline
 62
9
  6
CONTINUOUS
 70
0
 71
3
 72
11
 73
7
 74
0
 42
0.0000001
 43
0.0000001
 44
0.0000000001
 40
0.0
 40
0.0
 40
0.0
 40
0.0
 40
0.2541780707
 40
0.5047989621
 40
0.7530094257
 40
1.0
 40
1.0
 40
1.0
 40
1.0
 10
15.2281373207
 20
4.5571404066
 30
0.0
 10
15.2285736604
 20
4.555730963
 30
0.0
 10
15.2293413916
 20
4.5528999606
 30
0.0
 10
15.2301718482
 20
4.5486045156
 30
0.0
 10
15.2306705636
 20
4.5442999585
 30
0.0
 10
15.2307815377
 20
4.5414242321
 30
0.0
 10
15.2307815377
 20
4.5399905135
 30
0.0
  0
SPLINE
  5
29E
100
AcDbEntity
  8
0
100
AcDbSpline
 62
9
  6
CONTINUOUS
 70
0
 71
3
 72
76
 73
72
 74
0
 42
0.0000001
 43
0.0000001
 44
0.0000000001
 40
0.0
 40
0.0
 40
0.0
 40
0.0
 40
0.0174918119
 40
0.0262258563
 40
0.034943265
 40
0.0436395681
 40
0.0523104147
 40
0.0609513995
 40
0.0695581337
 40
0.0781271869
 40
0.0866552712
 40
0.1035766222
 40
0.120306501
 40
0.1368343167
 40
0.1531552788
 40
0.1692692876
 40
0.1851803135
 40
0.2008958323
 40
0.2164253252
 40
0.231780707
 40
0.2620152988
 40
0.2917251564
 40
0.3210426744
 40
0.3501175115
 40
0.3646201847
 40
0.3791315278
 40
0.3936807056
 40
0.4009805055
 40
0.4083028651
 40
0.4230379207
 40
0.43793653
 40
0.4454650816
 40
0.4530563813
 40
0.4684635591
 40
0.4842384591
 40
0.4922872754
 40
0.5004537824
 40
0.5087439954
 40
0.5171566663
 40
0.5256828629
 40
0.5343076533
 40
0.543009008
 40
0.5517521155
 40
0.5604992939
 40
0.5692131686
 40
0.5778582322
 40
0.5864093143
 40
0.6031680858
 40
0.6194360132
 40
0.6352600297
 40
0.6430259206
 40
0.6507068901
 40
0.6583135588
 40
0.6658555868
 40
0.6807763982
 40
0.6955283034
 40
0.7101610078
 40
0.7247166998
 40
0.7537277199
 40
0.7827934964
 40
0.8120925973
 40
0.8417758804
 40
0.8719765971
 40
0.8873125086
 40
0.9028211559
 40
0.9185144917
 40
0.9344023127
 40
0.9504925033
 40
0.966789286
 40
0.9832931583
 40
1.0
 40
1.0
 40
1.0
 40
1.0
 10
14.8932815377
 20
4.0118050195
 30
0.0
 10
14.9090694001
 20
4.0118071699
 30
0.0
 10
14.9327477874
 20
4.0124987322
 30
0.0
 10
14.9642076891
 20
4.0147747423
 30
0.0
 10
14.9876917944
 20
4.0171521907
 30
0.0
 10
15.0110407933
 20
4.0201973753
 30
0.0
 10
15.0342245005
 20
4.023901749
 30
0.0
 10
15.057214209
 20
4.0282475229
 30
0.0
 10
15.0799826368
 20
4.0332190122
 30
0.0
 10
15.1025044959
 20
4.0388002008
 30
0.0
 10
15.132093736
 20
4.0470129266
 30
0.0
 10
15.1683458097
 20
4.0587057855
 30
0.0
 10
15.210656654
 20
4.0749216942
 30
0.0
 10
15.2515576921
 20
4.093126359
 30
0.0
 10
15.290968133
 20
4.1131649413
 30
0.0
 10
15.3288336838
 20
4.1348884398
 30
0.0
 10
15.3651262782
 20
4.1581489193
 30
0.0
 10
15.3998324003
 20
4.1828142559
 30
0.0
 10
15.4329532127
 20
4.2087649246
 30
0.0
 10
15.4747936136
 20
4.2447418141
 30
0.0
 10
15.5233392175
 20
4.2924418348
 30
0.0
 10
15.5758570549
 20
4.3536588669
 30
0.0
 10
15.6225843071
 20
4.4181053381
 30
0.0
 10
15.656919603
 20
4.4743138867
 30
0.0
 10
15.6816323888
 20
4.5205663438
 30
0.0
 10
15.6988341563
 20
4.5559341764
 30
0.0
 10
15.7120697921
 20
4.5859741923
 30
0.0
 10
15.7220047024
 20
4.6103589665
 30
0.0
 10
15.7315437751
 20
4.6350812324
 30
0.0
 10
15.7426726504
 20
4.6665347797
 30
0.0
 10
15.7526659716
 20
4.6985624366
 30
0.0
 10
15.7600038665
 20
4.7246455485
 30
0.0
 10
15.7669659111
 20
4.751306208
 30
0.0
 10
15.7748374682
 20
4.7854151538
 30
0.0
 10
15.7814516878
 20
4.8202110248
 30
0.0
 10
15.7860102388
 20
4.8487244006
 30
0.0
 10
15.7890655161
 20
4.870632317
 30
0.0
 10
15.7917079975
 20
4.8929246004
 30
0.0
 10
15.7939208191
 20
4.9155898388
 30
0.0
 10
15.7956961376
 20
4.938596448
 30
0.0
 10
15.7970024632
 20
4.9618956465
 30
0.0
 10
15.7978041635
 20
4.9854135514
 30
0.0
 10
15.798113921
 20
5.0090534284
 30
0.0
 10
15.7979262462
 20
5.0327059926
 30
0.0
 10
15.7972318951
 20
5.0562605807
 30
0.0
 10
15.7960401964
 20
5.0796181021
 30
0.0
 10
15.7938328038
 20
5.1101874437
 30
0.0
 10
15.7899911657
 20
5.1475297272
 30
0.0
 10
15.7836562966
 20
5.1911757466
 30
0.0
 10
15.7771045606
 20
5.2265592817
 30
0.0
 10
15.7711473718
 20
5.2541496436
 30
0.0
 10
15.7663623019
 20
5.2744011203
 30
0.0
 10
15.7612417784
 20
5.2943618076
 30
0.0
 10
15.7540044216
 20
5.3205207059
 30
0.0
 10
15.7441364477
 20
5.3526370637
 30
0.0
 10
15.7309615437
 20
5.3904034339
 30
0.0
 10
15.716500018
 20
5.4273432523
 30
0.0
 10
15.6955267235
 20
5.4755154885
 30
0.0
 10
15.6659762972
 20
5.5341114946
 30
0.0
 10
15.6251288908
 20
5.6016633519
 30
0.0
 10
15.5787301461
 20
5.6662890373
 30
0.0
 10
15.5265558863
 20
5.7277043034
 30
0.0
 10
15.4783034154
 20
5.7755978651
 30
0.0
 10
15.4367023348
 20
5.8117490173
 30
0.0
 10
15.4037654807
 20
5.8378418574
 30
0.0
 10
15.3692439993
 20
5.8626624961
 30
0.0
 10
15.3331354222
 20
5.886092873
 30
0.0
 10
15.2954518783
 20
5.908002569
 30
0.0
 10
15.2562184648
 20
5.9282447468
 30
0.0
 10
15.2154882351
 20
5.9466699213
 30
0.0
 10
15.1875493777
 20
5.9575768239
 30
0.0
 10
15.1733607265
 20
5.9626826305
 30
0.0
  0
SPLINE
  5
29F
100
AcDbEntity
  8
0
100
AcDbSpline
 62
7
  6
CONTINUOUS
 70
0
 71
3
 72
16
 73
12
 74
0
 42
0.0000001
 43
0.0000001
 44
0.0000000001
 40
0.0
 40
0.0
 40
0.0
 40
0.0
 40
0.1251331751
 40
0.1877156837
 40
0.2503022958
 40
0.3754696614
 40
0.5005990878
 40
0.6256538201
 40
0.7505966763
 40
0.875391604
 40
1.0
 40
1.0
 40
1.0
 40
1.0
 10
7.2846319644
 20
11.6531489931
 30
0.0
 10
7.2799463108
 20
11.6244916331
 30
0.0
 10
7.2730205541
 20
11.5814849319
 30
0.0
 10
7.2640142246
 20
11.5241032278
 30
0.0
 10
7.2551635244
 20
11.466689277
 30
0.0
 10
7.2443894783
 20
11.3948862731
 30
0.0
 10
7.2319145104
 20
11.3086812981
 30
0.0
 10
7.2198885302
 20
11.222465161
 30
0.0
 10
7.2082890689
 20
11.1362689786
 30
0.0
 10
7.1970853255
 20
11.050124981
 30
0.0
 10
7.1898469638
 20
10.99270373
 30
0.0
 10
7.1862782838
 20
10.9640086674
 30
0.0
  0
SPLINE
  5
2A0
100
AcDbEntity
  8
0
100
AcDbSpline
 62
7
  6
CONTINUOUS
 70
0
 71
3
 72
26
 73
22
 74
0
 42
0.0000001
 43
0.0000001
 44
0.0000000001
 40
0.0
 40
0.0
 40
0.0
 40
0.0
 40
0.1941045966
 40
0.3778485561
 40
0.4638504018
 40
0.5449552447
 40
0.620509724
 40
0.6899405714
 40
0.7527657183
 40
0.80860486
 40
0.8571958437
 40
0.8787363107
 40
0.8984400056
 40
0.9163270135
 40
0.9324406543
 40
0.9468545462
 40
0.9596829849
 40
0.9711035643
 40
0.9813745531
 40
0.9908551535
 40
1.0
 40
1.0
 40
1.0
 40
1.0
 10
7.1862782838
 20
10.9640086674
 30
0.0
 10
7.1858393849
 20
10.9604799176
 30
0.0
 10
7.1851518446
 20
10.9535887576
 30
0.0
 10
7.1847466602
 20
10.9450962681
 30
0.0
 10
7.1847221933
 20
10.938667969
 30
0.0
 10
7.1848426534
 20
10.9342233392
 30
0.0
 10
7.1850941671
 20
10.9300882079
 30
0.0
 10
7.1854679886
 20
10.9262985756
 30
0.0
 10
7.1859539329
 20
10.9228858436
 30
0.0
 10
7.1865411665
 20
10.9198771021
 30
0.0
 10
7.1871261661
 20
10.9176422569
 30
0.0
 10
7.1876459273
 20
10.9160801601
 30
0.0
 10
7.1880386887
 20
10.9150700404
 30
0.0
 10
7.188448831
 20
10.9141750133
 30
0.0
 10
7.1888752255
 20
10.9133962556
 30
0.0
 10
7.189316844
 20
10.9127345744
 30
0.0
 10
7.1897732225
 20
10.912190609
 30
0.0
 10
7.1902443162
 20
10.9117649938
 30
0.0
 10
7.1907308863
 20
10.911459275
 30
0.0
 10
7.191232424
 20
10.9112766411
 30
0.0
 10
7.1915756083
 20
10.911239376
 30
0.0
 10
7.191743124
 20
10.9112416379
 30
0.0
  0
SPLINE
  5
2A1
100
AcDbEntity
  8
0
100
AcDbSpline
 62
7
  6
CONTINUOUS
 70
0
 71
3
 72
26
 73
22
 74
0
 42
0.0000001
 43
0.0000001
 44
0.0000000001
 40
0.0
 40
0.0
 40
0.0
 40
0.0
 40
0.00889635
 40
0.0184268486
 40
0.0289909782
 40
0.0408782434
 40
0.0542856773
 40
0.0693425487
 40
0.0861243385
 40
0.1046740469
 40
0.1250114049
 40
0.1471392504
 40
0.1967146453
 40
0.2532228553
 40
0.3163645958
 40
0.3857553165
 40
0.4609370762
 40
0.5413842111
 40
0.6265070993
 40
0.8081189751
 40
1.0
 40
1.0
 40
1.0
 40
1.0
 10
7.3716251472
 20
12.0832311947
 30
0.0
 10
7.3714624657
 20
12.0832592824
 30
0.0
 10
7.3711167892
 20
12.083273819
 30
0.0
 10
7.3705847936
 20
12.0831713418
 30
0.0
 10
7.37003128
 20
12.0829492712
 30
0.0
 10
7.3694565754
 20
12.0826099875
 30
0.0
 10
7.3688604053
 20
12.0821546292
 30
0.0
 10
7.3682433376
 20
12.0815838042
 30
0.0
 10
7.3676062335
 20
12.0808984197
 30
0.0
 10
7.3669504808
 20
12.0800995043
 30
0.0
 10
7.3662776051
 20
12.0791883682
 30
0.0
 10
7.3653233869
 20
12.0777712689
 30
0.0
 10
7.3641090094
 20
12.0757230612
 30
0.0
 10
7.3626624248
 20
12.0729344311
 30
0.0
 10
7.3611930423
 20
12.0697477818
 30
0.0
 10
7.3597181513
 20
12.066185662
 30
0.0
 10
7.3582555823
 20
12.0622737124
 30
0.0
 10
7.3568232339
 20
12.0580412152
 30
0.0
 10
7.3549366872
 20
12.0518801943
 30
0.0
 10
7.3527865162
 20
12.0436414791
 30
0.0
 10
7.3513760661
 20
12.036852348
 30
0.0
 10
7.350736409
 20
12.0333495617
 30
0.0
  0
LINE
  5
2A2
100
AcDbEntity
  8
0
100
AcDbLine
 62
7
  6
CONTINUOUS
 10
14.5563100948
 20
5.043737979
 11
14.5557417245
 21
5.0437543473
  0
LINE
  5
2A3
100
AcDbEntity
  8
0
100
AcDbLine
 62
7
  6
CONTINUOUS
 10
14.5557417245
 20
5.0437543473
 11
14.5544786974
 21
5.0437906716
  0
LINE
  5
2A4
100
AcDbEntity
  8
0
100
AcDbLine
 62
7
  6
CONTINUOUS
 10
14.5544786974
 20
5.0437906716
 11
14.5363414167
 21
5.0443050195
  0
SPLINE
  5
2A5
100
AcDbEntity
  8
0
100
AcDbSpline
 62
9
  6
CONTINUOUS
 70
0
 71
3
 72
76
 73
72
 74
0
 42
0.0000001
 43
0.0000001
 44
0.0000000001
 40
0.0
 40
0.0
 40
0.0
 40
0.0
 40
0.016706936
 40
0.0332109037
 40
0.0495077797
 40
0.0655980594
 40
0.0814859695
 40
0.0971793953
 40
0.1126881296
 40
0.128024126
 40
0.158225014
 40
0.1879084588
 40
0.2172077293
 40
0.2317624307
 40
0.2462791777
 40
0.2752905626
 40
0.2898464362
 40
0.2971510945
 40
0.3044795148
 40
0.3192310111
 40
0.3341522642
 40
0.341694766
 40
0.3493019123
 40
0.3647478663
 40
0.3805704771
 40
0.3968401721
 40
0.4135986571
 40
0.4221494186
 40
0.4264613967
 40
0.4307946444
 40
0.4395090977
 40
0.4482565786
 40
0.4569993511
 40
0.4657003269
 40
0.4743252734
 40
0.4828519504
 40
0.4912650786
 40
0.499555045
 40
0.5077205404
 40
0.5157690291
 40
0.5237083136
 40
0.5315463243
 40
0.5392915348
 40
0.5469543185
 40
0.5545452226
 40
0.5620734326
 40
0.5769718959
 40
0.591707536
 40
0.6208734138
 40
0.6498821833
 40
0.6789571539
 40
0.7082748382
 40
0.7379848704
 40
0.7682196342
 40
0.7835751055
 40
0.7991046878
 40
0.8148202936
 40
0.8307314111
 40
0.8468455131
 40
0.8631665606
 40
0.8796944724
 40
0.8964244473
 40
0.9133458924
 40
0.9304414772
 40
0.9390482585
 40
0.9476892907
 40
0.9563601868
 40
0.9650565394
 40
0.9737739963
 40
0.9825080893
 40
1.0
 40
1.0
 40
1.0
 40
1.0
 10
14.6132020681
 20
5.9626827043
 30
0.0
 10
14.5990134091
 20
5.9575769248
 30
0.0
 10
14.5710745731
 20
5.9466699626
 30
0.0
 10
14.5303444224
 20
5.9282446209
 30
0.0
 10
14.4911110471
 20
5.9080023842
 30
0.0
 10
14.453427466
 20
5.8860927653
 30
0.0
 10
14.4173189059
 20
5.8626623685
 30
0.0
 10
14.3827974561
 20
5.8378417009
 30
0.0
 10
14.3498605911
 20
5.8117488662
 30
0.0
 10
14.3082595441
 20
5.775597774
 30
0.0
 10
14.2600068472
 20
5.727703846
 30
0.0
 10
14.2078336126
 20
5.6662900503
 30
0.0
 10
14.1690786384
 20
5.6123109147
 30
0.0
 10
14.140934385
 20
5.5677604532
 30
0.0
 10
14.1146692312
 20
5.522377891
 30
0.0
 10
14.0910362576
 20
5.475514226
 30
0.0
 10
14.0727040788
 20
5.4334072529
 30
0.0
 10
14.0628691871
 20
5.4089646936
 30
0.0
 10
14.0534288842
 20
5.3841783502
 30
0.0
 10
14.0424243589
 20
5.3526380675
 30
0.0
 10
14.0325574262
 20
5.3205213695
 30
0.0
 10
14.0253214806
 20
5.2943608308
 30
0.0
 10
14.0184609906
 20
5.2676101449
 30
0.0
 10
14.010722485
 20
5.2333759344
 30
0.0
 10
14.0029005212
 20
5.1911769383
 30
0.0
 10
13.9965753943
 20
5.147529256
 30
0.0
 10
13.9927314265
 20
5.1101867125
 30
0.0
 10
13.9908020453
 20
5.0835192317
 30
0.0
 10
13.9899278377
 20
5.0680227969
 30
0.0
 10
13.9892163076
 20
5.0523701836
 30
0.0
 10
13.9886432911
 20
5.0327050047
 30
0.0
 10
13.9884477736
 20
5.0090522734
 30
0.0
 10
13.9887535531
 20
4.9854127322
 30
0.0
 10
13.9895641554
 20
4.9618957694
 30
0.0
 10
13.9908695269
 20
4.9385964888
 30
0.0
 10
13.9926415722
 20
4.9155887587
 30
0.0
 10
13.9948529572
 20
4.8929228765
 30
0.0
 10
13.9974962676
 20
4.8706315092
 30
0.0
 10
14.0005549141
 20
4.8487256991
 30
0.0
 10
14.0039983855
 20
4.8271976948
 30
0.0
 10
14.0078077887
 20
4.8060317121
 30
0.0
 10
14.0119770362
 20
4.7852127641
 30
0.0
 10
14.0164982269
 20
4.7647229249
 30
0.0
 10
14.0213623063
 20
4.7445411953
 30
0.0
 10
14.0265592811
 20
4.7246449407
 30
0.0
 10
14.0338984234
 20
4.698563329
 30
0.0
 10
14.0438925756
 20
4.6665353837
 30
0.0
 10
14.0615957636
 20
4.6164929454
 30
0.0
 10
14.0870086307
 20
4.55571738
 30
0.0
 10
14.1228130547
 20
4.4854946173
 30
0.0
 10
14.1639782401
 20
4.418106496
 30
0.0
 10
14.2107062609
 20
4.3536585222
 30
0.0
 10
14.2632238458
 20
4.2924418801
 30
0.0
 10
14.3117695214
 20
4.2447417717
 30
0.0
 10
14.353609892
 20
4.2087648731
 30
0.0
 10
14.3867306833
 20
4.1828141753
 30
0.0
 10
14.4214368346
 20
4.1581488867
 30
0.0
 10
14.4577294276
 20
4.1348884113
 30
0.0
 10
14.49559489
 20
4.1131647918
 30
0.0
 10
14.5350055124
 20
4.0931264675
 30
0.0
 10
14.5759063739
 20
4.0749218997
 30
0.0
 10
14.6182177974
 20
4.0587055355
 30
0.0
 10
14.6618307296
 20
4.0446383141
 30
0.0
 10
14.6990613209
 20
4.0348606509
 30
0.0
 10
14.7293487659
 20
4.028247482
 30
0.0
 10
14.7523386093
 20
4.023901706
 30
0.0
 10
14.7755222976
 20
4.0201974676
 30
0.0
 10
14.7988713077
 20
4.0171523237
 30
0.0
 10
14.8223554026
 20
4.0147748422
 30
0.0
 10
14.8538152909
 20
4.0124987262
 30
0.0
 10
14.8774936771
 20
4.0118070872
 30
0.0
 10
14.8932815377
 20
4.0118050195
 30
0.0
  0
SPLINE
  5
2A6
100
AcDbEntity
  8
0
100
AcDbSpline
 62
9
  6
CONTINUOUS
 70
0
 71
3
 72
15
 73
11
 74
0
 42
0.0000001
 43
0.0000001
 44
0.0000000001
 40
0.0
 40
0.0
 40
0.0
 40
0.0
 40
0.1252916317
 40
0.2505200341
 40
0.3756623881
 40
0.5007005203
 40
0.6256349391
 40
0.7504796653
 40
0.8752557569
 40
1.0
 40
1.0
 40
1.0
 40
1.0
 10
7.4522018093
 20
12.0157688505
 30
0.0
 10
7.4544766434
 20
12.0153773418
 30
0.0
 10
7.4589634036
 20
12.0141762589
 30
0.0
 10
7.4652604053
 20
12.0112236404
 30
0.0
 10
7.4709412533
 20
12.007215296
 30
0.0
 10
7.4758287548
 20
12.0022798277
 30
0.0
 10
7.4797865359
 20
11.9965789915
 30
0.0
 10
7.4826994086
 20
11.9902851024
 30
0.0
 10
7.4844941873
 20
11.9835925349
 30
0.0
 10
7.4849127648
 20
11.9789876279
 30
0.0
 10
7.4849220291
 20
11.9766894527
 30
0.0
  0
SPLINE
  5
2A7
100
AcDbEntity
  8
0
100
AcDbSpline
 62
9
  6
CONTINUOUS
 70
0
 71
3
 72
17
 73
13
 74
0
 42
0.0000001
 43
0.0000001
 44
0.0000000001
 40
0.0
 40
0.0
 40
0.0
 40
0.0
 40
0.1246750026
 40
0.2493920958
 40
0.3118528186
 40
0.3743368552
 40
0.4992437342
 40
0.6242678867
 40
0.6868970448
 40
0.7495519434
 40
0.8747600639
 40
1.0
 40
1.0
 40
1.0
 40
1.0
 10
7.4895421383
 20
11.0076195049
 30
0.0
 10
7.4895572093
 20
11.0050517254
 30
0.0
 10
7.4890856352
 20
10.9998998515
 30
0.0
 10
7.4872808436
 20
10.9936934289
 30
0.0
 10
7.4851504301
 20
10.98900561
 30
0.0
 10
7.4825756065
 20
10.9845420424
 30
0.0
 10
7.4785606589
 20
10.9794586896
 30
0.0
 10
7.4736319804
 20
10.9752493933
 30
0.0
 10
7.46925613
 20
10.9725097433
 30
0.0
 10
7.4646274307
 20
10.9702140973
 30
0.0
 10
7.458450236
 20
10.9682173516
 30
0.0
 10
7.4532852791
 20
10.9676256408
 30
0.0
 10
7.4507059988
 20
10.9675952715
 30
0.0
  0
LINE
  5
2A8
100
AcDbEntity
  8
0
100
AcDbLine
 62
7
  6
CONTINUOUS
 10
7.4507062603
 20
10.9675746393
 11
7.1862778623
 21
10.9640047922
  0
LINE
  5
2A9
100
AcDbEntity
  8
0
100
AcDbLine
 62
7
  6
CONTINUOUS
 10
7.2846416817
 20
11.6531507306
 11
7.2930254178
 21
11.6548649893
  0
LINE
  5
2AA
100
AcDbEntity
  8
0
100
AcDbLine
 62
7
  6
CONTINUOUS
 10
7.2930254178
 20
11.6548649893
 11
7.2956211753
 21
11.7196077052
  0
LINE
  5
2AB
100
AcDbEntity
  8
0
100
AcDbLine
 62
7
  6
CONTINUOUS
 10
15.2302529806
 20
5.043737979
 11
15.2308213509
 21
5.0437543473
  0
LINE
  5
2AC
100
AcDbEntity
  8
0
100
AcDbLine
 62
7
  6
CONTINUOUS
 10
15.2308213509
 20
5.0437543473
 11
15.2320843779
 21
5.0437906716
  0
LINE
  5
2AD
100
AcDbEntity
  8
0
100
AcDbLine
 62
7
  6
CONTINUOUS
 10
15.2320843779
 20
5.0437906716
 11
15.2502216587
 21
5.0443050195
  0
SPLINE
  5
2AE
100
AcDbEntity
  8
0
100
AcDbSpline
 62
9
  6
CONTINUOUS
 70
0
 71
3
 72
35
 73
31
 74
0
 42
0.0000001
 43
0.0000001
 44
0.0000000001
 40
0.0
 40
0.0
 40
0.0
 40
0.0
 40
0.0001140415
 40
0.0003313532
 40
0.0011413975
 40
0.0024760796
 40
0.0043470456
 40
0.0067627049
 40
0.0097305599
 40
0.0132577605
 40
0.0173512914
 40
0.0220180494
 40
0.0272648809
 40
0.0395259867
 40
0.0541889362
 40
0.0713078647
 40
0.0909156017
 40
0.1129595147
 40
0.1373654443
 40
0.1640592055
 40
0.1929665969
 40
0.2240134064
 40
0.2922283894
 40
0.3679819381
 40
0.4500348099
 40
0.5370176424
 40
0.6275610406
 40
0.7203273647
 40
0.8141072792
 40
1.0
 40
1.0
 40
1.0
 40
1.0
 10
7.4509579904
 20
10.9147399869
 30
0.0
 10
7.450959999
 20
10.9147400138
 30
0.0
 10
7.4509646787
 20
10.9147450128
 30
0.0
 10
7.4509712166
 20
10.9147633873
 30
0.0
 10
7.4509793818
 20
10.9148049677
 30
0.0
 10
7.4509876596
 20
10.9148748368
 30
0.0
 10
7.4509961715
 20
10.9149736724
 30
0.0
 10
7.451004348
 20
10.9151011318
 30
0.0
 10
7.4510122889
 20
10.9152579158
 30
0.0
 10
7.4510198878
 20
10.9154442664
 30
0.0
 10
7.4510271397
 20
10.9156605862
 30
0.0
 10
7.4510340163
 20
10.9159072178
 30
0.0
 10
7.4510431405
 20
10.916297707
 30
0.0
 10
7.45105315
 20
10.9168642942
 30
0.0
 10
7.4510629424
 20
10.9176400262
 30
0.0
 10
7.4510708952
 20
10.9185451914
 30
0.0
 10
7.4510768971
 20
10.9195803849
 30
0.0
 10
7.4510809383
 20
10.9207439448
 30
0.0
 10
7.4510829865
 20
10.9220323261
 30
0.0
 10
7.4510830151
 20
10.9234416051
 30
0.0
 10
7.4510810002
 20
10.9249678579
 30
0.0
 10
7.451075374
 20
10.9272254774
 30
0.0
 10
7.4510627738
 20
10.9303082478
 30
0.0
 10
7.4510397936
 20
10.9342894192
 30
0.0
 10
7.4510091691
 20
10.9386011326
 30
0.0
 10
7.4509715886
 20
10.9431733148
 30
0.0
 10
7.450927773
 20
10.947934161
 30
0.0
 10
7.4508784221
 20
10.9528146859
 30
0.0
 10
7.4508068152
 20
10.9593745925
 30
0.0
 10
7.4507477191
 20
10.9643005118
 30
0.0
 10
7.4507062596
 20
10.9675746421
 30
0.0
  0
SPLINE
  5
2AF
100
AcDbEntity
  8
0
100
AcDbSpline
 62
9
  6
CONTINUOUS
 70
0
 71
3
 72
28
 73
24
 74
0
 42
0.0000001
 43
0.0000001
 44
0.0000000001
 40
0.0
 40
0.0
 40
0.0
 40
0.0
 40
0.1799793663
 40
0.3634840651
 40
0.4533893797
 40
0.5400931952
 40
0.6220468878
 40
0.6978764885
 40
0.7663354764
 40
0.8265006597
 40
0.8776289089
 40
0.899683507
 40
0.9193546313
 40
0.9366324133
 40
0.951581771
 40
0.9642939479
 40
0.9748760846
 40
0.9834648033
 40
0.990255528
 40
0.9930753914
 40
0.9955833708
 40
0.9978584735
 40
1.0
 40
1.0
 40
1.0
 40
1.0
 10
7.4849220291
 20
11.976689452
 30
0.0
 10
7.4884872541
 20
11.9767034368
 30
0.0
 10
7.4956879073
 20
11.9766674194
 30
0.0
 10
7.5046674673
 20
11.9764602585
 30
0.0
 10
7.5117955479
 20
11.9761765001
 30
0.0
 10
7.5169106988
 20
11.9759101946
 30
0.0
 10
7.5217434127
 20
11.9755904149
 30
0.0
 10
7.5262101862
 20
11.9752223135
 30
0.0
 10
7.5302395606
 20
11.9748100813
 30
0.0
 10
7.5337724163
 20
11.9743621933
 30
0.0
 10
7.5363819273
 20
11.9739475284
 30
0.0
 10
7.5381877107
 20
11.9735967517
 30
0.0
 10
7.5393288381
 20
11.973343045
 30
0.0
 10
7.5403245632
 20
11.9730862786
 30
0.0
 10
7.5411767667
 20
11.972827733
 30
0.0
 10
7.5418890961
 20
11.972568543
 30
0.0
 10
7.5424660831
 20
11.9723095358
 30
0.0
 10
7.5429120418
 20
11.9720515568
 30
0.0
 10
7.5431954967
 20
11.9718242846
 30
0.0
 10
7.5433509706
 20
11.9716403711
 30
0.0
 10
7.5434294044
 20
11.9715108921
 30
0.0
 10
7.5434770251
 20
11.9713812312
 30
0.0
 10
7.5434880952
 20
11.9712934931
 30
0.0
 10
7.5434882975
 20
11.9712510716
 30
0.0
  0
SPLINE
  5
2B0
100
AcDbEntity
  8
0
100
AcDbSpline
 62
9
  6
CONTINUOUS
 70
0
 71
3
 72
28
 73
24
 74
0
 42
0.0000001
 43
0.0000001
 44
0.0000000001
 40
0.0
 40
0.0
 40
0.0
 40
0.0
 40
0.0021448023
 40
0.0044230283
 40
0.0069338758
 40
0.0097563168
 40
0.0165513642
 40
0.0251434902
 40
0.0357283076
 40
0.0484425588
 40
0.0633934523
 40
0.0806722655
 40
0.1003440628
 40
0.1223991071
 40
0.1735274851
 40
0.2336919078
 40
0.3021493844
 40
0.3779767986
 40
0.4599278035
 40
0.5466285184
 40
0.6365304989
 40
0.8200279807
 40
1.0
 40
1.0
 40
1.0
 40
1.0
 10
7.5480538176
 20
11.0136252244
 30
0.0
 10
7.5480540226
 20
11.0135827363
 30
0.0
 10
7.5480437963
 20
11.0134947662
 30
0.0
 10
7.5479974237
 20
11.0133644538
 30
0.0
 10
7.5479202344
 20
11.0132340249
 30
0.0
 10
7.5477665405
 20
11.0130483568
 30
0.0
 10
7.5474852801
 20
11.0128180244
 30
0.0
 10
7.5470417874
 20
11.0125553768
 30
0.0
 10
7.5464672848
 20
11.0122904534
 30
0.0
 10
7.5457574513
 20
11.0120240584
 30
0.0
 10
7.5449077497
 20
11.0117569757
 30
0.0
 10
7.5439145209
 20
11.0114903057
 30
0.0
 10
7.5427758685
 20
11.0112253137
 30
0.0
 10
7.5409735274
 20
11.0108567618
 30
0.0
 10
7.5383680978
 20
11.0104165495
 30
0.0
 10
7.5348396716
 20
11.0099342506
 30
0.0
 10
7.5308144119
 20
11.0094829253
 30
0.0
 10
7.5263513533
 20
11.0090716258
 30
0.0
 10
7.5215219116
 20
11.0087052318
 30
0.0
 10
7.5164095346
 20
11.0083896997
 30
0.0
 10
7.5092844908
 20
11.0080374792
 30
0.0
 10
7.5003073172
 20
11.007744307
 30
0.0
 10
7.493107333
 20
11.0076395213
 30
0.0
 10
7.4895421383
 20
11.0076195063
 30
0.0
  0
SPLINE
  5
2B1
100
AcDbEntity
  8
0
100
AcDbSpline
 62
9
  6
CONTINUOUS
 70
0
 71
3
 72
33
 73
29
 74
0
 42
0.0000001
 43
0.0000001
 44
0.0000000001
 40
0.0
 40
0.0
 40
0.0
 40
0.0
 40
0.000130378
 40
0.0003548823
 40
0.0011697415
 40
0.002504935
 40
0.0043745719
 40
0.0067879282
 40
0.0097529152
 40
0.0132769129
 40
0.0173670523
 40
0.027273634
 40
0.039527946
 40
0.0541846576
 40
0.0712981878
 40
0.0909015976
 40
0.1129423359
 40
0.1373462509
 40
0.1640391521
 40
0.2239950202
 40
0.2922160742
 40
0.3679790974
 40
0.4500427276
 40
0.5370356895
 40
0.6275866584
 40
0.7203563911
 40
0.81413421
 40
1.0
 40
1.0
 40
1.0
 40
1.0
 10
7.4616934831
 20
12.0677918974
 30
0.0
 10
7.4616912294
 20
12.0677923504
 30
0.0
 10
7.4616848895
 20
12.0677890719
 30
0.0
 10
7.4616731707
 20
12.0677723281
 30
0.0
 10
7.4616559033
 20
12.0677336529
 30
0.0
 10
7.4616328037
 20
12.0676668504
 30
0.0
 10
7.4616043274
 20
12.0675718575
 30
0.0
 10
7.4615708437
 20
12.0674485619
 30
0.0
 10
7.4615322506
 20
12.0672964021
 30
0.0
 10
7.46148857
 20
12.0671150676
 30
0.0
 10
7.461418923
 20
12.0668141047
 30
0.0
 10
7.4613194238
 20
12.0663620785
 30
0.0
 10
7.4611853421
 20
12.0657269333
 30
0.0
 10
7.4610297741
 20
12.0649664725
 30
0.0
 10
7.4608523999
 20
12.0640782274
 30
0.0
 10
7.4606532647
 20
12.0630615759
 30
0.0
 10
7.4604326813
 20
12.0619181501
 30
0.0
 10
7.4601913463
 20
12.0606514304
 30
0.0
 10
7.4598286161
 20
12.0587273288
 30
0.0
 10
7.4593295554
 20
12.0560427765
 30
0.0
 10
7.4586812061
 20
12.0525060018
 30
0.0
 10
7.4579707088
 20
12.0485843472
 30
0.0
 10
7.4572081312
 20
12.0443357755
 30
0.0
 10
7.4564056659
 20
12.0398294719
 30
0.0
 10
7.4555757706
 20
12.0351363256
 30
0.0
 10
7.4547304069
 20
12.0303244366
 30
0.0
 10
7.4536006379
 20
12.0238562639
 30
0.0
 10
7.4527587402
 20
12.018998217
 30
0.0
 10
7.4522018095
 20
12.0157688505
 30
0.0
  0
SPLINE
  5
2B2
100
AcDbEntity
  8
0
100
AcDbSpline
 62
9
  6
CONTINUOUS
 70
0
 71
3
 72
21
 73
17
 74
0
 42
0.0000001
 43
0.0000001
 44
0.0000000001
 40
0.0
 40
0.0
 40
0.0
 40
0.0
 40
0.0625430726
 40
0.1251413441
 40
0.1877127038
 40
0.250286191
 40
0.3128622934
 40
0.3754310529
 40
0.5002982554
 40
0.625113804
 40
0.687621342
 40
0.7501170985
 40
0.8125960644
 40
0.875064499
 40
0.9375577162
 40
1.0
 40
1.0
 40
1.0
 40
1.0
 10
14.5563100948
 20
5.8161642365
 30
0.0
 10
14.5563089781
 20
5.8169914834
 30
0.0
 10
14.5562035636
 20
5.8186483726
 30
0.0
 10
14.5557402087
 20
5.8210937611
 30
0.0
 10
14.5549771999
 20
5.8234637088
 30
0.0
 10
14.5539270163
 20
5.8257205528
 30
0.0
 10
14.5526058479
 20
5.8278306394
 30
0.0
 10
14.5505133077
 20
5.8304003913
 30
0.0
 10
14.5473242128
 20
5.8330956524
 30
0.0
 10
14.5435696813
 20
5.834921093
 30
0.0
 10
14.5403751174
 20
5.8357930959
 30
0.0
 10
14.5379137425
 20
5.8361454672
 30
0.0
 10
14.5354285653
 20
5.8361901227
 30
0.0
 10
14.5329568699
 20
5.8359259053
 30
0.0
 10
14.5305380964
 20
5.8353566937
 30
0.0
 10
14.5289840638
 20
5.8347801301
 30
0.0
 10
14.5282291412
 20
5.8344451278
 30
0.0
  0
SPLINE
  5
2B3
100
AcDbEntity
  8
0
100
AcDbSpline
 62
9
  6
CONTINUOUS
 70
0
 71
3
 72
13
 73
9
 74
0
 42
0.0000001
 43
0.0000001
 44
0.0000000001
 40
0.0
 40
0.0
 40
0.0
 40
0.0
 40
0.2648932281
 40
0.5175000568
 40
0.6402593613
 40
0.7612086208
 40
0.8809364442
 40
1.0
 40
1.0
 40
1.0
 40
1.0
 10
7.5444999067
 20
11.7590857873
 30
0.0
 10
7.5457349043
 20
11.7604149422
 30
0.0
 10
7.547952368
 20
11.7632039355
 30
0.0
 10
7.5500512835
 20
11.7670845599
 30
0.0
 10
7.5512213464
 20
11.7702814056
 30
0.0
 10
7.5518429298
 20
11.7726963531
 30
0.0
 10
7.5522124231
 20
11.7751366119
 30
0.0
 10
7.552289683
 20
11.7767738197
 30
0.0
 10
7.5522857951
 20
11.7775893207
 30
0.0
  0
SPLINE
  5
2B4
100
AcDbEntity
  8
0
100
AcDbSpline
 62
9
  6
CONTINUOUS
 70
0
 71
3
 72
13
 73
9
 74
0
 42
0.0000001
 43
0.0000001
 44
0.0000000001
 40
0.0
 40
0.0
 40
0.0
 40
0.0
 40
0.2648932281
 40
0.5175000568
 40
0.6402593613
 40
0.7612086208
 40
0.8809364442
 40
1.0
 40
1.0
 40
1.0
 40
1.0
 10
7.54366022
 20
11.9352104415
 30
0.0
 10
7.5449078348
 20
11.9338931227
 30
0.0
 10
7.5471517906
 20
11.9311253994
 30
0.0
 10
7.5492876122
 20
11.9272649645
 30
0.0
 10
7.5504881035
 20
11.9240794206
 30
0.0
 10
7.551132685
 20
11.9216705096
 30
0.0
 10
7.5515254292
 20
11.9192338848
 30
0.0
 10
7.5516182963
 20
11.9175974881
 30
0.0
 10
7.5516221842
 20
11.9167819871
 30
0.0
  0
SPLINE
  5
2B5
100
AcDbEntity
  8
0
100
AcDbSpline
 62
9
  6
CONTINUOUS
 70
0
 71
3
 72
21
 73
17
 74
0
 42
0.0000001
 43
0.0000001
 44
0.0000000001
 40
0.0
 40
0.0
 40
0.0
 40
0.0
 40
0.0624517939
 40
0.1249373101
 40
0.1874078128
 40
0.2498881983
 40
0.3123841495
 40
0.3748929363
 40
0.4997122585
 40
0.6245780389
 40
0.6871467471
 40
0.7497231741
 40
0.8122962414
 40
0.8748633759
 40
0.9374574493
 40
1.0
 40
1.0
 40
1.0
 40
1.0
 10
15.2583339342
 20
5.8344451278
 30
0.0
 10
15.2575788936
 20
5.8347801824
 30
0.0
 10
15.2560248505
 20
5.8353568166
 30
0.0
 10
15.2536059876
 20
5.8359259172
 30
0.0
 10
15.2511343453
 20
5.8361901569
 30
0.0
 10
15.2486491068
 20
5.8361454932
 30
0.0
 10
15.2461876893
 20
5.8357930725
 30
0.0
 10
15.242993067
 20
5.8349210028
 30
0.0
 10
15.2392383723
 20
5.8330957356
 30
0.0
 10
15.23604939
 20
5.8304001914
 30
0.0
 10
15.2339571626
 20
5.8278301991
 30
0.0
 10
15.232636006
 20
5.8257201091
 30
0.0
 10
15.2315856438
 20
5.8234634156
 30
0.0
 10
15.2308222621
 20
5.8210936889
 30
0.0
 10
15.2303592455
 20
5.8186483107
 30
0.0
 10
15.2302541921
 20
5.8169914796
 30
0.0
 10
15.2302529806
 20
5.8161642365
 30
0.0
  0
ENDSEC
  0
SECTION
  2
OBJECTS
  0
DICTIONARY
  5
C
100
AcDbDictionary
280
0
281
1
  3
ACAD_GROUP
350
D
  3
ACAD_MLINESTYLE
350
17
  3
ACAD_LAYOUT
350
1A
  3
ACAD_PLOTSETTINGS
350
19
  3
ACAD_PLOTSTYLENAME
350
E
  0
DICTIONARY
  5
D
102
{ACAD_REACTORS
330
C
102
}
100
AcDbDictionary
280
0
281
1
  0
ACDBDICTIONARYWDFLT
  5
E
102
{ACAD_REACTORS
330
C
102
}
100
AcDbDictionary
281
1
  3
Normal
350
F
100
AcDbDictionaryWithDefault
340
F
  0
DICTIONARY
  5
17
102
{ACAD_REACTORS
330
C
102
}
100
AcDbDictionary
280
0
281
1
  3
Standard
350
18
  0
DICTIONARY
  5
19
102
{ACAD_REACTORS
330
C
102
}
100
AcDbDictionary
281
1
  0
DICTIONARY
  5
1A
102
{ACAD_REACTORS
330
C
102
}
100
AcDbDictionary
281
1
  3
Model
350
2B6
  3
Layout1
350
2B7
  0
ACDBPLACEHOLDER
  5
F
102
{ACAD_REACTORS
330
E
102
}
  0
MLINESTYLE
  5
18
102
{ACAD_REACTORS
330
17
102
}
100
AcDbMlineStyle
  2
STANDARD
 70
0
  3

 62
256
 51
90.0
 52
90.0
 71
2
 49
0.5
 62
256
  6
BYLAYER
 49
-0.5
 62
256
  6
BYLAYER
  0
LAYOUT
  5
2B6
102
{ACAD_REACTORS
330
1A
102
}
100
AcDbPlotSettings
  1

  2
none_device
  4
ANSI_C_(22.00_x_17.00_Inches)
  6

 40
0.0
 41
0.0
 42
0.0
 43
0.0
 44
558.8
 45
431.8
 46
0.0
 47
0.0
 48
0.0
 49
0.0
140
0.0
141
0.0
142
1.0
143
1.0
 70
1024
 72
0
 73
0
 74
0
  7

 75
0
147
1.0
148
0.0
149
0.0
100
AcDbLayout
  1
Model
 70
0
 71
0
 10
0.0
 20
0.0
 11
22.0
 21
17.0
 12
0.0
 22
0.0
 32
0.0
 14
0.0
 24
0.0
 34
0.0
 15
0.0
 25
0.0
 35
0.0
146
0.0
 13
0.0
 23
0.0
 33
0.0
 16
1.0
 26
0.0
 36
0.0
 17
0.0
 27
1.0
 37
0.0
 76
0
330
205
345
0
346
0
  0
LAYOUT
  5
2B7
102
{ACAD_REACTORS
330
1A
102
}
100
AcDbPlotSettings
  1

  2
none_device
  4
ANSI_C_(22.00_x_17.00_Inches)
  6

 40
0.0
 41
0.0
 42
0.0
 43
0.0
 44
558.8
 45
431.8
 46
0.0
 47
0.0
 48
0.0
 49
0.0
140
0.0
141
0.0
142
1.0
143
1.0
 70
0
 72
0
 73
0
 74
0
  7

 75
0
147
1.0
148
0.0
149
0.0
100
AcDbLayout
  1
Layout1
 70
0
 71
1
 10
0.0
 20
0.0
 11
22.0
 21
17.0
 12
0.0
 22
0.0
 32
0.0
 14
0.0
 24
0.0
 34
0.0
 15
0.0
 25
0.0
 35
0.0
146
0.0
 13
0.0
 23
0.0
 33
0.0
 16
1.0
 26
0.0
 36
0.0
 17
0.0
 27
1.0
 37
0.0
 76
0
330
206
345
0
346
0
  0
ENDSEC
  0
EOF
