999
DXF file: 1500-5223_FRONT.dxf
999
Pro/ENGINEER 2018400 by Parametric Technology Corporation
  0
SECTION
  2
HEADER
  9
$ACADVER
  1
AC1027
  9
$DWGCODEPAGE
  3
ANSI_1252
  9
$EXTMAX
 10
11.0
 20
8.5
 30
0.0
  9
$EXTMIN
 10
0.0
 20
0.0
 30
0.0
  9
$LIMMIN
 10
0.0
 20
0.0
  9
$LIMMAX
 10
11.0
 20
8.5
  9
$VIEWCTR
 10
5.5
 20
4.25
  9
$VIEWSIZE
 40
8.5
  9
$CLAYER
  8
0
  9
$LTSCALE
 40
0.605
  9
$CELTYPE
  6
BYLAYER
  9
$DIMSCALE
 40
1.0
  9
$DIMASZ
 40
0.1
  9
$DIMEXO
 40
0.0625
  9
$DIMDLI
 40
0.418
  9
$DIMEXE
 40
0.125
  9
$DIMCEN
 40
0.099
  9
$DIMLFAC
 40
1.0
  9
$DIMBLK
  1
_FILLED
  9
$DIMALT
 70
1
  9
$DIMALTD
 70
2
  9
$DIMALTTD
 70
2
  9
$DIMALTF
 40
25.4
  9
$DIMTXT
 40
0.08
  9
$DIMTOL
 70
1
  9
$DIMLIM
 70
0
  9
$DIMTFAC
 40
1.0
  9
$DIMTP
 40
0.001
  9
$DIMTM
 40
0.001
  9
$DIMGAP
 40
0.09
  9
$DIMDSEP
 70
46
  9
$AUNITS
 70
0
  9
$PDMODE
 70
3
  9
$PDSIZE
 40
0.3125
  9
$HANDSEED
  5
380
  9
$TILEMODE
 70
1
  9
$MEASUREMENT
 70
0
  9
$INSUNITS
 70
1
  0
ENDSEC
  0
SECTION
  2
CLASSES
  0
CLASS
  1
ACDBDICTIONARYWDFLT
  2
AcDbDictionaryWithDefault
  3
AutoCAD 2000
 90
0
 91
1
280
0
281
0
  0
CLASS
  1
ACDBPLACEHOLDER
  2
AcDbPlaceHolder
  3
AutoCAD 2000
 90
0
 91
1
280
0
281
0
  0
CLASS
  1
LAYOUT
  2
AcDbLayout
  3
AutoCAD 2000
 90
0
 91
0
280
0
281
0
  0
ENDSEC
  0
SECTION
  2
TABLES
  0
TABLE
  2
VPORT
  5
8
100
AcDbSymbolTable
 70
2
  0
VPORT
  5
1F4
100
AcDbSymbolTableRecord
100
AcDbViewportTableRecord
  2
*ACTIVE
 70
0
 10
0.0
 20
0.0
 11
1.0
 21
1.0
 12
5.5
 22
4.25
 13
0.0
 23
0.0
 14
1.0
 24
1.0
 15
0.0
 25
0.0
 16
0.0
 26
0.0
 36
1.0
 17
0.0
 27
0.0
 37
0.0
 40
8.5
 41
1.2941176471
 42
50.0
 43
0.0
 44
0.0
 50
0.0
 51
0.0
 71
0
 72
100
 73
1
 74
1
 75
0
 76
0
 77
0
 78
0
  0
ENDTAB
  0
TABLE
  2
LTYPE
  5
5
100
AcDbSymbolTable
 70
6
  0
LTYPE
  5
14
100
AcDbSymbolTableRecord
100
AcDbLinetypeTableRecord
  2
BYBLOCK
 70
0
  3

 72
65
 73
0
 40
0.0
  0
LTYPE
  5
15
100
AcDbSymbolTableRecord
100
AcDbLinetypeTableRecord
  2
BYLAYER
 70
0
  3

 72
65
 73
0
 40
0.0
  0
LTYPE
  5
16
100
AcDbSymbolTableRecord
100
AcDbLinetypeTableRecord
  2
CONTINUOUS
 70
64
  3
Solid line
 72
65
 73
0
 40
0.0
  0
LTYPE
  5
1F5
100
AcDbSymbolTableRecord
100
AcDbLinetypeTableRecord
  2
CENTER
 70
64
  3
____ _ ____ _ ____ _ ____ _ ____ _ ____ _ ____
 72
65
 73
4
 40
0.6
 49
0.375
 74
0
 49
-0.075
 74
0
 49
0.075
 74
0
 49
-0.075
 74
0
  0
LTYPE
  5
1F6
100
AcDbSymbolTableRecord
100
AcDbLinetypeTableRecord
  2
HIDDEN
 70
64
  3
- - - - - - - - - - - - - - - - - - - -
 72
65
 73
2
 40
0.2
 49
0.1
 74
0
 49
-0.1
 74
0
  0
LTYPE
  5
1F7
100
AcDbSymbolTableRecord
100
AcDbLinetypeTableRecord
  2
PHANTOM
 70
64
  3
_____ _ _ _____ _ _ _____ _ _ _____
 72
65
 73
6
 40
0.8
 49
0.45
 74
0
 49
-0.05
 74
0
 49
0.1
 74
0
 49
-0.05
 74
0
 49
0.1
 74
0
 49
-0.05
 74
0
  0
LTYPE
  5
1F8
100
AcDbSymbolTableRecord
100
AcDbLinetypeTableRecord
  2
DOT
 70
64
  3
. . . . . . . . . . . . . . . . . . . .
 72
65
 73
2
 40
0.2
 49
0.1
 74
0
 49
-0.1
 74
0
  0
LTYPE
  5
1F9
100
AcDbSymbolTableRecord
100
AcDbLinetypeTableRecord
  2
DASHED
 70
64
  3
- - - - - - - - - - - - - - - - - - - -
 72
65
 73
2
 40
0.2
 49
0.1
 74
0
 49
-0.1
 74
0
  0
ENDTAB
  0
TABLE
  2
LAYER
  5
2
100
AcDbSymbolTable
 70
36
  0
LAYER
  5
10
100
AcDbSymbolTableRecord
100
AcDbLayerTableRecord
  2
0
 70
0
 62
7
  6
CONTINUOUS
370
-3
390
F
  0
LAYER
  5
1FA
100
AcDbSymbolTableRecord
100
AcDbLayerTableRecord
  2
DEFAULT_1
 70
0
 62
7
  6
CENTER
370
-3
390
F
  0
LAYER
  5
1FB
100
AcDbSymbolTableRecord
100
AcDbLayerTableRecord
  2
DEFAULT_2
 70
0
 62
8
  6
HIDDEN
370
-3
390
F
  0
LAYER
  5
1FC
100
AcDbSymbolTableRecord
100
AcDbLayerTableRecord
  2
DEFAULT_3
 70
0
 62
7
  6
PHANTOM
370
-3
390
F
  0
LAYER
  5
1FD
100
AcDbSymbolTableRecord
100
AcDbLayerTableRecord
  2
DEFAULT_COORDINATE_SYSTEM
 70
0
 62
7
  6
CONTINUOUS
370
-3
390
F
  0
LAYER
  5
1FE
100
AcDbSymbolTableRecord
100
AcDbLayerTableRecord
  2
DEFAULT_DATUM_AXES
 70
0
 62
7
  6
CONTINUOUS
370
-3
390
F
  0
LAYER
  5
1FF
100
AcDbSymbolTableRecord
100
AcDbLayerTableRecord
  2
DEFAULT_DATUM_PLANES
 70
0
 62
7
  6
CONTINUOUS
370
-3
390
F
  0
ENDTAB
  0
TABLE
  2
STYLE
  5
3
100
AcDbSymbolTable
 70
1
  0
STYLE
  5
11
100
AcDbSymbolTableRecord
100
AcDbTextStyleTableRecord
  2
STANDARD
 70
0
 40
0.0
 41
0.8
 50
0.0
 71
0
 42
0.2
  3
txt
  4

  0
STYLE
  5
200
100
AcDbSymbolTableRecord
100
AcDbTextStyleTableRecord
  2
TEXTSTYLE_1
 70
0
 40
0.0
 41
0.8
 50
0.0
 71
0
 42
0.2
  3
gdt
  4

  0
ENDTAB
  0
TABLE
  2
VIEW
  5
6
100
AcDbSymbolTable
 70
0
  0
ENDTAB
  0
TABLE
  2
UCS
  5
7
100
AcDbSymbolTable
 70
0
  0
ENDTAB
  0
TABLE
  2
APPID
  5
9
100
AcDbSymbolTable
 70
1
  0
APPID
  5
201
100
AcDbSymbolTableRecord
100
AcDbRegAppTableRecord
  2
ACAD
 70
0
  0
ENDTAB
  0
TABLE
  2
BLOCK_RECORD
  5
1
100
AcDbSymbolTable
 70
0
  0
BLOCK_RECORD
  5
202
100
AcDbSymbolTableRecord
100
AcDbBlockTableRecord
  2
*Model_Space
  0
BLOCK_RECORD
  5
203
100
AcDbSymbolTableRecord
100
AcDbBlockTableRecord
  2
*Paper_Space
  0
BLOCK_RECORD
  5
204
100
AcDbSymbolTableRecord
100
AcDbBlockTableRecord
  2
_FILLED
  0
ENDTAB
  0
TABLE
  2
DIMSTYLE
  5
A
100
AcDbSymbolTable
 70
1
100
AcDbDimStyleTable
 71
0
  0
DIMSTYLE
105
205
100
AcDbSymbolTableRecord
100
AcDbDimStyleTableRecord
  2
STANDARD
 70
0
  3

  4

 40
1.0
 41
0.1
 42
0.0625
 43
0.38
 44
0.125
 45
0.0
 46
0.0
 47
0.001
 48
0.001
140
0.08
141
0.09
142
0.0
143
25.4
144
1.0
145
0.0
146
1.0
147
0.09
 71
1.0
 72
0.0
 73
1
 74
1
 75
0
 76
0
 77
0
 78
4
 79
1
170
1
171
2
172
0
173
0
174
0
175
0
176
0
177
0
178
0
270
2
179
3
271
3
272
3
273
2
274
2
275
0
280
0
281
0
282
0
283
1
284
4
285
0
286
0
287
3
288
0
340
11
278
46
341
204
342
204
343
204
344
204
  0
ENDTAB
  0
ENDSEC
  0
SECTION
  2
BLOCKS
  0
BLOCK
  5
20
100
AcDbEntity
  8
0
100
AcDbBlockBegin
  2
*Model_Space
 70
0
 10
0.0
 20
0.0
 30
0.0
  3
*Model_Space
  1

  0
ENDBLK
  5
21
100
AcDbEntity
  8
0
100
AcDbBlockEnd
  0
BLOCK
  5
1C
100
AcDbEntity
  8
0
100
AcDbBlockBegin
  2
*Paper_Space
 70
0
 10
0.0
 20
0.0
 30
0.0
  3
*Paper_Space
  1

  0
ENDBLK
  5
1D
100
AcDbEntity
  8
0
100
AcDbBlockEnd
  0
BLOCK
  5
206
100
AcDbEntity
  8
0
100
AcDbBlockBegin
  2
_FILLED
 70
64
 10
0.0
 20
0.0
  3
_FILLED
  1

  0
SOLID
  5
207
100
AcDbEntity
  8
0
  6
BYBLOCK
 62
0
100
AcDbTrace
 10
0.0
 20
0.0
 11
-1.0
 21
0.2
 12
-1.0
 22
-0.2
 13
-1.0
 23
-0.2
  0
ENDBLK
  5
208
100
AcDbEntity
  8
0
  6
BYBLOCK
 62
0
100
AcDbBlockEnd
  0
ENDSEC
  0
SECTION
  2
ENTITIES
  0
MTEXT
  5
209
100
AcDbEntity
  8
0
100
AcDbMText
 62
2
  6
CONTINUOUS
  7
STANDARD
 71
3
 72
1
 10
4.4162267081
 20
0.4659013264
 30
0.0
 11
1.0
 21
0.0
 31
0.0
 73
2
 44
0.9
  1
SCALE  .500
 40
0.08
 41
0.704
  0
LINE
  5
20A
100
AcDbEntity
  8
0
100
AcDbLine
 62
7
  6
CONTINUOUS
 10
0.0
 20
0.0
 11
0.0
 21
8.5
  0
LINE
  5
20B
100
AcDbEntity
  8
0
100
AcDbLine
 62
7
  6
CONTINUOUS
 10
0.0
 20
0.0
 11
11.0
 21
0.0
  0
LINE
  5
20C
100
AcDbEntity
  8
0
100
AcDbLine
 62
7
  6
CONTINUOUS
 10
0.0
 20
8.5
 11
11.0
 21
8.5
  0
LINE
  5
20D
100
AcDbEntity
  8
0
100
AcDbLine
 62
7
  6
CONTINUOUS
 10
11.0
 20
0.0
 11
11.0
 21
8.5
  0
LINE
  5
20E
100
AcDbEntity
  8
0
100
AcDbLine
 62
7
  6
CONTINUOUS
 10
4.4991104249
 20
0.952904432
 11
3.5491104249
 21
0.952904432
  0
LINE
  5
20F
100
AcDbEntity
  8
0
100
AcDbLine
 62
7
  6
CONTINUOUS
 10
5.2636437555
 20
2.2576523427
 11
5.2714926788
 21
2.2598590401
  0
LINE
  5
210
100
AcDbEntity
  8
0
100
AcDbLine
 62
7
  6
CONTINUOUS
 10
5.2712502535
 20
2.2597919494
 11
5.2756504368
 21
2.260998972
  0
LINE
  5
211
100
AcDbEntity
  8
0
100
AcDbLine
 62
7
  6
CONTINUOUS
 10
5.2753963228
 20
2.2609298817
 11
5.2800389384
 21
2.2621798601
  0
LINE
  5
212
100
AcDbEntity
  8
0
100
AcDbLine
 62
7
  6
CONTINUOUS
 10
5.2797731081
 20
2.2621089968
 11
5.2846576934
 21
2.2633975767
  0
LINE
  5
213
100
AcDbEntity
  8
0
100
AcDbLine
 62
7
  6
CONTINUOUS
 10
5.2843801822
 20
2.2633251655
 11
5.2895124993
 21
2.2646493107
  0
LINE
  5
214
100
AcDbEntity
  8
0
100
AcDbLine
 62
7
  6
CONTINUOUS
 10
5.2892243552
 20
2.2645758477
 11
5.2946076583
 21
2.2659312871
  0
LINE
  5
215
100
AcDbEntity
  8
0
100
AcDbLine
 62
7
  6
CONTINUOUS
 10
5.2943102006
 20
2.2658573457
 11
5.299938135
 21
2.2672369918
  0
LINE
  5
216
100
AcDbEntity
  8
0
100
AcDbLine
 62
7
  6
CONTINUOUS
 10
5.2996329611
 20
2.2671632343
 11
5.3054949761
 21
2.2685588021
  0
LINE
  5
217
100
AcDbEntity
  8
0
100
AcDbLine
 62
7
  6
CONTINUOUS
 10
5.3051845429
 20
2.2684860386
 11
5.3112882983
 21
2.2698931654
  0
LINE
  5
218
100
AcDbEntity
  8
0
100
AcDbLine
 62
7
  6
CONTINUOUS
 10
5.3109757767
 20
2.2698223312
 11
5.3173056133
 21
2.2712308694
  0
LINE
  5
219
100
AcDbEntity
  8
0
100
AcDbLine
 62
7
  6
CONTINUOUS
 10
5.3169938348
 20
2.27116279
 11
5.3234996423
 21
2.2725553687
  0
LINE
  5
21A
100
AcDbEntity
  8
0
100
AcDbLine
 62
7
  6
CONTINUOUS
 10
5.3231904378
 20
2.2724905257
 11
5.3298666974
 21
2.2738600433
  0
LINE
  5
21B
100
AcDbEntity
  8
0
100
AcDbLine
 62
7
  6
CONTINUOUS
 10
5.3295621891
 20
2.2737989799
 11
5.3364016728
 21
2.2751378492
  0
LINE
  5
21C
100
AcDbEntity
  8
0
100
AcDbLine
 62
7
  6
CONTINUOUS
 10
5.3361037735
 20
2.275080974
 11
5.3430489622
 21
2.2763723608
  0
LINE
  5
21D
100
AcDbEntity
  8
0
100
AcDbLine
 62
7
  6
CONTINUOUS
 10
5.3427581666
 20
2.2763197501
 11
5.3497966633
 21
2.2775565867
  0
LINE
  5
21E
100
AcDbEntity
  8
0
100
AcDbLine
 62
7
  6
CONTINUOUS
 10
5.3495131216
 20
2.277508256
 11
5.3566431097
 21
2.2786854256
  0
LINE
  5
21F
100
AcDbEntity
  8
0
100
AcDbLine
 62
7
  6
CONTINUOUS
 10
5.3563672307
 20
2.2786413669
 11
5.3635438224
 21
2.2797472217
  0
LINE
  5
220
100
AcDbEntity
  8
0
100
AcDbLine
 62
7
  6
CONTINUOUS
 10
5.3632756471
 20
2.279707416
 11
5.3704890858
 21
2.2807370015
  0
LINE
  5
221
100
AcDbEntity
  8
0
100
AcDbLine
 62
7
  6
CONTINUOUS
 10
5.370228491
 20
2.2807013152
 11
5.3774729732
 21
2.2816504802
  0
LINE
  5
222
100
AcDbEntity
  8
0
100
AcDbLine
 62
7
  6
CONTINUOUS
 10
5.3772198931
 20
2.281618833
 11
5.3844539961
 21
2.2824796281
  0
LINE
  5
223
100
AcDbEntity
  8
0
100
AcDbLine
 62
7
  6
CONTINUOUS
 10
5.3842084871
 20
2.2824519319
 11
5.3914236754
 21
2.2832216892
  0
LINE
  5
224
100
AcDbEntity
  8
0
100
AcDbLine
 62
7
  6
CONTINUOUS
 10
5.3911856901
 20
2.2831977554
 11
5.3983737419
 21
2.2838742552
  0
LINE
  5
225
100
AcDbEntity
  8
0
100
AcDbLine
 62
7
  6
CONTINUOUS
 10
5.3981430578
 20
2.2838540377
 11
5.4052609882
 21
2.2844329174
  0
LINE
  5
226
100
AcDbEntity
  8
0
100
AcDbLine
 62
7
  6
CONTINUOUS
 10
5.4050380592
 20
2.2844162315
 11
5.4120767668
 21
2.2848974922
  0
LWPOLYLINE
  5
227
100
AcDbEntity
  8
0
100
AcDbPolyline
 62
7
  6
CONTINUOUS
 90
6
 70
0
 10
5.4118622249
 20
2.284884226
 10
5.4186075565
 20
2.2852584838
 10
5.4252315624
 20
2.2855385379
 10
5.4317135588
 20
2.2857271145
 10
5.4380562351
 20
2.285828319
 10
5.4424929286
 20
2.2858491653
  0
LINE
  5
228
100
AcDbEntity
  8
0
100
AcDbLine
 62
7
  6
CONTINUOUS
 10
5.2299326102
 20
2.247904432
 11
5.0166104249
 21
2.247904432
  0
LINE
  5
229
100
AcDbEntity
  8
0
100
AcDbLine
 62
7
  6
CONTINUOUS
 10
4.9716104249
 20
2.247904432
 11
4.5491104249
 21
2.247904432
  0
LINE
  5
22A
100
AcDbEntity
  8
0
100
AcDbLine
 62
7
  6
CONTINUOUS
 10
5.4286104249
 20
2.247904432
 11
5.6886104249
 21
2.247904432
  0
LINE
  5
22B
100
AcDbEntity
  8
0
100
AcDbLine
 62
7
  6
CONTINUOUS
 10
5.4186104249
 20
2.257904432
 11
5.6986104249
 21
2.257904432
  0
LINE
  5
22C
100
AcDbEntity
  8
0
100
AcDbLine
 62
7
  6
CONTINUOUS
 10
5.4424929286
 20
2.2858491653
 11
5.5566104249
 21
2.2858491653
  0
LINE
  5
22D
100
AcDbEntity
  8
0
100
AcDbLine
 62
7
  6
CONTINUOUS
 10
5.4424929286
 20
2.2867115456
 11
5.5566104249
 21
2.2867115456
  0
LINE
  5
22E
100
AcDbEntity
  8
0
100
AcDbLine
 62
7
  6
CONTINUOUS
 10
4.9866104249
 20
2.295404432
 11
5.0066104249
 21
2.295404432
  0
LINE
  5
22F
100
AcDbEntity
  8
0
100
AcDbLine
 62
7
  6
CONTINUOUS
 10
4.9866104249
 20
3.100404432
 11
5.0066104249
 21
3.100404432
  0
LINE
  5
230
100
AcDbEntity
  8
0
100
AcDbLine
 62
7
  6
CONTINUOUS
 10
5.3878604249
 20
3.147904432
 11
5.0166104249
 21
3.147904432
  0
LINE
  5
231
100
AcDbEntity
  8
0
100
AcDbLine
 62
7
  6
CONTINUOUS
 10
4.5491104249
 20
3.147904432
 11
4.9716104249
 21
3.147904432
  0
LWPOLYLINE
  5
232
100
AcDbEntity
  8
0
100
AcDbPolyline
 62
7
  6
CONTINUOUS
 90
33
 70
0
 10
5.5568561682
 20
3.1100811088
 10
5.5532156771
 20
3.110188504
 10
5.547619267
 20
3.1104193827
 10
5.5420124323
 20
3.1107306081
 10
5.5364029019
 20
3.1111216531
 10
5.5307975569
 20
3.1115918263
 10
5.5252022318
 20
3.1121401054
 10
5.5196243955
 20
3.1127647023
 10
5.5140715342
 20
3.1134636128
 10
5.5085491684
 20
3.1142345443
 10
5.5030648736
 20
3.1150745092
 10
5.4976261044
 20
3.1159802943
 10
5.4922378093
 20
3.116948577
 10
5.486906887
 20
3.1179754755
 10
5.4816414698
 20
3.1190565696
 10
5.4764481193
 20
3.1201873061
 10
5.47133062
 20
3.1213636148
 10
5.4663002868
 20
3.1225794086
 10
5.4613741605
 20
3.1238266547
 10
5.4565575936
 20
3.1250998583
 10
5.4518586888
 20
3.1263926168
 10
5.4472965401
 20
3.1276951515
 10
5.442877241
 20
3.1290010027
 10
5.4386054765
 20
3.1303041028
 10
5.4344956123
 20
3.1315953377
 10
5.4305525565
 20
3.1328684384
 10
5.426779635
 20
3.134117711
 10
5.4231864924
 20
3.1353354922
 10
5.419776502
 20
3.1365162714
 10
5.4165521868
 20
3.1376549929
 10
5.413519875
 20
3.1387455089
 10
5.4106826126
 20
3.1397829059
 10
5.408040621
 20
3.1407636143
  0
LINE
  5
233
100
AcDbEntity
  8
0
100
AcDbLine
 62
7
  6
CONTINUOUS
 10
3.5491104249
 20
0.952904432
 11
3.5491104249
 21
3.737904432
  0
LINE
  5
234
100
AcDbEntity
  8
0
100
AcDbLine
 62
7
  6
CONTINUOUS
 10
3.7391104249
 20
5.8077631852
 11
3.7391104249
 21
4.6882938584
  0
LINE
  5
235
100
AcDbEntity
  8
0
100
AcDbLine
 62
7
  6
CONTINUOUS
 10
3.7392378933
 20
7.5042924187
 11
3.7392378933
 21
5.8094237752
  0
LINE
  5
236
100
AcDbEntity
  8
0
100
AcDbLine
 62
7
  6
CONTINUOUS
 10
3.7392378933
 20
4.6866338672
 11
3.7392378933
 21
3.760404432
  0
LINE
  5
237
100
AcDbEntity
  8
0
100
AcDbLine
 62
7
  6
CONTINUOUS
 10
3.7441104249
 20
3.760404432
 11
3.7441104249
 21
3.752904432
  0
LINE
  5
238
100
AcDbEntity
  8
0
100
AcDbLine
 62
7
  6
CONTINUOUS
 10
5.408040621
 20
3.1407636143
 11
5.4033464896
 21
3.1425407587
  0
LINE
  5
239
100
AcDbEntity
  8
0
100
AcDbLine
 62
7
  6
CONTINUOUS
 10
5.4033464896
 20
3.1425407587
 11
5.3994438828
 21
3.1440516891
  0
LINE
  5
23A
100
AcDbEntity
  8
0
100
AcDbLine
 62
7
  6
CONTINUOUS
 10
5.3994438828
 20
3.1440516891
 11
5.3963337415
 21
3.1452773001
  0
LINE
  5
23B
100
AcDbEntity
  8
0
100
AcDbLine
 62
7
  6
CONTINUOUS
 10
5.3963337415
 20
3.1452773001
 11
5.393147135
 21
3.1465526394
  0
LINE
  5
23C
100
AcDbEntity
  8
0
100
AcDbLine
 62
7
  6
CONTINUOUS
 10
5.393147135
 20
3.1465526394
 11
5.3916321805
 21
3.1471658498
  0
LINE
  5
23D
100
AcDbEntity
  8
0
100
AcDbLine
 62
7
  6
CONTINUOUS
 10
5.3925176998
 20
3.1459905591
 11
5.3878604249
 21
3.147904432
  0
LWPOLYLINE
  5
23E
100
AcDbEntity
  8
0
100
AcDbPolyline
 62
7
  6
CONTINUOUS
 90
3
 70
0
 10
5.3883727898
 20
3.1476908547
 10
5.3879865998
 20
3.1478509851
 10
5.3878604249
 20
3.147904432
  0
LINE
  5
23F
100
AcDbEntity
  8
0
100
AcDbLine
 62
7
  6
CONTINUOUS
 10
4.2355901168
 20
4.6783981112
 11
4.2271902225
 21
4.6701926555
  0
LINE
  5
240
100
AcDbEntity
  8
0
100
AcDbLine
 62
7
  6
CONTINUOUS
 10
3.9808391098
 20
4.6607593596
 11
3.9770932741
 21
4.6571819995
  0
LINE
  5
241
100
AcDbEntity
  8
0
100
AcDbLine
 62
7
  6
CONTINUOUS
 10
3.9747617919
 20
4.6549553798
 11
3.9716356261
 21
4.6519698189
  0
LINE
  5
242
100
AcDbEntity
  8
0
100
AcDbLine
 62
7
  6
CONTINUOUS
 10
4.0291111511
 20
4.7068602806
 11
4.0328569868
 21
4.7104376407
  0
LINE
  5
243
100
AcDbEntity
  8
0
100
AcDbLine
 62
7
  6
CONTINUOUS
 10
4.035188469
 20
4.7126642604
 11
4.0383146348
 21
4.7156498213
  0
LINE
  5
244
100
AcDbEntity
  8
0
100
AcDbLine
 62
7
  6
CONTINUOUS
 10
4.050069784
 20
4.7057842802
 11
4.0422432756
 21
4.6983097828
  0
LINE
  5
245
100
AcDbEntity
  8
0
100
AcDbLine
 62
7
  6
CONTINUOUS
 10
3.9936314701
 20
4.6518843792
 11
3.9858049616
 21
4.6444098818
  0
LINE
  5
246
100
AcDbEntity
  8
0
100
AcDbLine
 62
7
  6
CONTINUOUS
 10
4.0624158883
 20
4.7054885001
 11
4.0545893798
 21
4.6980140027
  0
LINE
  5
247
100
AcDbEntity
  8
0
100
AcDbLine
 62
7
  6
CONTINUOUS
 10
4.0059775743
 20
4.6515885991
 11
3.9981510659
 21
4.6441141017
  0
LINE
  5
248
100
AcDbEntity
  8
0
100
AcDbLine
 62
7
  6
CONTINUOUS
 10
4.0191096988
 20
4.6598424973
 11
4.0153638631
 21
4.6562651372
  0
LINE
  5
249
100
AcDbEntity
  8
0
100
AcDbLine
 62
7
  6
CONTINUOUS
 10
4.0130323808
 20
4.6540385175
 11
4.0099062151
 21
4.6510529566
  0
LINE
  5
24A
100
AcDbEntity
  8
0
100
AcDbLine
 62
7
  6
CONTINUOUS
 10
4.0673817401
 20
4.7059434183
 11
4.0711275758
 21
4.7095207784
  0
LINE
  5
24B
100
AcDbEntity
  8
0
100
AcDbLine
 62
7
  6
CONTINUOUS
 10
4.073459058
 20
4.7117473981
 11
4.0765852237
 21
4.714732959
  0
LINE
  5
24C
100
AcDbEntity
  8
0
100
AcDbLine
 62
7
  6
CONTINUOUS
 10
3.9368027662
 20
4.6638876872
 11
3.9259319277
 21
4.660660504
  0
LINE
  5
24D
100
AcDbEntity
  8
0
100
AcDbLine
 62
7
  6
CONTINUOUS
 10
3.9128908979
 20
4.6567890647
 11
3.9100932164
 21
4.655958528
  0
LINE
  5
24E
100
AcDbEntity
  8
0
100
AcDbLine
 62
7
  6
CONTINUOUS
 10
4.0768936866
 20
4.7054759288
 11
4.0877645251
 21
4.708703112
  0
LINE
  5
24F
100
AcDbEntity
  8
0
100
AcDbLine
 62
7
  6
CONTINUOUS
 10
4.0945307501
 20
4.7107117746
 11
4.1036032364
 21
4.713405088
  0
LINE
  5
250
100
AcDbEntity
  8
0
100
AcDbLine
 62
7
  6
CONTINUOUS
 10
4.1117935235
 20
4.7030617069
 11
4.0890801113
 21
4.6963188654
  0
LINE
  5
251
100
AcDbEntity
  8
0
100
AcDbLine
 62
7
  6
CONTINUOUS
 10
3.948003157
 20
4.6544379037
 11
3.9252897449
 21
4.6476950622
  0
LINE
  5
252
100
AcDbEntity
  8
0
100
AcDbLine
 62
7
  6
CONTINUOUS
 10
4.122931105
 20
4.7022033197
 11
4.1002176929
 21
4.6954604782
  0
LINE
  5
253
100
AcDbEntity
  8
0
100
AcDbLine
 62
7
  6
CONTINUOUS
 10
3.9591407386
 20
4.6535795165
 11
3.9364273264
 21
4.646836675
  0
LINE
  5
254
100
AcDbEntity
  8
0
100
AcDbLine
 62
7
  6
CONTINUOUS
 10
4.4991104249
 20
3.737904432
 11
3.5491104249
 21
3.737904432
  0
LINE
  5
255
100
AcDbEntity
  8
0
100
AcDbLine
 62
7
  6
CONTINUOUS
 10
4.4841104249
 20
3.752904432
 11
3.5641104249
 21
3.752904432
  0
LINE
  5
256
100
AcDbEntity
  8
0
100
AcDbLine
 62
7
  6
CONTINUOUS
 10
3.7392378933
 20
3.760404432
 11
4.3089829566
 21
3.760404432
  0
LWPOLYLINE
  5
257
100
AcDbEntity
  8
0
100
AcDbPolyline
 62
7
  6
CONTINUOUS
 90
55
 70
0
 10
4.3089829566
 20
7.5042924187
 10
4.3088636773
 20
7.512611791
 10
4.3085058061
 20
7.5209245401
 10
4.3079092934
 20
7.5292234617
 10
4.3070740988
 20
7.5375012663
 10
4.3060001677
 20
7.5457508259
 10
4.3046874079
 20
7.5539651707
 10
4.3031357348
 20
7.5621371454
 10
4.3013450871
 20
7.5702594591
 10
4.2993153814
 20
7.578324928
 10
4.2970463868
 20
7.586326837
 10
4.2945381626
 20
7.5942574207
 10
4.2917924968
 20
7.6021083788
 10
4.2888135566
 20
7.6098733562
 10
4.2856054951
 20
7.6175469811
 10
4.2821726858
 20
7.6251232818
 10
4.2785195061
 20
7.6325963228
 10
4.2746502042
 20
7.6399604409
 10
4.2705689493
 20
7.6472100735
 10
4.2662801001
 20
7.6543392938
 10
4.261787867
 20
7.6613424282
 10
4.2570961224
 20
7.6682142552
 10
4.2522091525
 20
7.6749488641
 10
4.2471311301
 20
7.6815405062
 10
4.2418656378
 20
7.6879841158
 10
4.2364166145
 20
7.694274055
 10
4.2307884356
 20
7.7004041657
 10
4.2249852765
 20
7.7063685436
 10
4.2190112917
 20
7.7121613034
 10
4.2128706762
 20
7.7177765186
 10
4.2065676761
 20
7.7232082215
 10
4.2001060888
 20
7.7284508092
 10
4.1934904786
 20
7.733498035
 10
4.1867265042
 20
7.7383433055
 10
4.1798204807
 20
7.7429830217
 10
4.1727790178
 20
7.7474151901
 10
4.1656094718
 20
7.7516373616
 10
4.1583190029
 20
7.7556472602
 10
4.1509142888
 20
7.7594428836
 10
4.1434019663
 20
7.7630222119
 10
4.1357890042
 20
7.766383047
 10
4.1280822124
 20
7.7695232626
 10
4.1202879532
 20
7.7724408827
 10
4.1124133283
 20
7.7751336232
 10
4.1044649645
 20
7.7775993703
 10
4.0964484587
 20
7.7798362517
 10
4.0883703194
 20
7.7818420287
 10
4.0802377021
 20
7.7836142917
 10
4.072057143
 20
7.785150776
 10
4.0638354474
 20
7.7864491409
 10
4.0555795037
 20
7.7875070305
 10
4.0472959756
 20
7.7883221101
 10
4.0389916614
 20
7.7888920134
 10
4.0306734958
 20
7.7892143605
 10
4.0241104249
 20
7.7892924187
  0
LINE
  5
258
100
AcDbEntity
  8
0
100
AcDbLine
 62
7
  6
CONTINUOUS
 10
4.3041104249
 20
3.760404432
 11
4.3041104249
 21
3.752904432
  0
LINE
  5
259
100
AcDbEntity
  8
0
100
AcDbLine
 62
7
  6
CONTINUOUS
 10
4.3089829566
 20
3.760404432
 11
4.3089829566
 21
4.6866332684
  0
LINE
  5
25A
100
AcDbEntity
  8
0
100
AcDbLine
 62
7
  6
CONTINUOUS
 10
4.3089829566
 20
5.8094231765
 11
4.3089829566
 21
7.5042924187
  0
LINE
  5
25B
100
AcDbEntity
  8
0
100
AcDbLine
 62
7
  6
CONTINUOUS
 10
4.3091104249
 20
5.8077631852
 11
4.3091104249
 21
4.6882938584
  0
LINE
  5
25C
100
AcDbEntity
  8
0
100
AcDbLine
 62
7
  6
CONTINUOUS
 10
3.8126307331
 20
4.6783981112
 11
3.8210306274
 21
4.6701926555
  0
LINE
  5
25D
100
AcDbEntity
  8
0
100
AcDbLine
 62
7
  6
CONTINUOUS
 10
4.4991104249
 20
3.737904432
 11
4.4991104249
 21
3.197904432
  0
LINE
  5
25E
100
AcDbEntity
  8
0
100
AcDbLine
 62
7
  6
CONTINUOUS
 10
4.4991104249
 20
2.197904432
 11
4.4991104249
 21
0.952904432
  0
LINE
  5
25F
100
AcDbEntity
  8
0
100
AcDbLine
 62
7
  6
CONTINUOUS
 10
4.0291111511
 20
4.6598424973
 11
4.0328569868
 21
4.6562651372
  0
LINE
  5
260
100
AcDbEntity
  8
0
100
AcDbLine
 62
7
  6
CONTINUOUS
 10
4.035188469
 20
4.6540385175
 11
4.0383146348
 21
4.6510529566
  0
LINE
  5
261
100
AcDbEntity
  8
0
100
AcDbLine
 62
7
  6
CONTINUOUS
 10
3.9808391098
 20
4.7059434183
 11
3.9770932741
 21
4.7095207784
  0
LINE
  5
262
100
AcDbEntity
  8
0
100
AcDbLine
 62
7
  6
CONTINUOUS
 10
3.9747617919
 20
4.7117473981
 11
3.9716356261
 21
4.714732959
  0
LINE
  5
263
100
AcDbEntity
  8
0
100
AcDbLine
 62
7
  6
CONTINUOUS
 10
3.9858049616
 20
4.7054885001
 11
3.9936314701
 21
4.6980140027
  0
LINE
  5
264
100
AcDbEntity
  8
0
100
AcDbLine
 62
7
  6
CONTINUOUS
 10
4.0422432756
 20
4.6515885991
 11
4.050069784
 21
4.6441141017
  0
LINE
  5
265
100
AcDbEntity
  8
0
100
AcDbLine
 62
7
  6
CONTINUOUS
 10
3.9981510659
 20
4.7057842802
 11
4.0059775743
 21
4.6983097828
  0
LINE
  5
266
100
AcDbEntity
  8
0
100
AcDbLine
 62
7
  6
CONTINUOUS
 10
4.0545893798
 20
4.6518843792
 11
4.0624158883
 21
4.6444098818
  0
LINE
  5
267
100
AcDbEntity
  8
0
100
AcDbLine
 62
7
  6
CONTINUOUS
 10
4.0673817401
 20
4.6607593596
 11
4.0711275758
 21
4.6571819995
  0
LINE
  5
268
100
AcDbEntity
  8
0
100
AcDbLine
 62
7
  6
CONTINUOUS
 10
4.073459058
 20
4.6549553798
 11
4.0765852237
 21
4.6519698189
  0
LINE
  5
269
100
AcDbEntity
  8
0
100
AcDbLine
 62
7
  6
CONTINUOUS
 10
4.0191096988
 20
4.7068602806
 11
4.0153638631
 21
4.7104376407
  0
LINE
  5
26A
100
AcDbEntity
  8
0
100
AcDbLine
 62
7
  6
CONTINUOUS
 10
4.0130323808
 20
4.7126642604
 11
4.0099062151
 21
4.7156498213
  0
LINE
  5
26B
100
AcDbEntity
  8
0
100
AcDbLine
 62
7
  6
CONTINUOUS
 10
5.4186104249
 20
4.487904432
 11
5.6986104249
 21
4.487904432
  0
LINE
  5
26C
100
AcDbEntity
  8
0
100
AcDbLine
 62
7
  6
CONTINUOUS
 10
5.4286104249
 20
4.497904432
 11
5.6886104249
 21
4.497904432
  0
LINE
  5
26D
100
AcDbEntity
  8
0
100
AcDbLine
 62
7
  6
CONTINUOUS
 10
3.8382558467
 20
4.6882122083
 11
3.882833428
 21
4.684776559
  0
LINE
  5
26E
100
AcDbEntity
  8
0
100
AcDbLine
 62
7
  6
CONTINUOUS
 10
4.1597125406
 20
4.6634371432
 11
4.2042901219
 21
4.6600014938
  0
LINE
  5
26F
100
AcDbEntity
  8
0
100
AcDbLine
 62
7
  6
CONTINUOUS
 10
3.843930728
 20
4.6898968881
 11
3.8885083093
 21
4.6864612387
  0
LINE
  5
270
100
AcDbEntity
  8
0
100
AcDbLine
 62
7
  6
CONTINUOUS
 10
4.1653874218
 20
4.6651218229
 11
4.2099650031
 21
4.6616861735
  0
LINE
  5
271
100
AcDbEntity
  8
0
100
AcDbLine
 62
7
  6
CONTINUOUS
 10
3.8608193123
 20
4.6992254137
 11
3.8430135554
 21
4.7005977255
  0
LINE
  5
272
100
AcDbEntity
  8
0
100
AcDbLine
 62
7
  6
CONTINUOUS
 10
4.1703779104
 20
4.6753673495
 11
4.1744207883
 21
4.6750557599
  0
LINE
  5
273
100
AcDbEntity
  8
0
100
AcDbLine
 62
7
  6
CONTINUOUS
 10
3.8744477848
 20
4.6962503153
 11
3.9098247536
 21
4.6908991659
  0
LINE
  5
274
100
AcDbEntity
  8
0
100
AcDbLine
 62
7
  6
CONTINUOUS
 10
4.1295572615
 20
4.6576622466
 11
4.1649342303
 21
4.6523110972
  0
LINE
  5
275
100
AcDbEntity
  8
0
100
AcDbLine
 62
7
  6
CONTINUOUS
 10
3.8832866196
 20
4.6975872847
 11
3.9186635884
 21
4.6922361353
  0
LINE
  5
276
100
AcDbEntity
  8
0
100
AcDbLine
 62
7
  6
CONTINUOUS
 10
4.1383960962
 20
4.658999216
 11
4.1737730651
 21
4.6536480666
  0
LINE
  5
277
100
AcDbEntity
  8
0
100
AcDbLine
 62
7
  6
CONTINUOUS
 10
3.9247015311
 20
4.7025324122
 11
3.9117796933
 21
4.7044869799
  0
LINE
  5
278
100
AcDbEntity
  8
0
100
AcDbLine
 62
7
  6
CONTINUOUS
 10
3.9012410509
 20
4.7060810636
 11
3.8871103221
 21
4.7082184893
  0
LINE
  5
279
100
AcDbEntity
  8
0
100
AcDbLine
 62
7
  6
CONTINUOUS
 10
4.1469081452
 20
4.6689212574
 11
4.1554983172
 21
4.667621901
  0
LINE
  5
27A
100
AcDbEntity
  8
0
100
AcDbLine
 62
7
  6
CONTINUOUS
 10
3.9252897449
 20
4.7022033197
 11
3.948003157
 21
4.6954604782
  0
LINE
  5
27B
100
AcDbEntity
  8
0
100
AcDbLine
 62
7
  6
CONTINUOUS
 10
4.0890801113
 20
4.6535795165
 11
4.1117935235
 21
4.646836675
  0
LINE
  5
27C
100
AcDbEntity
  8
0
100
AcDbLine
 62
7
  6
CONTINUOUS
 10
3.9364273264
 20
4.7030617069
 11
3.9591407386
 21
4.6963188654
  0
LINE
  5
27D
100
AcDbEntity
  8
0
100
AcDbLine
 62
7
  6
CONTINUOUS
 10
4.1002176929
 20
4.6544379037
 11
4.122931105
 21
4.6476950622
  0
LINE
  5
27E
100
AcDbEntity
  8
0
100
AcDbLine
 62
7
  6
CONTINUOUS
 10
3.9713271633
 20
4.7054759288
 11
3.9604563248
 21
4.708703112
  0
LINE
  5
27F
100
AcDbEntity
  8
0
100
AcDbLine
 62
7
  6
CONTINUOUS
 10
3.9536900998
 20
4.7107117746
 11
3.9446176135
 21
4.713405088
  0
LINE
  5
280
100
AcDbEntity
  8
0
100
AcDbLine
 62
7
  6
CONTINUOUS
 10
4.1114180836
 20
4.6638876872
 11
4.1222889222
 21
4.660660504
  0
LINE
  5
281
100
AcDbEntity
  8
0
100
AcDbLine
 62
7
  6
CONTINUOUS
 10
4.135329952
 20
4.6567890647
 11
4.1381276335
 21
4.655958528
  0
LINE
  5
282
100
AcDbEntity
  8
0
100
AcDbLine
 62
7
  6
CONTINUOUS
 10
4.9716104249
 20
3.147904432
 11
4.9716104249
 21
2.247904432
  0
LINE
  5
283
100
AcDbEntity
  8
0
100
AcDbLine
 62
7
  6
CONTINUOUS
 10
4.9866104249
 20
3.132904432
 11
4.9866104249
 21
2.262904432
  0
LINE
  5
284
100
AcDbEntity
  8
0
100
AcDbLine
 62
7
  6
CONTINUOUS
 10
5.0066104249
 20
2.257904432
 11
5.0066104249
 21
3.137904432
  0
LINE
  5
285
100
AcDbEntity
  8
0
100
AcDbLine
 62
7
  6
CONTINUOUS
 10
5.0166104249
 20
2.247904432
 11
5.0166104249
 21
3.147904432
  0
LINE
  5
286
100
AcDbEntity
  8
0
100
AcDbLine
 62
7
  6
CONTINUOUS
 10
4.1737730651
 20
4.6962503153
 11
4.1383960962
 21
4.6908991659
  0
LINE
  5
287
100
AcDbEntity
  8
0
100
AcDbLine
 62
7
  6
CONTINUOUS
 10
3.9186635884
 20
4.6576622466
 11
3.8832866196
 21
4.6523110972
  0
LINE
  5
288
100
AcDbEntity
  8
0
100
AcDbLine
 62
7
  6
CONTINUOUS
 10
4.1649342303
 20
4.6975872847
 11
4.1295572615
 21
4.6922361353
  0
LINE
  5
289
100
AcDbEntity
  8
0
100
AcDbLine
 62
7
  6
CONTINUOUS
 10
3.9098247536
 20
4.658999216
 11
3.8744477848
 21
4.6536480666
  0
LINE
  5
28A
100
AcDbEntity
  8
0
100
AcDbLine
 62
7
  6
CONTINUOUS
 10
3.9013127047
 20
4.6689212574
 11
3.8927225327
 21
4.667621901
  0
LINE
  5
28B
100
AcDbEntity
  8
0
100
AcDbLine
 62
7
  6
CONTINUOUS
 10
4.1235193188
 20
4.7025324122
 11
4.1364411566
 21
4.7044869799
  0
LINE
  5
28C
100
AcDbEntity
  8
0
100
AcDbLine
 62
7
  6
CONTINUOUS
 10
4.146979799
 20
4.7060810636
 11
4.1611105277
 21
4.7082184893
  0
LINE
  5
28D
100
AcDbEntity
  8
0
100
AcDbLine
 62
7
  6
CONTINUOUS
 10
4.2099650031
 20
4.6882122083
 11
4.1653874218
 21
4.684776559
  0
LINE
  5
28E
100
AcDbEntity
  8
0
100
AcDbLine
 62
7
  6
CONTINUOUS
 10
3.8885083093
 20
4.6634371432
 11
3.843930728
 21
4.6600014938
  0
LINE
  5
28F
100
AcDbEntity
  8
0
100
AcDbLine
 62
7
  6
CONTINUOUS
 10
4.2042901219
 20
4.6898968881
 11
4.1597125406
 21
4.6864612387
  0
LINE
  5
290
100
AcDbEntity
  8
0
100
AcDbLine
 62
7
  6
CONTINUOUS
 10
3.882833428
 20
4.6651218229
 11
3.8382558467
 21
4.6616861735
  0
LINE
  5
291
100
AcDbEntity
  8
0
100
AcDbLine
 62
7
  6
CONTINUOUS
 10
3.8778429395
 20
4.6753673495
 11
3.8738000616
 21
4.6750557599
  0
LINE
  5
292
100
AcDbEntity
  8
0
100
AcDbLine
 62
7
  6
CONTINUOUS
 10
4.1874015376
 20
4.6992254137
 11
4.2052072945
 21
4.7005977255
  0
LINE
  5
293
100
AcDbEntity
  8
0
100
AcDbLine
 62
7
  6
CONTINUOUS
 10
4.2279642002
 20
4.6788758249
 11
4.1785495707
 21
4.6776919808
  0
LINE
  5
294
100
AcDbEntity
  8
0
100
AcDbLine
 62
7
  6
CONTINUOUS
 10
3.87162671
 20
4.6703389192
 11
3.8222120805
 21
4.6691550751
  0
LINE
  5
295
100
AcDbEntity
  8
0
100
AcDbLine
 62
7
  6
CONTINUOUS
 10
4.2260087694
 20
4.6807433067
 11
4.1765941398
 21
4.6795594627
  0
LINE
  5
296
100
AcDbEntity
  8
0
100
AcDbLine
 62
7
  6
CONTINUOUS
 10
3.8696712792
 20
4.6722064011
 11
3.8202566497
 21
4.671022557
  0
LINE
  5
297
100
AcDbEntity
  8
0
100
AcDbLine
 62
7
  6
CONTINUOUS
 10
3.8165652604
 20
4.6813461834
 11
3.8105823462
 21
4.6812028486
  0
LINE
  5
298
100
AcDbEntity
  8
0
100
AcDbLine
 62
7
  6
CONTINUOUS
 10
4.2148250514
 20
4.6908874367
 11
4.2315770379
 21
4.6912887701
  0
LINE
  5
299
100
AcDbEntity
  8
0
100
AcDbLine
 62
7
  6
CONTINUOUS
 10
4.2260087694
 20
4.6691550751
 11
4.1765941398
 21
4.6703389192
  0
LINE
  5
29A
100
AcDbEntity
  8
0
100
AcDbLine
 62
7
  6
CONTINUOUS
 10
3.8696712792
 20
4.6776919808
 11
3.8202566497
 21
4.6788758249
  0
LINE
  5
29B
100
AcDbEntity
  8
0
100
AcDbLine
 62
7
  6
CONTINUOUS
 10
4.2279642002
 20
4.671022557
 11
4.1785495707
 21
4.6722064011
  0
LINE
  5
29C
100
AcDbEntity
  8
0
100
AcDbLine
 62
7
  6
CONTINUOUS
 10
3.87162671
 20
4.6795594627
 11
3.8222120805
 21
4.6807433067
  0
LINE
  5
29D
100
AcDbEntity
  8
0
100
AcDbLine
 62
7
  6
CONTINUOUS
 10
3.816643812
 20
4.6912887701
 11
3.8333957985
 21
4.6908874367
  0
LINE
  5
29E
100
AcDbEntity
  8
0
100
AcDbLine
 62
7
  6
CONTINUOUS
 10
4.2316555894
 20
4.6813461834
 11
4.2376385037
 21
4.6812028486
  0
LINE
  5
29F
100
AcDbEntity
  8
0
100
AcDbLine
 62
7
  6
CONTINUOUS
 10
5.4186104249
 20
4.487904432
 11
5.4186104249
 21
3.1369280912
  0
LINE
  5
2A0
100
AcDbEntity
  8
0
100
AcDbLine
 62
7
  6
CONTINUOUS
 10
5.4186104249
 20
2.285258605
 11
5.4186104249
 21
2.257904432
  0
LINE
  5
2A1
100
AcDbEntity
  8
0
100
AcDbLine
 62
7
  6
CONTINUOUS
 10
5.4424929286
 20
2.2867115456
 11
5.4424929286
 21
2.2858491653
  0
LINE
  5
2A2
100
AcDbEntity
  8
0
100
AcDbLine
 62
7
  6
CONTINUOUS
 10
5.5566104249
 20
2.2858491653
 11
5.5566104249
 21
3.1092274133
  0
LINE
  5
2A3
100
AcDbEntity
  8
0
100
AcDbLine
 62
7
  6
CONTINUOUS
 10
5.5666104249
 20
3.1000870639
 11
5.5666104249
 21
2.2958611275
  0
LINE
  5
2A4
100
AcDbEntity
  8
0
100
AcDbLine
 62
7
  6
CONTINUOUS
 10
5.6986104249
 20
4.487904432
 11
5.6986104249
 21
2.257904432
  0
LINE
  5
2A5
100
AcDbEntity
  8
0
100
AcDbLine
 62
7
  6
CONTINUOUS
 10
5.2299326102
 20
2.247904432
 11
5.2300353419
 21
2.2479402044
  0
LINE
  5
2A6
100
AcDbEntity
  8
0
100
AcDbLine
 62
7
  6
CONTINUOUS
 10
5.2299326102
 20
2.247904432
 11
5.2340160232
 21
2.2492258223
  0
LINE
  5
2A7
100
AcDbEntity
  8
0
100
AcDbLine
 62
7
  6
CONTINUOUS
 10
5.2329874956
 20
2.2483824745
 11
5.2361820821
 21
2.2493946962
  0
LINE
  5
2A8
100
AcDbEntity
  8
0
100
AcDbLine
 62
7
  6
CONTINUOUS
 10
5.2361243551
 20
2.2493765649
 11
5.2421076807
 21
2.25124457
  0
LINE
  5
2A9
100
AcDbEntity
  8
0
100
AcDbLine
 62
7
  6
CONTINUOUS
 10
5.2419837875
 20
2.2512062373
 11
5.248507133
 21
2.2532011724
  0
LINE
  5
2AA
100
AcDbEntity
  8
0
100
AcDbLine
 62
7
  6
CONTINUOUS
 10
5.2462754034
 20
2.2525237069
 11
5.2512757775
 21
2.2540340505
  0
LINE
  5
2AB
100
AcDbEntity
  8
0
100
AcDbLine
 62
7
  6
CONTINUOUS
 10
5.251099774
 20
2.2539813569
 11
5.2571327487
 21
2.2557686418
  0
LINE
  5
2AC
100
AcDbEntity
  8
0
100
AcDbLine
 62
7
  6
CONTINUOUS
 10
5.2569340729
 20
2.2557103811
 11
5.2638633384
 21
2.2577150398
  0
LWPOLYLINE
  5
2AD
100
AcDbEntity
  8
0
100
AcDbPolyline
 62
7
  6
CONTINUOUS
 90
55
 70
0
 10
4.0241104249
 20
7.7892924187
 10
4.0177032614
 20
7.7892180215
 10
4.009381988
 20
7.7889001795
 10
4.0010744439
 20
7.7883345636
 10
3.9927875693
 20
7.7875235554
 10
3.9845281718
 20
7.7864695237
 10
3.9763029284
 20
7.785174806
 10
3.9681187352
 20
7.7836417612
 10
3.9599824044
 20
7.7818727323
 10
3.9519004842
 20
7.779869988
 10
3.9438801393
 20
7.7776359412
 10
3.9359278833
 20
7.7751728335
 10
3.9280493197
 20
7.7724825402
 10
3.9202510836
 20
7.7695671786
 10
3.9125402823
 20
7.766429035
 10
3.9049232807
 20
7.7630700866
 10
3.8974068965
 20
7.759492462
 10
3.8899981049
 20
7.7556983619
 10
3.8827035448
 20
7.7516898053
 10
3.8755298993
 20
7.7474687956
 10
3.8684843381
 20
7.7430376117
 10
3.8615742255
 20
7.7383987047
 10
3.8548061798
 20
7.7335540687
 10
3.8481865437
 20
7.7285072771
 10
3.8417209888
 20
7.7232649175
 10
3.8354140833
 20
7.7178332413
 10
3.8292696302
 20
7.7122178584
 10
3.8232918843
 20
7.706424746
 10
3.817485045
 20
7.700459837
 10
3.8118532712
 20
7.6943290229
 10
3.8064007461
 20
7.6880382182
 10
3.8011318508
 20
7.6815935893
 10
3.7960505266
 20
7.6750007789
 10
3.791160359
 20
7.6682648575
 10
3.7864655247
 20
7.6613915802
 10
3.7819703145
 20
7.6543868639
 10
3.777678604
 20
7.6472559356
 10
3.773594609
 20
7.6400044762
 10
3.7697226916
 20
7.6326384176
 10
3.7660670227
 20
7.625163323
 10
3.7626318542
 20
7.6175848591
 10
3.7594215697
 20
7.6099089698
 10
3.7564405486
 20
7.6021416356
 10
3.7536929487
 20
7.594288235
 10
3.751182946
 20
7.5863551274
 10
3.7489123414
 20
7.5783506163
 10
3.7468811949
 20
7.5702824753
 10
3.7450892753
 20
7.5621574268
 10
3.7435364994
 20
7.5539826605
 10
3.7422228056
 20
7.5457654732
 10
3.74114811
 20
7.5375130296
 10
3.7403123207
 20
7.5292323103
 10
3.7397153834
 20
7.520930452
 10
3.7393572575
 20
7.5126147507
 10
3.7392378933
 20
7.5042924187
  0
ARC
  5
2AE
100
AcDbEntity
  8
0
100
AcDbCircle
 62
7
  6
CONTINUOUS
 10
4.0233770922
 20
3.3541828713
 40
1.3615335915
100
AcDbArc
 50
90.5668879555
 51
92.1778982704
  0
ARC
  5
2AF
100
AcDbEntity
  8
0
100
AcDbCircle
 62
7
  6
CONTINUOUS
 10
4.0248437577
 20
3.3541828713
 40
1.3615335915
100
AcDbArc
 50
87.8221017296
 51
89.4331120445
  0
ARC
  5
2B0
100
AcDbEntity
  8
0
100
AcDbCircle
 62
7
  6
CONTINUOUS
 10
4.0234211518
 20
3.3931738496
 40
1.3128536552
100
AcDbArc
 50
91.1029094403
 51
91.6418767856
  0
ARC
  5
2B1
100
AcDbEntity
  8
0
100
AcDbCircle
 62
7
  6
CONTINUOUS
 10
4.0249473244
 20
3.3993358939
 40
1.3066899112
100
AcDbArc
 50
88.3568520325
 51
88.8983617417
  0
ARC
  5
2B2
100
AcDbEntity
  8
0
100
AcDbCircle
 62
7
  6
CONTINUOUS
 10
4.5491099676
 20
3.1979039648
 40
0.0499999533
100
AcDbArc
 50
179.9994646434
 51
270.0005240481
  0
ARC
  5
2B3
100
AcDbEntity
  8
0
100
AcDbCircle
 62
7
  6
CONTINUOUS
 10
4.5491099056
 20
2.1979049622
 40
0.049999947
100
AcDbArc
 50
89.9994049116
 51
180.0006074962
  0
ARC
  5
2B4
100
AcDbEntity
  8
0
100
AcDbCircle
 62
7
  6
CONTINUOUS
 10
4.0247996981
 20
5.9567245323
 40
1.3128536551
100
AcDbArc
 50
271.1029094403
 51
271.6418767856
  0
ARC
  5
2B5
100
AcDbEntity
  8
0
100
AcDbCircle
 62
7
  6
CONTINUOUS
 10
4.0232735255
 20
5.9505624881
 40
1.3066899113
100
AcDbArc
 50
268.3568520325
 51
268.8983617417
  0
ARC
  5
2B6
100
AcDbEntity
  8
0
100
AcDbCircle
 62
7
  6
CONTINUOUS
 10
4.0047393396
 20
3.7080175491
 40
1.0071835609
100
AcDbArc
 50
93.422186696
 51
95.3921018956
  0
ARC
  5
2B7
100
AcDbEntity
  8
0
100
AcDbCircle
 62
7
  6
CONTINUOUS
 10
4.0434815102
 20
3.7080175491
 40
1.0071835609
100
AcDbArc
 50
84.6078981044
 51
86.577813304
  0
ARC
  5
2B8
100
AcDbEntity
  8
0
100
AcDbCircle
 62
7
  6
CONTINUOUS
 10
4.0246108535
 20
5.6453966342
 40
0.9939644425
100
AcDbArc
 50
271.0164512092
 51
271.7283350166
  0
ARC
  5
2B9
100
AcDbEntity
  8
0
100
AcDbCircle
 62
7
  6
CONTINUOUS
 10
4.0236099964
 20
3.7045017478
 40
0.9939644424
100
AcDbArc
 50
91.0164512092
 51
91.7283350166
  0
ARC
  5
2BA
100
AcDbEntity
  8
0
100
AcDbCircle
 62
7
  6
CONTINUOUS
 10
4.0247584928
 20
3.7106643322
 40
0.9878002094
100
AcDbArc
 50
88.2694437474
 51
88.9857700267
  0
ARC
  5
2BB
100
AcDbEntity
  8
0
100
AcDbCircle
 62
7
  6
CONTINUOUS
 10
4.0234623571
 20
5.6392340497
 40
0.9878002094
100
AcDbArc
 50
268.2694437474
 51
268.9857700267
  0
ARC
  5
2BC
100
AcDbEntity
  8
0
100
AcDbCircle
 62
7
  6
CONTINUOUS
 10
4.0236209841
 20
5.6473286934
 40
0.9874965008
100
AcDbArc
 50
267.5169650917
 51
269.7382486824
  0
ARC
  5
2BD
100
AcDbEntity
  8
0
100
AcDbCircle
 62
7
  6
CONTINUOUS
 10
4.0245998658
 20
5.6473286934
 40
0.9874965008
100
AcDbArc
 50
270.2617513176
 51
272.4830349083
  0
ARC
  5
2BE
100
AcDbEntity
  8
0
100
AcDbCircle
 62
7
  6
CONTINUOUS
 10
4.0423202829
 20
5.6209369008
 40
0.9765745138
100
AcDbArc
 50
274.0794517601
 51
274.7348368315
  0
ARC
  5
2BF
100
AcDbEntity
  8
0
100
AcDbCircle
 62
7
  6
CONTINUOUS
 10
4.0059005669
 20
3.7289614812
 40
0.9765745137
100
AcDbArc
 50
94.07945176
 51
94.7348368315
  0
ARC
  5
2C0
100
AcDbEntity
  8
0
100
AcDbCircle
 62
7
  6
CONTINUOUS
 10
4.0434419227
 20
3.7435147667
 40
0.9619783115
100
AcDbArc
 50
85.2601909983
 51
85.9255204101
  0
ARC
  5
2C1
100
AcDbEntity
  8
0
100
AcDbCircle
 62
7
  6
CONTINUOUS
 10
4.0047789272
 20
5.6063836152
 40
0.9619783115
100
AcDbArc
 50
265.2601909983
 51
265.9255204102
  0
ARC
  5
2C2
100
AcDbEntity
  8
0
100
AcDbCircle
 62
7
  6
CONTINUOUS
 10
4.0104779571
 20
3.957533689
 40
0.7405667066
100
AcDbArc
 50
93.9750191879
 51
94.8392694036
  0
ARC
  5
2C3
100
AcDbEntity
  8
0
100
AcDbCircle
 62
7
  6
CONTINUOUS
 10
4.0377428928
 20
5.3923646929
 40
0.7405667066
100
AcDbArc
 50
273.9750191879
 51
274.8392694036
  0
ARC
  5
2C4
100
AcDbEntity
  8
0
100
AcDbCircle
 62
7
  6
CONTINUOUS
 10
4.009356219
 20
5.3778101314
 40
0.7259694057
100
AcDbArc
 50
265.1520415478
 51
266.0336698607
  0
ARC
  5
2C5
100
AcDbEntity
  8
0
100
AcDbCircle
 62
7
  6
CONTINUOUS
 10
4.0388646309
 20
3.9720882505
 40
0.7259694057
100
AcDbArc
 50
85.1520415477
 51
86.0336698607
  0
ARC
  5
2C6
100
AcDbEntity
  8
0
100
AcDbCircle
 62
7
  6
CONTINUOUS
 10
4.0939905832
 20
5.151212134
 40
0.5039198801
100
AcDbArc
 50
278.0931914419
 51
279.1096136816
  0
ARC
  5
2C7
100
AcDbEntity
  8
0
100
AcDbCircle
 62
7
  6
CONTINUOUS
 10
3.9542302667
 20
4.1986862479
 40
0.5039198801
100
AcDbArc
 50
98.0931914418
 51
99.1096136817
  0
ARC
  5
2C8
100
AcDbEntity
  8
0
100
AcDbCircle
 62
7
  6
CONTINUOUS
 10
3.9520708623
 20
5.1369361017
 40
0.4894820395
100
AcDbArc
 50
260.8753956311
 51
261.9217992454
  0
ARC
  5
2C9
100
AcDbEntity
  8
0
100
AcDbCircle
 62
7
  6
CONTINUOUS
 10
4.0961499875
 20
4.2129622803
 40
0.4894820394
100
AcDbArc
 50
80.875395631
 51
81.9217992455
  0
ARC
  5
2CA
100
AcDbEntity
  8
0
100
AcDbCircle
 62
7
  6
CONTINUOUS
 10
3.9715141942
 20
4.3129499549
 40
0.3829506406
100
AcDbArc
 50
97.9326475938
 51
99.2701575297
  0
ARC
  5
2CB
100
AcDbEntity
  8
0
100
AcDbCircle
 62
7
  6
CONTINUOUS
 10
4.0767066556
 20
5.036948427
 40
0.3829506406
100
AcDbArc
 50
277.9326475938
 51
279.2701575297
  0
ARC
  5
2CC
100
AcDbEntity
  8
0
100
AcDbCircle
 62
7
  6
CONTINUOUS
 10
4.0788662493
 20
4.3272272389
 40
0.3685119715
100
AcDbArc
 50
80.7036387183
 51
82.0935561582
  0
ARC
  5
2CD
100
AcDbEntity
  8
0
100
AcDbCircle
 62
7
  6
CONTINUOUS
 10
3.9693546005
 20
5.022671143
 40
0.3685119715
100
AcDbArc
 50
260.7036387182
 51
262.0935561583
  0
ARC
  5
2CE
100
AcDbEntity
  8
0
100
AcDbCircle
 62
7
  6
CONTINUOUS
 10
3.5641104249
 20
3.737904432
 40
0.015
100
AcDbArc
 50
90.0
 51
180.0
  0
ARC
  5
2CF
100
AcDbEntity
  8
0
100
AcDbCircle
 62
7
  6
CONTINUOUS
 10
4.4841104249
 20
3.737904432
 40
0.015
100
AcDbArc
 50
0.0
 51
90.0
  0
ARC
  5
2D0
100
AcDbEntity
  8
0
100
AcDbCircle
 62
7
  6
CONTINUOUS
 10
4.1679421897
 20
4.690177695
 40
0.0143405709
100
AcDbArc
 50
306.8903536509
 51
309.7697100187
  0
ARC
  5
2D1
100
AcDbEntity
  8
0
100
AcDbCircle
 62
7
  6
CONTINUOUS
 10
3.8800127831
 20
4.6898413988
 40
0.013912008
100
AcDbArc
 50
230.1859305614
 51
233.1540057691
  0
ARC
  5
2D2
100
AcDbEntity
  8
0
100
AcDbCircle
 62
7
  6
CONTINUOUS
 10
4.0725960889
 20
4.7149736753
 40
0.0056441117
100
AcDbArc
 50
249.0164522479
 51
251.3829586777
  0
ARC
  5
2D3
100
AcDbEntity
  8
0
100
AcDbCircle
 62
7
  6
CONTINUOUS
 10
4.0145008881
 20
4.6594913987
 40
0.005644095
100
AcDbArc
 50
249.0164480262
 51
251.3829033263
  0
ARC
  5
2D4
100
AcDbEntity
  8
0
100
AcDbCircle
 62
7
  6
CONTINUOUS
 10
5.5638694684
 20
1.2236631247
 40
1.0773031802
100
AcDbArc
 50
107.5007941583
 51
107.8294354088
  0
ARC
  5
2D5
100
AcDbEntity
  8
0
100
AcDbCircle
 62
7
  6
CONTINUOUS
 10
4.9716104249
 20
3.132904432
 40
0.015
100
AcDbArc
 50
0.0
 51
90.0
  0
ARC
  5
2D6
100
AcDbEntity
  8
0
100
AcDbCircle
 62
7
  6
CONTINUOUS
 10
4.9716104249
 20
2.262904432
 40
0.015
100
AcDbArc
 50
270.0
 51
360.0
  0
ARC
  5
2D7
100
AcDbEntity
  8
0
100
AcDbCircle
 62
7
  6
CONTINUOUS
 10
5.5566091129
 20
3.0982827993
 40
0.0109416869
100
AcDbArc
 50
82.7542440572
 51
89.9931296321
  0
ARC
  5
2D8
100
AcDbEntity
  8
0
100
AcDbCircle
 62
7
  6
CONTINUOUS
 10
5.556611183
 20
2.2976229845
 40
0.010911439
100
AcDbArc
 50
269.9960196404
 51
282.4556536213
  0
ARC
  5
2D9
100
AcDbEntity
  8
0
100
AcDbCircle
 62
7
  6
CONTINUOUS
 10
5.4286104249
 20
2.257904432
 40
0.01
100
AcDbArc
 50
180.0
 51
270.0
  0
ARC
  5
2DA
100
AcDbEntity
  8
0
100
AcDbCircle
 62
7
  6
CONTINUOUS
 10
5.6886104249
 20
2.257904432
 40
0.01
100
AcDbArc
 50
270.0
 51
360.0
  0
ARC
  5
2DB
100
AcDbEntity
  8
0
100
AcDbCircle
 62
7
  6
CONTINUOUS
 10
5.0166104249
 20
2.257904432
 40
0.01
100
AcDbArc
 50
180.0
 51
270.0
  0
ARC
  5
2DC
100
AcDbEntity
  8
0
100
AcDbCircle
 62
7
  6
CONTINUOUS
 10
5.0166104249
 20
3.137904432
 40
0.01
100
AcDbArc
 50
90.0
 51
180.0
  0
ARC
  5
2DD
100
AcDbEntity
  8
0
100
AcDbCircle
 62
7
  6
CONTINUOUS
 10
5.3878604249
 20
3.137904432
 40
0.01
100
AcDbArc
 50
67.8411606476
 51
90.0
  0
ARC
  5
2DE
100
AcDbEntity
  8
0
100
AcDbCircle
 62
7
  6
CONTINUOUS
 10
5.2299326102
 20
2.257904432
 40
0.01
100
AcDbArc
 50
270.0000000003
 51
287.6772491522
  0
ARC
  5
2DF
100
AcDbEntity
  8
0
100
AcDbCircle
 62
7
  6
CONTINUOUS
 10
5.5566104249
 20
3.1000840405
 40
0.01
100
AcDbArc
 50
0.0
 51
88.5919797816
  0
ARC
  5
2E0
100
AcDbEntity
  8
0
100
AcDbCircle
 62
7
  6
CONTINUOUS
 10
5.5566104249
 20
2.2958491653
 40
0.01
100
AcDbArc
 50
270.0
 51
360.0
  0
ARC
  5
2E1
100
AcDbEntity
  8
0
100
AcDbCircle
 62
7
  6
CONTINUOUS
 10
5.4286104249
 20
4.487904432
 40
0.01
100
AcDbArc
 50
90.0
 51
180.0
  0
ARC
  5
2E2
100
AcDbEntity
  8
0
100
AcDbCircle
 62
7
  6
CONTINUOUS
 10
5.6886104249
 20
4.487904432
 40
0.01
100
AcDbArc
 50
0.0
 51
90.0
  0
LINE
  5
2E3
100
AcDbEntity
  8
0
100
AcDbLine
 62
7
  6
CONTINUOUS
 10
3.8210306273
 20
4.6701926555
 11
3.8222120805
 21
4.6691550751
  0
SPLINE
  5
2E4
100
AcDbEntity
  8
0
100
AcDbSpline
 62
7
  6
CONTINUOUS
 70
0
 71
3
 72
14
 73
10
 74
0
 42
0.0000001
 43
0.0000001
 44
0.0000000001
 40
0.0
 40
0.0
 40
0.0
 40
0.0
 40
0.2972522276
 40
0.4310663756
 40
0.5562642135
 40
0.6741167249
 40
0.7861448837
 40
0.8941158592
 40
1.0
 40
1.0
 40
1.0
 40
1.0
 10
4.3046281983
 20
5.8174972256
 30
0.0
 10
4.305304517
 20
5.8180784193
 30
0.0
 10
4.3062393622
 20
5.8189811429
 30
0.0
 10
4.3072818033
 20
5.8202866996
 30
0.0
 10
4.3079004398
 20
5.8212354084
 30
0.0
 10
4.3083829393
 20
5.8221876947
 30
0.0
 10
4.3087286003
 20
5.8231434466
 30
0.0
 10
4.3089365287
 20
5.8241017183
 30
0.0
 10
4.3089829566
 20
5.8247441832
 30
0.0
 10
4.3089829566
 20
5.8250618282
 30
0.0
  0
SPLINE
  5
2E5
100
AcDbEntity
  8
0
100
AcDbSpline
 62
7
  6
CONTINUOUS
 70
0
 71
3
 72
71
 73
67
 74
0
 42
0.0000001
 43
0.0000001
 44
0.0000000001
 40
0.0
 40
0.0
 40
0.0
 40
0.0
 40
0.0031104587
 40
0.0061225925
 40
0.0091028936
 40
0.0120962839
 40
0.0151294464
 40
0.0182148287
 40
0.0213686142
 40
0.0246260939
 40
0.0280191541
 40
0.0315733728
 40
0.0353049975
 40
0.0392261114
 40
0.043347396
 40
0.047677857
 40
0.0569866628
 40
0.0671854568
 40
0.0782889824
 40
0.0902978386
 40
0.1032038398
 40
0.1169917768
 40
0.1316405908
 40
0.1471249229
 40
0.1634150911
 40
0.1804785497
 40
0.1982792661
 40
0.2359364652
 40
0.2760533393
 40
0.3182649693
 40
0.3621815752
 40
0.4073938282
 40
0.4534778744
 40
0.5000002204
 40
0.5465225639
 40
0.592606603
 40
0.6378188443
 40
0.6817354343
 40
0.7239470445
 40
0.7640638955
 40
0.8017210689
 40
0.8195217698
 40
0.8365852158
 40
0.8528753632
 40
0.8683596847
 40
0.8830084728
 40
0.8967964027
 40
0.9097023715
 40
0.9217112228
 40
0.9328147114
 40
0.9430135209
 40
0.9523222572
 40
0.9566527259
 40
0.960774003
 40
0.964695074
 40
0.9684266993
 40
0.9719810484
 40
0.975374216
 40
0.9786316078
 40
0.9817850671
 40
0.9848700992
 40
0.9879033902
 40
0.9908971925
 40
0.993877974
 40
0.99689027
 40
1.0
 40
1.0
 40
1.0
 40
1.0
 10
4.3091104249
 20
4.6882938584
 30
0.0
 10
4.3091104249
 20
4.6876784225
 30
0.0
 10
4.3090143556
 20
4.6864645752
 30
0.0
 10
4.308587949
 20
4.6847077747
 30
0.0
 10
4.3079198455
 20
4.6830540379
 30
0.0
 10
4.3070432392
 20
4.6814974755
 30
0.0
 10
4.3059838727
 20
4.6800345132
 30
0.0
 10
4.304766341
 20
4.6786587789
 30
0.0
 10
4.3034045861
 20
4.6773611608
 30
0.0
 10
4.3019023343
 20
4.6761313279
 30
0.0
 10
4.3002608063
 20
4.6749537674
 30
0.0
 10
4.2984815869
 20
4.6738125963
 30
0.0
 10
4.2965619027
 20
4.6727013987
 30
0.0
 10
4.2944995557
 20
4.6716167709
 30
0.0
 10
4.2922931093
 20
4.6705551542
 30
0.0
 10
4.2890797075
 20
4.6691316522
 30
0.0
 10
4.2846871718
 20
4.6674073097
 30
0.0
 10
4.2789545284
 20
4.6654479786
 30
0.0
 10
4.2726424038
 20
4.6635467711
 30
0.0
 10
4.2657572016
 20
4.6617039165
 30
0.0
 10
4.2583092691
 20
4.6599203415
 30
0.0
 10
4.2503118635
 20
4.658198272
 30
0.0
 10
4.2417807182
 20
4.6565403355
 30
0.0
 10
4.2327337162
 20
4.6549497287
 30
0.0
 10
4.2231905747
 20
4.6534295519
 30
0.0
 10
4.2131727222
 20
4.6519830765
 30
0.0
 10
4.1989444876
 20
4.6501219175
 30
0.0
 10
4.1801494005
 20
4.6480196829
 30
0.0
 10
4.1565040677
 20
4.6458806872
 30
0.0
 10
4.1315872487
 20
4.6441014838
 30
0.0
 10
4.1056368538
 20
4.6426992461
 30
0.0
 10
4.0789016226
 20
4.6416877279
 30
0.0
 10
4.0516385976
 20
4.6410768223
 30
0.0
 10
4.0241103004
 20
4.640872521
 30
0.0
 10
3.9965820046
 20
4.6410768261
 30
0.0
 10
3.9693189839
 20
4.6416877355
 30
0.0
 10
3.9425837597
 20
4.6426992573
 30
0.0
 10
3.9166333744
 20
4.6441014984
 30
0.0
 10
3.8917165673
 20
4.645880705
 30
0.0
 10
3.8680712484
 20
4.6480197035
 30
0.0
 10
3.8492761743
 20
4.6501219402
 30
0.0
 10
3.8350479506
 20
4.6519831009
 30
0.0
 10
3.8250301081
 20
4.653429577
 30
0.0
 10
3.8154869757
 20
4.6549497555
 30
0.0
 10
3.8064399851
 20
4.656540362
 30
0.0
 10
3.7979088488
 20
4.6581982999
 30
0.0
 10
3.7899114569
 20
4.6599203713
 30
0.0
 10
3.7824635331
 20
4.6617039451
 30
0.0
 10
3.7755783459
 20
4.6635467981
 30
0.0
 10
3.7692662245
 20
4.6654480005
 30
0.0
 10
3.7635336123
 20
4.667407365
 30
0.0
 10
3.7591410706
 20
4.669131667
 30
0.0
 10
3.7559276844
 20
4.6705551705
 30
0.0
 10
3.7537212371
 20
4.6716167652
 30
0.0
 10
3.751658889
 20
4.6727013693
 30
0.0
 10
3.749739194
 20
4.6738125876
 30
0.0
 10
3.7479600357
 20
4.6749539426
 30
0.0
 10
3.7463185043
 20
4.6761315421
 30
0.0
 10
3.7448162183
 20
4.6773612336
 30
0.0
 10
3.7434544859
 20
4.6786586607
 30
0.0
 10
3.7422370481
 20
4.6800343358
 30
0.0
 10
3.7411776602
 20
4.6814973271
 30
0.0
 10
3.7403009626
 20
4.6830540744
 30
0.0
 10
3.7396328777
 20
4.6847080464
 30
0.0
 10
3.7392065225
 20
4.6864648359
 30
0.0
 10
3.7391104249
 20
4.6876785666
 30
0.0
 10
3.7391104249
 20
4.6882938584
 30
0.0
  0
SPLINE
  5
2E6
100
AcDbEntity
  8
0
100
AcDbSpline
 62
7
  6
CONTINUOUS
 70
0
 71
3
 72
71
 73
67
 74
0
 42
0.0000001
 43
0.0000001
 44
0.0000000001
 40
0.0
 40
0.0
 40
0.0
 40
0.0
 40
0.0031104587
 40
0.0061225925
 40
0.0091028936
 40
0.0120962839
 40
0.0151294464
 40
0.0182148287
 40
0.0213686142
 40
0.0246260939
 40
0.0280191541
 40
0.0315733728
 40
0.0353049975
 40
0.0392261114
 40
0.043347396
 40
0.047677857
 40
0.0569866628
 40
0.0671854568
 40
0.0782889824
 40
0.0902978386
 40
0.1032038398
 40
0.1169917768
 40
0.1316405908
 40
0.1471249229
 40
0.1634150911
 40
0.1804785497
 40
0.1982792661
 40
0.2359364652
 40
0.2760533393
 40
0.3182649692
 40
0.3621815752
 40
0.4073938282
 40
0.4534778744
 40
0.5000002204
 40
0.5465225639
 40
0.592606603
 40
0.6378188443
 40
0.6817354343
 40
0.7239470445
 40
0.7640638955
 40
0.8017210689
 40
0.8195217698
 40
0.8365852158
 40
0.8528753632
 40
0.8683596847
 40
0.8830084728
 40
0.8967964027
 40
0.9097023715
 40
0.9217112228
 40
0.9328147114
 40
0.9430135209
 40
0.9523222572
 40
0.9566527259
 40
0.960774003
 40
0.964695074
 40
0.9684266993
 40
0.9719810484
 40
0.975374216
 40
0.9786316078
 40
0.9817850671
 40
0.9848700992
 40
0.9879033902
 40
0.9908971925
 40
0.993877974
 40
0.99689027
 40
1.0
 40
1.0
 40
1.0
 40
1.0
 10
3.7391104249
 20
5.8077631852
 30
0.0
 10
3.7391104249
 20
5.8083786212
 30
0.0
 10
3.7392064943
 20
5.8095924685
 30
0.0
 10
3.7396329009
 20
5.8113492689
 30
0.0
 10
3.7403010044
 20
5.8130030057
 30
0.0
 10
3.7411776107
 20
5.8145595681
 30
0.0
 10
3.7422369772
 20
5.8160225305
 30
0.0
 10
3.7434545089
 20
5.8173982648
 30
0.0
 10
3.7448162638
 20
5.8186958828
 30
0.0
 10
3.7463185156
 20
5.8199257157
 30
0.0
 10
3.7479600435
 20
5.8211032762
 30
0.0
 10
3.749739263
 20
5.8222444474
 30
0.0
 10
3.7516589472
 20
5.823355645
 30
0.0
 10
3.7537212942
 20
5.8244402727
 30
0.0
 10
3.7559277405
 20
5.8255018894
 30
0.0
 10
3.7591411423
 20
5.8269253915
 30
0.0
 10
3.763533678
 20
5.828649734
 30
0.0
 10
3.7692663215
 20
5.8306090651
 30
0.0
 10
3.7755784461
 20
5.8325102726
 30
0.0
 10
3.7824636483
 20
5.8343531271
 30
0.0
 10
3.7899115808
 20
5.8361367021
 30
0.0
 10
3.7979089864
 20
5.8378587716
 30
0.0
 10
3.8064401317
 20
5.8395167081
 30
0.0
 10
3.8154871337
 20
5.841107315
 30
0.0
 10
3.8250302752
 20
5.8426274918
 30
0.0
 10
3.8350481277
 20
5.8440739671
 30
0.0
 10
3.8492763623
 20
5.8459351261
 30
0.0
 10
3.8680714494
 20
5.8480373607
 30
0.0
 10
3.8917167822
 20
5.8501763564
 30
0.0
 10
3.9166336012
 20
5.8519555598
 30
0.0
 10
3.942583996
 20
5.8533577975
 30
0.0
 10
3.9693192273
 20
5.8543693157
 30
0.0
 10
3.9965822523
 20
5.8549802214
 30
0.0
 10
4.0241105495
 20
5.8551845227
 30
0.0
 10
4.0516388453
 20
5.8549802175
 30
0.0
 10
4.078901866
 20
5.8543693081
 30
0.0
 10
4.1056370902
 20
5.8533577863
 30
0.0
 10
4.1315874754
 20
5.8519555452
 30
0.0
 10
4.1565042826
 20
5.8501763387
 30
0.0
 10
4.1801496015
 20
5.8480373401
 30
0.0
 10
4.1989446756
 20
5.8459351035
 30
0.0
 10
4.2131728992
 20
5.8440739428
 30
0.0
 10
4.2231907418
 20
5.8426274667
 30
0.0
 10
4.2327338742
 20
5.8411072881
 30
0.0
 10
4.2417808648
 20
5.8395166817
 30
0.0
 10
4.2503120011
 20
5.8378587437
 30
0.0
 10
4.258309393
 20
5.8361366724
 30
0.0
 10
4.2657573168
 20
5.8343530985
 30
0.0
 10
4.272642504
 20
5.8325102456
 30
0.0
 10
4.2789546253
 20
5.8306090431
 30
0.0
 10
4.2846872376
 20
5.8286496787
 30
0.0
 10
4.2890797793
 20
5.8269253767
 30
0.0
 10
4.2922931655
 20
5.8255018732
 30
0.0
 10
4.2944996128
 20
5.8244402784
 30
0.0
 10
4.2965619608
 20
5.8233556744
 30
0.0
 10
4.2984816559
 20
5.822244456
 30
0.0
 10
4.3002608141
 20
5.8211031011
 30
0.0
 10
4.3019023456
 20
5.8199255016
 30
0.0
 10
4.3034046316
 20
5.8186958101
 30
0.0
 10
4.304766364
 20
5.817398383
 30
0.0
 10
4.3059838018
 20
5.8160227078
 30
0.0
 10
4.3070431897
 20
5.8145597166
 30
0.0
 10
4.3079198872
 20
5.8130029692
 30
0.0
 10
4.3085879722
 20
5.8113489972
 30
0.0
 10
4.3090143273
 20
5.8095922078
 30
0.0
 10
4.3091104249
 20
5.808378477
 30
0.0
 10
4.3091104249
 20
5.8077631852
 30
0.0
  0
SPLINE
  5
2E7
100
AcDbEntity
  8
0
100
AcDbSpline
 62
7
  6
CONTINUOUS
 70
0
 71
3
 72
14
 73
10
 74
0
 42
0.0000001
 43
0.0000001
 44
0.0000000001
 40
0.0
 40
0.0
 40
0.0
 40
0.0
 40
0.1058849438
 40
0.2138566223
 40
0.3258852962
 40
0.4437380652
 40
0.5689358545
 40
0.7027496167
 40
1.0
 40
1.0
 40
1.0
 40
1.0
 10
3.7392378933
 20
5.8250618282
 30
0.0
 10
3.7392378933
 20
5.8247441922
 30
0.0
 10
3.7392843185
 20
5.8241017458
 30
0.0
 10
3.739492235
 20
5.8231435015
 30
0.0
 10
3.7398378763
 20
5.8221877766
 30
0.0
 10
3.7403203484
 20
5.821235517
 30
0.0
 10
3.74093895
 20
5.8202868346
 30
0.0
 10
3.7419813311
 20
5.8189813155
 30
0.0
 10
3.7429161247
 20
5.8180786151
 30
0.0
 10
3.7435924066
 20
5.8174974362
 30
0.0
  0
LINE
  5
2E8
100
AcDbEntity
  8
0
100
AcDbLine
 62
7
  6
CONTINUOUS
 10
3.8382558467
 20
4.6616861735
 11
3.843930728
 21
4.6600014938
  0
LINE
  5
2E9
100
AcDbEntity
  8
0
100
AcDbLine
 62
7
  6
CONTINUOUS
 10
4.2042901219
 20
4.6600014938
 11
4.2099650031
 21
4.6616861735
  0
LINE
  5
2EA
100
AcDbEntity
  8
0
100
AcDbLine
 62
7
  6
CONTINUOUS
 10
4.2260087694
 20
4.6691550751
 11
4.2271902226
 21
4.6701926555
  0
LINE
  5
2EB
100
AcDbEntity
  8
0
100
AcDbLine
 62
7
  6
CONTINUOUS
 10
3.87162671
 20
4.6795594627
 11
3.8696712792
 21
4.6776919808
  0
LINE
  5
2EC
100
AcDbEntity
  8
0
100
AcDbLine
 62
7
  6
CONTINUOUS
 10
4.1785495707
 20
4.6776919808
 11
4.1765941398
 21
4.6795594627
  0
LINE
  5
2ED
100
AcDbEntity
  8
0
100
AcDbLine
 62
7
  6
CONTINUOUS
 10
3.8885083093
 20
4.6864612387
 11
3.882833428
 21
4.684776559
  0
LINE
  5
2EE
100
AcDbEntity
  8
0
100
AcDbLine
 62
7
  6
CONTINUOUS
 10
4.1653874218
 20
4.684776559
 11
4.1597125406
 21
4.6864612387
  0
LINE
  5
2EF
100
AcDbEntity
  8
0
100
AcDbLine
 62
7
  6
CONTINUOUS
 10
4.070794256
 20
4.7096249002
 11
4.0711275758
 21
4.7095207784
  0
SPLINE
  5
2F0
100
AcDbEntity
  8
0
100
AcDbSpline
 62
7
  6
CONTINUOUS
 70
0
 71
3
 72
9
 73
5
 74
0
 42
0.0000001
 43
0.0000001
 44
0.0000000001
 40
0.0
 40
0.0
 40
0.0
 40
0.0
 40
0.5216610349
 40
1.0
 40
1.0
 40
1.0
 40
1.0
 10
3.8871103221
 20
4.7082184893
 30
0.0
 10
3.8823292457
 20
4.7076158265
 30
0.0
 10
3.8731763422
 20
4.7063605242
 30
0.0
 10
3.8640592826
 20
4.7048632905
 30
0.0
 10
3.8597116055
 20
4.7040741369
 30
0.0
  0
LINE
  5
2F1
100
AcDbEntity
  8
0
100
AcDbLine
 62
7
  6
CONTINUOUS
 10
5.5568561413
 20
3.11008102
 11
5.5566104249
 21
3.1092244862
  0
SPLINE
  5
2F2
100
AcDbEntity
  8
0
100
AcDbSpline
 62
7
  6
CONTINUOUS
 70
0
 71
3
 72
11
 73
7
 74
0
 42
0.0000001
 43
0.0000001
 44
0.0000000001
 40
0.0
 40
0.0
 40
0.0
 40
0.0
 40
0.2797475759
 40
0.5399132978
 40
0.7800876114
 40
1.0
 40
1.0
 40
1.0
 40
1.0
 10
3.8430135554
 20
4.7005977255
 30
0.0
 10
3.841348805
 20
4.7001977659
 30
0.0
 10
3.8381441378
 20
4.6993905393
 30
0.0
 10
3.8335457609
 20
4.6981040464
 30
0.0
 10
3.829337954
 20
4.6967879218
 30
0.0
 10
3.8266814427
 20
4.6958515043
 30
0.0
 10
3.8254224964
 20
4.6953755368
 30
0.0
  0
SPLINE
  5
2F3
100
AcDbEntity
  8
0
100
AcDbSpline
 62
7
  6
CONTINUOUS
 70
0
 71
3
 72
15
 73
11
 74
0
 42
0.0000001
 43
0.0000001
 44
0.0000000001
 40
0.0
 40
0.0
 40
0.0
 40
0.0
 40
0.1202417924
 40
0.2411803259
 40
0.3633157897
 40
0.4870958855
 40
0.6127336962
 40
0.7402573193
 40
0.8694518049
 40
1.0
 40
1.0
 40
1.0
 40
1.0
 10
5.5666104249
 20
2.2958491653
 30
0.0
 10
5.5666104249
 20
2.2953421329
 30
0.0
 10
5.5665170868
 20
2.2943227331
 30
0.0
 10
5.566101784
 20
2.2928398217
 30
0.0
 10
5.5654226057
 20
2.2914408513
 30
0.0
 10
5.5644995707
 20
2.2901653174
 30
0.0
 10
5.563358442
 20
2.2890482335
 30
0.0
 10
5.5620311267
 20
2.2881204063
 30
0.0
 10
5.5605552449
 20
2.2874064902
 30
0.0
 10
5.5595021038
 20
2.2870872622
 30
0.0
 10
5.5589646047
 20
2.2869683655
 30
0.0
  0
SPLINE
  5
2F4
100
AcDbEntity
  8
0
100
AcDbSpline
 62
7
  6
CONTINUOUS
 70
0
 71
3
 72
13
 73
9
 74
0
 42
0.0000001
 43
0.0000001
 44
0.0000000001
 40
0.0
 40
0.0
 40
0.0
 40
0.0
 40
0.3051548494
 40
0.4427192124
 40
0.5707409868
 40
0.6897362405
 40
0.8003855645
 40
1.0
 40
1.0
 40
1.0
 40
1.0
 10
3.816643812
 20
4.6912887701
 30
0.0
 10
3.8159017021
 20
4.6908449652
 30
0.0
 10
3.8148482928
 20
4.6901588742
 30
0.0
 10
3.8135714658
 20
4.6891649427
 30
0.0
 10
3.8127548836
 20
4.6884421376
 30
0.0
 10
3.8120461347
 20
4.6877158563
 30
0.0
 10
3.8112726298
 20
4.6867765478
 30
0.0
 10
3.8108100518
 20
4.686017701
 30
0.0
 10
3.8105823462
 20
4.6854999294
 30
0.0
  0
LINE
  5
2F5
100
AcDbEntity
  8
0
100
AcDbLine
 62
7
  6
CONTINUOUS
 10
3.8716702223
 20
4.678708311
 11
3.8747523208
 21
4.6768061344
  0
SPLINE
  5
2F6
100
AcDbEntity
  8
0
100
AcDbSpline
 62
7
  6
CONTINUOUS
 70
0
 71
3
 72
9
 73
5
 74
0
 42
0.0000001
 43
0.0000001
 44
0.0000000001
 40
0.0
 40
0.0
 40
0.0
 40
0.0
 40
0.4667056027
 40
1.0
 40
1.0
 40
1.0
 40
1.0
 10
3.8105823462
 20
4.6812028486
 30
0.0
 10
3.8108008433
 20
4.6807060159
 30
0.0
 10
3.8114065891
 20
4.679700685
 30
0.0
 10
3.8121870899
 20
4.6788314952
 30
0.0
 10
3.8126307342
 20
4.6783981112
 30
0.0
  0
SPLINE
  5
2F7
100
AcDbEntity
  8
0
100
AcDbSpline
 62
7
  6
CONTINUOUS
 70
0
 71
3
 72
139
 73
135
 74
0
 42
0.0000001
 43
0.0000001
 44
0.0000000001
 40
0.0
 40
0.0
 40
0.0
 40
0.0
 40
0.000000957
 40
0.0000036628
 40
0.0000081171
 40
0.0000143191
 40
0.0000319637
 40
0.0000565909
 40
0.000088195
 40
0.0001267702
 40
0.0001723109
 40
0.0002248111
 40
0.0003506672
 40
0.0005042926
 40
0.0006856411
 40
0.0008946664
 40
0.0011313225
 40
0.0013955633
 40
0.0020065969
 40
0.0027270844
 40
0.0035560917
 40
0.0044926768
 40
0.0055358977
 40
0.0066848125
 40
0.0079383855
 40
0.0107537152
 40
0.0139698038
 40
0.0175743937
 40
0.0215541291
 40
0.0258948198
 40
0.0305822413
 40
0.0356019421
 40
0.0409392867
 40
0.0465796418
 40
0.0525086659
 40
0.0651770128
 40
0.0788352236
 40
0.0933838061
 40
0.1087296395
 40
0.1247906048
 40
0.1414900461
 40
0.1587623977
 40
0.176545914
 40
0.1947882114
 40
0.2134408372
 40
0.2324604217
 40
0.2518095357
 40
0.2714528474
 40
0.2913602887
 40
0.3115043715
 40
0.3318601788
 40
0.3421108386
 40
0.3524061817
 40
0.3627437994
 40
0.3731219257
 40
0.3835379173
 40
0.3939893956
 40
0.4044755939
 40
0.4149935672
 40
0.4255411298
 40
0.4361179417
 40
0.4467191701
 40
0.4573446466
 40
0.4679891196
 40
0.4733180465
 40
0.4786509047
 40
0.4893224516
 40
0.4999999471
 40
0.5053398422
 40
0.5106786525
 40
0.5213499239
 40
0.5320108634
 40
0.5426556058
 40
0.5532806548
 40
0.5638816961
 40
0.5744587086
 40
0.5850064211
 40
0.5955243825
 40
0.6060105108
 40
0.6164620407
 40
0.6268781537
 40
0.6372563617
 40
0.6475939844
 40
0.6578892918
 40
0.6681399069
 40
0.6884956709
 40
0.7086397543
 40
0.7285472089
 40
0.7481905199
 40
0.7675396093
 40
0.7865591654
 40
0.8052117773
 40
0.8234540781
 40
0.8412376023
 40
0.8585099592
 40
0.8752094032
 40
0.8912703683
 40
0.9066162014
 40
0.9211647862
 40
0.9348229961
 40
0.9474913323
 40
0.9534203485
 40
0.9590606953
 40
0.9643980333
 40
0.9694177317
 40
0.974105158
 40
0.9784458596
 40
0.9824256061
 40
0.9860302015
 40
0.9892462889
 40
0.9920616151
 40
0.9933151871
 40
0.994464102
 40
0.9955073239
 40
0.9964439105
 40
0.9972729193
 40
0.9979934078
 40
0.9986044415
 40
0.9988686819
 40
0.9991053375
 40
0.9993143622
 40
0.9994957099
 40
0.9996493346
 40
0.9997751901
 40
0.99982769
 40
0.9998732303
 40
0.9999118054
 40
0.9999434093
 40
0.9999680364
 40
0.9999856809
 40
0.9999918829
 40
0.9999963371
 40
0.9999990429
 40
1.0
 40
1.0
 40
1.0
 40
1.0
 10
4.4991104249
 20
3.197904432
 30
0.0
 10
4.4991103254
 20
3.1979040572
 30
0.0
 10
4.4991090797
 20
3.1979030539
 30
0.0
 10
4.4991072491
 20
3.1979004001
 30
0.0
 10
4.4991035941
 20
3.1978963417
 30
0.0
 10
4.4990962623
 20
3.1978875592
 30
0.0
 10
4.499083441
 20
3.1978726526
 30
0.0
 10
4.4990640177
 20
3.1978498884
 30
0.0
 10
4.4990390138
 20
3.1978207193
 30
0.0
 10
4.4990084984
 20
3.1977851203
 30
0.0
 10
4.4989724507
 20
3.197743109
 30
0.0
 10
4.4989133575
 20
3.1976742723
 30
0.0
 10
4.4988257007
 20
3.1975722362
 30
0.0
 10
4.4987039793
 20
3.1974306355
 30
0.0
 10
4.4985602476
 20
3.1972635155
 30
0.0
 10
4.4983945372
 20
3.1970709232
 30
0.0
 10
4.4982068791
 20
3.1968529057
 30
0.0
 10
4.4979128984
 20
3.1965114808
 30
0.0
 10
4.497490871
 20
3.1960216023
 30
0.0
 10
4.4969193651
 20
3.1953584478
 30
0.0
 10
4.4962617303
 20
3.1945953799
 30
0.0
 10
4.4955187848
 20
3.1937332008
 30
0.0
 10
4.4946913543
 20
3.1927727108
 30
0.0
 10
4.4937802882
 20
3.1917147395
 30
0.0
 10
4.4924010205
 20
3.1901123541
 30
0.0
 10
4.4904760008
 20
3.1878745562
 30
0.0
 10
4.4879307201
 20
3.1849137301
 30
0.0
 10
4.4850788299
 20
3.181594296
 30
0.0
 10
4.4819311461
 20
3.177928225
 30
0.0
 10
4.478499128
 20
3.173927987
 30
0.0
 10
4.4747944697
 20
3.1696064359
 30
0.0
 10
4.4708291331
 20
3.1649764342
 30
0.0
 10
4.4666152765
 20
3.1600508953
 30
0.0
 10
4.4621650119
 20
3.1548427152
 30
0.0
 10
4.4557899208
 20
3.147372031
 30
0.0
 10
4.4473165999
 20
3.1374209517
 30
0.0
 10
4.4365989037
 20
3.1247937366
 30
0.0
 10
4.4252042368
 20
3.1113181352
 30
0.0
 10
4.4132114655
 20
3.0970733353
 30
0.0
 10
4.4006948296
 20
3.0821303889
 30
0.0
 10
4.3877214955
 20
3.0665517942
 30
0.0
 10
4.3743561132
 20
3.0503915223
 30
0.0
 10
4.3606564719
 20
3.0336966158
 30
0.0
 10
4.3466813225
 20
3.0165045785
 30
0.0
 10
4.3324842928
 20
2.9988478245
 30
0.0
 10
4.318120905
 20
2.9807498742
 30
0.0
 10
4.3036504549
 20
2.9622252115
 30
0.0
 10
4.2891284077
 20
2.9432853957
 30
0.0
 10
4.2746296052
 20
2.9239235518
 30
0.0
 10
4.2602241037
 20
2.9041336285
 30
0.0
 10
4.2484126514
 20
2.8872983804
 30
0.0
 10
4.2391127865
 20
2.8735798992
 30
0.0
 10
4.2322199207
 20
2.8631349717
 30
0.0
 10
4.2254481512
 20
2.8525496635
 30
0.0
 10
4.2188184769
 20
2.8418171264
 30
0.0
 10
4.2123626344
 20
2.8309251938
 30
0.0
 10
4.2061200398
 20
2.8198590507
 30
0.0
 10
4.2001274892
 20
2.8086083078
 30
0.0
 10
4.1944375304
 20
2.7971574259
 30
0.0
 10
4.1891122027
 20
2.7854914242
 30
0.0
 10
4.1842145678
 20
2.7736020898
 30
0.0
 10
4.1798301701
 20
2.76147912
 30
0.0
 10
4.1760487092
 20
2.7491249607
 30
0.0
 10
4.1734794061
 20
2.7386505523
 30
0.0
 10
4.1718236096
 20
2.7301761659
 30
0.0
 10
4.1704481828
 20
2.7216407352
 30
0.0
 10
4.169272524
 20
2.7108840333
 30
0.0
 10
4.1688740364
 20
2.7000668797
 30
0.0
 10
4.1690285843
 20
2.6914131216
 30
0.0
 10
4.1695009772
 20
2.6827733376
 30
0.0
 10
4.1706828946
 20
2.6720212278
 30
0.0
 10
4.1729700527
 20
2.6592586749
 30
0.0
 10
4.1760478011
 20
2.6466838507
 30
0.0
 10
4.1798250386
 20
2.6343281947
 30
0.0
 10
4.1842136834
 20
2.6222068926
 30
0.0
 10
4.1891161956
 20
2.6103195367
 30
0.0
 10
4.1944418579
 20
2.598653598
 30
0.0
 10
4.2001296987
 20
2.5872016461
 30
0.0
 10
4.2061199449
 20
2.5759496815
 30
0.0
 10
4.2123615198
 20
2.5648829039
 30
0.0
 10
4.2188170419
 20
2.553990658
 30
0.0
 10
4.2254467557
 20
2.5432580438
 30
0.0
 10
4.2322187605
 20
2.5326728603
 30
0.0
 10
4.2391119573
 20
2.5222281875
 30
0.0
 10
4.2484122314
 20
2.5085100449
 30
0.0
 10
4.2602239242
 20
2.491675012
 30
0.0
 10
4.2746295069
 20
2.4718851634
 30
0.0
 10
4.289128326
 20
2.4525233254
 30
0.0
 10
4.3036503869
 20
2.433583526
 30
0.0
 10
4.3181208887
 20
2.4150589312
 30
0.0
 10
4.3324843146
 20
2.3969610459
 30
0.0
 10
4.34668136
 20
2.3793043249
 30
0.0
 10
4.3606564987
 20
2.3621122803
 30
0.0
 10
4.3743561235
 20
2.3454173514
 30
0.0
 10
4.3877214927
 20
2.3292570604
 30
0.0
 10
4.4006948185
 20
2.3136784546
 30
0.0
 10
4.4132114569
 20
2.2987355093
 30
0.0
 10
4.4252042339
 20
2.284490713
 30
0.0
 10
4.4365988966
 20
2.2710151076
 30
0.0
 10
4.4473165881
 20
2.2583878934
 30
0.0
 10
4.4557899159
 20
2.2484368304
 30
0.0
 10
4.4621650124
 20
2.2409661651
 30
0.0
 10
4.46661528
 20
2.2357579997
 30
0.0
 10
4.4708291389
 20
2.230832472
 30
0.0
 10
4.4747944771
 20
2.2262024739
 30
0.0
 10
4.4784991344
 20
2.2218809149
 30
0.0
 10
4.4819311486
 20
2.2178806592
 30
0.0
 10
4.4850788281
 20
2.2142145699
 30
0.0
 10
4.4879307164
 20
2.2108951258
 30
0.0
 10
4.490475999
 20
2.2079343008
 30
0.0
 10
4.4924010205
 20
2.2056965077
 30
0.0
 10
4.4937802886
 20
2.204094125
 30
0.0
 10
4.4946913548
 20
2.2030361537
 30
0.0
 10
4.4955187853
 20
2.2020756622
 30
0.0
 10
4.4962617306
 20
2.201213481
 30
0.0
 10
4.4969193652
 20
2.2004504108
 30
0.0
 10
4.4974908707
 20
2.1997872545
 30
0.0
 10
4.497912898
 20
2.1992973756
 30
0.0
 10
4.4982068787
 20
2.198955951
 30
0.0
 10
4.4983945366
 20
2.1987379343
 30
0.0
 10
4.4985602469
 20
2.1985453428
 30
0.0
 10
4.4987039786
 20
2.1983782239
 30
0.0
 10
4.4988256999
 20
2.1982366242
 30
0.0
 10
4.4989133568
 20
2.198134589
 30
0.0
 10
4.49897245
 20
2.1980657531
 30
0.0
 10
4.4990084978
 20
2.1980237423
 30
0.0
 10
4.4990390132
 20
2.1979881437
 30
0.0
 10
4.4990640172
 20
2.1979589749
 30
0.0
 10
4.4990834406
 20
2.197936211
 30
0.0
 10
4.4990962619
 20
2.1979213046
 30
0.0
 10
4.4991035939
 20
2.1979125223
 30
0.0
 10
4.4991072487
 20
2.1979084638
 30
0.0
 10
4.4991090799
 20
2.1979058101
 30
0.0
 10
4.4991103251
 20
2.1979048068
 30
0.0
 10
4.4991104249
 20
2.197904432
 30
0.0
  0
SPLINE
  5
2F8
100
AcDbEntity
  8
0
100
AcDbSpline
 62
7
  6
CONTINUOUS
 70
0
 71
3
 72
15
 73
11
 74
0
 42
0.0000001
 43
0.0000001
 44
0.0000000001
 40
0.0
 40
0.0
 40
0.0
 40
0.0
 40
0.130545819
 40
0.2599059394
 40
0.3876692275
 40
0.5135081765
 40
0.6373528518
 40
0.7593728137
 40
0.8800853132
 40
1.0
 40
1.0
 40
1.0
 40
1.0
 10
5.5579891385
 20
3.1091371092
 30
0.0
 10
5.5585779224
 20
3.1090622469
 30
0.0
 10
5.5597402797
 20
3.1088167369
 30
0.0
 10
5.5613880427
 20
3.1081692088
 30
0.0
 10
5.56288537
 20
3.1072637227
 30
0.0
 10
5.5641837375
 20
3.1061278367
 30
0.0
 10
5.5652408658
 20
3.104797241
 30
0.0
 10
5.5660227682
 20
3.1033139822
 30
0.0
 10
5.5665022652
 20
3.1017261865
 30
0.0
 10
5.5666104249
 20
3.1006292304
 30
0.0
 10
5.5666104249
 20
3.1000840405
 30
0.0
  0
SPLINE
  5
2F9
100
AcDbEntity
  8
0
100
AcDbSpline
 62
7
  6
CONTINUOUS
 70
0
 71
3
 72
11
 73
7
 74
0
 42
0.0000001
 43
0.0000001
 44
0.0000000001
 40
0.0
 40
0.0
 40
0.0
 40
0.0
 40
0.2085503563
 40
0.4450409578
 40
0.7090821177
 40
1.0
 40
1.0
 40
1.0
 40
1.0
 10
3.8778429395
 20
4.6753673495
 30
0.0
 10
3.8790207352
 20
4.6748736668
 30
0.0
 10
3.8815728542
 20
4.6739120476
 30
0.0
 10
3.8857116977
 20
4.6725946185
 30
0.0
 10
3.8903880089
 20
4.6713171408
 30
0.0
 10
3.8936952204
 20
4.6705327908
 30
0.0
 10
3.8954339985
 20
4.6701451609
 30
0.0
  0
SPLINE
  5
2FA
100
AcDbEntity
  8
0
100
AcDbSpline
 62
7
  6
CONTINUOUS
 70
0
 71
3
 72
11
 73
7
 74
0
 42
0.0000001
 43
0.0000001
 44
0.0000000001
 40
0.0
 40
0.0
 40
0.0
 40
0.0
 40
0.2271669492
 40
0.4701443426
 40
0.72807147
 40
1.0
 40
1.0
 40
1.0
 40
1.0
 10
3.9013127047
 20
4.6689212574
 30
0.0
 10
3.9033727669
 20
4.6685201569
 30
0.0
 10
3.9076467079
 20
4.6677431298
 30
0.0
 10
3.9142887096
 20
4.666677828
 30
0.0
 10
3.921358582
 20
4.6656767684
 30
0.0
 10
3.9262163003
 20
4.6650701102
 30
0.0
 10
3.9287114213
 20
4.6647769051
 30
0.0
  0
SPLINE
  5
2FB
100
AcDbEntity
  8
0
100
AcDbSpline
 62
7
  6
CONTINUOUS
 70
0
 71
3
 72
9
 73
5
 74
0
 42
0.0000001
 43
0.0000001
 44
0.0000000001
 40
0.0
 40
0.0
 40
0.0
 40
0.0
 40
0.4845257464
 40
1.0
 40
1.0
 40
1.0
 40
1.0
 10
3.9368027662
 20
4.6638876872
 30
0.0
 10
3.9423664566
 20
4.6633166784
 30
0.0
 10
3.9538660343
 20
4.6622992548
 30
0.0
 10
3.9653858519
 20
4.6615511568
 30
0.0
 10
3.9713271633
 20
4.6612268492
 30
0.0
  0
SPLINE
  5
2FC
100
AcDbEntity
  8
0
100
AcDbSpline
 62
7
  6
CONTINUOUS
 70
0
 71
3
 72
14
 73
10
 74
0
 42
0.0000001
 43
0.0000001
 44
0.0000000001
 40
0.0
 40
0.0
 40
0.0
 40
0.0
 40
0.1669740025
 40
0.2806342461
 40
0.4082290531
 40
0.5464762284
 40
0.6927864772
 40
0.8448136352
 40
1.0
 40
1.0
 40
1.0
 40
1.0
 10
5.2399039133
 20
2.2511009385
 30
0.0
 10
5.2508640435
 20
2.2545570217
 30
0.0
 10
5.269379132
 20
2.2600745774
 30
0.0
 10
5.2965447821
 20
2.2672586411
 30
0.0
 10
5.3219880658
 20
2.273185433
 30
0.0
 10
5.3498402689
 20
2.278603807
 30
0.0
 10
5.3795733291
 20
2.2830277813
 30
0.0
 10
5.4106622677
 20
2.2859910037
 30
0.0
 10
5.4318120966
 20
2.2867115257
 30
0.0
 10
5.4424929286
 20
2.2867115456
 30
0.0
  0
SPLINE
  5
2FD
100
AcDbEntity
  8
0
100
AcDbSpline
 62
7
  6
CONTINUOUS
 70
0
 71
3
 72
16
 73
12
 74
0
 42
0.0000001
 43
0.0000001
 44
0.0000000001
 40
0.0
 40
0.0
 40
0.0
 40
0.0
 40
0.0865413018
 40
0.129479837
 40
0.1720827679
 40
0.2560181935
 40
0.3378394853
 40
0.4931904059
 40
0.6346650715
 40
0.8634368999
 40
1.0
 40
1.0
 40
1.0
 40
1.0
 10
5.5566104249
 20
3.1092274133
 30
0.0
 10
5.5517346895
 20
3.1093513957
 30
0.0
 10
5.5444422745
 20
3.1096710943
 30
0.0
 10
5.5347682949
 20
3.1103625872
 30
0.0
 10
5.5252547582
 20
3.1112175353
 30
0.0
 10
5.5135884046
 20
3.1125781589
 30
0.0
 10
5.4956915469
 20
3.1152804777
 30
0.0
 10
5.474750017
 20
3.1194582681
 30
0.0
 10
5.4460510474
 20
3.1268368958
 30
0.0
 10
5.4188629049
 20
3.1356848341
 30
0.0
 10
5.3996478735
 20
3.1430929806
 30
0.0
 10
5.3925176998
 20
3.1459905591
 30
0.0
  0
LINE
  5
2FE
100
AcDbEntity
  8
0
100
AcDbLine
 62
7
  6
CONTINUOUS
 10
4.2271902226
 20
4.6701926555
 11
4.2279642002
 21
4.671022557
  0
SPLINE
  5
2FF
100
AcDbEntity
  8
0
100
AcDbSpline
 62
7
  6
CONTINUOUS
 70
0
 71
3
 72
9
 73
5
 74
0
 42
0.0000001
 43
0.0000001
 44
0.0000000001
 40
0.0
 40
0.0
 40
0.0
 40
0.0
 40
0.5332943973
 40
1.0
 40
1.0
 40
1.0
 40
1.0
 10
4.2355901156
 20
4.6783981112
 30
0.0
 10
4.23603376
 20
4.6788314952
 30
0.0
 10
4.2368142608
 20
4.679700685
 30
0.0
 10
4.2374200066
 20
4.6807060159
 30
0.0
 10
4.2376385037
 20
4.6812028486
 30
0.0
  0
LINE
  5
300
100
AcDbEntity
  8
0
100
AcDbLine
 62
7
  6
CONTINUOUS
 10
3.882833428
 20
4.6651218229
 11
3.8885083093
 21
4.6634371432
  0
SPLINE
  5
301
100
AcDbEntity
  8
0
100
AcDbSpline
 62
7
  6
CONTINUOUS
 70
0
 71
3
 72
39
 73
35
 74
0
 42
0.0000001
 43
0.0000001
 44
0.0000000001
 40
0.0
 40
0.0
 40
0.0
 40
0.0
 40
0.0949369539
 40
0.1890088197
 40
0.2813498468
 40
0.3710947544
 40
0.4573801482
 40
0.498957164
 40
0.5393474024
 40
0.6161529903
 40
0.6524078264
 40
0.6871439743
 40
0.7202983528
 40
0.7518087232
 40
0.781613975
 40
0.8096545192
 40
0.8358728449
 40
0.8602143275
 40
0.8826284365
 40
0.9030706028
 40
0.9215052119
 40
0.9379112568
 40
0.9453600768
 40
0.9523176528
 40
0.9587964796
 40
0.9648120117
 40
0.9703835367
 40
0.9755353088
 40
0.9802979783
 40
0.9847102915
 40
0.9888208963
 40
0.9926898235
 40
0.9963888769
 40
1.0
 40
1.0
 40
1.0
 40
1.0
 10
4.0241104249
 20
5.868171162
 30
0.0
 10
4.0148064983
 20
5.868171162
 30
0.0
 10
3.9962831239
 20
5.8680295538
 30
0.0
 10
3.9687166356
 20
5.8674041096
 30
0.0
 10
3.9416711853
 20
5.8663789291
 30
0.0
 10
3.9154073017
 20
5.8649670915
 30
0.0
 10
3.8941334852
 20
5.863461802
 30
0.0
 10
3.8777036978
 20
5.8620632191
 30
0.0
 10
3.8622137551
 20
5.860587467
 30
0.0
 10
3.8472662659
 20
5.8589220558
 30
0.0
 10
3.832903876
 20
5.8570446724
 30
0.0
 10
3.8228018419
 20
5.8555867278
 30
0.0
 10
3.8131811079
 20
5.8540558881
 30
0.0
 10
3.8040617199
 20
5.8524564291
 30
0.0
 10
3.795463715
 20
5.8507926541
 30
0.0
 10
3.7874070814
 20
5.8490688928
 30
0.0
 10
3.7799117475
 20
5.8472895125
 30
0.0
 10
3.7729975286
 20
5.8454589188
 30
0.0
 10
3.7666841169
 20
5.8435815859
 30
0.0
 10
3.7609908117
 20
5.8416619729
 30
0.0
 10
3.7559368102
 20
5.8397047196
 30
0.0
 10
3.7521583809
 20
5.8379940051
 30
0.0
 10
3.7494806172
 20
5.8365968032
 30
0.0
 10
3.7477059301
 20
5.8355757834
 30
0.0
 10
3.7460993171
 20
5.8345482329
 30
0.0
 10
3.7446606535
 20
5.8335146293
 30
0.0
 10
3.7433897996
 20
5.8324754165
 30
0.0
 10
3.7422866444
 20
5.8314309145
 30
0.0
 10
3.7413511664
 20
5.8303813063
 30
0.0
 10
3.7405835491
 20
5.8293266173
 30
0.0
 10
3.7399843407
 20
5.8282668522
 30
0.0
 10
3.7395545907
 20
5.8272020665
 30
0.0
 10
3.7392957735
 20
5.8261333808
 30
0.0
 10
3.7392378933
 20
5.8254157223
 30
0.0
 10
3.7392378933
 20
5.8250618282
 30
0.0
  0
LINE
  5
302
100
AcDbEntity
  8
0
100
AcDbLine
 62
7
  6
CONTINUOUS
 10
4.1597125406
 20
4.6634371432
 11
4.1653874218
 21
4.6651218229
  0
LINE
  5
303
100
AcDbEntity
  8
0
100
AcDbLine
 62
7
  6
CONTINUOUS
 10
3.8696712792
 20
4.6722064011
 11
3.87162671
 21
4.6703389192
  0
LINE
  5
304
100
AcDbEntity
  8
0
100
AcDbLine
 62
7
  6
CONTINUOUS
 10
3.8202566497
 20
4.671022557
 11
3.8210306273
 21
4.6701926555
  0
LINE
  5
305
100
AcDbEntity
  8
0
100
AcDbLine
 62
7
  6
CONTINUOUS
 10
4.1765941398
 20
4.6703389192
 11
4.1785495707
 21
4.6722064011
  0
LINE
  5
306
100
AcDbEntity
  8
0
100
AcDbLine
 62
7
  6
CONTINUOUS
 10
3.953568409
 20
4.7102223895
 11
3.9547098527
 21
4.709589983
  0
SPLINE
  5
307
100
AcDbEntity
  8
0
100
AcDbSpline
 62
7
  6
CONTINUOUS
 70
0
 71
3
 72
12
 73
8
 74
0
 42
0.0000001
 43
0.0000001
 44
0.0000000001
 40
0.0
 40
0.0
 40
0.0
 40
0.0
 40
0.0866786501
 40
0.1856402966
 40
0.4181427578
 40
0.6919887669
 40
1.0
 40
1.0
 40
1.0
 40
1.0
 10
3.9547098527
 20
4.709589983
 30
0.0
 10
3.954870113
 20
4.709538596
 30
0.0
 10
3.9552169926
 20
4.7094398561
 30
0.0
 10
3.9560074964
 20
4.7092539794
 30
0.0
 10
3.9571656824
 20
4.7090493377
 30
0.0
 10
3.9587344804
 20
4.7088490876
 30
0.0
 10
3.9598599623
 20
4.7087479005
 30
0.0
 10
3.9604563248
 20
4.708703112
 30
0.0
  0
LINE
  5
308
100
AcDbEntity
  8
0
100
AcDbLine
 62
7
  6
CONTINUOUS
 10
3.9770932741
 20
4.7095207784
 11
3.9776459166
 21
4.7097038625
  0
LINE
  5
309
100
AcDbEntity
  8
0
100
AcDbLine
 62
7
  6
CONTINUOUS
 10
4.0328569868
 20
4.7104376407
 11
4.0343322456
 21
4.7107001399
  0
LINE
  5
30A
100
AcDbEntity
  8
0
100
AcDbLine
 62
7
  6
CONTINUOUS
 10
4.0343322456
 20
4.7107001399
 11
4.036225443
 21
4.7113227871
  0
SPLINE
  5
30B
100
AcDbEntity
  8
0
100
AcDbSpline
 62
7
  6
CONTINUOUS
 70
0
 71
3
 72
39
 73
35
 74
0
 42
0.0000001
 43
0.0000001
 44
0.0000000001
 40
0.0
 40
0.0
 40
0.0
 40
0.0
 40
0.0949369539
 40
0.1890088197
 40
0.2813498468
 40
0.3710947544
 40
0.4573801482
 40
0.498957164
 40
0.5393474024
 40
0.6161529903
 40
0.6524078264
 40
0.6871439743
 40
0.7202983528
 40
0.7518087232
 40
0.781613975
 40
0.8096545192
 40
0.8358728449
 40
0.8602143275
 40
0.8826284365
 40
0.9030706028
 40
0.9215052119
 40
0.9379112568
 40
0.9453600768
 40
0.9523176528
 40
0.9587964796
 40
0.9648120117
 40
0.9703835367
 40
0.9755353088
 40
0.9802979783
 40
0.9847102915
 40
0.9888208963
 40
0.9926898235
 40
0.9963888769
 40
1.0
 40
1.0
 40
1.0
 40
1.0
 10
4.0241104249
 20
6.0535137658
 30
0.0
 10
4.0148064983
 20
6.0535137658
 30
0.0
 10
3.9962831239
 20
6.0533721576
 30
0.0
 10
3.9687166356
 20
6.0527467134
 30
0.0
 10
3.9416711853
 20
6.0517215329
 30
0.0
 10
3.9154073017
 20
6.0503096953
 30
0.0
 10
3.8941334852
 20
6.0488044058
 30
0.0
 10
3.8777036978
 20
6.0474058229
 30
0.0
 10
3.8622137551
 20
6.0459300707
 30
0.0
 10
3.8472662659
 20
6.0442646595
 30
0.0
 10
3.832903876
 20
6.0423872762
 30
0.0
 10
3.8228018419
 20
6.0409293316
 30
0.0
 10
3.8131811079
 20
6.0393984918
 30
0.0
 10
3.8040617199
 20
6.0377990329
 30
0.0
 10
3.795463715
 20
6.0361352579
 30
0.0
 10
3.7874070814
 20
6.0344114966
 30
0.0
 10
3.7799117475
 20
6.0326321163
 30
0.0
 10
3.7729975286
 20
6.0308015225
 30
0.0
 10
3.7666841169
 20
6.0289241896
 30
0.0
 10
3.7609908117
 20
6.0270045766
 30
0.0
 10
3.7559368102
 20
6.0250473233
 30
0.0
 10
3.7521583809
 20
6.0233366089
 30
0.0
 10
3.7494806172
 20
6.021939407
 30
0.0
 10
3.7477059301
 20
6.0209183872
 30
0.0
 10
3.7460993171
 20
6.0198908367
 30
0.0
 10
3.7446606535
 20
6.018857233
 30
0.0
 10
3.7433897996
 20
6.0178180203
 30
0.0
 10
3.7422866444
 20
6.0167735183
 30
0.0
 10
3.7413511664
 20
6.0157239101
 30
0.0
 10
3.7405835491
 20
6.0146692211
 30
0.0
 10
3.7399843407
 20
6.013609456
 30
0.0
 10
3.7395545907
 20
6.0125446703
 30
0.0
 10
3.7392957735
 20
6.0114759845
 30
0.0
 10
3.7392378933
 20
6.0107583261
 30
0.0
 10
3.7392378933
 20
6.010404432
 30
0.0
  0
SPLINE
  5
30C
100
AcDbEntity
  8
0
100
AcDbSpline
 62
7
  6
CONTINUOUS
 70
0
 71
3
 72
18
 73
14
 74
0
 42
0.0000001
 43
0.0000001
 44
0.0000000001
 40
0.0
 40
0.0
 40
0.0
 40
0.0
 40
0.1930661415
 40
0.3709966711
 40
0.5309041547
 40
0.6705205222
 40
0.7879150665
 40
0.8378525585
 40
0.8818049791
 40
0.9197661875
 40
0.9518556651
 40
0.9783734764
 40
1.0
 40
1.0
 40
1.0
 40
1.0
 10
4.0877645251
 20
4.708703112
 30
0.0
 10
4.0882233742
 20
4.7087375728
 30
0.0
 10
4.0891043958
 20
4.7088138858
 30
0.0
 10
4.090361746
 20
4.7089571926
 30
0.0
 10
4.0914878409
 20
4.7091227999
 30
0.0
 10
4.0924644218
 20
4.7093077641
 30
0.0
 10
4.0931753628
 20
4.7094830642
 30
0.0
 10
4.0936556568
 20
4.7096349485
 30
0.0
 10
4.0939500021
 20
4.7097455515
 30
0.0
 10
4.0941973856
 20
4.7098585558
 30
0.0
 10
4.094397286
 20
4.7099736609
 30
0.0
 10
4.0945493842
 20
4.7100905977
 30
0.0
 10
4.0946255389
 20
4.7101784238
 30
0.0
 10
4.0946524409
 20
4.7102223895
 30
0.0
  0
SPLINE
  5
30D
100
AcDbEntity
  8
0
100
AcDbSpline
 62
7
  6
CONTINUOUS
 70
0
 71
3
 72
18
 73
14
 74
0
 42
0.0000001
 43
0.0000001
 44
0.0000000001
 40
0.0
 40
0.0
 40
0.0
 40
0.0
 40
0.1807371087
 40
0.3527999103
 40
0.5118914169
 40
0.6541770035
 40
0.7762651362
 40
0.8288674602
 40
0.8754672706
 40
0.9158809411
 40
0.9500255786
 40
0.9779558497
 40
1.0
 40
1.0
 40
1.0
 40
1.0
 10
4.1364411566
 20
4.7044869799
 30
0.0
 10
4.1370889775
 20
4.7045014585
 30
0.0
 10
4.1383532541
 20
4.7045449717
 30
0.0
 10
4.1401853503
 20
4.7046560578
 30
0.0
 10
4.1418761631
 20
4.7048088439
 30
0.0
 10
4.1433827392
 20
4.7049991112
 30
0.0
 10
4.144503307
 20
4.7051923621
 30
0.0
 10
4.145277388
 20
4.7053670311
 30
0.0
 10
4.1457608558
 20
4.7054974368
 30
0.0
 10
4.1461738359
 20
4.7056328434
 30
0.0
 10
4.1465143125
 20
4.7057724415
 30
0.0
 10
4.1467805046
 20
4.7059152041
 30
0.0
 10
4.1469245731
 20
4.7060245275
 30
0.0
 10
4.146979799
 20
4.7060810636
 30
0.0
  0
SPLINE
  5
30E
100
AcDbEntity
  8
0
100
AcDbSpline
 62
7
  6
CONTINUOUS
 70
0
 71
3
 72
13
 73
9
 74
0
 42
0.0000001
 43
0.0000001
 44
0.0000000001
 40
0.0
 40
0.0
 40
0.0
 40
0.0
 40
0.3061421609
 40
0.5856747503
 40
0.7100325886
 40
0.8215509214
 40
0.9186603433
 40
1.0
 40
1.0
 40
1.0
 40
1.0
 10
4.1774541566
 20
4.6981849532
 30
0.0
 10
4.1784770565
 20
4.698200487
 30
0.0
 10
4.1804335808
 20
4.6982666113
 30
0.0
 10
4.1828005569
 20
4.6984450659
 30
0.0
 10
4.1845112687
 20
4.698646623
 30
0.0
 10
4.1856116891
 20
4.698813518
 30
0.0
 10
4.1865630014
 20
4.6989991012
 30
0.0
 10
4.1871415275
 20
4.6991462025
 30
0.0
 10
4.1874015376
 20
4.6992254137
 30
0.0
  0
LINE
  5
30F
100
AcDbEntity
  8
0
100
AcDbLine
 62
7
  6
CONTINUOUS
 10
4.0126990554
 20
4.6541426413
 11
4.0130323808
 21
4.6540385175
  0
LINE
  5
310
100
AcDbEntity
  8
0
100
AcDbLine
 62
7
  6
CONTINUOUS
 10
4.0700906007
 20
4.6558405269
 11
4.0719837776
 21
4.6552178836
  0
LINE
  5
311
100
AcDbEntity
  8
0
100
AcDbLine
 62
7
  6
CONTINUOUS
 10
4.0719837776
 20
4.6552178836
 11
4.073459058
 21
4.6549553798
  0
SPLINE
  5
312
100
AcDbEntity
  8
0
100
AcDbSpline
 62
7
  6
CONTINUOUS
 70
0
 71
3
 72
69
 73
65
 74
0
 42
0.0000001
 43
0.0000001
 44
0.0000000001
 40
0.0
 40
0.0
 40
0.0
 40
0.0
 40
0.0018041837
 40
0.0036542903
 40
0.005592297
 40
0.007654684
 40
0.0098716203
 40
0.0122671036
 40
0.014859848
 40
0.0176643141
 40
0.0206913955
 40
0.0239491332
 40
0.0274435734
 40
0.0311792179
 40
0.0393840399
 40
0.0485775902
 40
0.058760719
 40
0.0699257702
 40
0.0820585414
 40
0.0951398678
 40
0.1091459872
 40
0.1240498107
 40
0.13982055
 40
0.1564249694
 40
0.1738266804
 40
0.1919873571
 40
0.2304192568
 40
0.2713713225
 40
0.3144656579
 40
0.359301379
 40
0.4054592359
 40
0.4525061909
 40
0.5
 40
0.5474938091
 40
0.5945407641
 40
0.640698621
 40
0.6855343421
 40
0.7286286775
 40
0.7695807432
 40
0.8080126429
 40
0.8261733196
 40
0.8435750306
 40
0.86017945
 40
0.8759501893
 40
0.8908540128
 40
0.9048601322
 40
0.9179414586
 40
0.9300742298
 40
0.941239281
 40
0.9514224098
 40
0.9606159601
 40
0.9688207821
 40
0.9725564266
 40
0.9760508668
 40
0.9793086045
 40
0.9823356859
 40
0.985140152
 40
0.9877328964
 40
0.9901283797
 40
0.992345316
 40
0.994407703
 40
0.9963457097
 40
0.9981958163
 40
1.0
 40
1.0
 40
1.0
 40
1.0
 10
4.3091104249
 20
4.6882938584
 30
0.0
 10
4.3091104249
 20
4.6886475961
 30
0.0
 10
4.3090514022
 20
4.6893653677
 30
0.0
 10
4.3087878721
 20
4.6904339424
 30
0.0
 10
4.3083507071
 20
4.6914985736
 30
0.0
 10
4.3077416453
 20
4.6925580582
 30
0.0
 10
4.3069620817
 20
4.6936123058
 30
0.0
 10
4.3060131719
 20
4.6946614577
 30
0.0
 10
4.3048956344
 20
4.6957055768
 30
0.0
 10
4.3036100306
 20
4.6967444969
 30
0.0
 10
4.3021570119
 20
4.6977779419
 30
0.0
 10
4.3005373486
 20
4.6988055348
 30
0.0
 10
4.2987518691
 20
4.6998268197
 30
0.0
 10
4.296066303
 20
4.7012232246
 30
0.0
 10
4.2922895499
 20
4.7029353121
 30
0.0
 10
4.2872480368
 20
4.7048970031
 30
0.0
 10
4.281575436
 20
4.7068204093
 30
0.0
 10
4.2752848177
 20
4.7087007668
 30
0.0
 10
4.2683905932
 20
4.7105333768
 30
0.0
 10
4.2609089898
 20
4.7123135569
 30
0.0
 10
4.2528577266
 20
4.7140369585
 30
0.0
 10
4.2442560146
 20
4.7156991634
 30
0.0
 10
4.2351244143
 20
4.7172961916
 30
0.0
 10
4.2254848432
 20
4.718823947
 30
0.0
 10
4.2153604164
 20
4.7202788559
 30
0.0
 10
4.2009737914
 20
4.722152036
 30
0.0
 10
4.1819643609
 20
4.7242691004
 30
0.0
 10
4.1580460121
 20
4.7264240591
 30
0.0
 10
4.1328390186
 20
4.7282171187
 30
0.0
 10
4.1065858579
 20
4.7296305328
 30
0.0
 10
4.07953901
 20
4.7306502206
 30
0.0
 10
4.0519587272
 20
4.7312660952
 30
0.0
 10
4.0241104249
 20
4.7314720647
 30
0.0
 10
3.9962621226
 20
4.7312660952
 30
0.0
 10
3.9686818399
 20
4.7306502206
 30
0.0
 10
3.941634992
 20
4.7296305328
 30
0.0
 10
3.9153818313
 20
4.7282171187
 30
0.0
 10
3.8901748378
 20
4.7264240591
 30
0.0
 10
3.866256489
 20
4.7242691004
 30
0.0
 10
3.8472470585
 20
4.722152036
 30
0.0
 10
3.8328604335
 20
4.7202788559
 30
0.0
 10
3.8227360067
 20
4.718823947
 30
0.0
 10
3.8130964356
 20
4.7172961916
 30
0.0
 10
3.8039648353
 20
4.7156991634
 30
0.0
 10
3.7953631233
 20
4.7140369585
 30
0.0
 10
3.7873118601
 20
4.7123135569
 30
0.0
 10
3.7798302567
 20
4.7105333768
 30
0.0
 10
3.7729360321
 20
4.7087007668
 30
0.0
 10
3.7666454138
 20
4.7068204093
 30
0.0
 10
3.760972813
 20
4.7048970031
 30
0.0
 10
3.7559313
 20
4.7029353121
 30
0.0
 10
3.7521545469
 20
4.7012232246
 30
0.0
 10
3.7494689807
 20
4.6998268197
 30
0.0
 10
3.7476835013
 20
4.6988055348
 30
0.0
 10
3.746063838
 20
4.6977779419
 30
0.0
 10
3.7446108192
 20
4.6967444969
 30
0.0
 10
3.7433252155
 20
4.6957055768
 30
0.0
 10
3.742207678
 20
4.6946614577
 30
0.0
 10
3.7412587682
 20
4.6936123058
 30
0.0
 10
3.7404792046
 20
4.6925580582
 30
0.0
 10
3.7398701428
 20
4.6914985736
 30
0.0
 10
3.7394329778
 20
4.6904339424
 30
0.0
 10
3.7391694477
 20
4.6893653677
 30
0.0
 10
3.7391104249
 20
4.6886475961
 30
0.0
 10
3.7391104249
 20
4.6882938584
 30
0.0
  0
SPLINE
  5
313
100
AcDbEntity
  8
0
100
AcDbSpline
 62
7
  6
CONTINUOUS
 70
0
 71
3
 72
69
 73
65
 74
0
 42
0.0000001
 43
0.0000001
 44
0.0000000001
 40
0.0
 40
0.0
 40
0.0
 40
0.0
 40
0.001804181
 40
0.00365428
 40
0.005592276
 40
0.0076546524
 40
0.009871579
 40
0.0122670538
 40
0.0148597933
 40
0.0176642598
 40
0.020691339
 40
0.0239490729
 40
0.0274435116
 40
0.0311791571
 40
0.0393839727
 40
0.0485775192
 40
0.0587606373
 40
0.0699256851
 40
0.0820584509
 40
0.0951397787
 40
0.1091458968
 40
0.1240497214
 40
0.1398204597
 40
0.1564248798
 40
0.1738265922
 40
0.1919872713
 40
0.2304191781
 40
0.2713712529
 40
0.3144655996
 40
0.3593013338
 40
0.405459205
 40
0.4525061753
 40
0.5
 40
0.5474938247
 40
0.594540795
 40
0.6406986662
 40
0.6855344004
 40
0.7286287471
 40
0.7695808219
 40
0.8080127287
 40
0.8261734078
 40
0.8435751202
 40
0.8601795403
 40
0.8759502786
 40
0.8908541032
 40
0.9048602212
 40
0.9179415491
 40
0.9300743149
 40
0.9412393627
 40
0.9514224808
 40
0.9606160273
 40
0.9688208429
 40
0.9725564884
 40
0.976050927
 40
0.979308661
 40
0.9823357402
 40
0.9851402067
 40
0.9877329462
 40
0.990128421
 40
0.9923453476
 40
0.994407724
 40
0.99634572
 40
0.998195819
 40
1.0
 40
1.0
 40
1.0
 40
1.0
 10
4.3041104249
 20
4.683351389
 30
0.0
 10
4.3041104249
 20
4.6836989203
 30
0.0
 10
4.3040524393
 20
4.6844040973
 30
0.0
 10
4.3037935365
 20
4.685453922
 30
0.0
 10
4.3033640449
 20
4.6864998712
 30
0.0
 10
4.302765669
 20
4.6875407617
 30
0.0
 10
4.3019997863
 20
4.68857651
 30
0.0
 10
4.3010675298
 20
4.6896072548
 30
0.0
 10
4.2999696022
 20
4.6906330567
 30
0.0
 10
4.2987065542
 20
4.6916537497
 30
0.0
 10
4.2972790296
 20
4.6926690658
 30
0.0
 10
4.2956877842
 20
4.6936786325
 30
0.0
 10
4.2939336303
 20
4.694682001
 30
0.0
 10
4.2912951804
 20
4.6960539067
 30
0.0
 10
4.2875846897
 20
4.6977359609
 30
0.0
 10
4.2826316278
 20
4.6996632348
 30
0.0
 10
4.2770585508
 20
4.7015528995
 30
0.0
 10
4.2708782977
 20
4.7034002669
 30
0.0
 10
4.2641050266
 20
4.7052007284
 30
0.0
 10
4.2567546804
 20
4.7069496772
 30
0.0
 10
4.2488446676
 20
4.7086428457
 30
0.0
 10
4.2403938631
 20
4.7102758894
 30
0.0
 10
4.2314224664
 20
4.7118449008
 30
0.0
 10
4.2219520104
 20
4.7133458541
 30
0.0
 10
4.2120052043
 20
4.7147752392
 30
0.0
 10
4.1978709742
 20
4.7166155577
 30
0.0
 10
4.179195039
 20
4.7186954819
 30
0.0
 10
4.1556963051
 20
4.7208126357
 30
0.0
 10
4.1309315331
 20
4.7225742392
 30
0.0
 10
4.1051389466
 20
4.7239628574
 30
0.0
 10
4.0785665965
 20
4.7249646566
 30
0.0
 10
4.0514701696
 20
4.7255697268
 30
0.0
 10
4.0241104249
 20
4.7257720829
 30
0.0
 10
3.9967506803
 20
4.7255697268
 30
0.0
 10
3.9696542533
 20
4.7249646566
 30
0.0
 10
3.9430819033
 20
4.7239628574
 30
0.0
 10
3.9172893168
 20
4.7225742392
 30
0.0
 10
3.8925245448
 20
4.7208126357
 30
0.0
 10
3.8690258109
 20
4.7186954819
 30
0.0
 10
3.8503498756
 20
4.7166155577
 30
0.0
 10
3.8362156456
 20
4.7147752392
 30
0.0
 10
3.8262688395
 20
4.7133458541
 30
0.0
 10
3.8167983835
 20
4.7118449008
 30
0.0
 10
3.8078269868
 20
4.7102758894
 30
0.0
 10
3.7993761823
 20
4.7086428457
 30
0.0
 10
3.7914661695
 20
4.7069496772
 30
0.0
 10
3.7841158232
 20
4.7052007284
 30
0.0
 10
3.7773425522
 20
4.7034002669
 30
0.0
 10
3.771162299
 20
4.7015528995
 30
0.0
 10
3.765589222
 20
4.6996632348
 30
0.0
 10
3.7606361602
 20
4.6977359609
 30
0.0
 10
3.7569256695
 20
4.6960539067
 30
0.0
 10
3.7542872196
 20
4.694682001
 30
0.0
 10
3.7525330657
 20
4.6936786325
 30
0.0
 10
3.7509418203
 20
4.6926690658
 30
0.0
 10
3.7495142957
 20
4.6916537497
 30
0.0
 10
3.7482512477
 20
4.6906330567
 30
0.0
 10
3.7471533201
 20
4.6896072548
 30
0.0
 10
3.7462210635
 20
4.68857651
 30
0.0
 10
3.7454551809
 20
4.6875407617
 30
0.0
 10
3.744856805
 20
4.6864998712
 30
0.0
 10
3.7444273134
 20
4.685453922
 30
0.0
 10
3.7441684106
 20
4.6844040974
 30
0.0
 10
3.7441104249
 20
4.6836989203
 30
0.0
 10
3.7441104249
 20
4.683351389
 30
0.0
  0
SPLINE
  5
314
100
AcDbEntity
  8
0
100
AcDbSpline
 62
7
  6
CONTINUOUS
 70
0
 71
3
 72
69
 73
65
 74
0
 42
0.0000001
 43
0.0000001
 44
0.0000000001
 40
0.0
 40
0.0
 40
0.0
 40
0.0
 40
0.001804181
 40
0.00365428
 40
0.005592276
 40
0.0076546524
 40
0.009871579
 40
0.0122670538
 40
0.0148597933
 40
0.0176642598
 40
0.020691339
 40
0.0239490729
 40
0.0274435116
 40
0.0311791571
 40
0.0393839727
 40
0.0485775192
 40
0.0587606373
 40
0.0699256851
 40
0.0820584509
 40
0.0951397787
 40
0.1091458968
 40
0.1240497214
 40
0.1398204597
 40
0.1564248798
 40
0.1738265922
 40
0.1919872713
 40
0.2304191781
 40
0.2713712529
 40
0.3144655996
 40
0.3593013338
 40
0.405459205
 40
0.4525061753
 40
0.5
 40
0.5474938247
 40
0.594540795
 40
0.6406986662
 40
0.6855344004
 40
0.7286287471
 40
0.7695808219
 40
0.8080127287
 40
0.8261734078
 40
0.8435751202
 40
0.8601795403
 40
0.8759502786
 40
0.8908541032
 40
0.9048602212
 40
0.9179415491
 40
0.9300743149
 40
0.9412393627
 40
0.9514224808
 40
0.9606160273
 40
0.9688208429
 40
0.9725564884
 40
0.976050927
 40
0.979308661
 40
0.9823357402
 40
0.9851402067
 40
0.9877329462
 40
0.990128421
 40
0.9923453476
 40
0.994407724
 40
0.99634572
 40
0.998195819
 40
1.0
 40
1.0
 40
1.0
 40
1.0
 10
3.7441104249
 20
4.683351389
 30
0.0
 10
3.7441104249
 20
4.6830038577
 30
0.0
 10
3.7441684106
 20
4.6822986806
 30
0.0
 10
3.7444273134
 20
4.681248856
 30
0.0
 10
3.744856805
 20
4.6802029068
 30
0.0
 10
3.7454551809
 20
4.6791620162
 30
0.0
 10
3.7462210635
 20
4.678126268
 30
0.0
 10
3.7471533201
 20
4.6770955232
 30
0.0
 10
3.7482512477
 20
4.6760697213
 30
0.0
 10
3.7495142957
 20
4.6750490283
 30
0.0
 10
3.7509418203
 20
4.6740337121
 30
0.0
 10
3.7525330657
 20
4.6730241455
 30
0.0
 10
3.7542872196
 20
4.672020777
 30
0.0
 10
3.7569256695
 20
4.6706488713
 30
0.0
 10
3.7606361602
 20
4.6689668171
 30
0.0
 10
3.765589222
 20
4.6670395432
 30
0.0
 10
3.771162299
 20
4.6651498785
 30
0.0
 10
3.7773425522
 20
4.6633025111
 30
0.0
 10
3.7841158232
 20
4.6615020495
 30
0.0
 10
3.7914661695
 20
4.6597531008
 30
0.0
 10
3.7993761823
 20
4.6580599323
 30
0.0
 10
3.8078269868
 20
4.6564268886
 30
0.0
 10
3.8167983835
 20
4.6548578772
 30
0.0
 10
3.8262688395
 20
4.6533569238
 30
0.0
 10
3.8362156456
 20
4.6519275388
 30
0.0
 10
3.8503498756
 20
4.6500872203
 30
0.0
 10
3.8690258109
 20
4.6480072961
 30
0.0
 10
3.8925245448
 20
4.6458901423
 30
0.0
 10
3.9172893168
 20
4.6441285387
 30
0.0
 10
3.9430819033
 20
4.6427399206
 30
0.0
 10
3.9696542533
 20
4.6417381213
 30
0.0
 10
3.9967506803
 20
4.6411330511
 30
0.0
 10
4.0241104249
 20
4.6409306951
 30
0.0
 10
4.0514701696
 20
4.6411330511
 30
0.0
 10
4.0785665965
 20
4.6417381213
 30
0.0
 10
4.1051389466
 20
4.6427399206
 30
0.0
 10
4.1309315331
 20
4.6441285387
 30
0.0
 10
4.1556963051
 20
4.6458901423
 30
0.0
 10
4.179195039
 20
4.6480072961
 30
0.0
 10
4.1978709742
 20
4.6500872203
 30
0.0
 10
4.2120052043
 20
4.6519275388
 30
0.0
 10
4.2219520104
 20
4.6533569238
 30
0.0
 10
4.2314224664
 20
4.6548578772
 30
0.0
 10
4.2403938631
 20
4.6564268886
 30
0.0
 10
4.2488446676
 20
4.6580599323
 30
0.0
 10
4.2567546804
 20
4.6597531008
 30
0.0
 10
4.2641050266
 20
4.6615020495
 30
0.0
 10
4.2708782977
 20
4.6633025111
 30
0.0
 10
4.2770585508
 20
4.6651498785
 30
0.0
 10
4.2826316278
 20
4.6670395432
 30
0.0
 10
4.2875846897
 20
4.6689668171
 30
0.0
 10
4.2912951804
 20
4.6706488713
 30
0.0
 10
4.2939336303
 20
4.672020777
 30
0.0
 10
4.2956877842
 20
4.6730241455
 30
0.0
 10
4.2972790296
 20
4.6740337121
 30
0.0
 10
4.2987065542
 20
4.6750490283
 30
0.0
 10
4.2999696022
 20
4.6760697213
 30
0.0
 10
4.3010675298
 20
4.6770955232
 30
0.0
 10
4.3019997863
 20
4.678126268
 30
0.0
 10
4.302765669
 20
4.6791620162
 30
0.0
 10
4.3033640449
 20
4.6802029068
 30
0.0
 10
4.3037935365
 20
4.681248856
 30
0.0
 10
4.3040524393
 20
4.6822986806
 30
0.0
 10
4.3041104249
 20
4.6830038577
 30
0.0
 10
4.3041104249
 20
4.683351389
 30
0.0
  0
LINE
  5
315
100
AcDbEntity
  8
0
100
AcDbLine
 62
7
  6
CONTINUOUS
 10
3.8222120805
 20
4.6807433067
 11
3.8202566497
 21
4.6788758249
  0
SPLINE
  5
316
100
AcDbEntity
  8
0
100
AcDbSpline
 62
7
  6
CONTINUOUS
 70
0
 71
3
 72
9
 73
5
 74
0
 42
0.0000001
 43
0.0000001
 44
0.0000000001
 40
0.0
 40
0.0
 40
0.0
 40
0.0
 40
0.5154742536
 40
1.0
 40
1.0
 40
1.0
 40
1.0
 10
4.0768936866
 20
4.6612268492
 30
0.0
 10
4.082834998
 20
4.6615511568
 30
0.0
 10
4.0943548156
 20
4.6622992548
 30
0.0
 10
4.1058543933
 20
4.6633166784
 30
0.0
 10
4.1114180836
 20
4.6638876872
 30
0.0
  0
LINE
  5
317
100
AcDbEntity
  8
0
100
AcDbLine
 62
7
  6
CONTINUOUS
 10
4.1221672305
 20
4.6601711202
 11
4.1233086355
 21
4.6595387251
  0
SPLINE
  5
318
100
AcDbEntity
  8
0
100
AcDbSpline
 62
7
  6
CONTINUOUS
 70
0
 71
3
 72
11
 73
7
 74
0
 42
0.0000001
 43
0.0000001
 44
0.0000000001
 40
0.0
 40
0.0
 40
0.0
 40
0.0
 40
0.1917902501
 40
0.4249652794
 40
0.6958484616
 40
1.0
 40
1.0
 40
1.0
 40
1.0
 10
4.1233086355
 20
4.6595387251
 30
0.0
 10
4.1235825392
 20
4.6594508969
 30
0.0
 10
4.1241999824
 20
4.6592894112
 30
0.0
 10
4.1252244149
 20
4.6590885374
 30
0.0
 10
4.1264235809
 20
4.658909371
 30
0.0
 10
4.1272806359
 20
4.658811963
 30
0.0
 10
4.1277345418
 20
4.6587667115
 30
0.0
  0
LINE
  5
319
100
AcDbEntity
  8
0
100
AcDbLine
 62
7
  6
CONTINUOUS
 10
4.2279642002
 20
4.6788758249
 11
4.2260087694
 21
4.6807433067
  0
SPLINE
  5
31A
100
AcDbEntity
  8
0
100
AcDbSpline
 62
7
  6
CONTINUOUS
 70
0
 71
3
 72
11
 73
7
 74
0
 42
0.0000001
 43
0.0000001
 44
0.0000000001
 40
0.0
 40
0.0
 40
0.0
 40
0.0
 40
0.27192853
 40
0.5298556574
 40
0.7728330508
 40
1.0
 40
1.0
 40
1.0
 40
1.0
 10
4.1195094286
 20
4.6647769051
 30
0.0
 10
4.1220045496
 20
4.6650701102
 30
0.0
 10
4.1268622679
 20
4.6656767684
 30
0.0
 10
4.1339321403
 20
4.666677828
 30
0.0
 10
4.140574142
 20
4.6677431298
 30
0.0
 10
4.144848083
 20
4.6685201569
 30
0.0
 10
4.1469081452
 20
4.6689212574
 30
0.0
  0
SPLINE
  5
31B
100
AcDbEntity
  8
0
100
AcDbSpline
 62
7
  6
CONTINUOUS
 70
0
 71
3
 72
69
 73
65
 74
0
 42
0.0000001
 43
0.0000001
 44
0.0000000001
 40
0.0
 40
0.0
 40
0.0
 40
0.0
 40
0.0018041837
 40
0.0036542903
 40
0.005592297
 40
0.007654684
 40
0.0098716203
 40
0.0122671036
 40
0.014859848
 40
0.0176643141
 40
0.0206913955
 40
0.0239491332
 40
0.0274435734
 40
0.0311792179
 40
0.0393840399
 40
0.0485775902
 40
0.058760719
 40
0.0699257702
 40
0.0820585414
 40
0.0951398678
 40
0.1091459872
 40
0.1240498107
 40
0.13982055
 40
0.1564249694
 40
0.1738266804
 40
0.1919873571
 40
0.2304192568
 40
0.2713713225
 40
0.3144656579
 40
0.359301379
 40
0.4054592359
 40
0.4525061909
 40
0.5
 40
0.5474938091
 40
0.5945407641
 40
0.640698621
 40
0.6855343421
 40
0.7286286775
 40
0.7695807432
 40
0.8080126429
 40
0.8261733196
 40
0.8435750306
 40
0.86017945
 40
0.8759501893
 40
0.8908540128
 40
0.9048601322
 40
0.9179414586
 40
0.9300742298
 40
0.941239281
 40
0.9514224098
 40
0.9606159601
 40
0.9688207821
 40
0.9725564266
 40
0.9760508668
 40
0.9793086045
 40
0.9823356859
 40
0.985140152
 40
0.9877328964
 40
0.9901283797
 40
0.992345316
 40
0.994407703
 40
0.9963457097
 40
0.9981958163
 40
1.0
 40
1.0
 40
1.0
 40
1.0
 10
4.3091104249
 20
5.8077631852
 30
0.0
 10
4.3091104249
 20
5.8081169229
 30
0.0
 10
4.3090514022
 20
5.8088346945
 30
0.0
 10
4.3087878721
 20
5.8099032692
 30
0.0
 10
4.3083507071
 20
5.8109679004
 30
0.0
 10
4.3077416453
 20
5.812027385
 30
0.0
 10
4.3069620817
 20
5.8130816327
 30
0.0
 10
4.3060131719
 20
5.8141307845
 30
0.0
 10
4.3048956344
 20
5.8151749036
 30
0.0
 10
4.3036100306
 20
5.8162138237
 30
0.0
 10
4.3021570119
 20
5.8172472687
 30
0.0
 10
4.3005373486
 20
5.8182748616
 30
0.0
 10
4.2987518691
 20
5.8192961466
 30
0.0
 10
4.296066303
 20
5.8206925514
 30
0.0
 10
4.2922895499
 20
5.8224046389
 30
0.0
 10
4.2872480368
 20
5.8243663299
 30
0.0
 10
4.281575436
 20
5.8262897361
 30
0.0
 10
4.2752848177
 20
5.8281700936
 30
0.0
 10
4.2683905932
 20
5.8300027036
 30
0.0
 10
4.2609089898
 20
5.8317828837
 30
0.0
 10
4.2528577266
 20
5.8335062853
 30
0.0
 10
4.2442560146
 20
5.8351684902
 30
0.0
 10
4.2351244143
 20
5.8367655184
 30
0.0
 10
4.2254848432
 20
5.8382932738
 30
0.0
 10
4.2153604164
 20
5.8397481827
 30
0.0
 10
4.2009737914
 20
5.8416213628
 30
0.0
 10
4.1819643609
 20
5.8437384272
 30
0.0
 10
4.1580460121
 20
5.8458933859
 30
0.0
 10
4.1328390186
 20
5.8476864456
 30
0.0
 10
4.1065858579
 20
5.8490998596
 30
0.0
 10
4.07953901
 20
5.8501195474
 30
0.0
 10
4.0519587272
 20
5.850735422
 30
0.0
 10
4.0241104249
 20
5.8509413915
 30
0.0
 10
3.9962621226
 20
5.850735422
 30
0.0
 10
3.9686818399
 20
5.8501195474
 30
0.0
 10
3.941634992
 20
5.8490998596
 30
0.0
 10
3.9153818313
 20
5.8476864456
 30
0.0
 10
3.8901748378
 20
5.8458933859
 30
0.0
 10
3.866256489
 20
5.8437384272
 30
0.0
 10
3.8472470585
 20
5.8416213628
 30
0.0
 10
3.8328604335
 20
5.8397481827
 30
0.0
 10
3.8227360067
 20
5.8382932738
 30
0.0
 10
3.8130964356
 20
5.8367655184
 30
0.0
 10
3.8039648353
 20
5.8351684902
 30
0.0
 10
3.7953631233
 20
5.8335062853
 30
0.0
 10
3.7873118601
 20
5.8317828837
 30
0.0
 10
3.7798302567
 20
5.8300027036
 30
0.0
 10
3.7729360321
 20
5.8281700936
 30
0.0
 10
3.7666454138
 20
5.8262897361
 30
0.0
 10
3.760972813
 20
5.8243663299
 30
0.0
 10
3.7559313
 20
5.8224046389
 30
0.0
 10
3.7521545469
 20
5.8206925514
 30
0.0
 10
3.7494689807
 20
5.8192961466
 30
0.0
 10
3.7476835013
 20
5.8182748616
 30
0.0
 10
3.746063838
 20
5.8172472687
 30
0.0
 10
3.7446108192
 20
5.8162138237
 30
0.0
 10
3.7433252155
 20
5.8151749036
 30
0.0
 10
3.742207678
 20
5.8141307845
 30
0.0
 10
3.7412587682
 20
5.8130816327
 30
0.0
 10
3.7404792046
 20
5.812027385
 30
0.0
 10
3.7398701428
 20
5.8109679004
 30
0.0
 10
3.7394329778
 20
5.8099032692
 30
0.0
 10
3.7391694477
 20
5.8088346945
 30
0.0
 10
3.7391104249
 20
5.8081169229
 30
0.0
 10
3.7391104249
 20
5.8077631852
 30
0.0
  0
SPLINE
  5
31C
100
AcDbEntity
  8
0
100
AcDbSpline
 62
7
  6
CONTINUOUS
 70
0
 71
3
 72
11
 73
7
 74
0
 42
0.0000001
 43
0.0000001
 44
0.0000000001
 40
0.0
 40
0.0
 40
0.0
 40
0.0
 40
0.2909178823
 40
0.5549590422
 40
0.7914496437
 40
1.0
 40
1.0
 40
1.0
 40
1.0
 10
4.1527868514
 20
4.6701451609
 30
0.0
 10
4.1545256295
 20
4.6705327908
 30
0.0
 10
4.157832841
 20
4.6713171408
 30
0.0
 10
4.1625091522
 20
4.6725946185
 30
0.0
 10
4.1666479957
 20
4.6739120476
 30
0.0
 10
4.1692001147
 20
4.6748736668
 30
0.0
 10
4.1703779104
 20
4.6753673495
 30
0.0
  0
LINE
  5
31D
100
AcDbEntity
  8
0
100
AcDbLine
 62
7
  6
CONTINUOUS
 10
3.843930728
 20
4.6898968881
 11
3.8382558467
 21
4.6882122083
  0
SPLINE
  5
31E
100
AcDbEntity
  8
0
100
AcDbSpline
 62
7
  6
CONTINUOUS
 70
0
 71
3
 72
39
 73
35
 74
0
 42
0.0000001
 43
0.0000001
 44
0.0000000001
 40
0.0
 40
0.0
 40
0.0
 40
0.0
 40
0.0036111231
 40
0.0073101765
 40
0.0111791037
 40
0.0152897085
 40
0.0197020217
 40
0.0244646912
 40
0.0296164633
 40
0.0351879883
 40
0.0412035204
 40
0.0476823472
 40
0.0546399232
 40
0.0620887432
 40
0.0784947881
 40
0.0969293972
 40
0.1173715635
 40
0.1397856725
 40
0.1641271551
 40
0.1903454808
 40
0.218386025
 40
0.2481912768
 40
0.2797016472
 40
0.3128560257
 40
0.3475921736
 40
0.3838470097
 40
0.4606525976
 40
0.501042836
 40
0.5426198518
 40
0.6289052456
 40
0.7186501532
 40
0.8109911803
 40
0.9050630461
 40
1.0
 40
1.0
 40
1.0
 40
1.0
 10
4.3089829566
 20
5.8250618282
 30
0.0
 10
4.3089829566
 20
5.8254157223
 30
0.0
 10
4.3089250764
 20
5.8261333808
 30
0.0
 10
4.3086662591
 20
5.8272020665
 30
0.0
 10
4.3082365091
 20
5.8282668522
 30
0.0
 10
4.3076373008
 20
5.8293266173
 30
0.0
 10
4.3068696835
 20
5.8303813063
 30
0.0
 10
4.3059342055
 20
5.8314309145
 30
0.0
 10
4.3048310503
 20
5.8324754165
 30
0.0
 10
4.3035601964
 20
5.8335146293
 30
0.0
 10
4.3021215328
 20
5.8345482329
 30
0.0
 10
4.3005149198
 20
5.8355757834
 30
0.0
 10
4.2987402326
 20
5.8365968032
 30
0.0
 10
4.2960624689
 20
5.8379940051
 30
0.0
 10
4.2922840396
 20
5.8397047196
 30
0.0
 10
4.2872300382
 20
5.8416619729
 30
0.0
 10
4.281536733
 20
5.8435815859
 30
0.0
 10
4.2752233213
 20
5.8454589188
 30
0.0
 10
4.2683091023
 20
5.8472895125
 30
0.0
 10
4.2608137684
 20
5.8490688928
 30
0.0
 10
4.2527571349
 20
5.8507926541
 30
0.0
 10
4.2441591299
 20
5.8524564291
 30
0.0
 10
4.2350397419
 20
5.8540558881
 30
0.0
 10
4.225419008
 20
5.8555867278
 30
0.0
 10
4.2153169739
 20
5.8570446724
 30
0.0
 10
4.200954584
 20
5.8589220558
 30
0.0
 10
4.1860070948
 20
5.860587467
 30
0.0
 10
4.170517152
 20
5.8620632191
 30
0.0
 10
4.1540873647
 20
5.863461802
 30
0.0
 10
4.1328135482
 20
5.8649670915
 30
0.0
 10
4.1065496646
 20
5.8663789291
 30
0.0
 10
4.0795042142
 20
5.8674041096
 30
0.0
 10
4.051937726
 20
5.8680295538
 30
0.0
 10
4.0334143516
 20
5.868171162
 30
0.0
 10
4.0241104249
 20
5.868171162
 30
0.0
  0
LINE
  5
31F
100
AcDbEntity
  8
0
100
AcDbLine
 62
7
  6
CONTINUOUS
 10
4.1734685291
 20
4.6768061344
 11
4.1765506276
 21
4.678708311
  0
LINE
  5
320
100
AcDbEntity
  8
0
100
AcDbLine
 62
7
  6
CONTINUOUS
 10
4.2099650031
 20
4.6882122083
 11
4.2042901219
 21
4.6898968881
  0
SPLINE
  5
321
100
AcDbEntity
  8
0
100
AcDbSpline
 62
7
  6
CONTINUOUS
 70
0
 71
3
 72
39
 73
35
 74
0
 42
0.0000001
 43
0.0000001
 44
0.0000000001
 40
0.0
 40
0.0
 40
0.0
 40
0.0
 40
0.0036111231
 40
0.0073101765
 40
0.0111791037
 40
0.0152897085
 40
0.0197020217
 40
0.0244646912
 40
0.0296164633
 40
0.0351879883
 40
0.0412035204
 40
0.0476823472
 40
0.0546399232
 40
0.0620887432
 40
0.0784947881
 40
0.0969293972
 40
0.1173715635
 40
0.1397856725
 40
0.1641271551
 40
0.1903454808
 40
0.218386025
 40
0.2481912768
 40
0.2797016472
 40
0.3128560257
 40
0.3475921736
 40
0.3838470097
 40
0.4606525976
 40
0.501042836
 40
0.5426198518
 40
0.6289052456
 40
0.7186501532
 40
0.8109911803
 40
0.9050630461
 40
1.0
 40
1.0
 40
1.0
 40
1.0
 10
4.3089829566
 20
6.010404432
 30
0.0
 10
4.3089829566
 20
6.0107583261
 30
0.0
 10
4.3089250764
 20
6.0114759845
 30
0.0
 10
4.3086662591
 20
6.0125446703
 30
0.0
 10
4.3082365091
 20
6.013609456
 30
0.0
 10
4.3076373008
 20
6.0146692211
 30
0.0
 10
4.3068696835
 20
6.0157239101
 30
0.0
 10
4.3059342055
 20
6.0167735183
 30
0.0
 10
4.3048310503
 20
6.0178180203
 30
0.0
 10
4.3035601964
 20
6.018857233
 30
0.0
 10
4.3021215328
 20
6.0198908367
 30
0.0
 10
4.3005149198
 20
6.0209183872
 30
0.0
 10
4.2987402326
 20
6.021939407
 30
0.0
 10
4.2960624689
 20
6.0233366089
 30
0.0
 10
4.2922840396
 20
6.0250473233
 30
0.0
 10
4.2872300382
 20
6.0270045766
 30
0.0
 10
4.281536733
 20
6.0289241896
 30
0.0
 10
4.2752233213
 20
6.0308015225
 30
0.0
 10
4.2683091023
 20
6.0326321163
 30
0.0
 10
4.2608137684
 20
6.0344114966
 30
0.0
 10
4.2527571349
 20
6.0361352579
 30
0.0
 10
4.2441591299
 20
6.0377990329
 30
0.0
 10
4.2350397419
 20
6.0393984918
 30
0.0
 10
4.225419008
 20
6.0409293316
 30
0.0
 10
4.2153169739
 20
6.0423872762
 30
0.0
 10
4.200954584
 20
6.0442646595
 30
0.0
 10
4.1860070948
 20
6.0459300707
 30
0.0
 10
4.170517152
 20
6.0474058229
 30
0.0
 10
4.1540873647
 20
6.0488044058
 30
0.0
 10
4.1328135482
 20
6.0503096953
 30
0.0
 10
4.1065496646
 20
6.0517215329
 30
0.0
 10
4.0795042142
 20
6.0527467134
 30
0.0
 10
4.051937726
 20
6.0533721576
 30
0.0
 10
4.0334143516
 20
6.0535137658
 30
0.0
 10
4.0241104249
 20
6.0535137658
 30
0.0
  0
LINE
  5
322
100
AcDbEntity
  8
0
100
AcDbLine
 62
7
  6
CONTINUOUS
 10
4.0119954069
 20
4.7113227871
 11
4.0138886043
 21
4.7107001399
  0
LINE
  5
323
100
AcDbEntity
  8
0
100
AcDbLine
 62
7
  6
CONTINUOUS
 10
4.0138886043
 20
4.7107001399
 11
4.0153638631
 21
4.7104376407
  0
SPLINE
  5
324
100
AcDbEntity
  8
0
100
AcDbSpline
 62
7
  6
CONTINUOUS
 70
0
 71
3
 72
13
 73
9
 74
0
 42
0.0000001
 43
0.0000001
 44
0.0000000001
 40
0.0
 40
0.0
 40
0.0
 40
0.0
 40
0.1996144355
 40
0.3102637595
 40
0.4292590132
 40
0.5572807876
 40
0.6948451506
 40
1.0
 40
1.0
 40
1.0
 40
1.0
 10
4.2376385037
 20
4.6854999294
 30
0.0
 10
4.2374107981
 20
4.686017701
 30
0.0
 10
4.2369482201
 20
4.6867765478
 30
0.0
 10
4.2361747151
 20
4.6877158563
 30
0.0
 10
4.2354659663
 20
4.6884421376
 30
0.0
 10
4.2346493841
 20
4.6891649427
 30
0.0
 10
4.2333725571
 20
4.6901588742
 30
0.0
 10
4.2323191477
 20
4.6908449652
 30
0.0
 10
4.2315770379
 20
4.6912887701
 30
0.0
  0
SPLINE
  5
325
100
AcDbEntity
  8
0
100
AcDbSpline
 62
7
  6
CONTINUOUS
 70
0
 71
3
 72
11
 73
7
 74
0
 42
0.0000001
 43
0.0000001
 44
0.0000000001
 40
0.0
 40
0.0
 40
0.0
 40
0.0
 40
0.2199123886
 40
0.4600867022
 40
0.7202524241
 40
1.0
 40
1.0
 40
1.0
 40
1.0
 10
4.2227983534
 20
4.6953755368
 30
0.0
 10
4.2215394072
 20
4.6958515043
 30
0.0
 10
4.2188828959
 20
4.6967879218
 30
0.0
 10
4.214675089
 20
4.6981040464
 30
0.0
 10
4.2100767121
 20
4.6993905393
 30
0.0
 10
4.2068720449
 20
4.7001977659
 30
0.0
 10
4.2052072945
 20
4.7005977255
 30
0.0
  0
SPLINE
  5
326
100
AcDbEntity
  8
0
100
AcDbSpline
 62
7
  6
CONTINUOUS
 70
0
 71
3
 72
9
 73
5
 74
0
 42
0.0000001
 43
0.0000001
 44
0.0000000001
 40
0.0
 40
0.0
 40
0.0
 40
0.0
 40
0.4783389651
 40
1.0
 40
1.0
 40
1.0
 40
1.0
 10
4.1885092444
 20
4.7040741369
 30
0.0
 10
4.1841615673
 20
4.7048632905
 30
0.0
 10
4.1750445077
 20
4.7063605242
 30
0.0
 10
4.1658916042
 20
4.7076158265
 30
0.0
 10
4.1611105277
 20
4.7082184893
 30
0.0
  0
SPLINE
  5
327
100
AcDbEntity
  8
0
100
AcDbSpline
 62
7
  6
CONTINUOUS
 70
0
 71
3
 72
18
 73
14
 74
0
 42
0.0000001
 43
0.0000001
 44
0.0000000001
 40
0.0
 40
0.0
 40
0.0
 40
0.0
 40
0.0220441503
 40
0.0499744214
 40
0.0841190589
 40
0.1245327294
 40
0.1711325398
 40
0.2237348638
 40
0.3458229965
 40
0.4881085831
 40
0.6472000897
 40
0.8192628913
 40
1.0
 40
1.0
 40
1.0
 40
1.0
 10
3.9012410509
 20
4.7060810636
 30
0.0
 10
3.9012962768
 20
4.7060245275
 30
0.0
 10
3.9014403453
 20
4.7059152041
 30
0.0
 10
3.9017065374
 20
4.7057724415
 30
0.0
 10
3.902047014
 20
4.7056328434
 30
0.0
 10
3.9024599941
 20
4.7054974368
 30
0.0
 10
3.9029434619
 20
4.7053670311
 30
0.0
 10
3.9037175429
 20
4.7051923621
 30
0.0
 10
3.9048381107
 20
4.7049991112
 30
0.0
 10
3.9063446868
 20
4.7048088439
 30
0.0
 10
3.9080354995
 20
4.7046560578
 30
0.0
 10
3.9098675958
 20
4.7045449717
 30
0.0
 10
3.9111318724
 20
4.7045014585
 30
0.0
 10
3.9117796933
 20
4.7044869799
 30
0.0
  0
SPLINE
  5
328
100
AcDbEntity
  8
0
100
AcDbSpline
 62
7
  6
CONTINUOUS
 70
0
 71
3
 72
13
 73
9
 74
0
 42
0.0000001
 43
0.0000001
 44
0.0000000001
 40
0.0
 40
0.0
 40
0.0
 40
0.0
 40
0.0813396567
 40
0.1784490786
 40
0.2899674114
 40
0.4143252497
 40
0.6938578391
 40
1.0
 40
1.0
 40
1.0
 40
1.0
 10
3.8608193123
 20
4.6992254137
 30
0.0
 10
3.8610793223
 20
4.6991462025
 30
0.0
 10
3.8616578485
 20
4.6989991012
 30
0.0
 10
3.8626091608
 20
4.698813518
 30
0.0
 10
3.8637095812
 20
4.698646623
 30
0.0
 10
3.865420293
 20
4.6984450659
 30
0.0
 10
3.8677872691
 20
4.6982666113
 30
0.0
 10
3.8697437934
 20
4.698200487
 30
0.0
 10
3.8707666932
 20
4.6981849532
 30
0.0
  0
SPLINE
  5
329
100
AcDbEntity
  8
0
100
AcDbSpline
 62
7
  6
CONTINUOUS
 70
0
 71
3
 72
140
 73
136
 74
0
 42
0.0000001
 43
0.0000001
 44
0.0000000001
 40
0.0
 40
0.0
 40
0.0
 40
0.0
 40
0.0000036373
 40
0.00001418
 40
0.000031623
 40
0.0000559611
 40
0.0000871888
 40
0.0001253009
 40
0.0002221565
 40
0.0003464851
 40
0.0004982438
 40
0.0006773897
 40
0.00088388
 40
0.0011176716
 40
0.0013787218
 40
0.0019824114
 40
0.0026943091
 40
0.0035135249
 40
0.0044391599
 40
0.0054703152
 40
0.0066060921
 40
0.0078455086
 40
0.0106297139
 40
0.0138113009
 40
0.0173784682
 40
0.0213183962
 40
0.0256174484
 40
0.0302619491
 40
0.0352379224
 40
0.0405311338
 40
0.0520125803
 40
0.0645957804
 40
0.0781741309
 40
0.0926497612
 40
0.1079308086
 40
0.1239359089
 40
0.1405890392
 40
0.1578248688
 40
0.1755818043
 40
0.1938073266
 40
0.2124525713
 40
0.2508342819
 40
0.2704983701
 40
0.2804348566
 40
0.2904361315
 40
0.3004988157
 40
0.310619772
 40
0.3207960687
 40
0.3310248531
 40
0.3516284578
 40
0.3619990384
 40
0.372412081
 40
0.3828659757
 40
0.393358702
 40
0.4038877197
 40
0.4144525269
 40
0.425050434
 40
0.4303622016
 40
0.4356822983
 40
0.4463427083
 40
0.4570318367
 40
0.4677458357
 40
0.4731129583
 40
0.4784843656
 40
0.4838588982
 40
0.4892368761
 40
0.4946173817
 40
0.4999990549
 40
0.5053807587
 40
0.5107612257
 40
0.516139035
 40
0.5215137296
 40
0.5268854254
 40
0.532252462
 40
0.5429666779
 40
0.5536556806
 40
0.5643165035
 40
0.5696367129
 40
0.5749483865
 40
0.5802516748
 40
0.5855468808
 40
0.596111672
 40
0.6066407208
 40
0.6171335586
 40
0.6275874506
 40
0.6380005769
 40
0.6483712396
 40
0.66897487
 40
0.6792036419
 40
0.6893799313
 40
0.6995009079
 40
0.7095636304
 40
0.7195649461
 40
0.7295014634
 40
0.7491656051
 40
0.7875474412
 40
0.8061927005
 40
0.8244182096
 40
0.8421751303
 40
0.8594109595
 40
0.8760640937
 40
0.892069192
 40
0.9073502377
 40
0.9218258727
 40
0.9354042243
 40
0.9479874124
 40
0.9594688446
 40
0.9647620522
 40
0.9697380259
 40
0.9743825326
 40
0.978681595
 40
0.9826215327
 40
0.9861887046
 40
0.9893702901
 40
0.9921544921
 40
0.9933939076
 40
0.9945296846
 40
0.9955608409
 40
0.9964864772
 40
0.9973056943
 40
0.998017593
 40
0.9986212827
 40
0.9988823327
 40
0.9991161239
 40
0.9993226136
 40
0.9995017589
 40
0.999653517
 40
0.999777845
 40
0.9998747
 40
0.9999128119
 40
0.9999440394
 40
0.9999683772
 40
0.9999858201
 40
0.9999963627
 40
1.0
 40
1.0
 40
1.0
 40
1.0
 10
4.5491104249
 20
3.147904432
 30
0.0
 10
4.5491091151
 20
3.1479038606
 30
0.0
 10
4.549105585
 20
3.1478991937
 30
0.0
 10
4.5490959668
 20
3.1478915585
 30
0.0
 10
4.5490812589
 20
3.1478770359
 30
0.0
 10
4.5490602055
 20
3.1478576198
 30
0.0
 10
4.549033428
 20
3.1478323424
 30
0.0
 10
4.5489858271
 20
3.1477876569
 30
0.0
 10
4.5489116516
 20
3.1477178147
 30
0.0
 10
4.5488049808
 20
3.1476173609
 30
0.0
 10
4.5486748281
 20
3.1474946777
 30
0.0
 10
4.5485212259
 20
3.1473498111
 30
0.0
 10
4.5483442236
 20
3.14718278
 30
0.0
 10
4.5481438648
 20
3.1469936128
 30
0.0
 10
4.5478301034
 20
3.1466972358
 30
0.0
 10
4.5473799446
 20
3.1462717008
 30
0.0
 10
4.546770609
 20
3.1456953162
 30
0.0
 10
4.5460694976
 20
3.1450318845
 30
0.0
 10
4.5452773446
 20
3.1442821666
 30
0.0
 10
4.5443948816
 20
3.1434469304
 30
0.0
 10
4.5434228654
 20
3.1425269652
 30
0.0
 10
4.5419505358
 20
3.1411336247
 30
0.0
 10
4.5398944446
 20
3.1391877444
 30
0.0
 10
4.5371746514
 20
3.1366126381
 30
0.0
 10
4.5341261019
 20
3.1337243095
 30
0.0
 10
4.5307600936
 20
3.1305326903
 30
0.0
 10
4.5270883851
 20
3.1270482966
 30
0.0
 10
4.5231230781
 20
3.1232819431
 30
0.0
 10
4.5188764849
 20
3.1192445651
 30
0.0
 10
4.5126861626
 20
3.1133531027
 30
0.0
 10
4.5043374893
 20
3.1053940809
 30
0.0
 10
4.4936461667
 20
3.0951748403
 30
0.0
 10
4.4821215521
 20
3.0841248663
 30
0.0
 10
4.4698532332
 20
3.0723190178
 30
0.0
 10
4.456923868
 20
3.0598251017
 30
0.0
 10
4.4434111321
 20
3.0467037932
 30
0.0
 10
4.4293853342
 20
3.033008477
 30
0.0
 10
4.4149135698
 20
3.018784826
 30
0.0
 10
4.4000559115
 20
3.0040726575
 30
0.0
 10
4.3848723527
 20
2.9889028431
 30
0.0
 10
4.3640642582
 20
2.967898171
 30
0.0
 10
4.3430571877
 20
2.9462951003
 30
0.0
 10
4.3246870295
 20
2.9269048654
 30
0.0
 10
4.3140788034
 20
2.915522308
 30
0.0
 10
4.3060937372
 20
2.906851966
 30
0.0
 10
4.2981179195
 20
2.8980749002
 30
0.0
 10
4.2901627999
 20
2.8891865459
 30
0.0
 10
4.2822392672
 20
2.8801828242
 30
0.0
 10
4.271707911
 20
2.8679887477
 30
0.0
 10
4.2613264673
 20
2.8555647655
 30
0.0
 10
4.2511591321
 20
2.8428739071
 30
0.0
 10
4.2436409265
 20
2.8331723417
 30
0.0
 10
4.2362728988
 20
2.8232961116
 30
0.0
 10
4.2290886165
 20
2.8132289746
 30
0.0
 10
4.2221391984
 20
2.802945104
 30
0.0
 10
4.2154739388
 20
2.7924253069
 30
0.0
 10
4.2102185857
 20
2.7834455994
 30
0.0
 10
4.2062290578
 20
2.7761197853
 30
0.0
 10
4.2023923044
 20
2.7686852467
 30
0.0
 10
4.1979331475
 20
2.7591969635
 30
0.0
 10
4.1932528795
 20
2.7474923813
 30
0.0
 10
4.1900208
 20
2.7374723523
 30
0.0
 10
4.1879061633
 20
2.7293112646
 30
0.0
 10
4.1865745544
 20
2.7231200943
 30
0.0
 10
4.1855187337
 20
2.7168714118
 30
0.0
 10
4.1847598864
 20
2.7105759702
 30
0.0
 10
4.1843017721
 20
2.704248732
 30
0.0
 10
4.1841476862
 20
2.6979052775
 30
0.0
 10
4.1843006348
 20
2.6915618175
 30
0.0
 10
4.1847578196
 20
2.685234551
 30
0.0
 10
4.1855184827
 20
2.6789393197
 30
0.0
 10
4.1865757351
 20
2.6726907912
 30
0.0
 10
4.1879073001
 20
2.6664994819
 30
0.0
 10
4.1900208609
 20
2.6583379576
 30
0.0
 10
4.193250953
 20
2.6483172661
 30
0.0
 10
4.1979315709
 20
2.636612526
 30
0.0
 10
4.2023929466
 20
2.6271251068
 30
0.0
 10
4.2062301686
 20
2.6196906541
 30
0.0
 10
4.2092243784
 20
2.6141916089
 30
0.0
 10
4.2123262172
 20
2.6087639831
 30
0.0
 10
4.2165894337
 20
2.6016246182
 30
0.0
 10
4.2221386264
 20
2.5928641163
 30
0.0
 10
4.229087542
 20
2.5825799526
 30
0.0
 10
4.2362717651
 20
2.5725126747
 30
0.0
 10
4.2436398101
 20
2.5626363636
 30
0.0
 10
4.2511591824
 20
2.5529356137
 30
0.0
 10
4.2613274911
 20
2.5402454497
 30
0.0
 10
4.2717084085
 20
2.5278209966
 30
0.0
 10
4.2822391017
 20
2.5156263418
 30
0.0
 10
4.290162307
 20
2.5066223304
 30
0.0
 10
4.2981174851
 20
2.4977339999
 30
0.0
 10
4.3060934798
 20
2.4889570423
 30
0.0
 10
4.31407864
 20
2.4802867285
 30
0.0
 10
4.3246869372
 20
2.4689041704
 30
0.0
 10
4.3430571395
 20
2.449513864
 30
0.0
 10
4.3640642385
 20
2.4279107145
 30
0.0
 10
4.3848724001
 20
2.4069060386
 30
0.0
 10
4.4000559389
 20
2.3917362118
 30
0.0
 10
4.4149135736
 20
2.3770240353
 30
0.0
 10
4.4293853334
 20
2.362800386
 30
0.0
 10
4.4434111349
 20
2.3491050726
 30
0.0
 10
4.4569238688
 20
2.335983762
 30
0.0
 10
4.4698532327
 20
2.323489844
 30
0.0
 10
4.482121561
 20
2.3116840029
 30
0.0
 10
4.4936461782
 20
2.3006340351
 30
0.0
 10
4.5043374779
 20
2.2904147848
 30
0.0
 10
4.5126861275
 20
2.2824557553
 30
0.0
 10
4.5188764399
 20
2.2765642927
 30
0.0
 10
4.5231230343
 20
2.2725269144
 30
0.0
 10
4.5270883517
 20
2.2687605625
 30
0.0
 10
4.5307600776
 20
2.2652761721
 30
0.0
 10
4.5341261025
 20
2.2620845564
 30
0.0
 10
4.5371746601
 20
2.2591962293
 30
0.0
 10
4.5398944515
 20
2.2566211213
 30
0.0
 10
4.541950538
 20
2.2546752393
 30
0.0
 10
4.5434228651
 20
2.2532818984
 30
0.0
 10
4.5443948814
 20
2.2523619332
 30
0.0
 10
4.5452773457
 20
2.2515266972
 30
0.0
 10
4.5460695009
 20
2.2507769794
 30
0.0
 10
4.5467706144
 20
2.2501135479
 30
0.0
 10
4.5473799515
 20
2.2495371635
 30
0.0
 10
4.5478301108
 20
2.2491116286
 30
0.0
 10
4.5481438718
 20
2.2488152515
 30
0.0
 10
4.5483442299
 20
2.2486260842
 30
0.0
 10
4.5485212314
 20
2.2484590531
 30
0.0
 10
4.5486748327
 20
2.2483141865
 30
0.0
 10
4.5488049843
 20
2.2481915032
 30
0.0
 10
4.5489116541
 20
2.2480910494
 30
0.0
 10
4.5489858287
 20
2.2480212072
 30
0.0
 10
4.5490334291
 20
2.2479765217
 30
0.0
 10
4.5490602062
 20
2.2479512443
 30
0.0
 10
4.5490812594
 20
2.2479318281
 30
0.0
 10
4.549095967
 20
2.2479173056
 30
0.0
 10
4.5491055851
 20
2.2479096703
 30
0.0
 10
4.5491091151
 20
2.2479050035
 30
0.0
 10
4.5491104249
 20
2.247904432
 30
0.0
  0
SPLINE
  5
32A
100
AcDbEntity
  8
0
100
AcDbSpline
 62
7
  6
CONTINUOUS
 70
0
 71
3
 72
16
 73
12
 74
0
 42
0.0000001
 43
0.0000001
 44
0.0000000001
 40
0.0
 40
0.0
 40
0.0
 40
0.0
 40
0.3713897701
 40
0.5299921241
 40
0.6681485821
 40
0.7844644105
 40
0.8781236266
 40
0.9164563244
 40
0.9492792741
 40
0.9769114733
 40
1.0
 40
1.0
 40
1.0
 40
1.0
 10
3.920486308
 20
4.6587667115
 30
0.0
 10
3.9212037712
 20
4.6588382379
 30
0.0
 10
3.922226083
 20
4.658961569
 30
0.0
 10
3.9235042373
 20
4.6591841787
 30
0.0
 10
3.9242880137
 20
4.6593557489
 30
0.0
 10
3.9249390533
 20
4.6595385332
 30
0.0
 10
3.9253919826
 20
4.6597070119
 30
0.0
 10
3.9256782158
 20
4.6598507553
 30
0.0
 10
3.9258410621
 20
4.6599528467
 30
0.0
 10
3.9259665869
 20
4.6600563772
 30
0.0
 10
3.9260302243
 20
4.6601328856
 30
0.0
 10
3.9260536194
 20
4.6601711202
 30
0.0
  0
LINE
  5
32B
100
AcDbEntity
  8
0
100
AcDbLine
 62
7
  6
CONTINUOUS
 10
3.9747617919
 20
4.6549553798
 11
3.9762370723
 21
4.6552178836
  0
LINE
  5
32C
100
AcDbEntity
  8
0
100
AcDbLine
 62
7
  6
CONTINUOUS
 10
3.9762370723
 20
4.6552178836
 11
3.9781302492
 21
4.6558405269
  0
LINE
  5
32D
100
AcDbEntity
  8
0
100
AcDbLine
 62
7
  6
CONTINUOUS
 10
4.035188469
 20
4.6540385175
 11
4.0357411118
 21
4.6542216017
  0
ELLIPSE
  5
32E
100
AcDbEntity
  8
0
100
AcDbEllipse
 62
7
  6
CONTINUOUS
 10
4.0241104249
 20
4.670947784
 30
0.0
 11
0.1527400974
 21
0.0381527728
 31
0.0
 40
0.7644786049
 41
2.7069432621
 42
2.7556226393
  0
ELLIPSE
  5
32F
100
AcDbEntity
  8
0
100
AcDbEllipse
 62
7
  6
CONTINUOUS
 10
4.0241104249
 20
4.670947784
 30
0.0
 11
0.1552053493
 21
-0.0201473899
 31
0.0
 40
0.474907773
 41
0.258853807
 42
0.3435651275
  0
ELLIPSE
  5
330
100
AcDbEntity
  8
0
100
AcDbEllipse
 62
7
  6
CONTINUOUS
 10
4.1261489969
 20
4.8451361008
 30
0.0
 11
0.2512550434
 21
0.2272586745
 31
0.0
 40
0.5769452805
 41
-1.7515328715
 42
-1.7136656554
  0
ELLIPSE
  5
331
100
AcDbEntity
  8
0
100
AcDbEllipse
 62
7
  6
CONTINUOUS
 10
4.0241104249
 20
4.670947784
 30
0.0
 11
0.1541678658
 21
-0.0533236968
 31
0.0
 40
0.3808919632
 41
0.6424315011
 42
0.7271428215
  0
ELLIPSE
  5
332
100
AcDbEntity
  8
0
100
AcDbEllipse
 62
7
  6
CONTINUOUS
 10
4.1830392268
 20
4.8388840114
 30
0.0
 11
0.2945730228
 21
0.2339247142
 31
0.0
 40
0.3916518469
 41
-1.9023705699
 42
-1.8611476661
  0
ELLIPSE
  5
333
100
AcDbEntity
  8
0
100
AcDbEllipse
 62
7
  6
CONTINUOUS
 10
4.0241104249
 20
4.670947784
 30
0.0
 11
0.1543793624
 21
-0.0755061509
 31
0.0
 40
0.2468008202
 41
0.9457297314
 42
1.0304410518
  0
ELLIPSE
  5
334
100
AcDbEntity
  8
0
100
AcDbEllipse
 62
7
  6
CONTINUOUS
 10
4.2243723983
 20
4.8302787485
 30
0.0
 11
0.3264151636
 21
0.2346957394
 31
0.0
 40
0.2508682184
 41
-2.0600729705
 42
-2.0122989984
  0
ELLIPSE
  5
335
100
AcDbEntity
  8
0
100
AcDbEllipse
 62
7
  6
CONTINUOUS
 10
4.0241104249
 20
4.670947784
 30
0.0
 11
0.1552146655
 21
-0.0898539117
 31
0.0
 40
0.1047902948
 41
1.2003501317
 42
1.2850614522
  0
ELLIPSE
  5
336
100
AcDbEntity
  8
0
100
AcDbEllipse
 62
7
  6
CONTINUOUS
 10
4.2461025325
 20
4.8201626554
 30
0.0
 11
0.3438470535
 21
0.2290817503
 31
0.0
 40
0.1351315396
 41
-2.2216129982
 42
-2.1738390261
  0
ELLIPSE
  5
337
100
AcDbEntity
  8
0
100
AcDbEllipse
 62
7
  6
CONTINUOUS
 10
3.8021183174
 20
4.8095259655
 30
0.0
 11
0.3451833695
 21
-0.2173599675
 31
0.0
 40
0.0281814881
 41
-0.7996071634
 42
-0.7518331913
  0
ELLIPSE
  5
338
100
AcDbEntity
  8
0
100
AcDbEllipse
 62
7
  6
CONTINUOUS
 10
4.2461025325
 20
4.8095259655
 30
0.0
 11
0.3451833695
 21
0.2173599675
 31
0.0
 40
0.0281814881
 41
-2.3897594623
 42
-2.3419854902
  0
ELLIPSE
  5
339
100
AcDbEntity
  8
0
100
AcDbEllipse
 62
7
  6
CONTINUOUS
 10
3.8021183174
 20
4.8201626554
 30
0.0
 11
0.3438470535
 21
-0.2290817503
 31
0.0
 40
0.1351315396
 41
-0.9677536274
 42
-0.9199796553
  0
ELLIPSE
  5
33A
100
AcDbEntity
  8
0
100
AcDbEllipse
 62
7
  6
CONTINUOUS
 10
4.0241104249
 20
4.670947784
 30
0.0
 11
0.1552146655
 21
0.0898539117
 31
0.0
 40
0.1047902948
 41
1.8565312014
 42
1.9412425218
  0
ELLIPSE
  5
33B
100
AcDbEntity
  8
0
100
AcDbEllipse
 62
7
  6
CONTINUOUS
 10
3.8238484516
 20
4.8302787485
 30
0.0
 11
0.3264151636
 21
-0.2346957394
 31
0.0
 40
0.2508682184
 41
-1.1292936552
 42
-1.0815196831
  0
ELLIPSE
  5
33C
100
AcDbEntity
  8
0
100
AcDbEllipse
 62
7
  6
CONTINUOUS
 10
4.0241104249
 20
4.670947784
 30
0.0
 11
0.1543793624
 21
0.0755061509
 31
0.0
 40
0.2468008202
 41
2.1111516017
 42
2.1958629222
  0
ELLIPSE
  5
33D
100
AcDbEntity
  8
0
100
AcDbEllipse
 62
7
  6
CONTINUOUS
 10
3.865181623
 20
4.8388840114
 30
0.0
 11
0.2945730228
 21
-0.2339247142
 31
0.0
 40
0.3916518469
 41
-1.2804449875
 42
-1.2392220837
  0
ELLIPSE
  5
33E
100
AcDbEntity
  8
0
100
AcDbEllipse
 62
7
  6
CONTINUOUS
 10
4.0241104249
 20
4.670947784
 30
0.0
 11
0.1541678658
 21
0.0533236968
 31
0.0
 40
0.3808919632
 41
2.414449832
 42
2.4991611525
  0
ELLIPSE
  5
33F
100
AcDbEntity
  8
0
100
AcDbEllipse
 62
7
  6
CONTINUOUS
 10
3.9220718529
 20
4.8451361008
 30
0.0
 11
-0.2512550434
 21
0.2272586745
 31
0.0
 40
0.5769452805
 41
-4.5695196518
 42
-4.5316524357
  0
ELLIPSE
  5
340
100
AcDbEntity
  8
0
100
AcDbEllipse
 62
7
  6
CONTINUOUS
 10
4.0241104249
 20
4.670947784
 30
0.0
 11
0.1552053493
 21
0.0201473899
 31
0.0
 40
0.474907773
 41
2.7980275261
 42
2.8827388466
  0
ELLIPSE
  5
341
100
AcDbEntity
  8
0
100
AcDbEllipse
 62
7
  6
CONTINUOUS
 10
3.9889503292
 20
4.7812656022
 30
0.0
 11
0.2639514758
 21
-0.064190678
 31
0.0
 40
0.5981924693
 41
-2.1588224486
 42
-2.1110484765
  0
ELLIPSE
  5
342
100
AcDbEntity
  8
0
100
AcDbEllipse
 62
7
  6
CONTINUOUS
 10
3.9220718529
 20
4.7845525201
 30
0.0
 11
0.2780673526
 21
-0.1367000485
 31
0.0
 40
0.400608112
 41
-1.7243496147
 42
-1.6765756426
  0
ELLIPSE
  5
343
100
AcDbEntity
  8
0
100
AcDbEllipse
 62
7
  6
CONTINUOUS
 10
4.0241104249
 20
4.670947784
 30
0.0
 11
0.1476090399
 21
0.0781993839
 31
0.0
 40
0.6254045512
 41
2.251972384
 42
2.3102099534
  0
ELLIPSE
  5
344
100
AcDbEntity
  8
0
100
AcDbEllipse
 62
7
  6
CONTINUOUS
 10
3.865181623
 20
4.7908046095
 30
0.0
 11
0.3060327977
 21
-0.1743251988
 31
0.0
 40
0.2229739838
 41
-1.4621927447
 42
-1.4144187726
  0
ELLIPSE
  5
345
100
AcDbEntity
  8
0
100
AcDbEllipse
 62
7
  6
CONTINUOUS
 10
4.0241104249
 20
4.670947784
 30
0.0
 11
0.1490736958
 21
0.0942070627
 31
0.0
 40
0.4696165267
 41
8.2309035246
 42
8.3106815228
  0
ELLIPSE
  5
346
100
AcDbEntity
  8
0
100
AcDbEllipse
 62
7
  6
CONTINUOUS
 10
3.8238484516
 20
4.7994098724
 30
0.0
 11
0.3312434189
 21
-0.1995166648
 31
0.0
 40
0.0855355287
 41
-1.2562766852
 42
-1.2085027131
  0
ELLIPSE
  5
347
100
AcDbEntity
  8
0
100
AcDbEllipse
 62
7
  6
CONTINUOUS
 10
4.0241104249
 20
4.670947784
 30
0.0
 11
0.1520897922
 21
0.1010713739
 31
0.0
 40
0.3204410998
 41
1.7073048605
 42
1.792016181
  0
ELLIPSE
  5
348
100
AcDbEntity
  8
0
100
AcDbEllipse
 62
7
  6
CONTINUOUS
 10
4.0241104249
 20
4.670947784
 30
0.0
 11
0.1554584671
 21
-0.0984867217
 31
0.0
 40
0.0364896329
 41
1.7911926689
 42
1.8759039894
  0
ELLIPSE
  5
349
100
AcDbEntity
  8
0
100
AcDbEllipse
 62
7
  6
CONTINUOUS
 10
4.0241104249
 20
4.670947784
 30
0.0
 11
0.154441083
 21
0.1022144226
 31
0.0
 40
0.177238619
 41
1.4861918926
 42
1.570903213
  0
ELLIPSE
  5
34A
100
AcDbEntity
  8
0
100
AcDbEllipse
 62
7
  6
CONTINUOUS
 10
4.0241104249
 20
4.670947784
 30
0.0
 11
0.154441083
 21
-0.1022144226
 31
0.0
 40
0.177238619
 41
1.5706894406
 42
1.655400761
  0
ELLIPSE
  5
34B
100
AcDbEntity
  8
0
100
AcDbEllipse
 62
7
  6
CONTINUOUS
 10
4.0241104249
 20
4.670947784
 30
0.0
 11
0.1554584671
 21
0.0984867217
 31
0.0
 40
0.0364896329
 41
1.2656886642
 42
1.3503999847
  0
ELLIPSE
  5
34C
100
AcDbEntity
  8
0
100
AcDbEllipse
 62
7
  6
CONTINUOUS
 10
4.0241104249
 20
4.670947784
 30
0.0
 11
0.1520897922
 21
-0.1010713739
 31
0.0
 40
0.3204410998
 41
1.3495764726
 42
1.4342877931
  0
ELLIPSE
  5
34D
100
AcDbEntity
  8
0
100
AcDbEllipse
 62
7
  6
CONTINUOUS
 10
4.2243723983
 20
4.7994098724
 30
0.0
 11
0.3312434189
 21
0.1995166648
 31
0.0
 40
0.0855355287
 41
-1.9330899405
 42
-1.8853159684
  0
ELLIPSE
  5
34E
100
AcDbEntity
  8
0
100
AcDbEllipse
 62
7
  6
CONTINUOUS
 10
4.0241104249
 20
4.670947784
 30
0.0
 11
0.1490736958
 21
-0.0942070627
 31
0.0
 40
0.4696165267
 41
7.3972817451
 42
7.4770597433
  0
ELLIPSE
  5
34F
100
AcDbEntity
  8
0
100
AcDbEllipse
 62
7
  6
CONTINUOUS
 10
4.1830392268
 20
4.7908046095
 30
0.0
 11
0.3060327977
 21
0.1743251988
 31
0.0
 40
0.2229739838
 41
-1.727173881
 42
-1.6793999089
  0
ELLIPSE
  5
350
100
AcDbEntity
  8
0
100
AcDbEllipse
 62
7
  6
CONTINUOUS
 10
4.0241104249
 20
4.670947784
 30
0.0
 11
0.1476090399
 21
-0.0781993839
 31
0.0
 40
0.6254045512
 41
0.8313827002
 42
0.8896202696
  0
ELLIPSE
  5
351
100
AcDbEntity
  8
0
100
AcDbEllipse
 62
7
  6
CONTINUOUS
 10
4.1261489969
 20
4.7845525201
 30
0.0
 11
0.2780673526
 21
0.1367000485
 31
0.0
 40
0.400608112
 41
-1.465017011
 42
-1.4172430389
  0
ELLIPSE
  5
352
100
AcDbEntity
  8
0
100
AcDbEllipse
 62
7
  6
CONTINUOUS
 10
4.0241104249
 20
4.670947784
 30
0.0
 11
0.1527400974
 21
-0.0381527728
 31
0.0
 40
0.7644786049
 41
0.3859700143
 42
0.4346493915
  0
ELLIPSE
  5
353
100
AcDbEntity
  8
0
100
AcDbEllipse
 62
7
  6
CONTINUOUS
 10
4.0592705207
 20
4.7812656022
 30
0.0
 11
0.2639514758
 21
0.064190678
 31
0.0
 40
0.5981924693
 41
-1.0305441771
 42
-0.982770205
  0
ELLIPSE
  5
354
100
AcDbEntity
  8
0
100
AcDbEllipse
 62
7
  6
CONTINUOUS
 10
4.0822056199
 20
4.7168218259
 30
0.0
 11
0.0122258675
 21
-0.0081247085
 31
0.0
 40
0.3204410998
 41
-0.9001278825
 42
0.3772806628
  0
ELLIPSE
  5
355
100
AcDbEntity
  8
0
100
AcDbEllipse
 62
7
  6
CONTINUOUS
 10
4.0241104249
 20
4.7182136335
 30
0.0
 11
0.0124148781
 21
-0.0082165935
 31
0.0
 40
0.177238619
 41
-0.6790149145
 42
0.5983936307
  0
ELLIPSE
  5
356
100
AcDbEntity
  8
0
100
AcDbEllipse
 62
7
  6
CONTINUOUS
 10
3.96601523
 20
4.7168218259
 30
0.0
 11
0.0124966613
 21
-0.007916939
 31
0.0
 40
0.0364896329
 41
-0.4585116862
 42
0.8188968591
  0
ELLIPSE
  5
357
100
AcDbEntity
  8
0
100
AcDbEllipse
 62
7
  6
CONTINUOUS
 10
4.1346140524
 20
4.6667705553
 30
0.0
 11
0.0122258675
 21
0.0081247085
 31
0.0
 40
0.3204410998
 41
9.047497298
 42
10.1979918207
  0
ELLIPSE
  5
358
100
AcDbEntity
  8
0
100
AcDbEllipse
 62
7
  6
CONTINUOUS
 10
4.0822056199
 20
4.6627313726
 30
0.0
 11
0.0124148781
 21
0.0082165935
 31
0.0
 40
0.177238619
 41
8.82638433
 42
10.1037928753
  0
ELLIPSE
  5
359
100
AcDbEntity
  8
0
100
AcDbEllipse
 62
7
  6
CONTINUOUS
 10
4.0241104249
 20
4.661339565
 30
0.0
 11
0.0124966613
 21
0.007916939
 31
0.0
 40
0.0364896329
 41
8.6058811017
 42
9.8832896469
  0
ELLIPSE
  5
35A
100
AcDbEntity
  8
0
100
AcDbEllipse
 62
7
  6
CONTINUOUS
 10
4.1346140524
 20
4.7127826432
 30
0.0
 11
0.0119834161
 21
-0.007572915
 31
0.0
 40
0.4696165267
 41
-1.1356079172
 42
0.1418006281
  0
ELLIPSE
  5
35B
100
AcDbEntity
  8
0
100
AcDbEllipse
 62
7
  6
CONTINUOUS
 10
4.1762056199
 20
4.7064914686
 30
0.0
 11
0.0118656784
 21
-0.0062861241
 31
0.0
 40
0.6254045512
 41
-1.2560829338
 42
-0.1409131096
  0
ELLIPSE
  5
35C
100
AcDbEntity
  8
0
100
AcDbEllipse
 62
7
  6
CONTINUOUS
 10
4.0592705207
 20
4.8484230187
 30
0.0
 11
0.1919189317
 21
0.2229178264
 31
0.0
 40
0.8309556449
 41
-3.4808774576
 42
-3.4331034856
  0
ELLIPSE
  5
35D
100
AcDbEntity
  8
0
100
AcDbEllipse
 62
7
  6
CONTINUOUS
 10
4.0241104249
 20
4.670947784
 30
0.0
 11
0.1476090399
 21
0.0781993839
 31
0.0
 40
0.6254045512
 41
-0.7509751889
 42
-0.6662638684
  0
ELLIPSE
  5
35E
100
AcDbEntity
  8
0
100
AcDbEllipse
 62
7
  6
CONTINUOUS
 10
4.0241104249
 20
4.670947784
 30
0.0
 11
0.1490736958
 21
0.0942070627
 31
0.0
 40
0.4696165267
 41
-1.0336889266
 42
-0.9489776062
  0
ELLIPSE
  5
35F
100
AcDbEntity
  8
0
100
AcDbEllipse
 62
7
  6
CONTINUOUS
 10
4.0241104249
 20
4.670947784
 30
0.0
 11
0.1520897922
 21
0.1010713739
 31
0.0
 40
0.3204410998
 41
-1.2691689613
 42
-1.1844576408
  0
ELLIPSE
  5
360
100
AcDbEntity
  8
0
100
AcDbEllipse
 62
7
  6
CONTINUOUS
 10
4.0241104249
 20
4.670947784
 30
0.0
 11
0.154441083
 21
0.1022144226
 31
0.0
 40
0.177238619
 41
-1.4902819292
 42
-1.4055706088
  0
ELLIPSE
  5
361
100
AcDbEntity
  8
0
100
AcDbEllipse
 62
7
  6
CONTINUOUS
 10
4.0241104249
 20
4.670947784
 30
0.0
 11
0.1554584671
 21
-0.0984867217
 31
0.0
 40
0.0364896329
 41
-1.5155188165
 42
-1.430807496
  0
ELLIPSE
  5
362
100
AcDbEntity
  8
0
100
AcDbEllipse
 62
7
  6
CONTINUOUS
 10
4.0241104249
 20
4.670947784
 30
0.0
 11
0.1554584671
 21
0.0984867217
 31
0.0
 40
0.0364896329
 41
-1.7107851576
 42
-1.6260738371
  0
ELLIPSE
  5
363
100
AcDbEntity
  8
0
100
AcDbEllipse
 62
7
  6
CONTINUOUS
 10
4.0241104249
 20
4.670947784
 30
0.0
 11
0.154441083
 21
-0.1022144226
 31
0.0
 40
0.177238619
 41
-1.7360220448
 42
-1.6513107244
  0
ELLIPSE
  5
364
100
AcDbEntity
  8
0
100
AcDbEllipse
 62
7
  6
CONTINUOUS
 10
4.0241104249
 20
4.670947784
 30
0.0
 11
0.1520897922
 21
-0.1010713739
 31
0.0
 40
0.3204410998
 41
-1.9571350128
 42
-1.8724236923
  0
ELLIPSE
  5
365
100
AcDbEntity
  8
0
100
AcDbEllipse
 62
7
  6
CONTINUOUS
 10
4.0241104249
 20
4.670947784
 30
0.0
 11
0.1490736958
 21
-0.0942070627
 31
0.0
 40
0.4696165267
 41
-2.1926150474
 42
-2.107903727
  0
ELLIPSE
  5
366
100
AcDbEntity
  8
0
100
AcDbEllipse
 62
7
  6
CONTINUOUS
 10
4.0241104249
 20
4.670947784
 30
0.0
 11
0.1476090399
 21
-0.0781993839
 31
0.0
 40
0.6254045512
 41
-2.4753287852
 42
-2.3906174647
  0
ELLIPSE
  5
367
100
AcDbEntity
  8
0
100
AcDbEllipse
 62
7
  6
CONTINUOUS
 10
4.0241104249
 20
4.670947784
 30
0.0
 11
0.1527400974
 21
-0.0381527728
 31
0.0
 40
0.7644786049
 41
-2.8808416813
 42
-2.8360301506
  0
ELLIPSE
  5
368
100
AcDbEntity
  8
0
100
AcDbEllipse
 62
7
  6
CONTINUOUS
 10
3.9889503292
 20
4.8484230187
 30
0.0
 11
-0.1919189317
 21
0.2229178264
 31
0.0
 40
0.8309556449
 41
-4.6771993328
 42
-4.6294253607
  0
ELLIPSE
  5
369
100
AcDbEntity
  8
0
100
AcDbEllipse
 62
7
  6
CONTINUOUS
 10
4.1261489969
 20
4.8451361008
 30
0.0
 11
0.2512550434
 21
0.2272586745
 31
0.0
 40
0.5769452805
 41
-3.5786503826
 42
-3.5308764105
  0
ELLIPSE
  5
36A
100
AcDbEntity
  8
0
100
AcDbEllipse
 62
7
  6
CONTINUOUS
 10
3.9136067975
 20
4.6667705553
 30
0.0
 11
0.0122258675
 21
-0.0081247085
 31
0.0
 40
0.3204410998
 41
-0.7732138595
 42
0.3772806628
  0
ELLIPSE
  5
36B
100
AcDbEntity
  8
0
100
AcDbEllipse
 62
7
  6
CONTINUOUS
 10
4.1830392268
 20
4.8388840114
 30
0.0
 11
0.2945730228
 21
0.2339247142
 31
0.0
 40
0.3916518469
 41
2.5536972262
 42
2.6014711983
  0
ELLIPSE
  5
36C
100
AcDbEntity
  8
0
100
AcDbEllipse
 62
7
  6
CONTINUOUS
 10
3.96601523
 20
4.6627313726
 30
0.0
 11
0.0124148781
 21
-0.0082165935
 31
0.0
 40
0.177238619
 41
-0.6790149145
 42
0.5983936307
  0
ELLIPSE
  5
36D
100
AcDbEntity
  8
0
100
AcDbEllipse
 62
7
  6
CONTINUOUS
 10
4.2243723983
 20
4.8302787485
 30
0.0
 11
0.3264151636
 21
0.2346957394
 31
0.0
 40
0.2508682184
 41
2.3959948255
 42
2.4437687976
  0
ELLIPSE
  5
36E
100
AcDbEntity
  8
0
100
AcDbEllipse
 62
7
  6
CONTINUOUS
 10
3.8021183174
 20
4.8095259655
 30
0.0
 11
0.3451833695
 21
-0.2173599675
 31
0.0
 40
0.0281814881
 41
1.0275103477
 42
1.0752843198
  0
ELLIPSE
  5
36F
100
AcDbEntity
  8
0
100
AcDbEllipse
 62
7
  6
CONTINUOUS
 10
4.0241104249
 20
4.661339565
 30
0.0
 11
0.0124966613
 21
-0.007916939
 31
0.0
 40
0.0364896329
 41
-0.4585116862
 42
0.8188968591
  0
ELLIPSE
  5
370
100
AcDbEntity
  8
0
100
AcDbEllipse
 62
7
  6
CONTINUOUS
 10
4.2461025325
 20
4.8201626554
 30
0.0
 11
0.3438470535
 21
0.2290817503
 31
0.0
 40
0.1351315396
 41
2.2344547978
 42
2.2822287699
  0
ELLIPSE
  5
371
100
AcDbEntity
  8
0
100
AcDbEllipse
 62
7
  6
CONTINUOUS
 10
3.8021183174
 20
4.8201626554
 30
0.0
 11
0.3438470535
 21
-0.2290817503
 31
0.0
 40
0.1351315396
 41
0.8593638837
 42
0.9071378558
  0
ELLIPSE
  5
372
100
AcDbEntity
  8
0
100
AcDbEllipse
 62
7
  6
CONTINUOUS
 10
4.2461025325
 20
4.8095259655
 30
0.0
 11
0.3451833695
 21
0.2173599675
 31
0.0
 40
0.0281814881
 41
2.0663083338
 42
2.1140823059
  0
ELLIPSE
  5
373
100
AcDbEntity
  8
0
100
AcDbEllipse
 62
7
  6
CONTINUOUS
 10
3.8238484516
 20
4.8302787485
 30
0.0
 11
0.3264151636
 21
-0.2346957394
 31
0.0
 40
0.2508682184
 41
0.697823856
 42
0.7455978281
  0
ELLIPSE
  5
374
100
AcDbEntity
  8
0
100
AcDbEllipse
 62
7
  6
CONTINUOUS
 10
3.865181623
 20
4.8388840114
 30
0.0
 11
0.2945730228
 21
-0.2339247142
 31
0.0
 40
0.3916518469
 41
0.5401214553
 42
0.5878954274
  0
ELLIPSE
  5
375
100
AcDbEntity
  8
0
100
AcDbEllipse
 62
7
  6
CONTINUOUS
 10
3.9220718529
 20
4.8451361008
 30
0.0
 11
-0.2512550434
 21
0.2272586745
 31
0.0
 40
0.5769452805
 41
-2.7523088966
 42
-2.7045349245
  0
ELLIPSE
  5
376
100
AcDbEntity
  8
0
100
AcDbEllipse
 62
7
  6
CONTINUOUS
 10
3.9889503292
 20
4.8484230187
 30
0.0
 11
-0.1919189317
 21
0.2229178264
 31
0.0
 40
0.8309556449
 41
-2.8500818216
 42
-2.8023078495
  0
ELLIPSE
  5
377
100
AcDbEntity
  8
0
100
AcDbEllipse
 62
7
  6
CONTINUOUS
 10
4.0241104249
 20
4.670947784
 30
0.0
 11
0.1527400974
 21
0.0381527728
 31
0.0
 40
0.7644786049
 41
-0.305562503
 42
-0.2607509723
  0
ELLIPSE
  5
378
100
AcDbEntity
  8
0
100
AcDbEllipse
 62
7
  6
CONTINUOUS
 10
4.0592705207
 20
4.8484230187
 30
0.0
 11
0.1919189317
 21
0.2229178264
 31
0.0
 40
0.8309556449
 41
-1.6537599465
 42
-1.6059859744
  0
ELLIPSE
  5
379
100
AcDbEntity
  8
0
100
AcDbEllipse
 62
7
  6
CONTINUOUS
 10
4.0822056199
 20
4.7168218259
 30
0.0
 11
0.0124966613
 21
0.007916939
 31
0.0
 40
0.0364896329
 41
8.6058811017
 42
9.8832896469
  0
ELLIPSE
  5
37A
100
AcDbEntity
  8
0
100
AcDbEllipse
 62
7
  6
CONTINUOUS
 10
4.0241104249
 20
4.7182136335
 30
0.0
 11
0.0124148781
 21
0.0082165935
 31
0.0
 40
0.177238619
 41
8.82638433
 42
10.1037928753
  0
ELLIPSE
  5
37B
100
AcDbEntity
  8
0
100
AcDbEllipse
 62
7
  6
CONTINUOUS
 10
3.96601523
 20
4.7168218259
 30
0.0
 11
0.0122258675
 21
0.0081247085
 31
0.0
 40
0.3204410998
 41
9.047497298
 42
10.3249058432
  0
ELLIPSE
  5
37C
100
AcDbEntity
  8
0
100
AcDbEllipse
 62
7
  6
CONTINUOUS
 10
3.9136067975
 20
4.7127826432
 30
0.0
 11
0.0119834161
 21
0.007572915
 31
0.0
 40
0.4696165267
 41
2.9997920255
 42
4.2772005707
  0
ELLIPSE
  5
37D
100
AcDbEntity
  8
0
100
AcDbEllipse
 62
7
  6
CONTINUOUS
 10
3.87201523
 20
4.7064914686
 30
0.0
 11
0.0118656784
 21
0.0062861241
 31
0.0
 40
0.6254045512
 41
-3.000679544
 42
-1.8855097198
  0
ENDSEC
  0
SECTION
  2
OBJECTS
  0
DICTIONARY
  5
C
100
AcDbDictionary
280
0
281
1
  3
ACAD_GROUP
350
D
  3
ACAD_MLINESTYLE
350
17
  3
ACAD_LAYOUT
350
1A
  3
ACAD_PLOTSETTINGS
350
19
  3
ACAD_PLOTSTYLENAME
350
E
  0
DICTIONARY
  5
D
102
{ACAD_REACTORS
330
C
102
}
100
AcDbDictionary
280
0
281
1
  0
ACDBDICTIONARYWDFLT
  5
E
102
{ACAD_REACTORS
330
C
102
}
100
AcDbDictionary
281
1
  3
Normal
350
F
100
AcDbDictionaryWithDefault
340
F
  0
DICTIONARY
  5
17
102
{ACAD_REACTORS
330
C
102
}
100
AcDbDictionary
280
0
281
1
  3
Standard
350
18
  0
DICTIONARY
  5
19
102
{ACAD_REACTORS
330
C
102
}
100
AcDbDictionary
281
1
  0
DICTIONARY
  5
1A
102
{ACAD_REACTORS
330
C
102
}
100
AcDbDictionary
281
1
  3
Model
350
37E
  3
Layout1
350
37F
  0
ACDBPLACEHOLDER
  5
F
102
{ACAD_REACTORS
330
E
102
}
  0
MLINESTYLE
  5
18
102
{ACAD_REACTORS
330
17
102
}
100
AcDbMlineStyle
  2
STANDARD
 70
0
  3

 62
256
 51
90.0
 52
90.0
 71
2
 49
0.5
 62
256
  6
BYLAYER
 49
-0.5
 62
256
  6
BYLAYER
  0
LAYOUT
  5
37E
102
{ACAD_REACTORS
330
1A
102
}
100
AcDbPlotSettings
  1

  2
none_device
  4
ANSI_A_(11.00_x_8.50_Inches)
  6

 40
0.0
 41
0.0
 42
0.0
 43
0.0
 44
279.4
 45
215.9
 46
0.0
 47
0.0
 48
0.0
 49
0.0
140
0.0
141
0.0
142
1.0
143
1.0
 70
1024
 72
0
 73
0
 74
0
  7

 75
0
147
1.0
148
0.0
149
0.0
100
AcDbLayout
  1
Model
 70
0
 71
0
 10
0.0
 20
0.0
 11
11.0
 21
8.5
 12
0.0
 22
0.0
 32
0.0
 14
0.0
 24
0.0
 34
0.0
 15
0.0
 25
0.0
 35
0.0
146
0.0
 13
0.0
 23
0.0
 33
0.0
 16
1.0
 26
0.0
 36
0.0
 17
0.0
 27
1.0
 37
0.0
 76
0
330
202
345
0
346
0
  0
LAYOUT
  5
37F
102
{ACAD_REACTORS
330
1A
102
}
100
AcDbPlotSettings
  1

  2
none_device
  4
ANSI_A_(11.00_x_8.50_Inches)
  6

 40
0.0
 41
0.0
 42
0.0
 43
0.0
 44
279.4
 45
215.9
 46
0.0
 47
0.0
 48
0.0
 49
0.0
140
0.0
141
0.0
142
1.0
143
1.0
 70
0
 72
0
 73
0
 74
0
  7

 75
0
147
1.0
148
0.0
149
0.0
100
AcDbLayout
  1
Layout1
 70
0
 71
1
 10
0.0
 20
0.0
 11
11.0
 21
8.5
 12
0.0
 22
0.0
 32
0.0
 14
0.0
 24
0.0
 34
0.0
 15
0.0
 25
0.0
 35
0.0
146
0.0
 13
0.0
 23
0.0
 33
0.0
 16
1.0
 26
0.0
 36
0.0
 17
0.0
 27
1.0
 37
0.0
 76
0
330
203
345
0
346
0
  0
ENDSEC
  0
EOF
