999
DXF file: E:\BRASSTECH\RAY\EN-4300m\Webdata\1500\CAD\1500_FRONT.dxf
999
Pro/ENGINEER 2018400 by Parametric Technology Corporation
  0
SECTION
  2
HEADER
  9
$ACADVER
  1
AC1018
  9
$DWGCODEPAGE
  3
ANSI_1252
  9
$EXTMAX
 10
22.0
 20
17.0
 30
0.0
  9
$EXTMIN
 10
0.0
 20
0.0
 30
0.0
  9
$LIMMIN
 10
0.0
 20
0.0
  9
$LIMMAX
 10
22.0
 20
17.0
  9
$VIEWCTR
 10
11.0
 20
8.5
  9
$VIEWSIZE
 40
17.0
  9
$CLAYER
  8
0
  9
$LTSCALE
 40
1.21
  9
$CELTYPE
  6
BYLAYER
  9
$DIMSCALE
 40
1.0
  9
$DIMASZ
 40
0.1
  9
$DIMEXO
 40
0.0625
  9
$DIMDLI
 40
0.836
  9
$DIMEXE
 40
0.125
  9
$DIMCEN
 40
0.198
  9
$DIMLFAC
 40
1.0
  9
$DIMBLK
  1
_FILLED
  9
$DIMALT
 70
1
  9
$DIMALTD
 70
2
  9
$DIMALTTD
 70
2
  9
$DIMALTF
 40
25.4
  9
$DIMTXT
 40
0.08
  9
$DIMTOL
 70
1
  9
$DIMLIM
 70
0
  9
$DIMTFAC
 40
1.0
  9
$DIMTP
 40
0.001
  9
$DIMTM
 40
0.001
  9
$DIMGAP
 40
0.09
  9
$DIMDSEP
 70
46
  9
$AUNITS
 70
0
  9
$PDMODE
 70
3
  9
$PDSIZE
 40
0.06
  9
$HANDSEED
  5
279
  9
$TILEMODE
 70
1
  9
$MEASUREMENT
 70
0
  9
$INSUNITS
 70
1
  0
ENDSEC
  0
SECTION
  2
CLASSES
  0
CLASS
  1
ACDBDICTIONARYWDFLT
  2
AcDbDictionaryWithDefault
  3
AutoCAD 2000
 90
0
 91
1
280
0
281
0
  0
CLASS
  1
ACDBPLACEHOLDER
  2
AcDbPlaceHolder
  3
AutoCAD 2000
 90
0
 91
1
280
0
281
0
  0
CLASS
  1
LAYOUT
  2
AcDbLayout
  3
AutoCAD 2000
 90
0
 91
0
280
0
281
0
  0
ENDSEC
  0
SECTION
  2
TABLES
  0
TABLE
  2
VPORT
  5
8
100
AcDbSymbolTable
 70
2
  0
VPORT
  5
1F4
100
AcDbSymbolTableRecord
100
AcDbViewportTableRecord
  2
*ACTIVE
 70
0
 10
0.0
 20
0.0
 11
1.0
 21
1.0
 12
11.0
 22
8.5
 13
0.0
 23
0.0
 14
1.0
 24
1.0
 15
0.0
 25
0.0
 16
0.0
 26
0.0
 36
1.0
 17
0.0
 27
0.0
 37
0.0
 40
17.0
 41
1.2941176471
 42
50.0
 43
0.0
 44
0.0
 50
0.0
 51
0.0
 71
0
 72
100
 73
1
 74
1
 75
0
 76
0
 77
0
 78
0
  0
ENDTAB
  0
TABLE
  2
LTYPE
  5
5
100
AcDbSymbolTable
 70
6
  0
LTYPE
  5
14
100
AcDbSymbolTableRecord
100
AcDbLinetypeTableRecord
  2
BYBLOCK
 70
0
  3

 72
65
 73
0
 40
0.0
  0
LTYPE
  5
15
100
AcDbSymbolTableRecord
100
AcDbLinetypeTableRecord
  2
BYLAYER
 70
0
  3

 72
65
 73
0
 40
0.0
  0
LTYPE
  5
16
100
AcDbSymbolTableRecord
100
AcDbLinetypeTableRecord
  2
CONTINUOUS
 70
64
  3
Solid line
 72
65
 73
0
 40
0.0
  0
LTYPE
  5
1F5
100
AcDbSymbolTableRecord
100
AcDbLinetypeTableRecord
  2
CENTER
 70
64
  3
____ _ ____ _ ____ _ ____ _ ____ _ ____ _ ____
 72
65
 73
4
 40
0.6
 49
0.375
 74
0
 49
-0.075
 74
0
 49
0.075
 74
0
 49
-0.075
 74
0
  0
LTYPE
  5
1F6
100
AcDbSymbolTableRecord
100
AcDbLinetypeTableRecord
  2
HIDDEN
 70
64
  3
- - - - - - - - - - - - - - - - - - - -
 72
65
 73
2
 40
0.2
 49
0.1
 74
0
 49
-0.1
 74
0
  0
LTYPE
  5
1F7
100
AcDbSymbolTableRecord
100
AcDbLinetypeTableRecord
  2
PHANTOM
 70
64
  3
_____ _ _ _____ _ _ _____ _ _ _____
 72
65
 73
6
 40
0.8
 49
0.45
 74
0
 49
-0.05
 74
0
 49
0.1
 74
0
 49
-0.05
 74
0
 49
0.1
 74
0
 49
-0.05
 74
0
  0
LTYPE
  5
1F8
100
AcDbSymbolTableRecord
100
AcDbLinetypeTableRecord
  2
DOT
 70
64
  3
. . . . . . . . . . . . . . . . . . . .
 72
65
 73
2
 40
0.2
 49
0.1
 74
0
 49
-0.1
 74
0
  0
LTYPE
  5
1F9
100
AcDbSymbolTableRecord
100
AcDbLinetypeTableRecord
  2
DASHED
 70
64
  3
- - - - - - - - - - - - - - - - - - - -
 72
65
 73
2
 40
0.2
 49
0.1
 74
0
 49
-0.1
 74
0
  0
ENDTAB
  0
TABLE
  2
LAYER
  5
2
100
AcDbSymbolTable
 70
36
  0
LAYER
  5
10
100
AcDbSymbolTableRecord
100
AcDbLayerTableRecord
  2
0
 70
0
 62
7
  6
CONTINUOUS
370
-3
390
F
  0
LAYER
  5
1FA
100
AcDbSymbolTableRecord
100
AcDbLayerTableRecord
  2
DEFAULT_1
 70
0
 62
7
  6
CENTER
370
-3
390
F
  0
LAYER
  5
1FB
100
AcDbSymbolTableRecord
100
AcDbLayerTableRecord
  2
DEFAULT_2
 70
0
 62
8
  6
HIDDEN
370
-3
390
F
  0
LAYER
  5
1FC
100
AcDbSymbolTableRecord
100
AcDbLayerTableRecord
  2
DEFAULT_3
 70
0
 62
7
  6
PHANTOM
370
-3
390
F
  0
LAYER
  5
1FD
100
AcDbSymbolTableRecord
100
AcDbLayerTableRecord
  2
ALL_FEATURES
 70
0
 62
7
  6
CONTINUOUS
370
-3
390
F
  0
LAYER
  5
1FE
100
AcDbSymbolTableRecord
100
AcDbLayerTableRecord
  2
AXES_FEATURES
 70
0
 62
7
  6
CONTINUOUS
370
-3
390
F
  0
LAYER
  5
1FF
100
AcDbSymbolTableRecord
100
AcDbLayerTableRecord
  2
DIMENSIONS
 70
0
 62
7
  6
CONTINUOUS
370
-3
390
F
  0
ENDTAB
  0
TABLE
  2
STYLE
  5
3
100
AcDbSymbolTable
 70
1
  0
STYLE
  5
11
100
AcDbSymbolTableRecord
100
AcDbTextStyleTableRecord
  2
STANDARD
 70
0
 40
0.0
 41
0.8
 50
0.0
 71
0
 42
0.2
  3
txt
  4

  0
STYLE
  5
200
100
AcDbSymbolTableRecord
100
AcDbTextStyleTableRecord
  2
TEXTSTYLE_1
 70
0
 40
0.0
 41
0.8
 50
0.0
 71
0
 42
0.2
  3
gdt
  4

  0
ENDTAB
  0
TABLE
  2
VIEW
  5
6
100
AcDbSymbolTable
 70
0
  0
ENDTAB
  0
TABLE
  2
UCS
  5
7
100
AcDbSymbolTable
 70
0
  0
ENDTAB
  0
TABLE
  2
APPID
  5
9
100
AcDbSymbolTable
 70
1
  0
APPID
  5
201
100
AcDbSymbolTableRecord
100
AcDbRegAppTableRecord
  2
ACAD
 70
0
  0
ENDTAB
  0
TABLE
  2
BLOCK_RECORD
  5
1
100
AcDbSymbolTable
 70
0
  0
BLOCK_RECORD
  5
202
100
AcDbSymbolTableRecord
100
AcDbBlockTableRecord
  2
*Model_Space
  0
BLOCK_RECORD
  5
203
100
AcDbSymbolTableRecord
100
AcDbBlockTableRecord
  2
*Paper_Space
  0
BLOCK_RECORD
  5
204
100
AcDbSymbolTableRecord
100
AcDbBlockTableRecord
  2
_FILLED
  0
ENDTAB
  0
TABLE
  2
DIMSTYLE
  5
A
100
AcDbSymbolTable
 70
1
100
AcDbDimStyleTable
 71
0
  0
DIMSTYLE
105
205
100
AcDbSymbolTableRecord
100
AcDbDimStyleTableRecord
  2
STANDARD
 70
0
  3

  4

 40
1.0
 41
0.1
 42
0.0625
 43
0.38
 44
0.125
 45
0.0
 46
0.0
 47
0.001
 48
0.001
140
0.08
141
0.09
142
0.0
143
25.4
144
1.0
145
0.0
146
1.0
147
0.09
 71
1.0
 72
0.0
 73
1
 74
1
 75
0
 76
0
 77
0
 78
4
 79
1
170
1
171
2
172
0
173
0
174
0
175
0
176
0
177
0
178
0
270
2
179
3
271
3
272
3
273
2
274
2
275
0
280
0
281
0
282
0
283
1
284
4
285
0
286
0
287
3
288
0
340
11
278
46
341
204
342
204
343
204
344
204
  0
ENDTAB
  0
ENDSEC
  0
SECTION
  2
BLOCKS
  0
BLOCK
  5
20
100
AcDbEntity
  8
0
100
AcDbBlockBegin
  2
*Model_Space
 70
0
 10
0.0
 20
0.0
 30
0.0
  3
*Model_Space
  1

  0
ENDBLK
  5
21
100
AcDbEntity
  8
0
100
AcDbBlockEnd
  0
BLOCK
  5
1C
100
AcDbEntity
  8
0
100
AcDbBlockBegin
  2
*Paper_Space
 70
0
 10
0.0
 20
0.0
 30
0.0
  3
*Paper_Space
  1

  0
ENDBLK
  5
1D
100
AcDbEntity
  8
0
100
AcDbBlockEnd
  0
BLOCK
  5
206
100
AcDbEntity
  8
0
100
AcDbBlockBegin
  2
_FILLED
 70
64
 10
0.0
 20
0.0
  3
_FILLED
  1

  0
SOLID
  5
207
100
AcDbEntity
  8
0
  6
BYBLOCK
 62
0
100
AcDbTrace
 10
0.0
 20
0.0
 11
-1.0
 21
0.2
 12
-1.0
 22
-0.2
 13
-1.0
 23
-0.2
  0
ENDBLK
  5
208
100
AcDbEntity
  8
0
  6
BYBLOCK
 62
0
100
AcDbBlockEnd
  0
ENDSEC
  0
SECTION
  2
ENTITIES
  0
LINE
  5
209
100
AcDbEntity
  8
0
100
AcDbLine
 62
7
  6
CONTINUOUS
 10
3.9314423427
 20
5.6780814171
 11
3.9314423427
 21
5.2380825466
  0
LINE
  5
20A
100
AcDbEntity
  8
0
100
AcDbLine
 62
9
  6
CONTINUOUS
 10
3.9614423427
 20
5.7080825466
 11
3.9614423427
 21
5.2080825466
  0
LINE
  5
20B
100
AcDbEntity
  8
0
100
AcDbLine
 62
7
  6
CONTINUOUS
 10
5.7502021789
 20
3.4950825466
 11
8.1251825066
 21
3.4950825466
  0
LINE
  5
20C
100
AcDbEntity
  8
0
100
AcDbLine
 62
7
  6
CONTINUOUS
 10
9.7502021789
 20
3.4950825466
 11
12.1251825066
 21
3.4950825466
  0
LINE
  5
20D
100
AcDbEntity
  8
0
100
AcDbLine
 62
7
  6
CONTINUOUS
 10
13.7502021789
 20
3.4950825466
 11
16.1251825066
 21
3.4950825466
  0
LINE
  5
20E
100
AcDbEntity
  8
0
100
AcDbLine
 62
7
  6
CONTINUOUS
 10
16.1251825066
 20
3.8700825466
 11
13.7502021789
 21
3.8700825466
  0
LINE
  5
20F
100
AcDbEntity
  8
0
100
AcDbLine
 62
7
  6
CONTINUOUS
 10
12.1251825066
 20
3.8700825466
 11
9.7502021789
 21
3.8700825466
  0
LINE
  5
210
100
AcDbEntity
  8
0
100
AcDbLine
 62
7
  6
CONTINUOUS
 10
8.1251825066
 20
3.8700825466
 11
5.7502021789
 21
3.8700825466
  0
LINE
  5
211
100
AcDbEntity
  8
0
100
AcDbLine
 62
7
  6
CONTINUOUS
 10
5.7501923427
 20
3.8700825466
 11
5.7501923427
 21
3.4950825466
  0
LINE
  5
212
100
AcDbEntity
  8
0
100
AcDbLine
 62
7
  6
CONTINUOUS
 10
6.2814423427
 20
4.9780825466
 11
6.2814423427
 21
3.8700825466
  0
LINE
  5
213
100
AcDbEntity
  8
0
100
AcDbLine
 62
7
  6
CONTINUOUS
 10
6.2816923427
 20
6.0880825466
 11
6.2816923427
 21
5.7180825466
  0
LINE
  5
214
100
AcDbEntity
  8
0
100
AcDbLine
 62
7
  6
CONTINUOUS
 10
6.2816923427
 20
5.1980825466
 11
6.2816923427
 21
4.9980825466
  0
LINE
  5
215
100
AcDbEntity
  8
0
100
AcDbLine
 62
7
  6
CONTINUOUS
 10
6.7539432158
 20
4.9780825466
 11
6.7539432158
 21
4.9980825466
  0
LINE
  5
216
100
AcDbEntity
  8
0
100
AcDbLine
 62
7
  6
CONTINUOUS
 10
6.7597114215
 20
4.9980825466
 11
6.7597114215
 21
4.9780825466
  0
LINE
  5
217
100
AcDbEntity
  8
0
100
AcDbLine
 62
7
  6
CONTINUOUS
 10
6.776149149
 20
4.9780825466
 11
6.776149149
 21
4.9980825466
  0
LINE
  5
218
100
AcDbEntity
  8
0
100
AcDbLine
 62
7
  6
CONTINUOUS
 10
15.5939419789
 20
4.9780825466
 11
14.2814427065
 21
4.9780825466
  0
LINE
  5
219
100
AcDbEntity
  8
0
100
AcDbLine
 62
7
  6
CONTINUOUS
 10
7.5939419789
 20
4.9780825466
 11
6.2814427065
 21
4.9780825466
  0
LINE
  5
21A
100
AcDbEntity
  8
0
100
AcDbLine
 62
7
  6
CONTINUOUS
 10
6.281692707
 20
4.9980825466
 11
7.5936919785
 21
4.9980825466
  0
LINE
  5
21B
100
AcDbEntity
  8
0
100
AcDbLine
 62
7
  6
CONTINUOUS
 10
14.281692707
 20
4.9980825466
 11
15.5936919785
 21
4.9980825466
  0
LINE
  5
21C
100
AcDbEntity
  8
0
100
AcDbLine
 62
7
  6
CONTINUOUS
 10
6.7925756091
 20
4.9980825466
 11
6.7925756091
 21
4.9780825466
  0
LINE
  5
21D
100
AcDbEntity
  8
0
100
AcDbLine
 62
7
  6
CONTINUOUS
 10
6.8154766683
 20
4.9780825466
 11
6.8154766683
 21
4.9980825466
  0
LINE
  5
21E
100
AcDbEntity
  8
0
100
AcDbLine
 62
7
  6
CONTINUOUS
 10
6.822948569
 20
4.9780825466
 11
6.822948569
 21
4.9980825466
  0
LINE
  5
21F
100
AcDbEntity
  8
0
100
AcDbLine
 62
7
  6
CONTINUOUS
 10
6.8475325038
 20
4.9980825466
 11
6.8475325038
 21
4.9780825466
  0
LINE
  5
220
100
AcDbEntity
  8
0
100
AcDbLine
 62
7
  6
CONTINUOUS
 10
6.8663420556
 20
4.9780825466
 11
6.8663420556
 21
4.9980825466
  0
LINE
  5
221
100
AcDbEntity
  8
0
100
AcDbLine
 62
7
  6
CONTINUOUS
 10
6.8841220533
 20
4.9980825466
 11
6.8841220533
 21
4.9780825466
  0
LINE
  5
222
100
AcDbEntity
  8
0
100
AcDbLine
 62
7
  6
CONTINUOUS
 10
6.8872166885
 20
4.9780825466
 11
6.8872166885
 21
4.9980825466
  0
LINE
  5
223
100
AcDbEntity
  8
0
100
AcDbLine
 62
7
  6
CONTINUOUS
 10
6.9162154168
 20
4.9980825466
 11
6.9162154168
 21
4.9780825466
  0
LINE
  5
224
100
AcDbEntity
  8
0
100
AcDbLine
 62
7
  6
CONTINUOUS
 10
6.9280698774
 20
4.9780825466
 11
6.9280698774
 21
4.9980825466
  0
LINE
  5
225
100
AcDbEntity
  8
0
100
AcDbLine
 62
7
  6
CONTINUOUS
 10
6.9473148081
 20
4.9980825466
 11
6.9473148081
 21
4.9780825466
  0
LINE
  5
226
100
AcDbEntity
  8
0
100
AcDbLine
 62
7
  6
CONTINUOUS
 10
6.9591692687
 20
4.9780825466
 11
6.9591692687
 21
4.9980825466
  0
LINE
  5
227
100
AcDbEntity
  8
0
100
AcDbLine
 62
7
  6
CONTINUOUS
 10
6.988167997
 20
4.9980825466
 11
6.988167997
 21
4.9780825466
  0
LINE
  5
228
100
AcDbEntity
  8
0
100
AcDbLine
 62
7
  6
CONTINUOUS
 10
6.9912626322
 20
4.9780825466
 11
6.9912626322
 21
4.9980825466
  0
LINE
  5
229
100
AcDbEntity
  8
0
100
AcDbLine
 62
7
  6
CONTINUOUS
 10
7.0090426298
 20
4.9980825466
 11
7.0090426298
 21
4.9780825466
  0
LINE
  5
22A
100
AcDbEntity
  8
0
100
AcDbLine
 62
7
  6
CONTINUOUS
 10
7.0278521816
 20
4.9780825466
 11
7.0278521816
 21
4.9980825466
  0
LINE
  5
22B
100
AcDbEntity
  8
0
100
AcDbLine
 62
7
  6
CONTINUOUS
 10
7.0524361165
 20
4.9980825466
 11
7.0524361165
 21
4.9780825466
  0
LINE
  5
22C
100
AcDbEntity
  8
0
100
AcDbLine
 62
7
  6
CONTINUOUS
 10
7.0599080171
 20
4.9980825466
 11
7.0599080171
 21
4.9780825466
  0
LINE
  5
22D
100
AcDbEntity
  8
0
100
AcDbLine
 62
7
  6
CONTINUOUS
 10
7.0828090764
 20
4.9780825466
 11
7.0828090764
 21
4.9980825466
  0
LINE
  5
22E
100
AcDbEntity
  8
0
100
AcDbLine
 62
7
  6
CONTINUOUS
 10
7.0992355365
 20
4.9980825466
 11
7.0992355365
 21
4.9780825466
  0
LINE
  5
22F
100
AcDbEntity
  8
0
100
AcDbLine
 62
7
  6
CONTINUOUS
 10
7.115673264
 20
4.9780825466
 11
7.115673264
 21
4.9980825466
  0
LINE
  5
230
100
AcDbEntity
  8
0
100
AcDbLine
 62
7
  6
CONTINUOUS
 10
7.1214414697
 20
4.9980825466
 11
7.1214414697
 21
4.9780825466
  0
LINE
  5
231
100
AcDbEntity
  8
0
100
AcDbLine
 62
7
  6
CONTINUOUS
 10
17.9139423427
 20
5.2080825466
 11
15.5898157577
 21
5.2080825466
  0
LINE
  5
232
100
AcDbEntity
  8
0
100
AcDbLine
 62
7
  6
CONTINUOUS
 10
3.9614423427
 20
5.2080825466
 11
6.2855713509
 21
5.2080825466
  0
LINE
  5
233
100
AcDbEntity
  8
0
100
AcDbLine
 62
7
  6
CONTINUOUS
 10
17.9139423427
 20
5.7080825466
 11
15.5898134058
 21
5.7080825466
  0
LINE
  5
234
100
AcDbEntity
  8
0
100
AcDbLine
 62
7
  6
CONTINUOUS
 10
3.9614423427
 20
5.7080825466
 11
6.2855689426
 21
5.7080825466
  0
LINE
  5
235
100
AcDbEntity
  8
0
100
AcDbLine
 62
7
  6
CONTINUOUS
 10
7.5936923427
 20
6.0880825466
 11
7.5936923427
 21
4.9980825466
  0
LINE
  5
236
100
AcDbEntity
  8
0
100
AcDbLine
 62
7
  6
CONTINUOUS
 10
7.5939423427
 20
4.9780825466
 11
7.5939423427
 21
3.8700825466
  0
LINE
  5
237
100
AcDbEntity
  8
0
100
AcDbLine
 62
9
  6
CONTINUOUS
 10
15.5936923427
 20
6.0880825466
 11
14.2816923427
 21
6.0880825466
  0
LINE
  5
238
100
AcDbEntity
  8
0
100
AcDbLine
 62
9
  6
CONTINUOUS
 10
7.5936923427
 20
6.0880825466
 11
6.2816923427
 21
6.0880825466
  0
LINE
  5
239
100
AcDbEntity
  8
0
100
AcDbLine
 62
7
  6
CONTINUOUS
 10
15.5636918787
 20
6.1180825466
 11
14.3116928068
 21
6.1180825466
  0
LINE
  5
23A
100
AcDbEntity
  8
0
100
AcDbLine
 62
7
  6
CONTINUOUS
 10
7.5636918787
 20
6.1180825466
 11
6.3116928068
 21
6.1180825466
  0
LINE
  5
23B
100
AcDbEntity
  8
0
100
AcDbLine
 62
7
  6
CONTINUOUS
 10
8.1251923427
 20
3.8700825466
 11
8.1251923427
 21
3.4950825466
  0
LINE
  5
23C
100
AcDbEntity
  8
0
100
AcDbLine
 62
9
  6
CONTINUOUS
 10
11.6176923427
 20
6.6500825466
 11
10.2576923427
 21
6.6500825466
  0
LINE
  5
23D
100
AcDbEntity
  8
0
100
AcDbLine
 62
7
  6
CONTINUOUS
 10
11.5876923427
 20
6.6800825466
 11
10.2876923427
 21
6.6800825466
  0
LINE
  5
23E
100
AcDbEntity
  8
0
100
AcDbLine
 62
7
  6
CONTINUOUS
 10
9.7501923427
 20
3.8700825466
 11
9.7501923427
 21
3.4950825466
  0
LINE
  5
23F
100
AcDbEntity
  8
0
100
AcDbLine
 62
7
  6
CONTINUOUS
 10
10.2576923427
 20
6.6500825466
 11
10.2576923427
 21
3.8700825466
  0
LINE
  5
240
100
AcDbEntity
  8
0
100
AcDbLine
 62
7
  6
CONTINUOUS
 10
10.5001923427
 20
6.6800825466
 11
10.5001923427
 21
14.6120825466
  0
LINE
  5
241
100
AcDbEntity
  8
0
100
AcDbLine
 62
7
  6
CONTINUOUS
 10
11.3751923427
 20
6.6800825466
 11
11.3751923427
 21
14.6120825466
  0
LINE
  5
242
100
AcDbEntity
  8
0
100
AcDbLine
 62
7
  6
CONTINUOUS
 10
11.6176923427
 20
6.6500825466
 11
11.6176923427
 21
3.8700825466
  0
LINE
  5
243
100
AcDbEntity
  8
0
100
AcDbLine
 62
7
  6
CONTINUOUS
 10
10.5001923427
 20
9.4900825466
 11
11.3751923427
 21
9.4900825466
  0
LINE
  5
244
100
AcDbEntity
  8
0
100
AcDbLine
 62
7
  6
CONTINUOUS
 10
12.1251923427
 20
3.8700825466
 11
12.1251923427
 21
3.4950825466
  0
LINE
  5
245
100
AcDbEntity
  8
0
100
AcDbLine
 62
7
  6
CONTINUOUS
 10
11.3751923427
 20
10.3000825466
 11
10.5001923427
 21
10.3000825466
  0
LINE
  5
246
100
AcDbEntity
  8
0
100
AcDbLine
 62
9
  6
CONTINUOUS
 10
11.3751923427
 20
11.0490825466
 11
10.5001923427
 21
11.0490825466
  0
LINE
  5
247
100
AcDbEntity
  8
0
100
AcDbLine
 62
7
  6
CONTINUOUS
 10
13.7501923427
 20
3.8700825466
 11
13.7501923427
 21
3.4950825466
  0
LINE
  5
248
100
AcDbEntity
  8
0
100
AcDbLine
 62
7
  6
CONTINUOUS
 10
14.2814423427
 20
4.9780825466
 11
14.2814423427
 21
3.8700825466
  0
LINE
  5
249
100
AcDbEntity
  8
0
100
AcDbLine
 62
7
  6
CONTINUOUS
 10
14.2816923427
 20
6.0880825466
 11
14.2816923427
 21
4.9980825466
  0
LINE
  5
24A
100
AcDbEntity
  8
0
100
AcDbLine
 62
7
  6
CONTINUOUS
 10
14.7539432158
 20
4.9780825466
 11
14.7539432158
 21
4.9980825466
  0
LINE
  5
24B
100
AcDbEntity
  8
0
100
AcDbLine
 62
7
  6
CONTINUOUS
 10
14.7597114215
 20
4.9980825466
 11
14.7597114215
 21
4.9780825466
  0
LINE
  5
24C
100
AcDbEntity
  8
0
100
AcDbLine
 62
7
  6
CONTINUOUS
 10
14.776149149
 20
4.9780825466
 11
14.776149149
 21
4.9980825466
  0
LINE
  5
24D
100
AcDbEntity
  8
0
100
AcDbLine
 62
7
  6
CONTINUOUS
 10
14.7925756091
 20
4.9980825466
 11
14.7925756091
 21
4.9780825466
  0
LINE
  5
24E
100
AcDbEntity
  8
0
100
AcDbLine
 62
7
  6
CONTINUOUS
 10
14.8154766683
 20
4.9780825466
 11
14.8154766683
 21
4.9980825466
  0
LINE
  5
24F
100
AcDbEntity
  8
0
100
AcDbLine
 62
7
  6
CONTINUOUS
 10
14.822948569
 20
4.9780825466
 11
14.822948569
 21
4.9980825466
  0
LINE
  5
250
100
AcDbEntity
  8
0
100
AcDbLine
 62
7
  6
CONTINUOUS
 10
14.8475325038
 20
4.9980825466
 11
14.8475325038
 21
4.9780825466
  0
LINE
  5
251
100
AcDbEntity
  8
0
100
AcDbLine
 62
7
  6
CONTINUOUS
 10
14.8663420556
 20
4.9780825466
 11
14.8663420556
 21
4.9980825466
  0
LINE
  5
252
100
AcDbEntity
  8
0
100
AcDbLine
 62
7
  6
CONTINUOUS
 10
14.8841220533
 20
4.9980825466
 11
14.8841220533
 21
4.9780825466
  0
LINE
  5
253
100
AcDbEntity
  8
0
100
AcDbLine
 62
7
  6
CONTINUOUS
 10
14.8872166885
 20
4.9780825466
 11
14.8872166885
 21
4.9980825466
  0
LINE
  5
254
100
AcDbEntity
  8
0
100
AcDbLine
 62
7
  6
CONTINUOUS
 10
14.9162154168
 20
4.9980825466
 11
14.9162154168
 21
4.9780825466
  0
LINE
  5
255
100
AcDbEntity
  8
0
100
AcDbLine
 62
7
  6
CONTINUOUS
 10
14.9280698774
 20
4.9780825466
 11
14.9280698774
 21
4.9980825466
  0
LINE
  5
256
100
AcDbEntity
  8
0
100
AcDbLine
 62
7
  6
CONTINUOUS
 10
14.9473148081
 20
4.9980825466
 11
14.9473148081
 21
4.9780825466
  0
LINE
  5
257
100
AcDbEntity
  8
0
100
AcDbLine
 62
7
  6
CONTINUOUS
 10
14.9591692687
 20
4.9780825466
 11
14.9591692687
 21
4.9980825466
  0
LINE
  5
258
100
AcDbEntity
  8
0
100
AcDbLine
 62
7
  6
CONTINUOUS
 10
14.988167997
 20
4.9980825466
 11
14.988167997
 21
4.9780825466
  0
LINE
  5
259
100
AcDbEntity
  8
0
100
AcDbLine
 62
7
  6
CONTINUOUS
 10
14.9912626322
 20
4.9780825466
 11
14.9912626322
 21
4.9980825466
  0
LINE
  5
25A
100
AcDbEntity
  8
0
100
AcDbLine
 62
7
  6
CONTINUOUS
 10
15.0090426298
 20
4.9980825466
 11
15.0090426298
 21
4.9780825466
  0
LINE
  5
25B
100
AcDbEntity
  8
0
100
AcDbLine
 62
7
  6
CONTINUOUS
 10
15.0278521816
 20
4.9780825466
 11
15.0278521816
 21
4.9980825466
  0
LINE
  5
25C
100
AcDbEntity
  8
0
100
AcDbLine
 62
7
  6
CONTINUOUS
 10
15.0524361165
 20
4.9980825466
 11
15.0524361165
 21
4.9780825466
  0
LINE
  5
25D
100
AcDbEntity
  8
0
100
AcDbLine
 62
7
  6
CONTINUOUS
 10
15.0599080171
 20
4.9980825466
 11
15.0599080171
 21
4.9780825466
  0
LINE
  5
25E
100
AcDbEntity
  8
0
100
AcDbLine
 62
7
  6
CONTINUOUS
 10
15.0828090764
 20
4.9780825466
 11
15.0828090764
 21
4.9980825466
  0
LINE
  5
25F
100
AcDbEntity
  8
0
100
AcDbLine
 62
7
  6
CONTINUOUS
 10
15.0992355365
 20
4.9980825466
 11
15.0992355365
 21
4.9780825466
  0
LINE
  5
260
100
AcDbEntity
  8
0
100
AcDbLine
 62
7
  6
CONTINUOUS
 10
15.115673264
 20
4.9780825466
 11
15.115673264
 21
4.9980825466
  0
LINE
  5
261
100
AcDbEntity
  8
0
100
AcDbLine
 62
7
  6
CONTINUOUS
 10
15.1214414697
 20
4.9980825466
 11
15.1214414697
 21
4.9780825466
  0
LINE
  5
262
100
AcDbEntity
  8
0
100
AcDbLine
 62
7
  6
CONTINUOUS
 10
15.5936923427
 20
6.0880825466
 11
15.5936923427
 21
5.7180825466
  0
LINE
  5
263
100
AcDbEntity
  8
0
100
AcDbLine
 62
7
  6
CONTINUOUS
 10
15.5936923427
 20
5.1980825466
 11
15.5936923427
 21
4.9980825466
  0
LINE
  5
264
100
AcDbEntity
  8
0
100
AcDbLine
 62
7
  6
CONTINUOUS
 10
15.5939423427
 20
4.9780825466
 11
15.5939423427
 21
3.8700825466
  0
LINE
  5
265
100
AcDbEntity
  8
0
100
AcDbLine
 62
7
  6
CONTINUOUS
 10
16.1251923427
 20
3.8700825466
 11
16.1251923427
 21
3.4950825466
  0
LINE
  5
266
100
AcDbEntity
  8
0
100
AcDbLine
 62
9
  6
CONTINUOUS
 10
17.9139423427
 20
5.2080825466
 11
17.9139423427
 21
5.7080825466
  0
LINE
  5
267
100
AcDbEntity
  8
0
100
AcDbLine
 62
7
  6
CONTINUOUS
 10
17.9439423427
 20
5.2380825466
 11
17.9439423427
 21
5.6780814171
  0
ARC
  5
268
100
AcDbEntity
  8
0
100
AcDbCircle
 62
7
  6
CONTINUOUS
 10
10.9376923427
 20
14.6120825466
 40
0.4375
100
AcDbArc
 50
0.0
 51
180.0
  0
ARC
  5
269
100
AcDbEntity
  8
0
100
AcDbCircle
 62
7
  6
CONTINUOUS
 10
3.9614423427
 20
5.2380825466
 40
0.03
100
AcDbArc
 50
180.0
 51
270.0
  0
ARC
  5
26A
100
AcDbEntity
  8
0
100
AcDbCircle
 62
7
  6
CONTINUOUS
 10
3.9614423427
 20
5.6780825466
 40
0.03
100
AcDbArc
 50
90.0
 51
180.0
  0
ARC
  5
26B
100
AcDbEntity
  8
0
100
AcDbCircle
 62
7
  6
CONTINUOUS
 10
17.9139423427
 20
5.2380825466
 40
0.03
100
AcDbArc
 50
270.0
 51
360.0
  0
ARC
  5
26C
100
AcDbEntity
  8
0
100
AcDbCircle
 62
7
  6
CONTINUOUS
 10
17.9139423427
 20
5.6780825466
 40
0.03
100
AcDbArc
 50
0.0
 51
90.0
  0
ARC
  5
26D
100
AcDbEntity
  8
0
100
AcDbCircle
 62
7
  6
CONTINUOUS
 10
6.3116923427
 20
6.0880825466
 40
0.03
100
AcDbArc
 50
90.0
 51
180.0
  0
ARC
  5
26E
100
AcDbEntity
  8
0
100
AcDbCircle
 62
7
  6
CONTINUOUS
 10
7.5636923427
 20
6.0880825466
 40
0.03
100
AcDbArc
 50
0.0
 51
90.0
  0
ARC
  5
26F
100
AcDbEntity
  8
0
100
AcDbCircle
 62
7
  6
CONTINUOUS
 10
15.5636923427
 20
6.0880825466
 40
0.03
100
AcDbArc
 50
0.0
 51
90.0
  0
ARC
  5
270
100
AcDbEntity
  8
0
100
AcDbCircle
 62
7
  6
CONTINUOUS
 10
14.3116923427
 20
6.0880825466
 40
0.03
100
AcDbArc
 50
90.0
 51
180.0
  0
ARC
  5
271
100
AcDbEntity
  8
0
100
AcDbCircle
 62
7
  6
CONTINUOUS
 10
10.2876923427
 20
6.6500825466
 40
0.03
100
AcDbArc
 50
90.0
 51
180.0
  0
ARC
  5
272
100
AcDbEntity
  8
0
100
AcDbCircle
 62
7
  6
CONTINUOUS
 10
11.5876923427
 20
6.6500825466
 40
0.03
100
AcDbArc
 50
0.0
 51
90.0
  0
SPLINE
  5
273
100
AcDbEntity
  8
0
100
AcDbSpline
 62
7
  6
CONTINUOUS
 70
0
 71
3
 72
46
 73
42
 74
0
 42
0.0000001
 43
0.0000001
 44
0.0000000001
 40
0.0
 40
0.0
 40
0.0
 40
0.0
 40
0.0963779224
 40
0.1443128419
 40
0.1918894593
 40
0.238992645
 40
0.2855212986
 40
0.3313724047
 40
0.3764448244
 40
0.4638807466
 40
0.5470866965
 40
0.6253720742
 40
0.6980693431
 40
0.7645123543
 40
0.7951775113
 40
0.8240253874
 40
0.8509709754
 40
0.8759283739
 40
0.8988149806
 40
0.9195522381
 40
0.938061271
 40
0.9542652786
 40
0.9614830937
 40
0.9681019029
 40
0.9741145338
 40
0.9795138012
 40
0.9842925081
 40
0.9884437811
 40
0.9919635874
 40
0.9948493332
 40
0.9960536258
 40
0.997098434
 40
0.9979834346
 40
0.9987083041
 40
0.999272719
 40
0.9994946549
 40
0.9996763558
 40
0.9998177812
 40
0.9999188907
 40
0.9999796438
 40
1.0
 40
1.0
 40
1.0
 40
1.0
 10
6.3354166584
 20
5.4580825466
 30
0.0
 10
6.3354166584
 20
5.4495016
 30
0.0
 10
6.3351390005
 20
5.4366506608
 30
0.0
 10
6.3342322864
 20
5.419589168
 30
0.0
 10
6.3332913939
 20
5.4069254468
 30
0.0
 10
6.3321015423
 20
5.3944086282
 30
0.0
 10
6.3306796043
 20
5.3820707205
 30
0.0
 10
6.329041254
 20
5.369942112
 30
0.0
 10
6.326614434
 20
5.3542477326
 30
0.0
 10
6.3231664247
 20
5.3353493958
 30
0.0
 10
6.3184605184
 20
5.3136879547
 30
0.0
 10
6.3134168941
 20
5.293453312
 30
0.0
 10
6.308225483
 20
5.2748018866
 30
0.0
 10
6.3038227574
 20
5.2603372294
 30
0.0
 10
6.3003873552
 20
5.2496618221
 30
0.0
 10
6.2979590918
 20
5.2423569419
 30
0.0
 10
6.2956310139
 20
5.2355546184
 30
0.0
 10
6.2934249232
 20
5.2292717689
 30
0.0
 10
6.2913608625
 20
5.2235250695
 30
0.0
 10
6.2894567448
 20
5.2183310971
 30
0.0
 10
6.2877304286
 20
5.2137057491
 30
0.0
 10
6.2864082366
 20
5.2102144255
 30
0.0
 10
6.2854525872
 20
5.2077163288
 30
0.0
 10
6.2848177672
 20
5.206067015
 30
0.0
 10
6.2842382748
 20
5.2045699018
 30
0.0
 10
6.2837156467
 20
5.2032264577
 30
0.0
 10
6.2832513793
 20
5.2020381352
 30
0.0
 10
6.2828469495
 20
5.2010060898
 30
0.0
 10
6.2825032259
 20
5.2001312731
 30
0.0
 10
6.2822548719
 20
5.1995008942
 30
0.0
 10
6.282086982
 20
5.1990756594
 30
0.0
 10
6.2819843862
 20
5.1988161622
 30
0.0
 10
6.2818973884
 20
5.1985963972
 30
0.0
 10
6.2818260321
 20
5.1984164444
 30
0.0
 10
6.2817764168
 20
5.1982913704
 30
0.0
 10
6.2817445361
 20
5.1982113016
 30
0.0
 10
6.2817266977
 20
5.1981661526
 30
0.0
 10
6.2817124752
 20
5.1981312041
 30
0.0
 10
6.2817030518
 20
5.1981057913
 30
0.0
 10
6.2816960357
 20
5.1980912982
 30
0.0
 10
6.2816943984
 20
5.1980839947
 30
0.0
 10
6.2816932908
 20
5.1980825601
 30
0.0
  0
SPLINE
  5
274
100
AcDbEntity
  8
0
100
AcDbSpline
 62
7
  6
CONTINUOUS
 70
0
 71
3
 72
46
 73
42
 74
0
 42
0.0000001
 43
0.0000001
 44
0.0000000001
 40
0.0
 40
0.0
 40
0.0
 40
0.0
 40
0.0000200847
 40
0.0000806242
 40
0.0001815803
 40
0.0003229075
 40
0.0005045603
 40
0.0007264935
 40
0.0012910192
 40
0.0020161215
 40
0.0029014376
 40
0.0039466047
 40
0.00515126
 40
0.0080375859
 40
0.0115575167
 40
0.0157081562
 40
0.020486156
 40
0.025885268
 40
0.0318981113
 40
0.0385173138
 40
0.0457355161
 40
0.0619395412
 40
0.0804487124
 40
0.1011872335
 40
0.1240751903
 40
0.1490331979
 40
0.1759792892
 40
0.2048275705
 40
0.2354928158
 40
0.30193534
 40
0.3746315454
 40
0.4529156561
 40
0.5361190276
 40
0.6235527154
 40
0.668624137
 40
0.7144741361
 40
0.7610019647
 40
0.80810505
 40
0.8556826928
 40
0.9036192421
 40
1.0
 40
1.0
 40
1.0
 40
1.0
 10
6.2816932974
 20
5.7180825337
 30
0.0
 10
6.2816921856
 20
5.7180839343
 30
0.0
 10
6.2816991533
 20
5.7180697802
 30
0.0
 10
6.2817009546
 20
5.7180620091
 30
0.0
 10
6.2817133149
 20
5.7180328233
 30
0.0
 10
6.2817262205
 20
5.7179995838
 30
0.0
 10
6.281744565
 20
5.7179537967
 30
0.0
 10
6.2817762198
 20
5.7178740393
 30
0.0
 10
6.2818260313
 20
5.7177487442
 30
0.0
 10
6.2818973803
 20
5.7175688416
 30
0.0
 10
6.2819844779
 20
5.7173489873
 30
0.0
 10
6.2820871445
 20
5.7170894331
 30
0.0
 10
6.2822551382
 20
5.7166641087
 30
0.0
 10
6.2825035638
 20
5.7160336596
 30
0.0
 10
6.2828472594
 20
5.7151588236
 30
0.0
 10
6.2832514694
 20
5.714126809
 30
0.0
 10
6.2837154764
 20
5.7129385278
 30
0.0
 10
6.2842379326
 20
5.7115950791
 30
0.0
 10
6.2848173095
 20
5.7100978784
 30
0.0
 10
6.2854520526
 20
5.7084484405
 30
0.0
 10
6.2864076011
 20
5.7059502294
 30
0.0
 10
6.2877295831
 20
5.7024587751
 30
0.0
 10
6.2894560359
 20
5.6978333447
 30
0.0
 10
6.2913607598
 20
5.6926393348
 30
0.0
 10
6.2934254615
 20
5.6868925605
 30
0.0
 10
6.2956318362
 20
5.6806095785
 30
0.0
 10
6.2979602049
 20
5.6738072125
 30
0.0
 10
6.3003886083
 20
5.6665022852
 30
0.0
 10
6.3038237457
 20
5.6558267911
 30
0.0
 10
6.3082252001
 20
5.6413618814
 30
0.0
 10
6.3134158452
 20
5.6227105213
 30
0.0
 10
6.3184604022
 20
5.602476575
 30
0.0
 10
6.3231671723
 20
5.5808158632
 30
0.0
 10
6.3266146151
 20
5.5619179417
 30
0.0
 10
6.3290410946
 20
5.5462239048
 30
0.0
 10
6.3306793721
 20
5.5340955515
 30
0.0
 10
6.3321013072
 20
5.5217578271
 30
0.0
 10
6.3332911948
 20
5.5092410037
 30
0.0
 10
6.3342320551
 20
5.4965770532
 30
0.0
 10
6.3351388692
 20
5.4795150791
 30
0.0
 10
6.3354166584
 20
5.4666637448
 30
0.0
 10
6.3354166584
 20
5.4580825466
 30
0.0
  0
SPLINE
  5
275
100
AcDbEntity
  8
0
100
AcDbSpline
 62
7
  6
CONTINUOUS
 70
0
 71
3
 72
46
 73
42
 74
0
 42
0.0000001
 43
0.0000001
 44
0.0000000001
 40
0.0
 40
0.0
 40
0.0
 40
0.0
 40
0.0963779526
 40
0.1443128703
 40
0.1918894568
 40
0.2389925867
 40
0.2855211703
 40
0.3313722035
 40
0.376444572
 40
0.463880438
 40
0.5470863538
 40
0.6253717768
 40
0.6980690747
 40
0.7645121118
 40
0.7951772871
 40
0.8240251896
 40
0.8509708081
 40
0.87592824
 40
0.8988148947
 40
0.9195521976
 40
0.9380612503
 40
0.9542652594
 40
0.9614830795
 40
0.9681018937
 40
0.9741145272
 40
0.9795137923
 40
0.9842924898
 40
0.988443751
 40
0.9919635569
 40
0.99484931
 40
0.9960536079
 40
0.9970984219
 40
0.997983428
 40
0.9987083023
 40
0.9992727208
 40
0.9994946579
 40
0.9996763594
 40
0.999817785
 40
0.9999188939
 40
0.9999796458
 40
1.0
 40
1.0
 40
1.0
 40
1.0
 10
15.5399680271
 20
5.4580825466
 30
0.0
 10
15.5399680271
 20
5.4666634958
 30
0.0
 10
15.5402456812
 20
5.4795144374
 30
0.0
 10
15.5411523881
 20
5.4965759303
 30
0.0
 10
15.5420932755
 20
5.5092396439
 30
0.0
 10
15.5432831231
 20
5.5217564489
 30
0.0
 10
15.5447050591
 20
5.534094339
 30
0.0
 10
15.5463434147
 20
5.5462229293
 30
0.0
 10
15.5487702384
 20
5.5619172917
 30
0.0
 10
15.5522182416
 20
5.5808156169
 30
0.0
 10
15.5569241715
 20
5.6024770489
 30
0.0
 10
15.5619678085
 20
5.6227116916
 30
0.0
 10
15.5671591943
 20
5.6413631329
 30
0.0
 10
15.5715618822
 20
5.6558278083
 30
0.0
 10
15.5749972726
 20
5.666503226
 30
0.0
 10
15.5774255387
 20
5.6738081124
 30
0.0
 10
15.5797536278
 20
5.6806104406
 30
0.0
 10
15.5819597362
 20
5.6868932944
 30
0.0
 10
15.5840238263
 20
5.6926399952
 30
0.0
 10
15.5859279722
 20
5.697833968
 30
0.0
 10
15.587654303
 20
5.7024593167
 30
0.0
 10
15.5889764891
 20
5.7059506451
 30
0.0
 10
15.58993213
 20
5.7084487461
 30
0.0
 10
15.5905669426
 20
5.710098064
 30
0.0
 10
15.5911464263
 20
5.711595181
 30
0.0
 10
15.5916690452
 20
5.7129386278
 30
0.0
 10
15.592133303
 20
5.7141269518
 30
0.0
 10
15.5925377245
 20
5.7151589984
 30
0.0
 10
15.5928814443
 20
5.7160338161
 30
0.0
 10
15.5931297976
 20
5.7166641965
 30
0.0
 10
15.5932976884
 20
5.7170894327
 30
0.0
 10
15.5934002855
 20
5.7173489309
 30
0.0
 10
15.5934872844
 20
5.7175686971
 30
0.0
 10
15.5935586428
 20
5.7177486502
 30
0.0
 10
15.593608258
 20
5.7178737257
 30
0.0
 10
15.5936401418
 20
5.717953793
 30
0.0
 10
15.5936579765
 20
5.7179989454
 30
0.0
 10
15.5936722105
 20
5.7180338849
 30
0.0
 10
15.5936816093
 20
5.7180593171
 30
0.0
 10
15.5936886697
 20
5.718073775
 30
0.0
 10
15.5936902614
 20
5.7180811142
 30
0.0
 10
15.5936913881
 20
5.7180825337
 30
0.0
  0
SPLINE
  5
276
100
AcDbEntity
  8
0
100
AcDbSpline
 62
7
  6
CONTINUOUS
 70
0
 71
3
 72
46
 73
42
 74
0
 42
0.0000001
 43
0.0000001
 44
0.0000000001
 40
0.0
 40
0.0
 40
0.0
 40
0.0
 40
0.0000200818
 40
0.0000806187
 40
0.0001815725
 40
0.000322898
 40
0.0005045495
 40
0.0007264818
 40
0.0012910066
 40
0.002016109
 40
0.0029014259
 40
0.0039465941
 40
0.0051512506
 40
0.0080375774
 40
0.0115575053
 40
0.0157081353
 40
0.0204861192
 40
0.0258852141
 40
0.0318980397
 40
0.0385172249
 40
0.0457354113
 40
0.0619394112
 40
0.0804485691
 40
0.1011870844
 40
0.124075038
 40
0.1490330398
 40
0.1759791164
 40
0.2048273794
 40
0.2354926107
 40
0.301935134
 40
0.3746313743
 40
0.4529155474
 40
0.5361189775
 40
0.6235526978
 40
0.6686241201
 40
0.7144741102
 40
0.7610019278
 40
0.8081050065
 40
0.8556826529
 40
0.9036192143
 40
1.0
 40
1.0
 40
1.0
 40
1.0
 10
15.5936913947
 20
5.1980825601
 30
0.0
 10
15.5936924875
 20
5.198081145
 30
0.0
 10
15.5936855657
 20
5.1980953337
 30
0.0
 10
15.5936837201
 20
5.1981030695
 30
0.0
 10
15.5936713848
 20
5.1981322745
 30
0.0
 10
15.5936584678
 20
5.1981655045
 30
0.0
 10
15.5936401273
 20
5.1982112945
 30
0.0
 10
15.5936084697
 20
5.1982910498
 30
0.0
 10
15.5935586587
 20
5.1984163454
 30
0.0
 10
15.5934873079
 20
5.1985962471
 30
0.0
 10
15.5934002094
 20
5.1988161013
 30
0.0
 10
15.5932975416
 20
5.1990756553
 30
0.0
 10
15.5931295467
 20
5.1995009796
 30
0.0
 10
15.5928811206
 20
5.2001314284
 30
0.0
 10
15.5925374264
 20
5.2010062639
 30
0.0
 10
15.5921332207
 20
5.2020382774
 30
0.0
 10
15.5916692212
 20
5.2032265575
 30
0.0
 10
15.591146774
 20
5.2045700048
 30
0.0
 10
15.5905674065
 20
5.2060672042
 30
0.0
 10
15.5899326722
 20
5.2077166406
 30
0.0
 10
15.5889771334
 20
5.21021485
 30
0.0
 10
15.587655156
 20
5.2137063008
 30
0.0
 10
15.5859286905
 20
5.2183317223
 30
0.0
 10
15.5840239444
 20
5.2235257221
 30
0.0
 10
15.5819592204
 20
5.2292724869
 30
0.0
 10
15.5797528333
 20
5.2355554625
 30
0.0
 10
15.5774244692
 20
5.2423578265
 30
0.0
 10
15.5749960777
 20
5.2496627534
 30
0.0
 10
15.5715609562
 20
5.2603382496
 30
0.0
 10
15.567159497
 20
5.2748031597
 30
0.0
 10
15.5619688435
 20
5.2934545268
 30
0.0
 10
15.5569243075
 20
5.3136884929
 30
0.0
 10
15.5522175441
 20
5.33534922
 30
0.0
 10
15.5487700803
 20
5.3542471459
 30
0.0
 10
15.5463435844
 20
5.3699411827
 30
0.0
 10
15.5447052986
 20
5.3820695333
 30
0.0
 10
15.5432833606
 20
5.3944072551
 30
0.0
 10
15.5420934741
 20
5.4069240775
 30
0.0
 10
15.5411526183
 20
5.4195880293
 30
0.0
 10
15.5402458119
 20
5.4366500078
 30
0.0
 10
15.5399680271
 20
5.4495013458
 30
0.0
 10
15.5399680271
 20
5.4580825466
 30
0.0
  0
ENDSEC
  0
SECTION
  2
OBJECTS
  0
DICTIONARY
  5
C
100
AcDbDictionary
280
0
281
1
  3
ACAD_GROUP
350
D
  3
ACAD_MLINESTYLE
350
17
  3
ACAD_LAYOUT
350
1A
  3
ACAD_PLOTSETTINGS
350
19
  3
ACAD_PLOTSTYLENAME
350
E
  0
DICTIONARY
  5
D
102
{ACAD_REACTORS
330
C
102
}
100
AcDbDictionary
280
0
281
1
  0
ACDBDICTIONARYWDFLT
  5
E
102
{ACAD_REACTORS
330
C
102
}
100
AcDbDictionary
281
1
  3
Normal
350
F
100
AcDbDictionaryWithDefault
340
F
  0
DICTIONARY
  5
17
102
{ACAD_REACTORS
330
C
102
}
100
AcDbDictionary
280
0
281
1
  3
Standard
350
18
  0
DICTIONARY
  5
19
102
{ACAD_REACTORS
330
C
102
}
100
AcDbDictionary
281
1
  0
DICTIONARY
  5
1A
102
{ACAD_REACTORS
330
C
102
}
100
AcDbDictionary
281
1
  3
Model
350
277
  3
Layout1
350
278
  0
ACDBPLACEHOLDER
  5
F
102
{ACAD_REACTORS
330
E
102
}
  0
MLINESTYLE
  5
18
102
{ACAD_REACTORS
330
17
102
}
100
AcDbMlineStyle
  2
STANDARD
 70
0
  3

 62
256
 51
90.0
 52
90.0
 71
2
 49
0.5
 62
256
  6
BYLAYER
 49
-0.5
 62
256
  6
BYLAYER
  0
LAYOUT
  5
277
102
{ACAD_REACTORS
330
1A
102
}
100
AcDbPlotSettings
  1

  2
none_device
  4
ANSI_C_(22.00_x_17.00_Inches)
  6

 40
0.0
 41
0.0
 42
0.0
 43
0.0
 44
558.8
 45
431.8
 46
0.0
 47
0.0
 48
0.0
 49
0.0
140
0.0
141
0.0
142
1.0
143
1.0
 70
1024
 72
0
 73
0
 74
0
  7

 75
0
147
1.0
148
0.0
149
0.0
100
AcDbLayout
  1
Model
 70
0
 71
0
 10
0.0
 20
0.0
 11
22.0
 21
17.0
 12
0.0
 22
0.0
 32
0.0
 14
0.0
 24
0.0
 34
0.0
 15
0.0
 25
0.0
 35
0.0
146
0.0
 13
0.0
 23
0.0
 33
0.0
 16
1.0
 26
0.0
 36
0.0
 17
0.0
 27
1.0
 37
0.0
 76
0
330
202
345
0
346
0
  0
LAYOUT
  5
278
102
{ACAD_REACTORS
330
1A
102
}
100
AcDbPlotSettings
  1

  2
none_device
  4
ANSI_C_(22.00_x_17.00_Inches)
  6

 40
0.0
 41
0.0
 42
0.0
 43
0.0
 44
558.8
 45
431.8
 46
0.0
 47
0.0
 48
0.0
 49
0.0
140
0.0
141
0.0
142
1.0
143
1.0
 70
0
 72
0
 73
0
 74
0
  7

 75
0
147
1.0
148
0.0
149
0.0
100
AcDbLayout
  1
Layout1
 70
0
 71
1
 10
0.0
 20
0.0
 11
22.0
 21
17.0
 12
0.0
 22
0.0
 32
0.0
 14
0.0
 24
0.0
 34
0.0
 15
0.0
 25
0.0
 35
0.0
146
0.0
 13
0.0
 23
0.0
 33
0.0
 16
1.0
 26
0.0
 36
0.0
 17
0.0
 27
1.0
 37
0.0
 76
0
330
203
345
0
346
0
  0
ENDSEC
  0
EOF
