999
DXF file: 1503_TOP.dxf
999
Pro/ENGINEER 2018400 by Parametric Technology Corporation
  0
SECTION
  2
HEADER
  9
$ACADVER
  1
AC1027
  9
$DWGCODEPAGE
  3
ANSI_1252
  9
$EXTMAX
 10
11.0
 20
8.5
 30
0.0
  9
$EXTMIN
 10
0.0
 20
0.0
 30
0.0
  9
$LIMMIN
 10
0.0
 20
0.0
  9
$LIMMAX
 10
11.0
 20
8.5
  9
$VIEWCTR
 10
5.5
 20
4.25
  9
$VIEWSIZE
 40
8.5
  9
$CLAYER
  8
0
  9
$LTSCALE
 40
0.605
  9
$CELTYPE
  6
BYLAYER
  9
$DIMSCALE
 40
1.0
  9
$DIMASZ
 40
0.1
  9
$DIMEXO
 40
0.0625
  9
$DIMDLI
 40
0.418
  9
$DIMEXE
 40
0.125
  9
$DIMCEN
 40
0.099
  9
$DIMLFAC
 40
1.0
  9
$DIMBLK
  1
_FILLED
  9
$DIMALT
 70
1
  9
$DIMALTD
 70
2
  9
$DIMALTTD
 70
2
  9
$DIMALTF
 40
25.4
  9
$DIMTXT
 40
0.08
  9
$DIMTOL
 70
1
  9
$DIMLIM
 70
0
  9
$DIMTFAC
 40
1.0
  9
$DIMTP
 40
0.001
  9
$DIMTM
 40
0.001
  9
$DIMGAP
 40
0.09
  9
$DIMDSEP
 70
46
  9
$AUNITS
 70
0
  9
$PDMODE
 70
3
  9
$PDSIZE
 40
0.3125
  9
$HANDSEED
  5
222
  9
$TILEMODE
 70
1
  9
$MEASUREMENT
 70
0
  9
$INSUNITS
 70
1
  0
ENDSEC
  0
SECTION
  2
CLASSES
  0
CLASS
  1
ACDBDICTIONARYWDFLT
  2
AcDbDictionaryWithDefault
  3
AutoCAD 2000
 90
0
 91
1
280
0
281
0
  0
CLASS
  1
ACDBPLACEHOLDER
  2
AcDbPlaceHolder
  3
AutoCAD 2000
 90
0
 91
1
280
0
281
0
  0
CLASS
  1
LAYOUT
  2
AcDbLayout
  3
AutoCAD 2000
 90
0
 91
0
280
0
281
0
  0
ENDSEC
  0
SECTION
  2
TABLES
  0
TABLE
  2
VPORT
  5
8
100
AcDbSymbolTable
 70
2
  0
VPORT
  5
1F4
100
AcDbSymbolTableRecord
100
AcDbViewportTableRecord
  2
*ACTIVE
 70
0
 10
0.0
 20
0.0
 11
1.0
 21
1.0
 12
5.5
 22
4.25
 13
0.0
 23
0.0
 14
1.0
 24
1.0
 15
0.0
 25
0.0
 16
0.0
 26
0.0
 36
1.0
 17
0.0
 27
0.0
 37
0.0
 40
8.5
 41
1.2941176471
 42
50.0
 43
0.0
 44
0.0
 50
0.0
 51
0.0
 71
0
 72
100
 73
1
 74
1
 75
0
 76
0
 77
0
 78
0
  0
ENDTAB
  0
TABLE
  2
LTYPE
  5
5
100
AcDbSymbolTable
 70
6
  0
LTYPE
  5
14
100
AcDbSymbolTableRecord
100
AcDbLinetypeTableRecord
  2
BYBLOCK
 70
0
  3

 72
65
 73
0
 40
0.0
  0
LTYPE
  5
15
100
AcDbSymbolTableRecord
100
AcDbLinetypeTableRecord
  2
BYLAYER
 70
0
  3

 72
65
 73
0
 40
0.0
  0
LTYPE
  5
16
100
AcDbSymbolTableRecord
100
AcDbLinetypeTableRecord
  2
CONTINUOUS
 70
64
  3
Solid line
 72
65
 73
0
 40
0.0
  0
LTYPE
  5
1F5
100
AcDbSymbolTableRecord
100
AcDbLinetypeTableRecord
  2
CENTER
 70
64
  3
____ _ ____ _ ____ _ ____ _ ____ _ ____ _ ____
 72
65
 73
4
 40
0.6
 49
0.375
 74
0
 49
-0.075
 74
0
 49
0.075
 74
0
 49
-0.075
 74
0
  0
LTYPE
  5
1F6
100
AcDbSymbolTableRecord
100
AcDbLinetypeTableRecord
  2
HIDDEN
 70
64
  3
- - - - - - - - - - - - - - - - - - - -
 72
65
 73
2
 40
0.2
 49
0.1
 74
0
 49
-0.1
 74
0
  0
LTYPE
  5
1F7
100
AcDbSymbolTableRecord
100
AcDbLinetypeTableRecord
  2
PHANTOM
 70
64
  3
_____ _ _ _____ _ _ _____ _ _ _____
 72
65
 73
6
 40
0.8
 49
0.45
 74
0
 49
-0.05
 74
0
 49
0.1
 74
0
 49
-0.05
 74
0
 49
0.1
 74
0
 49
-0.05
 74
0
  0
LTYPE
  5
1F8
100
AcDbSymbolTableRecord
100
AcDbLinetypeTableRecord
  2
DOT
 70
64
  3
. . . . . . . . . . . . . . . . . . . .
 72
65
 73
2
 40
0.2
 49
0.1
 74
0
 49
-0.1
 74
0
  0
LTYPE
  5
1F9
100
AcDbSymbolTableRecord
100
AcDbLinetypeTableRecord
  2
DASHED
 70
64
  3
- - - - - - - - - - - - - - - - - - - -
 72
65
 73
2
 40
0.2
 49
0.1
 74
0
 49
-0.1
 74
0
  0
ENDTAB
  0
TABLE
  2
LAYER
  5
2
100
AcDbSymbolTable
 70
36
  0
LAYER
  5
10
100
AcDbSymbolTableRecord
100
AcDbLayerTableRecord
  2
0
 70
0
 62
7
  6
CONTINUOUS
370
-3
390
F
  0
LAYER
  5
1FA
100
AcDbSymbolTableRecord
100
AcDbLayerTableRecord
  2
DEFAULT_1
 70
0
 62
7
  6
CENTER
370
-3
390
F
  0
LAYER
  5
1FB
100
AcDbSymbolTableRecord
100
AcDbLayerTableRecord
  2
DEFAULT_2
 70
0
 62
8
  6
HIDDEN
370
-3
390
F
  0
LAYER
  5
1FC
100
AcDbSymbolTableRecord
100
AcDbLayerTableRecord
  2
DEFAULT_3
 70
0
 62
7
  6
PHANTOM
370
-3
390
F
  0
LAYER
  5
1FD
100
AcDbSymbolTableRecord
100
AcDbLayerTableRecord
  2
DEFAULT_COORDINATE_SYSTEM
 70
0
 62
7
  6
CONTINUOUS
370
-3
390
F
  0
LAYER
  5
1FE
100
AcDbSymbolTableRecord
100
AcDbLayerTableRecord
  2
DEFAULT_DATUM_AXES
 70
0
 62
7
  6
CONTINUOUS
370
-3
390
F
  0
LAYER
  5
1FF
100
AcDbSymbolTableRecord
100
AcDbLayerTableRecord
  2
DEFAULT_DATUM_PLANES
 70
0
 62
7
  6
CONTINUOUS
370
-3
390
F
  0
ENDTAB
  0
TABLE
  2
STYLE
  5
3
100
AcDbSymbolTable
 70
1
  0
STYLE
  5
11
100
AcDbSymbolTableRecord
100
AcDbTextStyleTableRecord
  2
STANDARD
 70
0
 40
0.0
 41
0.8
 50
0.0
 71
0
 42
0.2
  3
txt
  4

  0
STYLE
  5
200
100
AcDbSymbolTableRecord
100
AcDbTextStyleTableRecord
  2
TEXTSTYLE_1
 70
0
 40
0.0
 41
0.8
 50
0.0
 71
0
 42
0.2
  3
gdt
  4

  0
ENDTAB
  0
TABLE
  2
VIEW
  5
6
100
AcDbSymbolTable
 70
0
  0
ENDTAB
  0
TABLE
  2
UCS
  5
7
100
AcDbSymbolTable
 70
0
  0
ENDTAB
  0
TABLE
  2
APPID
  5
9
100
AcDbSymbolTable
 70
1
  0
APPID
  5
201
100
AcDbSymbolTableRecord
100
AcDbRegAppTableRecord
  2
ACAD
 70
0
  0
ENDTAB
  0
TABLE
  2
BLOCK_RECORD
  5
1
100
AcDbSymbolTable
 70
0
  0
BLOCK_RECORD
  5
202
100
AcDbSymbolTableRecord
100
AcDbBlockTableRecord
  2
*Model_Space
  0
BLOCK_RECORD
  5
203
100
AcDbSymbolTableRecord
100
AcDbBlockTableRecord
  2
*Paper_Space
  0
BLOCK_RECORD
  5
204
100
AcDbSymbolTableRecord
100
AcDbBlockTableRecord
  2
_FILLED
  0
ENDTAB
  0
TABLE
  2
DIMSTYLE
  5
A
100
AcDbSymbolTable
 70
1
100
AcDbDimStyleTable
 71
0
  0
DIMSTYLE
105
205
100
AcDbSymbolTableRecord
100
AcDbDimStyleTableRecord
  2
STANDARD
 70
0
  3

  4

 40
1.0
 41
0.1
 42
0.0625
 43
0.38
 44
0.125
 45
0.0
 46
0.0
 47
0.001
 48
0.001
140
0.08
141
0.09
142
0.0
143
25.4
144
1.0
145
0.0
146
1.0
147
0.09
 71
1.0
 72
0.0
 73
1
 74
1
 75
0
 76
0
 77
0
 78
4
 79
1
170
1
171
2
172
0
173
0
174
0
175
0
176
0
177
0
178
0
270
2
179
3
271
3
272
3
273
2
274
2
275
0
280
0
281
0
282
0
283
1
284
4
285
0
286
0
287
3
288
0
340
11
278
46
341
204
342
204
343
204
344
204
  0
ENDTAB
  0
ENDSEC
  0
SECTION
  2
BLOCKS
  0
BLOCK
  5
20
100
AcDbEntity
  8
0
100
AcDbBlockBegin
  2
*Model_Space
 70
0
 10
0.0
 20
0.0
 30
0.0
  3
*Model_Space
  1

  0
ENDBLK
  5
21
100
AcDbEntity
  8
0
100
AcDbBlockEnd
  0
BLOCK
  5
1C
100
AcDbEntity
  8
0
100
AcDbBlockBegin
  2
*Paper_Space
 70
0
 10
0.0
 20
0.0
 30
0.0
  3
*Paper_Space
  1

  0
ENDBLK
  5
1D
100
AcDbEntity
  8
0
100
AcDbBlockEnd
  0
BLOCK
  5
206
100
AcDbEntity
  8
0
100
AcDbBlockBegin
  2
_FILLED
 70
64
 10
0.0
 20
0.0
  3
_FILLED
  1

  0
SOLID
  5
207
100
AcDbEntity
  8
0
  6
BYBLOCK
 62
0
100
AcDbTrace
 10
0.0
 20
0.0
 11
-1.0
 21
0.2
 12
-1.0
 22
-0.2
 13
-1.0
 23
-0.2
  0
ENDBLK
  5
208
100
AcDbEntity
  8
0
  6
BYBLOCK
 62
0
100
AcDbBlockEnd
  0
ENDSEC
  0
SECTION
  2
ENTITIES
  0
MTEXT
  5
209
100
AcDbEntity
  8
0
100
AcDbMText
 62
2
  6
CONTINUOUS
  7
STANDARD
 71
3
 72
1
 10
5.1195263975
 20
1.7217350228
 30
0.0
 11
1.0
 21
0.0
 31
0.0
 73
2
 44
0.9
  1
SCALE  .500
 40
0.08
 41
0.704
  0
LINE
  5
20A
100
AcDbEntity
  8
0
100
AcDbLine
 62
7
  6
CONTINUOUS
 10
0.0
 20
0.0
 11
0.0
 21
8.5
  0
LINE
  5
20B
100
AcDbEntity
  8
0
100
AcDbLine
 62
7
  6
CONTINUOUS
 10
0.0
 20
0.0
 11
11.0
 21
0.0
  0
LINE
  5
20C
100
AcDbEntity
  8
0
100
AcDbLine
 62
7
  6
CONTINUOUS
 10
0.0
 20
8.5
 11
11.0
 21
8.5
  0
LINE
  5
20D
100
AcDbEntity
  8
0
100
AcDbLine
 62
7
  6
CONTINUOUS
 10
11.0
 20
0.0
 11
11.0
 21
8.5
  0
LINE
  5
20E
100
AcDbEntity
  8
0
100
AcDbLine
 62
7
  6
CONTINUOUS
 10
4.7941847826
 20
3.2387751126
 11
4.5916847826
 21
3.2387751126
  0
LINE
  5
20F
100
AcDbEntity
  8
0
100
AcDbLine
 62
7
  6
CONTINUOUS
 10
4.8091847826
 20
3.2537751126
 11
4.5766847826
 21
3.2537751126
  0
LINE
  5
210
100
AcDbEntity
  8
0
100
AcDbLine
 62
7
  6
CONTINUOUS
 10
4.4179347826
 20
4.666912573
 11
4.4179347826
 21
3.0545378179
  0
LINE
  5
211
100
AcDbEntity
  8
0
100
AcDbLine
 62
7
  6
CONTINUOUS
 10
4.5766847826
 20
4.6033786508
 11
4.5766847826
 21
3.2537751126
  0
LINE
  5
212
100
AcDbEntity
  8
0
100
AcDbLine
 62
7
  6
CONTINUOUS
 10
4.8091847826
 20
4.6033786508
 11
4.8091847826
 21
3.2537751126
  0
LINE
  5
213
100
AcDbEntity
  8
0
100
AcDbLine
 62
7
  6
CONTINUOUS
 10
4.9679347826
 20
3.0545378179
 11
4.9679347826
 21
4.666912573
  0
ARC
  5
214
100
AcDbEntity
  8
0
100
AcDbCircle
 62
7
  6
CONTINUOUS
 10
4.6929347826
 20
5.0587751126
 40
0.5875
100
AcDbArc
 50
297.912049704
 51
242.087950296
  0
ARC
  5
215
100
AcDbEntity
  8
0
100
AcDbCircle
 62
7
  6
CONTINUOUS
 10
4.6929347826
 20
5.0587751126
 40
0.4725
100
AcDbArc
 50
284.2436622045
 51
255.7563377955
  0
CIRCLE
  5
216
100
AcDbEntity
  8
0
100
AcDbCircle
 62
7
  6
CONTINUOUS
 10
4.6929347826
 20
5.0587751126
 40
0.47
  0
CIRCLE
  5
217
100
AcDbEntity
  8
0
100
AcDbCircle
 62
7
  6
CONTINUOUS
 10
4.6929347826
 20
5.0587751126
 40
0.455
  0
ARC
  5
218
100
AcDbEntity
  8
0
100
AcDbCircle
 62
7
  6
CONTINUOUS
 10
4.5916847826
 20
3.2537751126
 40
0.015
100
AcDbArc
 50
180.0
 51
270.0
  0
ARC
  5
219
100
AcDbEntity
  8
0
100
AcDbCircle
 62
7
  6
CONTINUOUS
 10
4.7941847826
 20
3.2537751126
 40
0.015
100
AcDbArc
 50
270.0
 51
360.0
  0
ARC
  5
21A
100
AcDbEntity
  8
0
100
AcDbCircle
 62
7
  6
CONTINUOUS
 10
4.9829347761
 20
4.6669125114
 40
0.0149999997
100
AcDbArc
 50
126.5033332135
 51
179.9997647735
  0
ARC
  5
21B
100
AcDbEntity
  8
0
100
AcDbCircle
 62
7
  6
CONTINUOUS
 10
4.4029348337
 20
4.6669123324
 40
0.0149999974
100
AcDbArc
 50
0.0009190576
 51
53.4972103304
  0
SPLINE
  5
21C
100
AcDbEntity
  8
0
100
AcDbSpline
 62
7
  6
CONTINUOUS
 70
0
 71
3
 72
61
 73
57
 74
0
 42
0.0000001
 43
0.0000001
 44
0.0000000001
 40
0.0
 40
0.0
 40
0.0
 40
0.0
 40
0.0109843024
 40
0.0220123197
 40
0.0331447508
 40
0.0444274695
 40
0.0559067248
 40
0.067628475
 40
0.0796350798
 40
0.0919636524
 40
0.1046473414
 40
0.1177135721
 40
0.1311844917
 40
0.1450765869
 40
0.1594010826
 40
0.1741641039
 40
0.1893670059
 40
0.2050066771
 40
0.22107601
 40
0.2375640709
 40
0.2544567476
 40
0.2717366173
 40
0.289383763
 40
0.3073755349
 40
0.3442886165
 40
0.3822600747
 40
0.421045681
 40
0.4603836268
 40
0.5000005686
 40
0.5396175019
 40
0.5789554214
 40
0.6177409862
 40
0.6557123878
 40
0.6926253993
 40
0.7106171335
 40
0.7282642364
 40
0.745544057
 40
0.7624366903
 40
0.778924695
 40
0.7949939828
 40
0.8106335922
 40
0.8258364465
 40
0.8405994044
 40
0.8549238491
 40
0.8688158849
 40
0.882286752
 40
0.8953529293
 40
0.9080365699
 40
0.9203650919
 40
0.9323716562
 40
0.9440933702
 40
0.955572594
 40
0.9668552683
 40
0.9779876877
 40
0.9890157369
 40
1.0
 40
1.0
 40
1.0
 40
1.0
 10
4.9679347826
 20
3.0545378179
 30
0.0
 10
4.9679347826
 20
3.0520730004
 30
0.0
 10
4.9676946407
 20
3.0471302334
 30
0.0
 10
4.9666177624
 20
3.0397602036
 30
0.0
 10
4.9648345211
 20
3.0324593867
 30
0.0
 10
4.9623598497
 20
3.0252568034
 30
0.0
 10
4.9592111899
 20
3.0181781351
 30
0.0
 10
4.9554091774
 20
3.0112430238
 30
0.0
 10
4.9509739119
 20
3.0044668139
 30
0.0
 10
4.9459249174
 20
2.9978618329
 30
0.0
 10
4.9402811687
 20
2.9914381532
 30
0.0
 10
4.9340607376
 20
2.9852044151
 30
0.0
 10
4.9272812097
 20
2.9791686941
 30
0.0
 10
4.91995998
 20
2.9733388348
 30
0.0
 10
4.9121146197
 20
2.9677227574
 30
0.0
 10
4.9037631744
 20
2.9623285034
 30
0.0
 10
4.8949243561
 20
2.9571643728
 30
0.0
 10
4.885617804
 20
2.9522386969
 30
0.0
 10
4.8758640755
 20
2.9475600348
 30
0.0
 10
4.8656848525
 20
2.9431366869
 30
0.0
 10
4.8551027893
 20
2.9389771295
 30
0.0
 10
4.8441417413
 20
2.9350892692
 30
0.0
 10
4.8328263886
 20
2.9314810669
 30
0.0
 10
4.8171684778
 20
2.9270149046
 30
0.0
 10
4.7968786967
 20
2.9221987435
 30
0.0
 10
4.77176163
 20
2.9176881126
 30
0.0
 10
4.7459024235
 20
2.9144370986
 30
0.0
 10
4.7195440162
 20
2.9124747164
 30
0.0
 10
4.6929344016
 20
2.9118186206
 30
0.0
 10
4.6663247939
 20
2.9124747553
 30
0.0
 10
4.6399664065
 20
2.9144371747
 30
0.0
 10
4.6141072326
 20
2.9176882232
 30
0.0
 10
4.5889902094
 20
2.9221988835
 30
0.0
 10
4.5687004718
 20
2.9270150677
 30
0.0
 10
4.5530425989
 20
2.9314812397
 30
0.0
 10
4.54172728
 20
2.9350894525
 30
0.0
 10
4.5307662672
 20
2.9389773208
 30
0.0
 10
4.5201842402
 20
2.9431368794
 30
0.0
 10
4.5100050565
 20
2.9475602361
 30
0.0
 10
4.5002513657
 20
2.9522388921
 30
0.0
 10
4.4909448558
 20
2.9571645734
 30
0.0
 10
4.4821060762
 20
2.9623286934
 30
0.0
 10
4.4737546731
 20
2.9677229457
 30
0.0
 10
4.4659093514
 20
2.97333901
 30
0.0
 10
4.4585881608
 20
2.9791688597
 30
0.0
 10
4.4518086689
 20
2.9852045652
 30
0.0
 10
4.4455882709
 20
2.9914382875
 30
0.0
 10
4.4399445549
 20
2.9978619503
 30
0.0
 10
4.4348955828
 20
3.004466909
 30
0.0
 10
4.4304603435
 20
3.0112431018
 30
0.0
 10
4.4266583448
 20
3.0181781931
 30
0.0
 10
4.4235097057
 20
3.0252568427
 30
0.0
 10
4.4210350315
 20
3.0324594041
 30
0.0
 10
4.4192517993
 20
3.0397602181
 30
0.0
 10
4.4181749273
 20
3.0471302441
 30
0.0
 10
4.4179347826
 20
3.0520730093
 30
0.0
 10
4.4179347826
 20
3.0545378179
 30
0.0
  0
SPLINE
  5
21D
100
AcDbEntity
  8
0
100
AcDbSpline
 62
7
  6
CONTINUOUS
 70
0
 71
3
 72
44
 73
40
 74
0
 42
0.0000001
 43
0.0000001
 44
0.0000000001
 40
0.0
 40
0.0
 40
0.0
 40
0.0
 40
0.1061872119
 40
0.2093523725
 40
0.3089583205
 40
0.4044295477
 40
0.4951294178
 40
0.5803631945
 40
0.6207044484
 40
0.6594040604
 40
0.7314957752
 40
0.7647005711
 40
0.7958944867
 40
0.8249973344
 40
0.8519450965
 40
0.8766774073
 40
0.8991439775
 40
0.9192999473
 40
0.9371319136
 40
0.9526489371
 40
0.9595431641
 40
0.9658642534
 40
0.9716147184
 40
0.9767972413
 40
0.9814157188
 40
0.9854781579
 40
0.9889938874
 40
0.9919728517
 40
0.9944261148
 40
0.995459764
 40
0.9963673858
 40
0.9971515659
 40
0.9978157255
 40
0.9983648034
 40
0.9988067096
 40
0.9991555725
 40
0.9994383789
 40
0.9997016855
 40
1.0
 40
1.0
 40
1.0
 40
1.0
 10
4.5766841463
 20
4.5937383404
 30
0.0
 10
4.5706646234
 20
4.595310478
 30
0.0
 10
4.5588583523
 20
4.5986510571
 30
0.0
 10
4.5416450326
 20
4.6042658989
 30
0.0
 10
4.5252458959
 20
4.6103112039
 30
0.0
 10
4.5097542815
 20
4.6166729932
 30
0.0
 10
4.4952584723
 20
4.6232165456
 30
0.0
 10
4.4838792994
 20
4.6287962143
 30
0.0
 10
4.4753341148
 20
4.6332257506
 30
0.0
 10
4.4675304283
 20
4.6374106452
 30
0.0
 10
4.4601726093
 20
4.6415405329
 30
0.0
 10
4.4532671174
 20
4.6455736301
 30
0.0
 10
4.4485645491
 20
4.6483838686
 30
0.0
 10
4.4442001813
 20
4.6510449417
 30
0.0
 10
4.4401785965
 20
4.653540679
 30
0.0
 10
4.4365027087
 20
4.6558558784
 30
0.0
 10
4.4331737358
 20
4.6579750958
 30
0.0
 10
4.4301897199
 20
4.6598833233
 30
0.0
 10
4.4275486158
 20
4.6615720074
 30
0.0
 10
4.425559942
 20
4.6628387083
 30
0.0
 10
4.4241365196
 20
4.6637374529
 30
0.0
 10
4.4231945215
 20
4.6643268572
 30
0.0
 10
4.42233442
 20
4.6648580534
 30
0.0
 10
4.4215552854
 20
4.6653304611
 30
0.0
 10
4.4208559362
 20
4.6657436166
 30
0.0
 10
4.420235437
 20
4.6660981116
 30
0.0
 10
4.4196926348
 20
4.6663947905
 30
0.0
 10
4.4192263097
 20
4.6666344673
 30
0.0
 10
4.4188833521
 20
4.6667957344
 30
0.0
 10
4.4186458363
 20
4.6668952295
 30
0.0
 10
4.418496427
 20
4.6669516982
 30
0.0
 10
4.4183651454
 20
4.6669945481
 30
0.0
 10
4.418251759
 20
4.6670239162
 30
0.0
 10
4.4181559538
 20
4.6670400027
 30
0.0
 10
4.4180771845
 20
4.6670428961
 30
0.0
 10
4.4180145059
 20
4.6670325458
 30
0.0
 10
4.4179670356
 20
4.6670066809
 30
0.0
 10
4.4179389765
 20
4.6669635945
 30
0.0
 10
4.4179348063
 20
4.666930051
 30
0.0
 10
4.4179347826
 20
4.666912573
 30
0.0
  0
SPLINE
  5
21E
100
AcDbEntity
  8
0
100
AcDbSpline
 62
7
  6
CONTINUOUS
 70
0
 71
3
 72
43
 73
39
 74
0
 42
0.0000001
 43
0.0000001
 44
0.0000000001
 40
0.0
 40
0.0
 40
0.0
 40
0.0
 40
0.0003010311
 40
0.0005666434
 40
0.0008507923
 40
0.0012000904
 40
0.0016418823
 40
0.0021905947
 40
0.002854345
 40
0.0036382222
 40
0.0045457665
 40
0.0055796646
 40
0.0080346572
 40
0.0110165789
 40
0.014535489
 40
0.0186001911
 40
0.0232188057
 40
0.0283987187
 40
0.0341449542
 40
0.0404615248
 40
0.0473523078
 40
0.0628705427
 40
0.0807108907
 40
0.1008697128
 40
0.1233308185
 40
0.1480575113
 40
0.1750059198
 40
0.2041126768
 40
0.2353093557
 40
0.2685149825
 40
0.3406031676
 40
0.4196429292
 40
0.5048786301
 40
0.5955757404
 40
0.691045402
 40
0.7906523071
 40
0.8938141509
 40
1.0
 40
1.0
 40
1.0
 40
1.0
 10
4.9679347826
 20
4.666912573
 30
0.0
 10
4.9679347829
 20
4.6669302102
 30
0.0
 10
4.9679306502
 20
4.6669640396
 30
0.0
 10
4.967902736
 20
4.66700764
 30
0.0
 10
4.967855328
 20
4.6670341223
 30
0.0
 10
4.9677926207
 20
4.6670450088
 30
0.0
 10
4.9677138319
 20
4.6670425778
 30
0.0
 10
4.9676180078
 20
4.6670268864
 30
0.0
 10
4.9675046028
 20
4.6669978307
 30
0.0
 10
4.9673732987
 20
4.6669551909
 30
0.0
 10
4.9672238633
 20
4.666898808
 30
0.0
 10
4.9669862664
 20
4.6667992122
 30
0.0
 10
4.9666432648
 20
4.6666373434
 30
0.0
 10
4.9661769558
 20
4.6663966311
 30
0.0
 10
4.9656341805
 20
4.6660988812
 30
0.0
 10
4.9650137423
 20
4.6657436264
 30
0.0
 10
4.9643144706
 20
4.6653303695
 30
0.0
 10
4.9635353278
 20
4.6648587364
 30
0.0
 10
4.9626752421
 20
4.6643287819
 30
0.0
 10
4.9617332638
 20
4.6637406925
 30
0.0
 10
4.9603095409
 20
4.6628431627
 30
0.0
 10
4.9583208927
 20
4.6615757432
 30
0.0
 10
4.9556805619
 20
4.6598844982
 30
0.0
 10
4.9526966772
 20
4.6579754342
 30
0.0
 10
4.949367224
 20
4.6558578649
 30
0.0
 10
4.9456911165
 20
4.6535441655
 30
0.0
 10
4.9416698637
 20
4.6510480168
 30
0.0
 10
4.9373057665
 20
4.6483856721
 30
0.0
 10
4.9326032464
 20
4.6455744954
 30
0.0
 10
4.9256979682
 20
4.6415409838
 30
0.0
 10
4.9162785602
 20
4.636255247
 30
0.0
 10
4.9040273265
 20
4.6297950755
 30
0.0
 10
4.8906127727
 20
4.6232160004
 30
0.0
 10
4.8761166057
 20
4.6166734104
 30
0.0
 10
4.8606250564
 20
4.61031211
 30
0.0
 10
4.8442269438
 20
4.6042646236
 30
0.0
 10
4.8270131049
 20
4.5986519229
 30
0.0
 10
4.8152070256
 20
4.5953118477
 30
0.0
 10
4.809187774
 20
4.5937389815
 30
0.0
  0
SPLINE
  5
21F
100
AcDbEntity
  8
0
100
AcDbSpline
 62
7
  6
CONTINUOUS
 70
0
 71
3
 72
59
 73
55
 74
0
 42
0.0000001
 43
0.0000001
 44
0.0000000001
 40
0.0
 40
0.0
 40
0.0
 40
0.0
 40
0.0101418054
 40
0.0203583452
 40
0.0307172638
 40
0.041285522
 40
0.0521242837
 40
0.0632869487
 40
0.074819583
 40
0.0867607629
 40
0.0991413892
 40
0.1119853048
 40
0.1253094595
 40
0.1391248943
 40
0.1534367765
 40
0.1682454516
 40
0.1835464754
 40
0.1993314517
 40
0.2238869475
 40
0.2494486082
 40
0.275947317
 40
0.3033017696
 40
0.331420345
 40
0.3602027539
 40
0.3895415853
 40
0.4193237095
 40
0.4494315787
 40
0.4797444643
 40
0.510139658
 40
0.5404936694
 40
0.5706834112
 40
0.6005873693
 40
0.6300867915
 40
0.6590669135
 40
0.6874182699
 40
0.7150380633
 40
0.7418316158
 40
0.7677139736
 40
0.7926117061
 40
0.8164649799
 40
0.8392299792
 40
0.8608816495
 40
0.88141692
 40
0.9008584154
 40
0.9192585248
 40
0.9367035132
 40
0.9451088006
 40
0.953324918
 40
0.9613732881
 40
0.969277556
 40
0.9770640077
 40
0.9847608258
 40
0.9923966737
 40
1.0
 40
1.0
 40
1.0
 40
1.0
 10
4.4179347826
 20
3.0545378179
 30
0.0
 10
4.4179347826
 20
3.0522863781
 30
0.0
 10
4.4181577523
 20
3.0477638199
 30
0.0
 10
4.4191577577
 20
3.0410081867
 30
0.0
 10
4.4208215766
 20
3.0342869134
 30
0.0
 10
4.423143646
 20
3.0276181512
 30
0.0
 10
4.4261173554
 20
3.0210178769
 30
0.0
 10
4.4297345022
 20
3.0145019975
 30
0.0
 10
4.4339854928
 20
3.0080859671
 30
0.0
 10
4.4388594806
 20
3.0017848651
 30
0.0
 10
4.4443441004
 20
2.9956131619
 30
0.0
 10
4.4504261158
 20
2.9895854405
 30
0.0
 10
4.4570905066
 20
2.9837154507
 30
0.0
 10
4.4643214443
 20
2.9780172156
 30
0.0
 10
4.4721013588
 20
2.9725037993
 30
0.0
 10
4.4804117631
 20
2.9671884779
 30
0.0
 10
4.4892326933
 20
2.9620835592
 30
0.0
 10
4.5001748881
 20
2.9563457354
 30
0.0
 10
4.5134583799
 20
2.9501951398
 30
0.0
 10
4.5292624891
 20
2.9438888785
 30
0.0
 10
4.5459495836
 20
2.9381798207
 30
0.0
 10
4.56342968
 20
2.9330987081
 30
0.0
 10
4.5816088012
 20
2.9286728876
 30
0.0
 10
4.6003889621
 20
2.924926228
 30
0.0
 10
4.619668882
 20
2.9218789582
 30
0.0
 10
4.6393445144
 20
2.9195475598
 30
0.0
 10
4.6593096318
 20
2.9179446586
 30
0.0
 10
4.6794564048
 20
2.917078954
 30
0.0
 10
4.6996759953
 20
2.9169551483
 30
0.0
 10
4.7198591637
 20
2.9175738887
 30
0.0
 10
4.7398968766
 20
2.9189318143
 30
0.0
 10
4.7596809047
 20
2.921021569
 30
0.0
 10
4.7791044146
 20
2.9238318442
 30
0.0
 10
4.7980625583
 20
2.9273474566
 30
0.0
 10
4.8164530695
 20
2.9315493914
 30
0.0
 10
4.8341768348
 20
2.9364149477
 30
0.0
 10
4.851138436
 20
2.9419179095
 30
0.0
 10
4.8672466737
 20
2.948028717
 30
0.0
 10
4.8824150666
 20
2.954714683
 30
0.0
 10
4.8965623278
 20
2.961940246
 30
0.0
 10
4.9096128006
 20
2.9696672034
 30
0.0
 10
4.9214967849
 20
2.9778551638
 30
0.0
 10
4.9321506484
 20
2.98646173
 30
0.0
 10
4.941517154
 20
2.9954434582
 30
0.0
 10
4.9495442203
 20
3.0047540374
 30
0.0
 10
4.9551486128
 20
3.0128496212
 30
0.0
 10
4.9588839819
 20
3.0194299773
 30
0.0
 10
4.9612905642
 20
3.024353617
 30
0.0
 10
4.9633332087
 20
3.0293190868
 30
0.0
 10
4.9650086534
 20
3.0343199591
 30
0.0
 10
4.966314595
 20
3.039349363
 30
0.0
 10
4.9672487991
 20
3.0444005398
 30
0.0
 10
4.9678098063
 20
3.0494655672
 30
0.0
 10
4.9679347826
 20
3.0528499102
 30
0.0
 10
4.9679347826
 20
3.0545378179
 30
0.0
  0
ENDSEC
  0
SECTION
  2
OBJECTS
  0
DICTIONARY
  5
C
100
AcDbDictionary
280
0
281
1
  3
ACAD_GROUP
350
D
  3
ACAD_MLINESTYLE
350
17
  3
ACAD_LAYOUT
350
1A
  3
ACAD_PLOTSETTINGS
350
19
  3
ACAD_PLOTSTYLENAME
350
E
  0
DICTIONARY
  5
D
102
{ACAD_REACTORS
330
C
102
}
100
AcDbDictionary
280
0
281
1
  0
ACDBDICTIONARYWDFLT
  5
E
102
{ACAD_REACTORS
330
C
102
}
100
AcDbDictionary
281
1
  3
Normal
350
F
100
AcDbDictionaryWithDefault
340
F
  0
DICTIONARY
  5
17
102
{ACAD_REACTORS
330
C
102
}
100
AcDbDictionary
280
0
281
1
  3
Standard
350
18
  0
DICTIONARY
  5
19
102
{ACAD_REACTORS
330
C
102
}
100
AcDbDictionary
281
1
  0
DICTIONARY
  5
1A
102
{ACAD_REACTORS
330
C
102
}
100
AcDbDictionary
281
1
  3
Model
350
220
  3
Layout1
350
221
  0
ACDBPLACEHOLDER
  5
F
102
{ACAD_REACTORS
330
E
102
}
  0
MLINESTYLE
  5
18
102
{ACAD_REACTORS
330
17
102
}
100
AcDbMlineStyle
  2
STANDARD
 70
0
  3

 62
256
 51
90.0
 52
90.0
 71
2
 49
0.5
 62
256
  6
BYLAYER
 49
-0.5
 62
256
  6
BYLAYER
  0
LAYOUT
  5
220
102
{ACAD_REACTORS
330
1A
102
}
100
AcDbPlotSettings
  1

  2
none_device
  4
ANSI_A_(11.00_x_8.50_Inches)
  6

 40
0.0
 41
0.0
 42
0.0
 43
0.0
 44
279.4
 45
215.9
 46
0.0
 47
0.0
 48
0.0
 49
0.0
140
0.0
141
0.0
142
1.0
143
1.0
 70
1024
 72
0
 73
0
 74
0
  7

 75
0
147
1.0
148
0.0
149
0.0
100
AcDbLayout
  1
Model
 70
0
 71
0
 10
0.0
 20
0.0
 11
11.0
 21
8.5
 12
0.0
 22
0.0
 32
0.0
 14
0.0
 24
0.0
 34
0.0
 15
0.0
 25
0.0
 35
0.0
146
0.0
 13
0.0
 23
0.0
 33
0.0
 16
1.0
 26
0.0
 36
0.0
 17
0.0
 27
1.0
 37
0.0
 76
0
330
202
345
0
346
0
  0
LAYOUT
  5
221
102
{ACAD_REACTORS
330
1A
102
}
100
AcDbPlotSettings
  1

  2
none_device
  4
ANSI_A_(11.00_x_8.50_Inches)
  6

 40
0.0
 41
0.0
 42
0.0
 43
0.0
 44
279.4
 45
215.9
 46
0.0
 47
0.0
 48
0.0
 49
0.0
140
0.0
141
0.0
142
1.0
143
1.0
 70
0
 72
0
 73
0
 74
0
  7

 75
0
147
1.0
148
0.0
149
0.0
100
AcDbLayout
  1
Layout1
 70
0
 71
1
 10
0.0
 20
0.0
 11
11.0
 21
8.5
 12
0.0
 22
0.0
 32
0.0
 14
0.0
 24
0.0
 34
0.0
 15
0.0
 25
0.0
 35
0.0
146
0.0
 13
0.0
 23
0.0
 33
0.0
 16
1.0
 26
0.0
 36
0.0
 17
0.0
 27
1.0
 37
0.0
 76
0
330
203
345
0
346
0
  0
ENDSEC
  0
EOF
