999
DXF file: 1508_top.dxf
999
Pro/ENGINEER 2018400 by Parametric Technology Corporation
  0
SECTION
  2
HEADER
  9
$ACADVER
  1
AC1027
  9
$DWGCODEPAGE
  3
ANSI_1252
  9
$EXTMAX
 10
11.0
 20
8.5
 30
0.0
  9
$EXTMIN
 10
0.0
 20
0.0
 30
0.0
  9
$LIMMIN
 10
0.0
 20
0.0
  9
$LIMMAX
 10
11.0
 20
8.5
  9
$VIEWCTR
 10
5.5
 20
4.25
  9
$VIEWSIZE
 40
8.5
  9
$CLAYER
  8
0
  9
$LTSCALE
 40
0.605
  9
$CELTYPE
  6
BYLAYER
  9
$DIMSCALE
 40
1.0
  9
$DIMASZ
 40
0.1
  9
$DIMEXO
 40
0.0625
  9
$DIMDLI
 40
0.418
  9
$DIMEXE
 40
0.125
  9
$DIMCEN
 40
0.099
  9
$DIMLFAC
 40
1.0
  9
$DIMBLK
  1
_FILLED
  9
$DIMALT
 70
1
  9
$DIMALTD
 70
1
  9
$DIMALTTD
 70
2
  9
$DIMALTF
 40
25.4
  9
$DIMTXT
 40
0.08
  9
$DIMTOL
 70
1
  9
$DIMLIM
 70
0
  9
$DIMTFAC
 40
1.0
  9
$DIMTP
 40
0.01
  9
$DIMTM
 40
0.01
  9
$DIMGAP
 40
0.09
  9
$DIMDSEP
 70
46
  9
$AUNITS
 70
0
  9
$PDMODE
 70
3
  9
$PDSIZE
 40
0.3125
  9
$HANDSEED
  5
228
  9
$TILEMODE
 70
1
  9
$MEASUREMENT
 70
0
  9
$INSUNITS
 70
1
  0
ENDSEC
  0
SECTION
  2
CLASSES
  0
CLASS
  1
ACDBDICTIONARYWDFLT
  2
AcDbDictionaryWithDefault
  3
AutoCAD 2000
 90
0
 91
1
280
0
281
0
  0
CLASS
  1
ACDBPLACEHOLDER
  2
AcDbPlaceHolder
  3
AutoCAD 2000
 90
0
 91
1
280
0
281
0
  0
CLASS
  1
LAYOUT
  2
AcDbLayout
  3
AutoCAD 2000
 90
0
 91
0
280
0
281
0
  0
ENDSEC
  0
SECTION
  2
TABLES
  0
TABLE
  2
VPORT
  5
8
100
AcDbSymbolTable
 70
2
  0
VPORT
  5
1F4
100
AcDbSymbolTableRecord
100
AcDbViewportTableRecord
  2
*ACTIVE
 70
0
 10
0.0
 20
0.0
 11
1.0
 21
1.0
 12
5.5
 22
4.25
 13
0.0
 23
0.0
 14
1.0
 24
1.0
 15
0.0
 25
0.0
 16
0.0
 26
0.0
 36
1.0
 17
0.0
 27
0.0
 37
0.0
 40
8.5
 41
1.2941176471
 42
50.0
 43
0.0
 44
0.0
 50
0.0
 51
0.0
 71
0
 72
100
 73
1
 74
1
 75
0
 76
0
 77
0
 78
0
  0
ENDTAB
  0
TABLE
  2
LTYPE
  5
5
100
AcDbSymbolTable
 70
6
  0
LTYPE
  5
14
100
AcDbSymbolTableRecord
100
AcDbLinetypeTableRecord
  2
BYBLOCK
 70
0
  3

 72
65
 73
0
 40
0.0
  0
LTYPE
  5
15
100
AcDbSymbolTableRecord
100
AcDbLinetypeTableRecord
  2
BYLAYER
 70
0
  3

 72
65
 73
0
 40
0.0
  0
LTYPE
  5
16
100
AcDbSymbolTableRecord
100
AcDbLinetypeTableRecord
  2
CONTINUOUS
 70
64
  3
Solid line
 72
65
 73
0
 40
0.0
  0
LTYPE
  5
1F5
100
AcDbSymbolTableRecord
100
AcDbLinetypeTableRecord
  2
CENTER
 70
64
  3
____ _ ____ _ ____ _ ____ _ ____ _ ____ _ ____
 72
65
 73
4
 40
0.6
 49
0.375
 74
0
 49
-0.075
 74
0
 49
0.075
 74
0
 49
-0.075
 74
0
  0
LTYPE
  5
1F6
100
AcDbSymbolTableRecord
100
AcDbLinetypeTableRecord
  2
HIDDEN
 70
64
  3
- - - - - - - - - - - - - - - - - - - -
 72
65
 73
2
 40
0.2
 49
0.1
 74
0
 49
-0.1
 74
0
  0
LTYPE
  5
1F7
100
AcDbSymbolTableRecord
100
AcDbLinetypeTableRecord
  2
PHANTOM
 70
64
  3
_____ _ _ _____ _ _ _____ _ _ _____
 72
65
 73
6
 40
0.8
 49
0.45
 74
0
 49
-0.05
 74
0
 49
0.1
 74
0
 49
-0.05
 74
0
 49
0.1
 74
0
 49
-0.05
 74
0
  0
LTYPE
  5
1F8
100
AcDbSymbolTableRecord
100
AcDbLinetypeTableRecord
  2
DOT
 70
64
  3
. . . . . . . . . . . . . . . . . . . .
 72
65
 73
2
 40
0.2
 49
0.1
 74
0
 49
-0.1
 74
0
  0
LTYPE
  5
1F9
100
AcDbSymbolTableRecord
100
AcDbLinetypeTableRecord
  2
DASHED
 70
64
  3
- - - - - - - - - - - - - - - - - - - -
 72
65
 73
2
 40
0.2
 49
0.1
 74
0
 49
-0.1
 74
0
  0
ENDTAB
  0
TABLE
  2
LAYER
  5
2
100
AcDbSymbolTable
 70
36
  0
LAYER
  5
10
100
AcDbSymbolTableRecord
100
AcDbLayerTableRecord
  2
0
 70
0
 62
7
  6
CONTINUOUS
370
-3
390
F
  0
LAYER
  5
1FA
100
AcDbSymbolTableRecord
100
AcDbLayerTableRecord
  2
DEFAULT_1
 70
0
 62
7
  6
CENTER
370
-3
390
F
  0
LAYER
  5
1FB
100
AcDbSymbolTableRecord
100
AcDbLayerTableRecord
  2
DEFAULT_2
 70
0
 62
8
  6
HIDDEN
370
-3
390
F
  0
LAYER
  5
1FC
100
AcDbSymbolTableRecord
100
AcDbLayerTableRecord
  2
DEFAULT_3
 70
0
 62
7
  6
PHANTOM
370
-3
390
F
  0
LAYER
  5
1FD
100
AcDbSymbolTableRecord
100
AcDbLayerTableRecord
  2
DEFAULT_COORDINATE_SYSTEM
 70
0
 62
7
  6
CONTINUOUS
370
-3
390
F
  0
LAYER
  5
1FE
100
AcDbSymbolTableRecord
100
AcDbLayerTableRecord
  2
DEFAULT_DATUM_AXES
 70
0
 62
7
  6
CONTINUOUS
370
-3
390
F
  0
LAYER
  5
1FF
100
AcDbSymbolTableRecord
100
AcDbLayerTableRecord
  2
DEFAULT_DATUM_PLANES
 70
0
 62
7
  6
CONTINUOUS
370
-3
390
F
  0
ENDTAB
  0
TABLE
  2
STYLE
  5
3
100
AcDbSymbolTable
 70
1
  0
STYLE
  5
11
100
AcDbSymbolTableRecord
100
AcDbTextStyleTableRecord
  2
STANDARD
 70
0
 40
0.0
 41
0.8
 50
0.0
 71
0
 42
0.2
  3
txt
  4

  0
STYLE
  5
200
100
AcDbSymbolTableRecord
100
AcDbTextStyleTableRecord
  2
TEXTSTYLE_1
 70
0
 40
0.0
 41
0.8
 50
0.0
 71
0
 42
0.2
  3
gdt
  4

  0
ENDTAB
  0
TABLE
  2
VIEW
  5
6
100
AcDbSymbolTable
 70
0
  0
ENDTAB
  0
TABLE
  2
UCS
  5
7
100
AcDbSymbolTable
 70
0
  0
ENDTAB
  0
TABLE
  2
APPID
  5
9
100
AcDbSymbolTable
 70
1
  0
APPID
  5
201
100
AcDbSymbolTableRecord
100
AcDbRegAppTableRecord
  2
ACAD
 70
0
  0
ENDTAB
  0
TABLE
  2
BLOCK_RECORD
  5
1
100
AcDbSymbolTable
 70
0
  0
BLOCK_RECORD
  5
202
100
AcDbSymbolTableRecord
100
AcDbBlockTableRecord
  2
*Model_Space
  0
BLOCK_RECORD
  5
203
100
AcDbSymbolTableRecord
100
AcDbBlockTableRecord
  2
*Paper_Space
  0
BLOCK_RECORD
  5
204
100
AcDbSymbolTableRecord
100
AcDbBlockTableRecord
  2
_FILLED
  0
ENDTAB
  0
TABLE
  2
DIMSTYLE
  5
A
100
AcDbSymbolTable
 70
1
100
AcDbDimStyleTable
 71
0
  0
DIMSTYLE
105
205
100
AcDbSymbolTableRecord
100
AcDbDimStyleTableRecord
  2
STANDARD
 70
0
  3

  4

 40
1.0
 41
0.1
 42
0.0625
 43
0.38
 44
0.125
 45
0.0
 46
0.0
 47
0.01
 48
0.01
140
0.08
141
0.09
142
0.0
143
25.4
144
1.0
145
0.0
146
1.0
147
0.09
 71
1.0
 72
0.0
 73
1
 74
1
 75
0
 76
0
 77
0
 78
4
 79
1
170
1
171
1
172
0
173
0
174
0
175
0
176
0
177
0
178
0
270
2
179
2
271
2
272
2
273
2
274
2
275
0
280
0
281
0
282
0
283
1
284
4
285
0
286
0
287
3
288
0
340
11
278
46
341
204
342
204
343
204
344
204
  0
ENDTAB
  0
ENDSEC
  0
SECTION
  2
BLOCKS
  0
BLOCK
  5
20
100
AcDbEntity
  8
0
100
AcDbBlockBegin
  2
*Model_Space
 70
0
 10
0.0
 20
0.0
 30
0.0
  3
*Model_Space
  1

  0
ENDBLK
  5
21
100
AcDbEntity
  8
0
100
AcDbBlockEnd
  0
BLOCK
  5
1C
100
AcDbEntity
  8
0
100
AcDbBlockBegin
  2
*Paper_Space
 70
0
 10
0.0
 20
0.0
 30
0.0
  3
*Paper_Space
  1

  0
ENDBLK
  5
1D
100
AcDbEntity
  8
0
100
AcDbBlockEnd
  0
BLOCK
  5
206
100
AcDbEntity
  8
0
100
AcDbBlockBegin
  2
_FILLED
 70
64
 10
0.0
 20
0.0
  3
_FILLED
  1

  0
SOLID
  5
207
100
AcDbEntity
  8
0
  6
BYBLOCK
 62
0
100
AcDbTrace
 10
0.0
 20
0.0
 11
-1.0
 21
0.2
 12
-1.0
 22
-0.2
 13
-1.0
 23
-0.2
  0
ENDBLK
  5
208
100
AcDbEntity
  8
0
  6
BYBLOCK
 62
0
100
AcDbBlockEnd
  0
ENDSEC
  0
SECTION
  2
ENTITIES
  0
MTEXT
  5
209
100
AcDbEntity
  8
0
100
AcDbMText
 62
2
  6
CONTINUOUS
  7
STANDARD
 71
3
 72
1
 10
5.177173913
 20
2.5052668342
 30
0.0
 11
1.0
 21
0.0
 31
0.0
 73
2
 44
0.9
  1
SCALE  .500
 40
0.08
 41
0.704
  0
LINE
  5
20A
100
AcDbEntity
  8
0
100
AcDbLine
 62
7
  6
CONTINUOUS
 10
0.0
 20
0.0
 11
0.0
 21
8.5
  0
LINE
  5
20B
100
AcDbEntity
  8
0
100
AcDbLine
 62
7
  6
CONTINUOUS
 10
0.0
 20
0.0
 11
11.0
 21
0.0
  0
LINE
  5
20C
100
AcDbEntity
  8
0
100
AcDbLine
 62
7
  6
CONTINUOUS
 10
0.0
 20
8.5
 11
11.0
 21
8.5
  0
LINE
  5
20D
100
AcDbEntity
  8
0
100
AcDbLine
 62
7
  6
CONTINUOUS
 10
11.0
 20
0.0
 11
11.0
 21
8.5
  0
LINE
  5
20E
100
AcDbEntity
  8
0
100
AcDbLine
 62
7
  6
CONTINUOUS
 10
4.944068323
 20
3.2158532216
 11
4.741568323
 21
3.2158532216
  0
LINE
  5
20F
100
AcDbEntity
  8
0
100
AcDbLine
 62
7
  6
CONTINUOUS
 10
4.959068323
 20
3.2308532216
 11
4.726568323
 21
3.2308532216
  0
LINE
  5
210
100
AcDbEntity
  8
0
100
AcDbLine
 62
7
  6
CONTINUOUS
 10
4.567818323
 20
4.6439906819
 11
4.567818323
 21
3.0310044119
  0
LINE
  5
211
100
AcDbEntity
  8
0
100
AcDbLine
 62
7
  6
CONTINUOUS
 10
4.726568323
 20
4.5804567597
 11
4.726568323
 21
3.2308532216
  0
LINE
  5
212
100
AcDbEntity
  8
0
100
AcDbLine
 62
7
  6
CONTINUOUS
 10
4.5671127387
 20
4.6485356903
 11
4.5673175186
 21
4.647832825
  0
LINE
  5
213
100
AcDbEntity
  8
0
100
AcDbLine
 62
7
  6
CONTINUOUS
 10
4.5672692929
 20
4.6480127208
 11
4.5674149636
 21
4.6474473006
  0
LWPOLYLINE
  5
214
100
AcDbEntity
  8
0
100
AcDbPolyline
 62
7
  6
CONTINUOUS
 90
4
 70
0
 10
4.5673175186
 20
4.647832825
 10
4.5674870497
 20
4.6471247196
 10
4.5676225302
 20
4.6464057203
 10
4.567665952
 20
4.6461228516
  0
LWPOLYLINE
  5
215
100
AcDbEntity
  8
0
100
AcDbPolyline
 62
7
  6
CONTINUOUS
 90
12
 70
0
 10
4.5633167718
 20
4.6547028905
 10
4.5637972482
 20
4.6542100497
 10
4.5642554273
 20
4.6536947151
 10
4.5646934197
 20
4.6531537094
 10
4.5651108538
 20
4.6525858042
 10
4.5655046154
 20
4.6519934261
 10
4.5658723046
 20
4.6513787141
 10
4.56621226
 20
4.6507431225
 10
4.5665233141
 20
4.6500873853
 10
4.5668040475
 20
4.6494128278
 10
4.5670531268
 20
4.6487208094
 10
4.5672692929
 20
4.6480127208
  0
LWPOLYLINE
  5
216
100
AcDbEntity
  8
0
100
AcDbPolyline
 62
7
  6
CONTINUOUS
 90
11
 70
0
 10
4.5633855591
 20
4.6546346166
 10
4.5638813255
 20
4.6541184803
 10
4.564349806
 20
4.6535818079
 10
4.5647938287
 20
4.6530214411
 10
4.5652134024
 20
4.6524365091
 10
4.5656057688
 20
4.6518299384
 10
4.5659691545
 20
4.6512039437
 10
4.5663024141
 20
4.6505601323
 10
4.5666047341
 20
4.6498996754
 10
4.5668751123
 20
4.6492243252
 10
4.5671127387
 20
4.6485356903
  0
LINE
  5
217
100
AcDbEntity
  8
0
100
AcDbLine
 62
7
  6
CONTINUOUS
 10
4.959068323
 20
4.5804567597
 11
4.959068323
 21
3.2308532216
  0
LINE
  5
218
100
AcDbEntity
  8
0
100
AcDbLine
 62
7
  6
CONTINUOUS
 10
5.117818323
 20
3.0310044119
 11
5.117818323
 21
4.6439906819
  0
LWPOLYLINE
  5
219
100
AcDbEntity
  8
0
100
AcDbPolyline
 62
7
  6
CONTINUOUS
 90
16
 70
0
 10
5.1178934203
 20
4.6454965888
 10
5.1179252873
 20
4.6457840057
 10
5.1180339207
 20
4.6465273841
 10
5.1181787621
 20
4.6472604724
 10
5.1183588628
 20
4.6479815643
 10
5.1185732025
 20
4.6486890369
 10
5.1188206913
 20
4.6493813396
 10
5.1191001871
 20
4.6500570274
 10
5.1194104762
 20
4.6507146989
 10
5.1197502675
 20
4.6513529981
 10
5.1201184488
 20
4.6519710357
 10
5.1205135005
 20
4.6525673562
 10
5.1209333096
 20
4.6531399818
 10
5.1213752055
 20
4.6536867449
 10
5.1218386237
 20
4.6542083243
 10
5.1223248993
 20
4.654706907
  0
ARC
  5
21A
100
AcDbEntity
  8
0
100
AcDbCircle
 62
7
  6
CONTINUOUS
 10
4.842818323
 20
5.0358532216
 40
0.5875
100
AcDbArc
 50
297.9119623007
 51
242.0880376993
  0
ARC
  5
21B
100
AcDbEntity
  8
0
100
AcDbCircle
 62
7
  6
CONTINUOUS
 10
4.842818323
 20
5.0358532216
 40
0.4725
100
AcDbArc
 50
284.2435316402
 51
255.7564683599
  0
CIRCLE
  5
21C
100
AcDbEntity
  8
0
100
AcDbCircle
 62
7
  6
CONTINUOUS
 10
4.842818323
 20
5.0358532216
 40
0.47
  0
CIRCLE
  5
21D
100
AcDbEntity
  8
0
100
AcDbCircle
 62
7
  6
CONTINUOUS
 10
4.842818323
 20
5.0358532216
 40
0.455
  0
ARC
  5
21E
100
AcDbEntity
  8
0
100
AcDbCircle
 62
7
  6
CONTINUOUS
 10
4.741568323
 20
3.2308532216
 40
0.015
100
AcDbArc
 50
180.0
 51
270.0
  0
ARC
  5
21F
100
AcDbEntity
  8
0
100
AcDbCircle
 62
7
  6
CONTINUOUS
 10
4.944068323
 20
3.2308532216
 40
0.015
100
AcDbArc
 50
270.0
 51
360.0
  0
ARC
  5
220
100
AcDbEntity
  8
0
100
AcDbCircle
 62
7
  6
CONTINUOUS
 10
4.5528185996
 20
4.6439884136
 40
0.0149999857
100
AcDbArc
 50
0.008664502
 51
47.5586554603
  0
ARC
  5
221
100
AcDbEntity
  8
0
100
AcDbCircle
 62
7
  6
CONTINUOUS
 10
5.1328172506
 20
4.6439874145
 40
0.0149999445
100
AcDbArc
 50
132.4363544704
 51
179.9875182987
  0
SPLINE
  5
222
100
AcDbEntity
  8
0
100
AcDbSpline
 62
7
  6
CONTINUOUS
 70
0
 71
3
 72
60
 73
56
 74
0
 42
0.0000001
 43
0.0000001
 44
0.0000000001
 40
0.0
 40
0.0
 40
0.0
 40
0.0
 40
0.010983204
 40
0.022012334
 40
0.0331453032
 40
0.044427451
 40
0.0559066977
 40
0.067628701
 40
0.0796351995
 40
0.0919639037
 40
0.1046475775
 40
0.1177139091
 40
0.1311848597
 40
0.1450770333
 40
0.1594015734
 40
0.1741646821
 40
0.1893676367
 40
0.205007385
 40
0.2210767889
 40
0.2375649292
 40
0.2544576732
 40
0.2717376397
 40
0.2893848274
 40
0.3073767211
 40
0.3442899568
 40
0.3822615673
 40
0.4210473393
 40
0.4603854598
 40
0.5000025802
 40
0.5396196935
 40
0.5789577944
 40
0.6177435357
 40
0.6557151004
 40
0.6926282772
 40
0.7282630443
 40
0.7455429788
 40
0.76243568
 40
0.7789237803
 40
0.7949931461
 40
0.810632845
 40
0.8258357602
 40
0.8405988196
 40
0.8549233164
 40
0.8688154448
 40
0.8822863523
 40
0.8953526411
 40
0.9080362751
 40
0.9203649426
 40
0.932371401
 40
0.94409338
 40
0.9555725997
 40
0.9668547189
 40
0.9779876688
 40
0.9890168197
 40
1.0
 40
1.0
 40
1.0
 40
1.0
 10
5.117818323
 20
3.0310044119
 30
0.0
 10
5.117818323
 20
3.0285398513
 30
0.0
 10
5.1175782316
 20
3.0235970955
 30
0.0
 10
5.1165012306
 20
3.016227001
 30
0.0
 10
5.1147183623
 20
3.0089258665
 30
0.0
 10
5.1122432483
 20
3.0017234713
 30
0.0
 10
5.1090948065
 20
2.9946448384
 30
0.0
 10
5.1052928054
 20
2.9877097136
 30
0.0
 10
5.1008575144
 20
2.9809334887
 30
0.0
 10
5.0958085345
 20
2.9743285376
 30
0.0
 10
5.0901647919
 20
2.9679048359
 30
0.0
 10
5.0839443756
 20
2.9616710981
 30
0.0
 10
5.0771648469
 20
2.9556353643
 30
0.0
 10
5.0698436181
 20
2.9498055121
 30
0.0
 10
5.0619982682
 20
2.9441894087
 30
0.0
 10
5.0536468147
 20
2.938795168
 30
0.0
 10
5.044808004
 20
2.9336310134
 30
0.0
 10
5.0355014469
 20
2.9287053452
 30
0.0
 10
5.0257477203
 20
2.9240266665
 30
0.0
 10
5.0155684915
 20
2.9196033269
 30
0.0
 10
5.0049864325
 20
2.9154437392
 30
0.0
 10
4.994025373
 20
2.9115559207
 30
0.0
 10
4.9827100324
 20
2.9079476523
 30
0.0
 10
4.9670520969
 20
2.9034815637
 30
0.0
 10
4.9467623213
 20
2.8986653538
 30
0.0
 10
4.9216452561
 20
2.8941547149
 30
0.0
 10
4.8957860513
 20
2.8909036814
 30
0.0
 10
4.8694276388
 20
2.8889413035
 30
0.0
 10
4.8428180136
 20
2.888285208
 30
0.0
 10
4.8162084085
 20
2.888941335
 30
0.0
 10
4.7898499674
 20
2.8909037476
 30
0.0
 10
4.7639909442
 20
2.8941547823
 30
0.0
 10
4.7388733473
 20
2.8986655225
 30
0.0
 10
4.7147313812
 20
2.9043963747
 30
0.0
 10
4.6954153802
 20
2.9102067398
 30
0.0
 10
4.6806498455
 20
2.9154438524
 30
0.0
 10
4.6700677643
 20
2.9196034955
 30
0.0
 10
4.6598885794
 20
2.924026824
 30
0.0
 10
4.65013488
 20
2.9287055039
 30
0.0
 10
4.6408283578
 20
2.9336311746
 30
0.0
 10
4.6319895781
 20
2.9387953212
 30
0.0
 10
4.6236381586
 20
2.9441895599
 30
0.0
 10
4.6157928398
 20
2.9498056536
 30
0.0
 10
4.6084716419
 20
2.9556354972
 30
0.0
 10
4.6016921423
 20
2.9616712194
 30
0.0
 10
4.5954717532
 20
2.9679049445
 30
0.0
 10
4.5898280343
 20
2.9743286314
 30
0.0
 10
4.5847790785
 20
2.9809335678
 30
0.0
 10
4.5803438009
 20
2.9877097743
 30
0.0
 10
4.5765418183
 20
2.9946448859
 30
0.0
 10
4.5733933861
 20
3.0017235032
 30
0.0
 10
4.5709182774
 20
3.0089258824
 30
0.0
 10
4.5691354109
 20
3.0162270113
 30
0.0
 10
4.5680584166
 20
3.0235971017
 30
0.0
 10
4.567818323
 20
3.0285398566
 30
0.0
 10
4.567818323
 20
3.0310044119
 30
0.0
  0
SPLINE
  5
223
100
AcDbEntity
  8
0
100
AcDbSpline
 62
7
  6
CONTINUOUS
 70
0
 71
3
 72
59
 73
55
 74
0
 42
0.0000001
 43
0.0000001
 44
0.0000000001
 40
0.0
 40
0.0
 40
0.0
 40
0.0
 40
0.0101420655
 40
0.0203583891
 40
0.0307171562
 40
0.0412855298
 40
0.0521243066
 40
0.0632869523
 40
0.0748195756
 40
0.0867607588
 40
0.0991414119
 40
0.111985279
 40
0.1253094908
 40
0.1391248708
 40
0.1534367963
 40
0.1682454461
 40
0.1835464727
 40
0.1993314618
 40
0.2238869425
 40
0.2494486016
 40
0.2759473183
 40
0.3033017759
 40
0.3314203442
 40
0.3602027485
 40
0.3895415841
 40
0.4193237161
 40
0.4494315876
 40
0.4797444673
 40
0.5101396563
 40
0.5404936718
 40
0.5706834209
 40
0.6005873796
 40
0.6300867925
 40
0.6590669095
 40
0.6874182712
 40
0.71503807
 40
0.7418316189
 40
0.7677139645
 40
0.7926116923
 40
0.8164649858
 40
0.8392300073
 40
0.8608816799
 40
0.8814169322
 40
0.9008583998
 40
0.9192585056
 40
0.9367035102
 40
0.9451087747
 40
0.9533248913
 40
0.9613733077
 40
0.969277663
 40
0.9770640275
 40
0.9847606253
 40
0.9923964306
 40
1.0
 40
1.0
 40
1.0
 40
1.0
 10
4.567818323
 20
3.0310044119
 30
0.0
 10
4.567818323
 20
3.0287529143
 30
0.0
 10
4.5680412387
 20
3.0242303415
 30
0.0
 10
4.5690413325
 20
3.0174747451
 30
0.0
 10
4.5707050945
 20
3.0107535163
 30
0.0
 10
4.5730272146
 20
3.0040847775
 30
0.0
 10
4.5760008342
 20
2.9974844354
 30
0.0
 10
4.579618064
 20
2.9909686022
 30
0.0
 10
4.5838690309
 20
2.9845525685
 30
0.0
 10
4.5887429864
 20
2.9782514311
 30
0.0
 10
4.5942276789
 20
2.9720798009
 30
0.0
 10
4.6003096001
 20
2.9660519717
 30
0.0
 10
4.6069740898
 20
2.9601821085
 30
0.0
 10
4.6142049426
 20
2.9544837518
 30
0.0
 10
4.6219849164
 20
2.9489704288
 30
0.0
 10
4.6302952907
 20
2.9436550558
 30
0.0
 10
4.6391162245
 20
2.9385501439
 30
0.0
 10
4.6500584316
 20
2.9328123442
 30
0.0
 10
4.66334191
 20
2.926661722
 30
0.0
 10
4.6791460193
 20
2.920355463
 30
0.0
 10
4.6958331184
 20
2.9146464101
 30
0.0
 10
4.7133132191
 20
2.9095653065
 30
0.0
 10
4.7314923368
 20
2.9051394767
 30
0.0
 10
4.7502724947
 20
2.9013928073
 30
0.0
 10
4.7695524169
 20
2.8983455375
 30
0.0
 10
4.7892280543
 20
2.8960141505
 30
0.0
 10
4.8091931745
 20
2.8944112664
 30
0.0
 10
4.8293399461
 20
2.8935455668
 30
0.0
 10
4.8495595353
 20
2.8934217423
 30
0.0
 10
4.8697427064
 20
2.8940404653
 30
0.0
 10
4.889780423
 20
2.8953983853
 30
0.0
 10
4.9095644504
 20
2.8974881497
 30
0.0
 10
4.9289879548
 20
2.9002984444
 30
0.0
 10
4.9479460966
 20
2.9038140576
 30
0.0
 10
4.9663366118
 20
2.9080159822
 30
0.0
 10
4.9840603806
 20
2.9128815338
 30
0.0
 10
5.0010219787
 20
2.9183844996
 30
0.0
 10
5.0171302081
 20
2.9244953174
 30
0.0
 10
5.0322985995
 20
2.9311812884
 30
0.0
 10
5.0464458789
 20
2.938406834
 30
0.0
 10
5.0594963712
 20
2.9461337791
 30
0.0
 10
5.0713803572
 20
2.9543217412
 30
0.0
 10
5.0820341982
 20
2.962928321
 30
0.0
 10
5.0914006754
 20
2.9719100632
 30
0.0
 10
5.0994277329
 20
2.9812206438
 30
0.0
 10
5.1050321445
 20
2.9893162126
 30
0.0
 10
5.1087675214
 20
2.9958965607
 30
0.0
 10
5.1111741524
 20
3.0008201849
 30
0.0
 10
5.1132167111
 20
3.0057857212
 30
0.0
 10
5.1148922262
 20
3.0107865802
 30
0.0
 10
5.1161981029
 20
3.015815951
 30
0.0
 10
5.1171323694
 20
3.0208670356
 30
0.0
 10
5.117693367
 20
3.0259320625
 30
0.0
 10
5.117818323
 20
3.0293164502
 30
0.0
 10
5.117818323
 20
3.0310044119
 30
0.0
  0
SPLINE
  5
224
100
AcDbEntity
  8
0
100
AcDbSpline
 62
7
  6
CONTINUOUS
 70
0
 71
3
 72
42
 73
38
 74
0
 42
0.0000001
 43
0.0000001
 44
0.0000000001
 40
0.0
 40
0.0
 40
0.0
 40
0.0
 40
0.1061913783
 40
0.2093546579
 40
0.3089642993
 40
0.4044386664
 40
0.4951358384
 40
0.5803691023
 40
0.6594126162
 40
0.7315018061
 40
0.7958916773
 40
0.8249972513
 40
0.8519517213
 40
0.8766886811
 40
0.8991458355
 40
0.9192958745
 40
0.9371295215
 40
0.9526494419
 40
0.9595446866
 40
0.9658658839
 40
0.971616474
 40
0.9768001806
 40
0.9814209714
 40
0.9854841504
 40
0.9889990969
 40
0.9919766404
 40
0.9944286728
 40
0.9954619923
 40
0.9963695049
 40
0.9971537365
 40
0.9978180344
 40
0.9983672521
 40
0.9988091955
 40
0.9991578631
 40
0.999440117
 40
0.9997025602
 40
1.0
 40
1.0
 40
1.0
 40
1.0
 10
4.7265570705
 20
4.5708192818
 30
0.0
 10
4.7205380648
 20
4.5723926319
 30
0.0
 10
4.7087329982
 20
4.5757345125
 30
0.0
 10
4.6915192834
 20
4.5813452069
 30
0.0
 10
4.6751218949
 20
4.5873927216
 30
0.0
 10
4.6596317572
 20
4.5937554741
 30
0.0
 10
4.6451362195
 20
4.6002969801
 30
0.0
 10
4.6317216362
 20
4.6068737969
 30
0.0
 10
4.6194717167
 20
4.6133347791
 30
0.0
 10
4.6084599598
 20
4.6195152593
 30
0.0
 10
4.6001063406
 20
4.6244484287
 30
0.0
 10
4.5940815209
 20
4.6281223747
 30
0.0
 10
4.5900606899
 20
4.6306202703
 30
0.0
 10
4.5863857802
 20
4.6329366489
 30
0.0
 10
4.5830561503
 20
4.6350531439
 30
0.0
 10
4.5800720572
 20
4.6369593034
 30
0.0
 10
4.5774315964
 20
4.6386484356
 30
0.0
 10
4.5754431445
 20
4.639915787
 30
0.0
 10
4.5740196688
 20
4.6408146671
 30
0.0
 10
4.5730777009
 20
4.64140411
 30
0.0
 10
4.5722176612
 20
4.6419354287
 30
0.0
 10
4.5714385709
 20
4.6424081915
 30
0.0
 10
4.5707394098
 20
4.642822041
 30
0.0
 10
4.5701189104
 20
4.6431767083
 30
0.0
 10
4.5695760984
 20
4.6434731044
 30
0.0
 10
4.5691097746
 20
4.6437122675
 30
0.0
 10
4.5687668205
 20
4.6438730675
 30
0.0
 10
4.5685293254
 20
4.6439723095
 30
0.0
 10
4.5683799247
 20
4.644028702
 30
0.0
 10
4.5682486511
 20
4.6440715563
 30
0.0
 10
4.5681352734
 20
4.6441009955
 30
0.0
 10
4.5680394798
 20
4.6441172052
 30
0.0
 10
4.5679607261
 20
4.6441202613
 30
0.0
 10
4.5678980697
 20
4.6441101096
 30
0.0
 10
4.5678505884
 20
4.6440844695
 30
0.0
 10
4.5678225018
 20
4.6440415533
 30
0.0
 10
4.5678183442
 20
4.6440081075
 30
0.0
 10
4.567818323
 20
4.6439906819
 30
0.0
  0
SPLINE
  5
225
100
AcDbEntity
  8
0
100
AcDbSpline
 62
7
  6
CONTINUOUS
 70
0
 71
3
 72
42
 73
38
 74
0
 42
0.0000001
 43
0.0000001
 44
0.0000000001
 40
0.0
 40
0.0
 40
0.0
 40
0.0
 40
0.0002979735
 40
0.0005608743
 40
0.0008434103
 40
0.0011921925
 40
0.0016341445
 40
0.0021833149
 40
0.0028475424
 40
0.0036317031
 40
0.0045391607
 40
0.0055724544
 40
0.008024581
 40
0.011002501
 40
0.0145181859
 40
0.018582531
 40
0.0232049172
 40
0.0283902803
 40
0.0341420766
 40
0.04046351
 40
0.0473575797
 40
0.0628728196
 40
0.0807041663
 40
0.1008570839
 40
0.1233175583
 40
0.1480549719
 40
0.175007578
 40
0.204110334
 40
0.2685001735
 40
0.3405914785
 40
0.4196333998
 40
0.5048656298
 40
0.5955631522
 40
0.6910373683
 40
0.7906457218
 40
0.8938088441
 40
1.0
 40
1.0
 40
1.0
 40
1.0
 10
5.117818323
 20
4.6439906819
 30
0.0
 10
5.1178183168
 20
4.6440081389
 30
0.0
 10
5.1178141846
 20
4.6440416441
 30
0.0
 10
5.1177861433
 20
4.6440846754
 30
0.0
 10
5.1177386798
 20
4.6441104567
 30
0.0
 10
5.1176760163
 20
4.6441207384
 30
0.0
 10
5.1175972518
 20
4.644117802
 30
0.0
 10
5.1175014444
 20
4.6441017022
 30
0.0
 10
5.1173880519
 20
4.6440723592
 30
0.0
 10
5.1172567638
 20
4.6440295824
 30
0.0
 10
5.117107351
 20
4.6439732438
 30
0.0
 10
5.1168698397
 20
4.6438740343
 30
0.0
 10
5.1165268749
 20
4.6437131879
 30
0.0
 10
5.1160605522
 20
4.6434738608
 30
0.0
 10
5.115517738
 20
4.6431771829
 30
0.0
 10
5.1148972258
 20
4.6428221177
 30
0.0
 10
5.1141980584
 20
4.6424077637
 30
0.0
 10
5.1134189576
 20
4.6419345075
 30
0.0
 10
5.1125589123
 20
4.6414028446
 30
0.0
 10
5.1116169604
 20
4.6408133378
 30
0.0
 10
5.1101935322
 20
4.6399149856
 30
0.0
 10
5.1082048449
 20
4.638648873
 30
0.0
 10
5.1055642759
 20
4.6369603283
 30
0.0
 10
5.1025805007
 20
4.6350532176
 30
0.0
 10
5.0992509902
 20
4.632935773
 30
0.0
 10
5.095575977
 20
4.6306193091
 30
0.0
 10
5.0915550997
 20
4.6281219136
 30
0.0
 10
5.0855299058
 20
4.6244490514
 30
0.0
 10
5.0771765412
 20
4.6195154746
 30
0.0
 10
5.0661651526
 20
4.6133341367
 30
0.0
 10
5.053914826
 20
4.6068738378
 30
0.0
 10
5.040500211
 20
4.6002972565
 30
0.0
 10
5.0260048221
 20
4.5937553699
 30
0.0
 10
5.0105147512
 20
4.5873923883
 30
0.0
 10
4.9941171105
 20
4.5813455999
 30
0.0
 10
4.9769035525
 20
4.5757345098
 30
0.0
 10
4.9650984948
 20
4.5723924461
 30
0.0
 10
4.9590794725
 20
4.570819098
 30
0.0
  0
ENDSEC
  0
SECTION
  2
OBJECTS
  0
DICTIONARY
  5
C
100
AcDbDictionary
280
0
281
1
  3
ACAD_GROUP
350
D
  3
ACAD_MLINESTYLE
350
17
  3
ACAD_LAYOUT
350
1A
  3
ACAD_PLOTSETTINGS
350
19
  3
ACAD_PLOTSTYLENAME
350
E
  0
DICTIONARY
  5
D
102
{ACAD_REACTORS
330
C
102
}
100
AcDbDictionary
280
0
281
1
  0
ACDBDICTIONARYWDFLT
  5
E
102
{ACAD_REACTORS
330
C
102
}
100
AcDbDictionary
281
1
  3
Normal
350
F
100
AcDbDictionaryWithDefault
340
F
  0
DICTIONARY
  5
17
102
{ACAD_REACTORS
330
C
102
}
100
AcDbDictionary
280
0
281
1
  3
Standard
350
18
  0
DICTIONARY
  5
19
102
{ACAD_REACTORS
330
C
102
}
100
AcDbDictionary
281
1
  0
DICTIONARY
  5
1A
102
{ACAD_REACTORS
330
C
102
}
100
AcDbDictionary
281
1
  3
Model
350
226
  3
Layout1
350
227
  0
ACDBPLACEHOLDER
  5
F
102
{ACAD_REACTORS
330
E
102
}
  0
MLINESTYLE
  5
18
102
{ACAD_REACTORS
330
17
102
}
100
AcDbMlineStyle
  2
STANDARD
 70
0
  3

 62
256
 51
90.0
 52
90.0
 71
2
 49
0.5
 62
256
  6
BYLAYER
 49
-0.5
 62
256
  6
BYLAYER
  0
LAYOUT
  5
226
102
{ACAD_REACTORS
330
1A
102
}
100
AcDbPlotSettings
  1

  2
none_device
  4
ANSI_A_(11.00_x_8.50_Inches)
  6

 40
0.0
 41
0.0
 42
0.0
 43
0.0
 44
279.4
 45
215.9
 46
0.0
 47
0.0
 48
0.0
 49
0.0
140
0.0
141
0.0
142
1.0
143
1.0
 70
1024
 72
0
 73
0
 74
0
  7

 75
0
147
1.0
148
0.0
149
0.0
100
AcDbLayout
  1
Model
 70
0
 71
0
 10
0.0
 20
0.0
 11
11.0
 21
8.5
 12
0.0
 22
0.0
 32
0.0
 14
0.0
 24
0.0
 34
0.0
 15
0.0
 25
0.0
 35
0.0
146
0.0
 13
0.0
 23
0.0
 33
0.0
 16
1.0
 26
0.0
 36
0.0
 17
0.0
 27
1.0
 37
0.0
 76
0
330
202
345
0
346
0
  0
LAYOUT
  5
227
102
{ACAD_REACTORS
330
1A
102
}
100
AcDbPlotSettings
  1

  2
none_device
  4
ANSI_A_(11.00_x_8.50_Inches)
  6

 40
0.0
 41
0.0
 42
0.0
 43
0.0
 44
279.4
 45
215.9
 46
0.0
 47
0.0
 48
0.0
 49
0.0
140
0.0
141
0.0
142
1.0
143
1.0
 70
0
 72
0
 73
0
 74
0
  7

 75
0
147
1.0
148
0.0
149
0.0
100
AcDbLayout
  1
Layout1
 70
0
 71
1
 10
0.0
 20
0.0
 11
11.0
 21
8.5
 12
0.0
 22
0.0
 32
0.0
 14
0.0
 24
0.0
 34
0.0
 15
0.0
 25
0.0
 35
0.0
146
0.0
 13
0.0
 23
0.0
 33
0.0
 16
1.0
 26
0.0
 36
0.0
 17
0.0
 27
1.0
 37
0.0
 76
0
330
203
345
0
346
0
  0
ENDSEC
  0
EOF
