999
DXF file: E:\BT Custom\CADOUTPUT\_RIGHT.dxf
999
Pro/ENGINEER 2018400 by Parametric Technology Corporation
  0
SECTION
  2
HEADER
  9
$ACADVER
  1
AC1018
  9
$DWGCODEPAGE
  3
ANSI_1252
  9
$EXTMAX
 10
22.0
 20
17.0
 30
0.0
  9
$EXTMIN
 10
0.0
 20
0.0
 30
0.0
  9
$LIMMIN
 10
0.0
 20
0.0
  9
$LIMMAX
 10
22.0
 20
17.0
  9
$VIEWCTR
 10
11.0
 20
8.5
  9
$VIEWSIZE
 40
17.0
  9
$CLAYER
  8
0
  9
$LTSCALE
 40
1.21
  9
$CELTYPE
  6
BYLAYER
  9
$DIMSCALE
 40
1.0
  9
$DIMASZ
 40
0.1
  9
$DIMEXO
 40
0.0625
  9
$DIMDLI
 40
0.836
  9
$DIMEXE
 40
0.125
  9
$DIMCEN
 40
0.198
  9
$DIMLFAC
 40
1.0
  9
$DIMBLK
  1
_FILLED
  9
$DIMALT
 70
1
  9
$DIMALTD
 70
2
  9
$DIMALTTD
 70
2
  9
$DIMALTF
 40
25.4
  9
$DIMTXT
 40
0.08
  9
$DIMTOL
 70
1
  9
$DIMLIM
 70
0
  9
$DIMTFAC
 40
1.0
  9
$DIMTP
 40
0.001
  9
$DIMTM
 40
0.001
  9
$DIMGAP
 40
0.09
  9
$DIMDSEP
 70
46
  9
$AUNITS
 70
0
  9
$PDMODE
 70
3
  9
$PDSIZE
 40
0.06
  9
$HANDSEED
  5
27C
  9
$TILEMODE
 70
1
  9
$MEASUREMENT
 70
0
  9
$INSUNITS
 70
1
  0
ENDSEC
  0
SECTION
  2
CLASSES
  0
CLASS
  1
ACDBDICTIONARYWDFLT
  2
AcDbDictionaryWithDefault
  3
AutoCAD 2000
 90
0
 91
1
280
0
281
0
  0
CLASS
  1
ACDBPLACEHOLDER
  2
AcDbPlaceHolder
  3
AutoCAD 2000
 90
0
 91
1
280
0
281
0
  0
CLASS
  1
LAYOUT
  2
AcDbLayout
  3
AutoCAD 2000
 90
0
 91
0
280
0
281
0
  0
ENDSEC
  0
SECTION
  2
TABLES
  0
TABLE
  2
VPORT
  5
8
100
AcDbSymbolTable
 70
2
  0
VPORT
  5
1F4
100
AcDbSymbolTableRecord
100
AcDbViewportTableRecord
  2
*ACTIVE
 70
0
 10
0.0
 20
0.0
 11
1.0
 21
1.0
 12
11.0
 22
8.5
 13
0.0
 23
0.0
 14
1.0
 24
1.0
 15
0.0
 25
0.0
 16
0.0
 26
0.0
 36
1.0
 17
0.0
 27
0.0
 37
0.0
 40
17.0
 41
1.2941176471
 42
50.0
 43
0.0
 44
0.0
 50
0.0
 51
0.0
 71
0
 72
100
 73
1
 74
1
 75
0
 76
0
 77
0
 78
0
  0
ENDTAB
  0
TABLE
  2
LTYPE
  5
5
100
AcDbSymbolTable
 70
6
  0
LTYPE
  5
14
100
AcDbSymbolTableRecord
100
AcDbLinetypeTableRecord
  2
BYBLOCK
 70
0
  3

 72
65
 73
0
 40
0.0
  0
LTYPE
  5
15
100
AcDbSymbolTableRecord
100
AcDbLinetypeTableRecord
  2
BYLAYER
 70
0
  3

 72
65
 73
0
 40
0.0
  0
LTYPE
  5
16
100
AcDbSymbolTableRecord
100
AcDbLinetypeTableRecord
  2
CONTINUOUS
 70
64
  3
Solid line
 72
65
 73
0
 40
0.0
  0
LTYPE
  5
1F5
100
AcDbSymbolTableRecord
100
AcDbLinetypeTableRecord
  2
CENTER
 70
64
  3
____ _ ____ _ ____ _ ____ _ ____ _ ____ _ ____
 72
65
 73
4
 40
0.6
 49
0.375
 74
0
 49
-0.075
 74
0
 49
0.075
 74
0
 49
-0.075
 74
0
  0
LTYPE
  5
1F6
100
AcDbSymbolTableRecord
100
AcDbLinetypeTableRecord
  2
HIDDEN
 70
64
  3
- - - - - - - - - - - - - - - - - - - -
 72
65
 73
2
 40
0.2
 49
0.1
 74
0
 49
-0.1
 74
0
  0
LTYPE
  5
1F7
100
AcDbSymbolTableRecord
100
AcDbLinetypeTableRecord
  2
PHANTOM
 70
64
  3
_____ _ _ _____ _ _ _____ _ _ _____
 72
65
 73
6
 40
0.8
 49
0.45
 74
0
 49
-0.05
 74
0
 49
0.1
 74
0
 49
-0.05
 74
0
 49
0.1
 74
0
 49
-0.05
 74
0
  0
LTYPE
  5
1F8
100
AcDbSymbolTableRecord
100
AcDbLinetypeTableRecord
  2
DOT
 70
64
  3
. . . . . . . . . . . . . . . . . . . .
 72
65
 73
2
 40
0.2
 49
0.1
 74
0
 49
-0.1
 74
0
  0
LTYPE
  5
1F9
100
AcDbSymbolTableRecord
100
AcDbLinetypeTableRecord
  2
DASHED
 70
64
  3
- - - - - - - - - - - - - - - - - - - -
 72
65
 73
2
 40
0.2
 49
0.1
 74
0
 49
-0.1
 74
0
  0
ENDTAB
  0
TABLE
  2
LAYER
  5
2
100
AcDbSymbolTable
 70
36
  0
LAYER
  5
10
100
AcDbSymbolTableRecord
100
AcDbLayerTableRecord
  2
0
 70
0
 62
7
  6
CONTINUOUS
370
-3
390
F
  0
LAYER
  5
1FA
100
AcDbSymbolTableRecord
100
AcDbLayerTableRecord
  2
DEFAULT_1
 70
0
 62
7
  6
CENTER
370
-3
390
F
  0
LAYER
  5
1FB
100
AcDbSymbolTableRecord
100
AcDbLayerTableRecord
  2
DEFAULT_2
 70
0
 62
8
  6
HIDDEN
370
-3
390
F
  0
LAYER
  5
1FC
100
AcDbSymbolTableRecord
100
AcDbLayerTableRecord
  2
DEFAULT_3
 70
0
 62
7
  6
PHANTOM
370
-3
390
F
  0
LAYER
  5
1FD
100
AcDbSymbolTableRecord
100
AcDbLayerTableRecord
  2
ALL_FEATURES
 70
0
 62
7
  6
CONTINUOUS
370
-3
390
F
  0
LAYER
  5
1FE
100
AcDbSymbolTableRecord
100
AcDbLayerTableRecord
  2
AXES_FEATURES
 70
0
 62
7
  6
CONTINUOUS
370
-3
390
F
  0
LAYER
  5
1FF
100
AcDbSymbolTableRecord
100
AcDbLayerTableRecord
  2
DIMENSIONS
 70
0
 62
7
  6
CONTINUOUS
370
-3
390
F
  0
ENDTAB
  0
TABLE
  2
STYLE
  5
3
100
AcDbSymbolTable
 70
1
  0
STYLE
  5
11
100
AcDbSymbolTableRecord
100
AcDbTextStyleTableRecord
  2
STANDARD
 70
0
 40
0.0
 41
0.8
 50
0.0
 71
0
 42
0.2
  3
txt
  4

  0
STYLE
  5
200
100
AcDbSymbolTableRecord
100
AcDbTextStyleTableRecord
  2
TEXTSTYLE_1
 70
0
 40
0.0
 41
0.8
 50
0.0
 71
0
 42
0.2
  3
gdt
  4

  0
ENDTAB
  0
TABLE
  2
VIEW
  5
6
100
AcDbSymbolTable
 70
0
  0
ENDTAB
  0
TABLE
  2
UCS
  5
7
100
AcDbSymbolTable
 70
0
  0
ENDTAB
  0
TABLE
  2
APPID
  5
9
100
AcDbSymbolTable
 70
1
  0
APPID
  5
201
100
AcDbSymbolTableRecord
100
AcDbRegAppTableRecord
  2
ACAD
 70
0
  0
ENDTAB
  0
TABLE
  2
BLOCK_RECORD
  5
1
100
AcDbSymbolTable
 70
0
  0
BLOCK_RECORD
  5
202
100
AcDbSymbolTableRecord
100
AcDbBlockTableRecord
  2
*Model_Space
  0
BLOCK_RECORD
  5
203
100
AcDbSymbolTableRecord
100
AcDbBlockTableRecord
  2
*Paper_Space
  0
BLOCK_RECORD
  5
204
100
AcDbSymbolTableRecord
100
AcDbBlockTableRecord
  2
_FILLED
  0
ENDTAB
  0
TABLE
  2
DIMSTYLE
  5
A
100
AcDbSymbolTable
 70
1
100
AcDbDimStyleTable
 71
0
  0
DIMSTYLE
105
205
100
AcDbSymbolTableRecord
100
AcDbDimStyleTableRecord
  2
STANDARD
 70
0
  3

  4

 40
1.0
 41
0.1
 42
0.0625
 43
0.38
 44
0.125
 45
0.0
 46
0.0
 47
0.001
 48
0.001
140
0.08
141
0.09
142
0.0
143
25.4
144
1.0
145
0.0
146
1.0
147
0.09
 71
1.0
 72
0.0
 73
1
 74
1
 75
0
 76
0
 77
0
 78
4
 79
1
170
1
171
2
172
0
173
0
174
0
175
0
176
0
177
0
178
0
270
2
179
3
271
3
272
3
273
2
274
2
275
0
280
0
281
0
282
0
283
1
284
4
285
0
286
0
287
3
288
0
340
11
278
46
341
204
342
204
343
204
344
204
  0
ENDTAB
  0
ENDSEC
  0
SECTION
  2
BLOCKS
  0
BLOCK
  5
20
100
AcDbEntity
  8
0
100
AcDbBlockBegin
  2
*Model_Space
 70
0
 10
0.0
 20
0.0
 30
0.0
  3
*Model_Space
  1

  0
ENDBLK
  5
21
100
AcDbEntity
  8
0
100
AcDbBlockEnd
  0
BLOCK
  5
1C
100
AcDbEntity
  8
0
100
AcDbBlockBegin
  2
*Paper_Space
 70
0
 10
0.0
 20
0.0
 30
0.0
  3
*Paper_Space
  1

  0
ENDBLK
  5
1D
100
AcDbEntity
  8
0
100
AcDbBlockEnd
  0
BLOCK
  5
206
100
AcDbEntity
  8
0
100
AcDbBlockBegin
  2
_FILLED
 70
64
 10
0.0
 20
0.0
  3
_FILLED
  1

  0
SOLID
  5
207
100
AcDbEntity
  8
0
  6
BYBLOCK
 62
0
100
AcDbTrace
 10
0.0
 20
0.0
 11
-1.0
 21
0.2
 12
-1.0
 22
-0.2
 13
-1.0
 23
-0.2
  0
ENDBLK
  5
208
100
AcDbEntity
  8
0
  6
BYBLOCK
 62
0
100
AcDbBlockEnd
  0
ENDSEC
  0
SECTION
  2
ENTITIES
  0
LINE
  5
209
100
AcDbEntity
  8
0
100
AcDbLine
 62
7
  6
CONTINUOUS
 10
-0.3902053198
 20
6.833391804
 11
-0.3902053198
 21
6.913391804
  0
LINE
  5
20A
100
AcDbEntity
  8
0
100
AcDbLine
 62
7
  6
CONTINUOUS
 10
0.5347946802
 20
6.833391804
 11
0.5347946802
 21
6.913391804
  0
LINE
  5
20B
100
AcDbEntity
  8
0
100
AcDbLine
 62
7
  6
CONTINUOUS
 10
2.9702946802
 20
6.958391804
 11
2.9702946802
 21
6.583391804
  0
LINE
  5
20C
100
AcDbEntity
  8
0
100
AcDbLine
 62
7
  6
CONTINUOUS
 10
3.6838070857
 20
6.583391804
 11
3.6838070857
 21
6.958391804
  0
LINE
  5
20D
100
AcDbEntity
  8
0
100
AcDbLine
 62
7
  6
CONTINUOUS
 10
-0.7177053198
 20
6.333391804
 11
0.8622946802
 21
6.333391804
  0
LINE
  5
20E
100
AcDbEntity
  8
0
100
AcDbLine
 62
7
  6
CONTINUOUS
 10
2.9163002866
 20
6.333391804
 11
4.2282890738
 21
6.333391804
  0
LINE
  5
20F
100
AcDbEntity
  8
0
100
AcDbLine
 62
7
  6
CONTINUOUS
 10
10.8847946802
 20
6.333391804
 11
13.2597946802
 21
6.333391804
  0
LINE
  5
210
100
AcDbEntity
  8
0
100
AcDbLine
 62
7
  6
CONTINUOUS
 10
20.0598116017
 20
6.333391804
 11
22.0847777587
 21
6.333391804
  0
LINE
  5
211
100
AcDbEntity
  8
0
100
AcDbLine
 62
7
  6
CONTINUOUS
 10
4.0518657521
 20
6.458391804
 11
3.0927236084
 21
6.458391804
  0
LINE
  5
212
100
AcDbEntity
  8
0
100
AcDbLine
 62
9
  6
CONTINUOUS
 10
22.0847946802
 20
6.5823592717
 11
20.0597946802
 21
6.5823592717
  0
LINE
  5
213
100
AcDbEntity
  8
0
100
AcDbLine
 62
7
  6
CONTINUOUS
 10
3.8646218926
 20
6.583391804
 11
2.9702946802
 21
6.583391804
  0
LINE
  5
214
100
AcDbEntity
  8
0
100
AcDbLine
 62
7
  6
CONTINUOUS
 10
22.0472946802
 20
6.653391804
 11
20.0972946802
 21
6.653391804
  0
LINE
  5
215
100
AcDbEntity
  8
0
100
AcDbLine
 62
7
  6
CONTINUOUS
 10
13.2597946802
 20
6.708391804
 11
10.8847946802
 21
6.708391804
  0
LINE
  5
216
100
AcDbEntity
  8
0
100
AcDbLine
 62
7
  6
CONTINUOUS
 10
0.5672942109
 20
6.833391804
 11
-0.4227048505
 21
6.833391804
  0
LINE
  5
217
100
AcDbEntity
  8
0
100
AcDbLine
 62
9
  6
CONTINUOUS
 10
0.5347946802
 20
6.913391804
 11
-0.3902053198
 21
6.913391804
  0
LINE
  5
218
100
AcDbEntity
  8
0
100
AcDbLine
 62
7
  6
CONTINUOUS
 10
3.6838070857
 20
6.958391804
 11
2.9702946802
 21
6.958391804
  0
LINE
  5
219
100
AcDbEntity
  8
0
100
AcDbLine
 62
9
  6
CONTINUOUS
 10
-0.3549934068
 20
7.0774943681
 11
0.4995827673
 21
7.0774943681
  0
LINE
  5
21A
100
AcDbEntity
  8
0
100
AcDbLine
 62
7
  6
CONTINUOUS
 10
-0.3458737046
 20
7.083391804
 11
0.4904627385
 21
7.083391804
  0
LINE
  5
21B
100
AcDbEntity
  8
0
100
AcDbLine
 62
9
  6
CONTINUOUS
 10
20.3641024827
 20
7.4941369442
 11
21.7804868778
 21
7.4941369442
  0
LINE
  5
21C
100
AcDbEntity
  8
0
100
AcDbLine
 62
9
  6
CONTINUOUS
 10
20.4154240768
 20
7.6367325769
 11
21.7291652836
 21
7.6367325769
  0
LINE
  5
21D
100
AcDbEntity
  8
0
100
AcDbLine
 62
7
  6
CONTINUOUS
 10
12.7285446802
 20
7.816391804
 11
11.4160446802
 21
7.816391804
  0
LINE
  5
21E
100
AcDbEntity
  8
0
100
AcDbLine
 62
7
  6
CONTINUOUS
 10
11.4162946802
 20
7.836391804
 11
12.7282946802
 21
7.836391804
  0
LINE
  5
21F
100
AcDbEntity
  8
0
100
AcDbLine
 62
9
  6
CONTINUOUS
 10
12.7282946802
 20
8.926391804
 11
11.4162946802
 21
8.926391804
  0
LINE
  5
220
100
AcDbEntity
  8
0
100
AcDbLine
 62
7
  6
CONTINUOUS
 10
12.6982946802
 20
8.956391804
 11
11.4462946802
 21
8.956391804
  0
LINE
  5
221
100
AcDbEntity
  8
0
100
AcDbLine
 62
7
  6
CONTINUOUS
 10
10.8847946802
 20
6.708391804
 11
10.8847946802
 21
6.333391804
  0
LINE
  5
222
100
AcDbEntity
  8
0
100
AcDbLine
 62
7
  6
CONTINUOUS
 10
11.4160446802
 20
7.816391804
 11
11.4160446802
 21
6.708391804
  0
LINE
  5
223
100
AcDbEntity
  8
0
100
AcDbLine
 62
7
  6
CONTINUOUS
 10
11.4162946802
 20
8.926391804
 11
11.4162946802
 21
7.836391804
  0
LINE
  5
224
100
AcDbEntity
  8
0
100
AcDbLine
 62
7
  6
CONTINUOUS
 10
20.3322956821
 20
9.801391804
 11
21.8122936783
 21
9.801391804
  0
LINE
  5
225
100
AcDbEntity
  8
0
100
AcDbLine
 62
9
  6
CONTINUOUS
 10
20.3122946802
 20
9.8762249518
 11
21.8322946802
 21
9.8762249518
  0
LINE
  5
226
100
AcDbEntity
  8
0
100
AcDbLine
 62
7
  6
CONTINUOUS
 10
11.8722946802
 20
7.816391804
 11
11.8722946802
 21
7.836391804
  0
LINE
  5
227
100
AcDbEntity
  8
0
100
AcDbLine
 62
7
  6
CONTINUOUS
 10
12.2722946802
 20
7.816391804
 11
12.2722946802
 21
7.836391804
  0
LINE
  5
228
100
AcDbEntity
  8
0
100
AcDbLine
 62
9
  6
CONTINUOUS
 10
21.8322946802
 20
10.4356525729
 11
20.3122946802
 21
10.4356525729
  0
LINE
  5
229
100
AcDbEntity
  8
0
100
AcDbLine
 62
9
  6
CONTINUOUS
 10
20.2838259015
 20
10.5055330736
 11
21.860763459
 21
10.5055330736
  0
LINE
  5
22A
100
AcDbEntity
  8
0
100
AcDbLine
 62
7
  6
CONTINUOUS
 10
12.7282946802
 20
8.926391804
 11
12.7282946802
 21
7.836391804
  0
LINE
  5
22B
100
AcDbEntity
  8
0
100
AcDbLine
 62
7
  6
CONTINUOUS
 10
12.7285446802
 20
7.816391804
 11
12.7285446802
 21
6.708391804
  0
LINE
  5
22C
100
AcDbEntity
  8
0
100
AcDbLine
 62
7
  6
CONTINUOUS
 10
20.0069170761
 20
10.801391804
 11
20.2049922669
 21
10.801391804
  0
LINE
  5
22D
100
AcDbEntity
  8
0
100
AcDbLine
 62
7
  6
CONTINUOUS
 10
20.4329256367
 20
10.801391804
 11
20.9111214488
 21
10.801391804
  0
LINE
  5
22E
100
AcDbEntity
  8
0
100
AcDbLine
 62
7
  6
CONTINUOUS
 10
21.2334679117
 20
10.801391804
 11
21.7116637237
 21
10.801391804
  0
LINE
  5
22F
100
AcDbEntity
  8
0
100
AcDbLine
 62
7
  6
CONTINUOUS
 10
21.9395970936
 20
10.801391804
 11
22.1376722844
 21
10.801391804
  0
LINE
  5
230
100
AcDbEntity
  8
0
100
AcDbLine
 62
9
  6
CONTINUOUS
 10
22.1376722844
 20
11.411391804
 11
21.9395970936
 21
11.411391804
  0
LINE
  5
231
100
AcDbEntity
  8
0
100
AcDbLine
 62
9
  6
CONTINUOUS
 10
21.7116637237
 20
11.411391804
 11
21.2334679117
 21
11.411391804
  0
LINE
  5
232
100
AcDbEntity
  8
0
100
AcDbLine
 62
9
  6
CONTINUOUS
 10
20.9111214488
 20
11.411391804
 11
20.4329256367
 21
11.411391804
  0
LINE
  5
233
100
AcDbEntity
  8
0
100
AcDbLine
 62
9
  6
CONTINUOUS
 10
20.2049922669
 20
11.411391804
 11
20.0069170761
 21
11.411391804
  0
LINE
  5
234
100
AcDbEntity
  8
0
100
AcDbLine
 62
7
  6
CONTINUOUS
 10
13.2597946802
 20
6.708391804
 11
13.2597946802
 21
6.333391804
  0
LINE
  5
235
100
AcDbEntity
  8
0
100
AcDbLine
 62
7
  6
CONTINUOUS
 10
21.9997796386
 20
11.561391804
 11
20.1448097219
 21
11.561391804
  0
LINE
  5
236
100
AcDbEntity
  8
0
100
AcDbLine
 62
9
  6
CONTINUOUS
 10
20.1631582472
 20
11.621391804
 11
21.9814311133
 21
11.621391804
  0
LINE
  5
237
100
AcDbEntity
  8
0
100
AcDbLine
 62
7
  6
CONTINUOUS
 10
21.860763459
 20
10.5055330736
 11
22.0622946802
 21
10.7118248749
  0
LINE
  5
238
100
AcDbEntity
  8
0
100
AcDbLine
 62
7
  6
CONTINUOUS
 10
20.2838259015
 20
10.5055330736
 11
20.0822946802
 21
10.7118248749
  0
LINE
  5
239
100
AcDbEntity
  8
0
100
AcDbLine
 62
7
  6
CONTINUOUS
 10
20.0069170761
 20
10.801391804
 11
20.0069170761
 21
11.411391804
  0
LINE
  5
23A
100
AcDbEntity
  8
0
100
AcDbLine
 62
7
  6
CONTINUOUS
 10
20.0597946802
 20
6.5823592717
 11
20.0597946802
 21
6.333391804
  0
LINE
  5
23B
100
AcDbEntity
  8
0
100
AcDbLine
 62
7
  6
CONTINUOUS
 10
20.4337665428
 20
10.7854668399
 11
20.4329256367
 21
10.801391804
  0
LINE
  5
23C
100
AcDbEntity
  8
0
100
AcDbLine
 62
7
  6
CONTINUOUS
 10
20.2049922669
 20
10.801391804
 11
20.2049922669
 21
11.411391804
  0
LINE
  5
23D
100
AcDbEntity
  8
0
100
AcDbLine
 62
7
  6
CONTINUOUS
 10
20.3122946802
 20
10.4356525729
 11
20.3122946802
 21
9.8762249518
  0
LINE
  5
23E
100
AcDbEntity
  8
0
100
AcDbLine
 62
7
  6
CONTINUOUS
 10
20.4329256367
 20
10.801391804
 11
20.4329256367
 21
11.411391804
  0
LINE
  5
23F
100
AcDbEntity
  8
0
100
AcDbLine
 62
7
  6
CONTINUOUS
 10
20.9111214488
 20
10.801391804
 11
20.9111214488
 21
11.411391804
  0
LINE
  5
240
100
AcDbEntity
  8
0
100
AcDbLine
 62
7
  6
CONTINUOUS
 10
20.4967057474
 20
9.801391804
 11
20.4154240768
 21
7.6367325769
  0
LINE
  5
241
100
AcDbEntity
  8
0
100
AcDbLine
 62
7
  6
CONTINUOUS
 10
21.647883613
 20
9.801391804
 11
21.7291652836
 21
7.6367325769
  0
LINE
  5
242
100
AcDbEntity
  8
0
100
AcDbLine
 62
7
  6
CONTINUOUS
 10
21.2334679117
 20
10.801391804
 11
21.2334679117
 21
11.411391804
  0
LINE
  5
243
100
AcDbEntity
  8
0
100
AcDbLine
 62
7
  6
CONTINUOUS
 10
21.7116637237
 20
10.801391804
 11
21.7116637237
 21
11.411391804
  0
LINE
  5
244
100
AcDbEntity
  8
0
100
AcDbLine
 62
7
  6
CONTINUOUS
 10
21.8322946802
 20
10.4356525729
 11
21.8322946802
 21
9.8762249518
  0
LINE
  5
245
100
AcDbEntity
  8
0
100
AcDbLine
 62
7
  6
CONTINUOUS
 10
21.9395970936
 20
10.801391804
 11
21.9395970936
 21
11.411391804
  0
LINE
  5
246
100
AcDbEntity
  8
0
100
AcDbLine
 62
7
  6
CONTINUOUS
 10
22.0847946802
 20
6.5823592717
 11
22.0847946802
 21
6.333391804
  0
LINE
  5
247
100
AcDbEntity
  8
0
100
AcDbLine
 62
7
  6
CONTINUOUS
 10
22.1376722844
 20
10.801391804
 11
22.1376722844
 21
11.411391804
  0
LINE
  5
248
100
AcDbEntity
  8
0
100
AcDbLine
 62
7
  6
CONTINUOUS
 10
21.7116637237
 20
10.801391804
 11
21.7108228177
 21
10.7854666166
  0
ARC
  5
249
100
AcDbEntity
  8
0
100
AcDbCircle
 62
7
  6
CONTINUOUS
 10
0.1635150865
 20
6.1504967643
 40
0.9
100
AcDbArc
 50
130.6439171763
 51
168.2748731243
  0
ARC
  5
24A
100
AcDbEntity
  8
0
100
AcDbCircle
 62
7
  6
CONTINUOUS
 10
-0.0189257261
 20
6.1504967643
 40
0.9
100
AcDbArc
 50
11.7251268757
 51
49.3560828237
  0
ARC
  5
24B
100
AcDbEntity
  8
0
100
AcDbCircle
 62
7
  6
CONTINUOUS
 10
3.2202946802
 20
6.770891804
 40
0.5
100
AcDbArc
 50
337.9756871629
 51
22.0243128371
  0
ARC
  5
24C
100
AcDbEntity
  8
0
100
AcDbCircle
 62
7
  6
CONTINUOUS
 10
0.0097946802
 20
6.913391804
 40
0.4
100
AcDbArc
 50
155.7790568908
 51
180.0
  0
ARC
  5
24D
100
AcDbEntity
  8
0
100
AcDbCircle
 62
7
  6
CONTINUOUS
 10
0.1347946802
 20
6.913391804
 40
0.4
100
AcDbArc
 50
0.0
 51
24.2209431092
  0
ARC
  5
24E
100
AcDbEntity
  8
0
100
AcDbCircle
 62
7
  6
CONTINUOUS
 10
4.0518718926
 20
6.271391804
 40
0.187
100
AcDbArc
 50
19.3629299219
 51
90.0
  0
ARC
  5
24F
100
AcDbEntity
  8
0
100
AcDbCircle
 62
7
  6
CONTINUOUS
 10
3.0927174679
 20
6.271391804
 40
0.187
100
AcDbArc
 50
90.0
 51
160.6370700781
  0
ARC
  5
250
100
AcDbEntity
  8
0
100
AcDbCircle
 62
7
  6
CONTINUOUS
 10
3.2799674679
 20
6.396391804
 40
0.187
100
AcDbArc
 50
90.0
 51
160.6370700781
  0
ARC
  5
251
100
AcDbEntity
  8
0
100
AcDbCircle
 62
7
  6
CONTINUOUS
 10
3.8646218926
 20
6.396391804
 40
0.187
100
AcDbArc
 50
19.3629299219
 51
90.0
  0
ARC
  5
252
100
AcDbEntity
  8
0
100
AcDbCircle
 62
7
  6
CONTINUOUS
 10
-0.3458737046
 20
7.073391804
 40
0.01
100
AcDbArc
 50
90.0
 51
155.7790568908
  0
ARC
  5
253
100
AcDbEntity
  8
0
100
AcDbCircle
 62
7
  6
CONTINUOUS
 10
0.4904630651
 20
7.073391804
 40
0.01
100
AcDbArc
 50
24.2209431092
 51
90.0
  0
ARC
  5
254
100
AcDbEntity
  8
0
100
AcDbCircle
 62
7
  6
CONTINUOUS
 10
11.4462946802
 20
8.926391804
 40
0.03
100
AcDbArc
 50
90.0
 51
180.0
  0
ARC
  5
255
100
AcDbEntity
  8
0
100
AcDbCircle
 62
7
  6
CONTINUOUS
 10
21.0722946802
 20
5.2959760049
 40
6.3904157991
100
AcDbArc
 50
81.821031102
 51
98.178968898
  0
ARC
  5
256
100
AcDbEntity
  8
0
100
AcDbCircle
 62
7
  6
CONTINUOUS
 10
20.7482746722
 20
6.7038598012
 40
1.3
100
AcDbArc
 50
357.7751307225
 51
37.4382101818
  0
ARC
  5
257
100
AcDbEntity
  8
0
100
AcDbCircle
 62
7
  6
CONTINUOUS
 10
21.3963146883
 20
6.7038598012
 40
1.3
100
AcDbArc
 50
142.5617898181
 51
182.2248692774
  0
CIRCLE
  5
258
100
AcDbEntity
  8
0
100
AcDbCircle
 62
7
  6
CONTINUOUS
 10
12.0722946802
 20
8.296391804
 40
0.25
  0
ARC
  5
259
100
AcDbEntity
  8
0
100
AcDbCircle
 62
7
  6
CONTINUOUS
 10
20.1656001354
 20
7.6461133178
 40
0.25
100
AcDbArc
 50
322.5617898181
 51
357.849587733
  0
ARC
  5
25A
100
AcDbEntity
  8
0
100
AcDbCircle
 62
7
  6
CONTINUOUS
 10
21.978989225
 20
7.6461133178
 40
0.25
100
AcDbArc
 50
182.150412267
 51
217.4382101818
  0
CIRCLE
  5
25B
100
AcDbEntity
  8
0
100
AcDbCircle
 62
9
  6
CONTINUOUS
 10
12.0722946802
 20
8.296391804
 40
0.22
  0
ARC
  5
25C
100
AcDbEntity
  8
0
100
AcDbCircle
 62
7
  6
CONTINUOUS
 10
20.1458196223
 20
6.5823592717
 40
0.0860249421
100
AcDbArc
 50
124.3384233779
 51
180.0
  0
ARC
  5
25D
100
AcDbEntity
  8
0
100
AcDbCircle
 62
7
  6
CONTINUOUS
 10
21.9987697382
 20
6.5823592717
 40
0.0860249421
100
AcDbArc
 50
0.0
 51
55.6615766221
  0
ARC
  5
25E
100
AcDbEntity
  8
0
100
AcDbCircle
 62
7
  6
CONTINUOUS
 10
24.2588324012
 20
8.9397634557
 40
2.8222296768
100
AcDbArc
 50
138.7283127573
 51
141.099670896
  0
ARC
  5
25F
100
AcDbEntity
  8
0
100
AcDbCircle
 62
7
  6
CONTINUOUS
 10
17.9262797342
 20
8.9738698925
 40
2.769275733
100
AcDbArc
 50
38.8776453828
 51
41.2943630465
  0
ARC
  5
260
100
AcDbEntity
  8
0
100
AcDbCircle
 62
7
  6
CONTINUOUS
 10
21.6822946802
 20
9.8762249518
 40
0.15
100
AcDbArc
 50
330.0735651336
 51
360.0
  0
ARC
  5
261
100
AcDbEntity
  8
0
100
AcDbCircle
 62
7
  6
CONTINUOUS
 10
20.4622946802
 20
9.8762249518
 40
0.15
100
AcDbArc
 50
180.0
 51
209.9264348664
  0
ARC
  5
262
100
AcDbEntity
  8
0
100
AcDbCircle
 62
7
  6
CONTINUOUS
 10
20.1447946802
 20
11.411391804
 40
0.15
100
AcDbArc
 50
90.0
 51
114.6243183522
  0
ARC
  5
263
100
AcDbEntity
  8
0
100
AcDbCircle
 62
7
  6
CONTINUOUS
 10
21.9997946802
 20
11.411391804
 40
0.15
100
AcDbArc
 50
65.3756816478
 51
90.0
  0
ARC
  5
264
100
AcDbEntity
  8
0
100
AcDbCircle
 62
7
  6
CONTINUOUS
 10
21.9322946802
 20
10.4356525729
 40
0.1
100
AcDbArc
 50
135.6687919533
 51
180.0
  0
ARC
  5
265
100
AcDbEntity
  8
0
100
AcDbCircle
 62
7
  6
CONTINUOUS
 10
20.2122946802
 20
10.4356525729
 40
0.1
100
AcDbArc
 50
0.0
 51
44.3312080467
  0
ARC
  5
266
100
AcDbEntity
  8
0
100
AcDbCircle
 62
7
  6
CONTINUOUS
 10
20.1674480324
 20
11.5915451562
 40
0.0301533521
100
AcDbArc
 50
98.1789688981
 51
270.0
  0
ARC
  5
267
100
AcDbEntity
  8
0
100
AcDbCircle
 62
7
  6
CONTINUOUS
 10
21.9771413281
 20
11.5915451562
 40
0.0301533521
100
AcDbArc
 50
270.0
 51
81.8210311019
  0
ARC
  5
268
100
AcDbEntity
  8
0
100
AcDbCircle
 62
7
  6
CONTINUOUS
 10
12.6982946802
 20
8.926391804
 40
0.03
100
AcDbArc
 50
0.0
 51
90.0
  0
SPLINE
  5
269
100
AcDbEntity
  8
0
100
AcDbSpline
 62
7
  6
CONTINUOUS
 70
0
 71
3
 72
25
 73
21
 74
0
 42
0.0000001
 43
0.0000001
 44
0.0000000001
 40
0.0
 40
0.0
 40
0.0
 40
0.0
 40
0.0414525788
 40
0.0901150795
 40
0.1535679257
 40
0.2289409743
 40
0.3136173332
 40
0.3586431686
 40
0.4050004849
 40
0.4522642019
 40
0.5000043941
 40
0.5477428031
 40
0.5949981247
 40
0.6413408705
 40
0.686353208
 40
0.7710072945
 40
0.846380838
 40
0.9098501979
 40
0.9585322611
 40
1.0
 40
1.0
 40
1.0
 40
1.0
 10
3.4782946802
 20
6.583391804
 30
0.0
 10
3.4807213687
 20
6.5846082667
 30
0.0
 10
3.4860278137
 20
6.5871917541
 30
0.0
 10
3.4951896341
 20
6.5913418994
 30
0.0
 10
3.5065631801
 20
6.5959781978
 30
0.0
 10
3.5204061126
 20
6.6007595005
 30
0.0
 10
3.533402568
 20
6.6042101722
 30
0.0
 10
3.5447248379
 20
6.6064070615
 30
0.0
 10
3.5537191862
 20
6.6076775576
 30
0.0
 10
3.5629465357
 20
6.6084778242
 30
0.0
 10
3.5722955174
 20
6.608743491
 30
0.0
 10
3.5816439076
 20
6.6084774037
 30
0.0
 10
3.5908697312
 20
6.6076782408
 30
0.0
 10
3.5998616478
 20
6.6064075614
 30
0.0
 10
3.6111807941
 20
6.6042119601
 30
0.0
 10
3.6241750734
 20
6.6007620368
 30
0.0
 10
3.6380179473
 20
6.595981792
 30
0.0
 10
3.6493945459
 20
6.5913465185
 30
0.0
 10
3.6585585989
 20
6.5871931523
 30
0.0
 10
3.6638669249
 20
6.5846083061
 30
0.0
 10
3.6662946802
 20
6.583391804
 30
0.0
  0
LINE
  5
26A
100
AcDbEntity
  8
0
100
AcDbLine
 62
7
  6
CONTINUOUS
 10
22.0650204129
 20
11.5461931925
 11
22.0622948505
 21
11.5477515633
  0
SPLINE
  5
26B
100
AcDbEntity
  8
0
100
AcDbSpline
 62
7
  6
CONTINUOUS
 70
0
 71
3
 72
11
 73
7
 74
0
 42
0.0000001
 43
0.0000001
 44
0.0000000001
 40
0.0
 40
0.0
 40
0.0
 40
0.0
 40
0.2620142936
 40
0.519680079
 40
0.7673310529
 40
1.0
 40
1.0
 40
1.0
 40
1.0
 10
20.4329256367
 20
11.411391804
 30
0.0
 10
20.4329256367
 20
11.4172025952
 30
0.0
 10
20.4330053023
 20
11.4287277647
 30
0.0
 10
20.4332785439
 20
11.4457431337
 30
0.0
 10
20.433628086
 20
11.4621058181
 30
0.0
 10
20.4337680253
 20
11.4727578152
 30
0.0
 10
20.4337667017
 20
11.4779178031
 30
0.0
  0
SPLINE
  5
26C
100
AcDbEntity
  8
0
100
AcDbSpline
 62
7
  6
CONTINUOUS
 70
0
 71
3
 72
42
 73
38
 74
0
 42
0.0000001
 43
0.0000001
 44
0.0000000001
 40
0.0
 40
0.0
 40
0.0
 40
0.0
 40
0.0984088411
 40
0.1963680929
 40
0.2929111887
 40
0.3871298637
 40
0.4330774751
 40
0.4780679037
 40
0.5645511044
 40
0.6452705884
 40
0.7190860473
 40
0.7850486602
 40
0.8148203225
 40
0.8424105393
 40
0.8677943649
 40
0.8909345269
 40
0.9118058886
 40
0.9304272282
 40
0.9468178677
 40
0.9609908725
 40
0.9729536476
 40
0.9781086498
 40
0.9827149566
 40
0.9867742534
 40
0.9902881568
 40
0.9932582147
 40
0.9956859064
 40
0.9966968092
 40
0.9975726444
 40
0.9983135783
 40
0.998919774
 40
0.9993913924
 40
0.9997285954
 40
0.9998468261
 40
0.9999314664
 40
0.9999825103
 40
1.0
 40
1.0
 40
1.0
 40
1.0
 10
20.0069170761
 20
11.411391804
 30
0.0
 10
20.0069170761
 20
11.4167416849
 30
0.0
 10
20.0074391765
 20
11.4274234978
 30
0.0
 10
20.0097175761
 20
11.4432068804
 30
0.0
 10
20.0134501147
 20
11.4584769871
 30
0.0
 10
20.0176665216
 20
11.4706561491
 30
0.0
 10
20.0216163341
 20
11.4799181265
 30
0.0
 10
20.0258098472
 20
11.4886073004
 30
0.0
 10
20.0315032683
 20
11.4986583743
 30
0.0
 10
20.0389266278
 20
11.5094743319
 30
0.0
 10
20.0465161287
 20
11.5187689646
 30
0.0
 10
20.0528748497
 20
11.5254541319
 30
0.0
 10
20.0577565433
 20
11.5300512118
 30
0.0
 10
20.0611339609
 20
11.5330237415
 30
0.0
 10
20.0643253078
 20
11.5356585796
 30
0.0
 10
20.0673030202
 20
11.5379757443
 30
0.0
 10
20.0700440702
 20
11.539996366
 30
0.0
 10
20.0725340331
 20
11.5417374941
 30
0.0
 10
20.0747603236
 20
11.5432188632
 30
0.0
 10
20.076711147
 20
11.5444597332
 30
0.0
 10
20.0781607779
 20
11.5453499293
 30
0.0
 10
20.0791728601
 20
11.5459585947
 30
0.0
 10
20.0798191465
 20
11.5463417852
 30
0.0
 10
20.0803907293
 20
11.5466760113
 30
0.0
 10
20.0808872441
 20
11.5469623735
 30
0.0
 10
20.0813083101
 20
11.5472019931
 30
0.0
 10
20.0816120522
 20
11.5473726546
 30
0.0
 10
20.0818169715
 20
11.5474867577
 30
0.0
 10
20.0819419418
 20
11.5475559763
 30
0.0
 10
20.0820477206
 20
11.5476143627
 30
0.0
 10
20.0821344491
 20
11.5476619928
 30
0.0
 10
20.0822015866
 20
11.5476991621
 30
0.0
 10
20.0822462227
 20
11.5477233853
 30
0.0
 10
20.0822710957
 20
11.5477380045
 30
0.0
 10
20.0822842691
 20
11.547744473
 30
0.0
 10
20.0822893378
 20
11.5477493625
 30
0.0
 10
20.0822947171
 20
11.5477506354
 30
0.0
 10
20.0822945099
 20
11.5477515633
 30
0.0
  0
LINE
  5
26D
100
AcDbEntity
  8
0
100
AcDbLine
 62
7
  6
CONTINUOUS
 10
20.082127689
 20
10.7120320488
 11
20.0822945109
 21
10.7118251075
  0
LINE
  5
26E
100
AcDbEntity
  8
0
100
AcDbLine
 62
7
  6
CONTINUOUS
 10
22.0624616715
 20
10.7120320488
 11
22.0622948496
 21
10.7118251075
  0
SPLINE
  5
26F
100
AcDbEntity
  8
0
100
AcDbSpline
 62
7
  6
CONTINUOUS
 70
0
 71
3
 72
11
 73
7
 74
0
 42
0.0000001
 43
0.0000001
 44
0.0000000001
 40
0.0
 40
0.0
 40
0.0
 40
0.0
 40
0.2326649066
 40
0.4803015437
 40
0.7379674324
 40
1.0
 40
1.0
 40
1.0
 40
1.0
 10
21.7108228385
 20
11.4779177075
 30
0.0
 10
21.7108218655
 20
11.4727578167
 30
0.0
 10
21.7109614446
 20
11.4621062454
 30
0.0
 10
21.7113107439
 20
11.4457439823
 30
0.0
 10
21.7115842733
 20
11.428728554
 30
0.0
 10
21.7116637237
 20
11.4172029918
 30
0.0
 10
21.7116637237
 20
11.411391804
 30
0.0
  0
LINE
  5
270
100
AcDbEntity
  8
0
100
AcDbLine
 62
7
  6
CONTINUOUS
 10
20.0822945099
 20
11.5477515633
 11
20.079013035
 21
11.5458603188
  0
SPLINE
  5
271
100
AcDbEntity
  8
0
100
AcDbSpline
 62
7
  6
CONTINUOUS
 70
0
 71
3
 72
39
 73
35
 74
0
 42
0.0000001
 43
0.0000001
 44
0.0000000001
 40
0.0
 40
0.0
 40
0.0
 40
0.0
 40
0.0000163743
 40
0.0000663208
 40
0.0001499179
 40
0.0002671893
 40
0.0006028259
 40
0.0010733642
 40
0.001678932
 40
0.0024196575
 40
0.0032956698
 40
0.0043070998
 40
0.0067367422
 40
0.0097096656
 40
0.0132269764
 40
0.0172898091
 40
0.0218993255
 40
0.0270566455
 40
0.0390187902
 40
0.0531869801
 40
0.0695766214
 40
0.0882082692
 40
0.1091068178
 40
0.1322696253
 40
0.1576619433
 40
0.2150361554
 40
0.2810532515
 40
0.3549016776
 40
0.4356400799
 40
0.6128895859
 40
0.7071018985
 40
0.8036349644
 40
0.9015898918
 40
1.0
 40
1.0
 40
1.0
 40
1.0
 10
22.0622948505
 20
11.5477515633
 30
0.0
 10
22.0622950444
 20
11.5477524319
 30
0.0
 10
22.0622999701
 20
11.547748195
 30
0.0
 10
22.0623056203
 20
11.5477471534
 30
0.0
 10
22.0623186283
 20
11.5477393427
 30
0.0
 10
22.0623438233
 20
11.5477265912
 30
0.0
 10
22.0623884139
 20
11.5477020703
 30
0.0
 10
22.0624555655
 20
11.5476656431
 30
0.0
 10
22.0625421449
 20
11.547617878
 30
0.0
 10
22.0626477361
 20
11.547559323
 30
0.0
 10
22.0627724564
 20
11.5474896455
 30
0.0
 10
22.0629769988
 20
11.5473746798
 30
0.0
 10
22.0632802193
 20
11.5472026484
 30
0.0
 10
22.0637007783
 20
11.546961448
 30
0.0
 10
22.0641970461
 20
11.5466738352
 30
0.0
 10
22.0647687994
 20
11.5463390858
 30
0.0
 10
22.0654158326
 20
11.5459565034
 30
0.0
 10
22.0664297666
 20
11.5453508942
 30
0.0
 10
22.0678806035
 20
11.5444636308
 30
0.0
 10
22.069830061
 20
11.5432221259
 30
0.0
 10
22.0720546566
 20
11.5417387796
 30
0.0
 10
22.0745443234
 20
11.539994907
 30
0.0
 10
22.0772881598
 20
11.5379738085
 30
0.0
 10
22.0802689095
 20
11.5356566053
 30
0.0
 10
22.0847093826
 20
11.5319905842
 30
0.0
 10
22.0906871378
 20
11.5265342861
 30
0.0
 10
22.0980803282
 20
11.5187583762
 30
0.0
 10
22.1056729908
 20
11.5094605392
 30
0.0
 10
22.1158867706
 20
11.4945754491
 30
0.0
 10
22.124596936
 20
11.477390042
 30
0.0
 10
22.1311416989
 20
11.4584668305
 30
0.0
 10
22.134873404
 20
11.443199122
 30
0.0
 10
22.1371504441
 20
11.4274201559
 30
0.0
 10
22.1376722844
 20
11.416740635
 30
0.0
 10
22.1376722844
 20
11.411391804
 30
0.0
  0
SPLINE
  5
272
100
AcDbEntity
  8
0
100
AcDbSpline
 62
7
  6
CONTINUOUS
 70
0
 71
3
 72
30
 73
26
 74
0
 42
0.0000001
 43
0.0000001
 44
0.0000000001
 40
0.0
 40
0.0
 40
0.0
 40
0.0
 40
0.0503501129
 40
0.0983957602
 40
0.1444140121
 40
0.1668861045
 40
0.189162189
 40
0.2114333426
 40
0.2339413651
 40
0.2569715731
 40
0.2808299473
 40
0.3058175864
 40
0.3321959493
 40
0.3601537684
 40
0.3897908835
 40
0.4211158973
 40
0.4540554891
 40
0.4884762785
 40
0.5242102441
 40
0.5988626924
 40
0.6766468482
 40
0.7564110562
 40
0.8372850855
 40
0.9186418781
 40
1.0
 40
1.0
 40
1.0
 40
1.0
 10
21.7108227651
 20
10.7854649765
 30
0.0
 10
21.7108228806
 20
10.7804000879
 30
0.0
 10
21.7113551055
 20
10.7704879648
 30
0.0
 10
21.7140660375
 20
10.7561672406
 30
0.0
 10
21.7181399427
 20
10.7450943622
 30
0.0
 10
21.7225868616
 20
10.7371013417
 30
0.0
 10
21.7265179154
 20
10.7316046759
 30
0.0
 10
21.7310991463
 20
10.7266289439
 30
0.0
 10
21.7363524361
 20
10.7222457957
 30
0.0
 10
21.7422895138
 20
10.7185322824
 30
0.0
 10
21.748905801
 20
10.7155620315
 30
0.0
 10
21.7561793799
 20
10.713399526
 30
0.0
 10
21.7640708914
 20
10.7120949116
 30
0.0
 10
21.7725242664
 20
10.7116767687
 30
0.0
 10
21.7814702713
 20
10.7121511504
 30
0.0
 10
21.790830386
 20
10.7135024416
 30
0.0
 10
21.800521594
 20
10.7156945963
 30
0.0
 10
21.8104624652
 20
10.7186741741
 30
0.0
 10
21.8241467897
 20
10.7236873962
 30
0.0
 10
21.8413792443
 20
10.7315919413
 30
0.0
 10
21.8617849019
 20
10.7429944829
 30
0.0
 10
21.8819536048
 20
10.7559973338
 30
0.0
 10
21.9017162679
 20
10.770225854
 30
0.0
 10
21.9209716566
 20
10.7853901427
 30
0.0
 10
21.9334484796
 20
10.7959905204
 30
0.0
 10
21.9395970936
 20
10.801391804
 30
0.0
  0
SPLINE
  5
273
100
AcDbEntity
  8
0
100
AcDbSpline
 62
7
  6
CONTINUOUS
 70
0
 71
3
 72
24
 73
20
 74
0
 42
0.0000001
 43
0.0000001
 44
0.0000000001
 40
0.0
 40
0.0
 40
0.0
 40
0.0
 40
0.1318155564
 40
0.1968478231
 40
0.2607550219
 40
0.323313441
 40
0.3844555813
 40
0.4442310754
 40
0.4737193738
 40
0.503025583
 40
0.5613760349
 40
0.5906412986
 40
0.6200884625
 40
0.679812819
 40
0.741031758
 40
0.803916132
 40
0.8683483741
 40
0.9339386735
 40
1.0
 40
1.0
 40
1.0
 40
1.0
 10
21.0722946802
 20
11.5477507055
 30
0.0
 10
21.0616258776
 20
11.5477507055
 30
0.0
 10
21.0456777319
 20
11.5471048947
 30
0.0
 10
21.024704375
 20
11.5446828841
 30
0.0
 10
21.0094267479
 20
11.5420042475
 30
0.0
 10
20.9946874546
 20
11.538284805
 30
0.0
 10
20.9806502921
 20
11.5333694369
 30
0.0
 10
20.9696355844
 20
11.5281111141
 30
0.0
 10
20.9614130596
 20
11.5231489821
 30
0.0
 10
20.9536470776
 20
11.5176995749
 30
0.0
 10
20.946489639
 20
11.5114491577
 30
0.0
 10
20.9400791461
 20
11.5044625727
 30
0.0
 10
20.9341387448
 20
11.4969288181
 30
0.0
 10
20.9276601347
 20
11.4865741838
 30
0.0
 10
20.9214601383
 20
11.4730087871
 30
0.0
 10
20.9167634295
 20
11.4584582045
 30
0.0
 10
20.9134827596
 20
11.4431697218
 30
0.0
 10
20.9115454903
 20
11.4273993629
 30
0.0
 10
20.9111214488
 20
11.4167386332
 30
0.0
 10
20.9111214488
 20
11.411391804
 30
0.0
  0
SPLINE
  5
274
100
AcDbEntity
  8
0
100
AcDbSpline
 62
7
  6
CONTINUOUS
 70
0
 71
3
 72
39
 73
35
 74
0
 42
0.0000001
 43
0.0000001
 44
0.0000000001
 40
0.0
 40
0.0
 40
0.0
 40
0.0
 40
0.0394031317
 40
0.0788887781
 40
0.118376639
 40
0.1578376955
 40
0.1972855125
 40
0.236742056
 40
0.2761786569
 40
0.2958725993
 40
0.3155302949
 40
0.3546816635
 40
0.393502856
 40
0.4317850337
 40
0.4693739156
 40
0.541636922
 40
0.576003128
 40
0.6089519697
 40
0.6403364691
 40
0.6700425978
 40
0.6979527162
 40
0.7239866308
 40
0.7481097099
 40
0.7703445532
 40
0.7908527252
 40
0.8099759859
 40
0.8282870731
 40
0.8466435268
 40
0.8660357701
 40
0.8873730063
 40
0.9112498483
 40
0.9380097931
 40
0.9676759275
 40
1.0
 40
1.0
 40
1.0
 40
1.0
 10
21.9395970936
 20
11.411391804
 30
0.0
 10
21.9395970936
 20
11.4160171525
 30
0.0
 10
21.9390934605
 20
11.4252851095
 30
0.0
 10
21.9368480757
 20
11.4390243905
 30
0.0
 10
21.9331126117
 20
11.4524454733
 30
0.0
 10
21.9279136715
 20
11.4653650993
 30
0.0
 10
21.9213130576
 20
11.4776252429
 30
0.0
 10
21.9133677171
 20
11.4890551102
 30
0.0
 10
21.905743183
 20
11.4977936902
 30
0.0
 10
21.899117714
 20
11.5042520157
 30
0.0
 10
21.8921791354
 20
11.5103221624
 30
0.0
 10
21.8829792979
 20
11.5171904448
 30
0.0
 10
21.8713065887
 20
11.5242952675
 30
0.0
 10
21.8592180363
 20
11.5302593109
 30
0.0
 10
21.8430536741
 20
11.5367050519
 30
0.0
 10
21.8267205111
 20
11.5413526678
 30
0.0
 10
21.8106355525
 20
11.5444926012
 30
0.0
 10
21.7991646974
 20
11.5461550568
 30
0.0
 10
21.7881743645
 20
11.5472297705
 30
0.0
 10
21.7777364332
 20
11.5477558224
 30
0.0
 10
21.7679131584
 20
11.5477883971
 30
0.0
 10
21.7587558456
 20
11.5473113548
 30
0.0
 10
21.7503118488
 20
11.5462900248
 30
0.0
 10
21.7426141527
 20
11.5446954738
 30
0.0
 10
21.7356942911
 20
11.5424273454
 30
0.0
 10
21.7295849966
 20
11.5393669838
 30
0.0
 10
21.7243342498
 20
11.5353812183
 30
0.0
 10
21.7199955466
 20
11.5303691845
 30
0.0
 10
21.7166030302
 20
11.524269637
 30
0.0
 10
21.7141284821
 20
11.5170700099
 30
0.0
 10
21.7124246832
 20
11.5087784435
 30
0.0
 10
21.7113926273
 20
11.499399447
 30
0.0
 10
21.710896483
 20
11.488989487
 30
0.0
 10
21.710823554
 20
11.4817120784
 30
0.0
 10
21.7108228385
 20
11.4779177075
 30
0.0
  0
SPLINE
  5
275
100
AcDbEntity
  8
0
100
AcDbSpline
 62
7
  6
CONTINUOUS
 70
0
 71
3
 72
30
 73
26
 74
0
 42
0.0000001
 43
0.0000001
 44
0.0000000001
 40
0.0
 40
0.0
 40
0.0
 40
0.0
 40
0.0813579759
 40
0.1627145938
 40
0.2435885799
 40
0.323352744
 40
0.4011369519
 40
0.4757894443
 40
0.511523582
 40
0.5459443942
 40
0.5788838896
 40
0.6102089719
 40
0.6398461395
 40
0.6678039289
 40
0.6941822622
 40
0.7191699769
 40
0.7430283659
 40
0.7660584707
 40
0.7885664908
 40
0.810837644
 40
0.8331137304
 40
0.8555858061
 40
0.9016040912
 40
0.94964977
 40
1.0
 40
1.0
 40
1.0
 40
1.0
 10
20.2049922669
 20
10.801391804
 30
0.0
 10
20.2111408698
 20
10.7959905301
 30
0.0
 10
20.2236176697
 20
10.7853901753
 30
0.0
 10
20.242873027
 20
10.7702259061
 30
0.0
 10
20.2626356653
 20
10.7559973969
 30
0.0
 10
20.2828043605
 20
10.7429945404
 30
0.0
 10
20.3032100202
 20
10.7315919929
 30
0.0
 10
20.3204424938
 20
10.7236874233
 30
0.0
 10
20.3341268425
 20
10.7186741984
 30
0.0
 10
20.3440677184
 20
10.7156946013
 30
0.0
 10
20.3537589278
 20
10.7135024551
 30
0.0
 10
20.3631190431
 20
10.7121511532
 30
0.0
 10
20.3720650574
 20
10.7116767685
 30
0.0
 10
20.3805184311
 20
10.7120949102
 30
0.0
 10
20.3884099472
 20
10.7133995115
 30
0.0
 10
20.3956835278
 20
10.7155620306
 30
0.0
 10
20.4022998231
 20
10.7185322598
 30
0.0
 10
20.4082368906
 20
10.7222457735
 30
0.0
 10
20.4134901745
 20
10.7266289107
 30
0.0
 10
20.418071414
 20
10.7316046349
 30
0.0
 10
20.4220024713
 20
10.7371012966
 30
0.0
 10
20.4264493954
 20
10.7450943161
 30
0.0
 10
20.4305233118
 20
10.7561671954
 30
0.0
 10
20.4332342565
 20
10.7704879363
 30
0.0
 10
20.4337664806
 20
10.7804000746
 30
0.0
 10
20.4337665972
 20
10.7854649749
 30
0.0
  0
SPLINE
  5
276
100
AcDbEntity
  8
0
100
AcDbSpline
 62
7
  6
CONTINUOUS
 70
0
 71
3
 72
38
 73
34
 74
0
 42
0.0000001
 43
0.0000001
 44
0.0000000001
 40
0.0
 40
0.0
 40
0.0
 40
0.0
 40
0.0323261066
 40
0.0619913413
 40
0.0887530356
 40
0.1126285396
 40
0.133958034
 40
0.1533416936
 40
0.1716925882
 40
0.1900013588
 40
0.209114386
 40
0.2296103586
 40
0.2518409731
 40
0.2759544743
 40
0.3019817001
 40
0.32989106
 40
0.3595929265
 40
0.3909835444
 40
0.4582941831
 40
0.4939109657
 40
0.5306342485
 40
0.5682384851
 40
0.6065403504
 40
0.6453844632
 40
0.6845531281
 40
0.7042170679
 40
0.723916078
 40
0.7633612057
 40
0.8028244395
 40
0.8422737644
 40
0.8817332377
 40
0.9212204119
 40
1.0
 40
1.0
 40
1.0
 40
1.0
 10
20.4337667017
 20
11.4779178031
 30
0.0
 10
20.4337657284
 20
11.4817120297
 30
0.0
 10
20.4336923185
 20
11.4889888332
 30
0.0
 10
20.4331960371
 20
11.4993980497
 30
0.0
 10
20.4321657583
 20
11.5087761786
 30
0.0
 10
20.4304642026
 20
11.5170664928
 30
0.0
 10
20.4279898435
 20
11.5242633491
 30
0.0
 10
20.4245989056
 20
11.5303595351
 30
0.0
 10
20.4202670017
 20
11.5353739452
 30
0.0
 10
20.4150185812
 20
11.5393587592
 30
0.0
 10
20.4089123958
 20
11.542417164
 30
0.0
 10
20.4019970367
 20
11.5446854914
 30
0.0
 10
20.3943054563
 20
11.5462908657
 30
0.0
 10
20.3858638453
 20
11.5473080293
 30
0.0
 10
20.3767096251
 20
11.5477814644
 30
0.0
 10
20.3668887281
 20
11.5477635709
 30
0.0
 10
20.3564514098
 20
11.5472320558
 30
0.0
 10
20.3414490045
 20
11.5457608248
 30
0.0
 10
20.3258712291
 20
11.5431377287
 30
0.0
 10
20.3099761837
 20
11.5391032567
 30
0.0
 10
20.2976769879
 20
11.5351663458
 30
0.0
 10
20.2853855237
 20
11.5302676152
 30
0.0
 10
20.2732933827
 20
11.5242994751
 30
0.0
 10
20.2616160265
 20
11.5171913296
 30
0.0
 10
20.2524117909
 20
11.5103218689
 30
0.0
 10
20.2454703527
 20
11.5042512827
 30
0.0
 10
20.2388435959
 20
11.4977922282
 30
0.0
 10
20.2312195997
 20
11.489051583
 30
0.0
 10
20.2232740806
 20
11.4776210713
 30
0.0
 10
20.2166733298
 20
11.4653623795
 30
0.0
 10
20.2114757144
 20
11.4524411746
 30
0.0
 10
20.2065034584
 20
11.4345817496
 30
0.0
 10
20.2049922669
 20
11.4206384362
 30
0.0
 10
20.2049922669
 20
11.411391804
 30
0.0
  0
SPLINE
  5
277
100
AcDbEntity
  8
0
100
AcDbSpline
 62
7
  6
CONTINUOUS
 70
0
 71
3
 72
13
 73
9
 74
0
 42
0.0000001
 43
0.0000001
 44
0.0000000001
 40
0.0
 40
0.0
 40
0.0
 40
0.0
 40
0.1361919415
 40
0.270462944
 40
0.40148733
 40
0.5286684138
 40
0.7711438767
 40
1.0
 40
1.0
 40
1.0
 40
1.0
 10
21.0722946802
 20
10.7118248749
 30
0.0
 10
21.0636183705
 20
10.7118248749
 30
0.0
 10
21.0463591187
 20
10.7131595144
 30
0.0
 10
21.0213582153
 20
10.7189541392
 30
0.0
 10
20.9979573838
 20
10.7279796925
 30
0.0
 10
20.9698359104
 20
10.7431793181
 30
0.0
 10
20.9395841461
 20
10.7668722984
 30
0.0
 10
20.9197383917
 20
10.7896311246
 30
0.0
 10
20.9111214488
 20
10.801391804
 30
0.0
  0
SPLINE
  5
278
100
AcDbEntity
  8
0
100
AcDbSpline
 62
7
  6
CONTINUOUS
 70
0
 71
3
 72
13
 73
9
 74
0
 42
0.0000001
 43
0.0000001
 44
0.0000000001
 40
0.0
 40
0.0
 40
0.0
 40
0.0
 40
0.1361907851
 40
0.2704613594
 40
0.4014854845
 40
0.52866666
 40
0.7711427226
 40
1.0
 40
1.0
 40
1.0
 40
1.0
 10
21.0722946802
 20
10.7118248749
 30
0.0
 10
21.0809709163
 20
10.7118248749
 30
0.0
 10
21.0982300678
 20
10.7131594844
 30
0.0
 10
21.1232308617
 20
10.7189540607
 30
0.0
 10
21.146631674
 20
10.7279795557
 30
0.0
 10
21.174753199
 20
10.7431791443
 30
0.0
 10
21.2050050978
 20
10.7668721501
 30
0.0
 10
21.2248509252
 20
10.7896310652
 30
0.0
 10
21.2334679117
 20
10.801391804
 30
0.0
  0
SPLINE
  5
279
100
AcDbEntity
  8
0
100
AcDbSpline
 62
7
  6
CONTINUOUS
 70
0
 71
3
 72
23
 73
19
 74
0
 42
0.0000001
 43
0.0000001
 44
0.0000000001
 40
0.0
 40
0.0
 40
0.0
 40
0.0
 40
0.0661002177
 40
0.1317071201
 40
0.1961386317
 40
0.2590242577
 40
0.3202493414
 40
0.3799610295
 40
0.4386265964
 40
0.4678070915
 40
0.4969974263
 40
0.5557520779
 40
0.615524557
 40
0.6766488283
 40
0.7392202366
 40
0.8031230575
 40
0.8681440121
 40
1.0
 40
1.0
 40
1.0
 40
1.0
 10
21.2334679117
 20
11.411391804
 30
0.0
 10
21.2334679117
 20
11.416741609
 30
0.0
 10
21.2330431293
 20
11.4274064997
 30
0.0
 10
21.231104783
 20
11.443180594
 30
0.0
 10
21.2278233601
 20
11.4584700954
 30
0.0
 10
21.2231221406
 20
11.4730187049
 30
0.0
 10
21.2169263354
 20
11.4865863339
 30
0.0
 10
21.2091908492
 20
11.4989474013
 30
0.0
 10
21.2014251656
 20
11.5080821273
 30
0.0
 10
21.194527457
 20
11.5145848152
 30
0.0
 10
21.1871622684
 20
11.5205650817
 30
0.0
 10
21.1770902177
 20
11.5270810814
 30
0.0
 10
21.1639461586
 20
11.5333749456
 30
0.0
 10
21.1499055213
 20
11.5382833849
 30
0.0
 10
21.1351671976
 20
11.541997887
 30
0.0
 10
21.1198915986
 20
11.5446851237
 30
0.0
 10
21.0989159104
 20
11.5470991129
 30
0.0
 10
21.0829664124
 20
11.5477507055
 30
0.0
 10
21.0722946802
 20
11.5477507055
 30
0.0
  0
ENDSEC
  0
SECTION
  2
OBJECTS
  0
DICTIONARY
  5
C
100
AcDbDictionary
280
0
281
1
  3
ACAD_GROUP
350
D
  3
ACAD_MLINESTYLE
350
17
  3
ACAD_LAYOUT
350
1A
  3
ACAD_PLOTSETTINGS
350
19
  3
ACAD_PLOTSTYLENAME
350
E
  0
DICTIONARY
  5
D
102
{ACAD_REACTORS
330
C
102
}
100
AcDbDictionary
280
0
281
1
  0
ACDBDICTIONARYWDFLT
  5
E
102
{ACAD_REACTORS
330
C
102
}
100
AcDbDictionary
281
1
  3
Normal
350
F
100
AcDbDictionaryWithDefault
340
F
  0
DICTIONARY
  5
17
102
{ACAD_REACTORS
330
C
102
}
100
AcDbDictionary
280
0
281
1
  3
Standard
350
18
  0
DICTIONARY
  5
19
102
{ACAD_REACTORS
330
C
102
}
100
AcDbDictionary
281
1
  0
DICTIONARY
  5
1A
102
{ACAD_REACTORS
330
C
102
}
100
AcDbDictionary
281
1
  3
Model
350
27A
  3
Layout1
350
27B
  0
ACDBPLACEHOLDER
  5
F
102
{ACAD_REACTORS
330
E
102
}
  0
MLINESTYLE
  5
18
102
{ACAD_REACTORS
330
17
102
}
100
AcDbMlineStyle
  2
STANDARD
 70
0
  3

 62
256
 51
90.0
 52
90.0
 71
2
 49
0.5
 62
256
  6
BYLAYER
 49
-0.5
 62
256
  6
BYLAYER
  0
LAYOUT
  5
27A
102
{ACAD_REACTORS
330
1A
102
}
100
AcDbPlotSettings
  1

  2
none_device
  4
ANSI_C_(22.00_x_17.00_Inches)
  6

 40
0.0
 41
0.0
 42
0.0
 43
0.0
 44
558.8
 45
431.8
 46
0.0
 47
0.0
 48
0.0
 49
0.0
140
0.0
141
0.0
142
1.0
143
1.0
 70
1024
 72
0
 73
0
 74
0
  7

 75
0
147
1.0
148
0.0
149
0.0
100
AcDbLayout
  1
Model
 70
0
 71
0
 10
0.0
 20
0.0
 11
22.0
 21
17.0
 12
0.0
 22
0.0
 32
0.0
 14
0.0
 24
0.0
 34
0.0
 15
0.0
 25
0.0
 35
0.0
146
0.0
 13
0.0
 23
0.0
 33
0.0
 16
1.0
 26
0.0
 36
0.0
 17
0.0
 27
1.0
 37
0.0
 76
0
330
202
345
0
346
0
  0
LAYOUT
  5
27B
102
{ACAD_REACTORS
330
1A
102
}
100
AcDbPlotSettings
  1

  2
none_device
  4
ANSI_C_(22.00_x_17.00_Inches)
  6

 40
0.0
 41
0.0
 42
0.0
 43
0.0
 44
558.8
 45
431.8
 46
0.0
 47
0.0
 48
0.0
 49
0.0
140
0.0
141
0.0
142
1.0
143
1.0
 70
0
 72
0
 73
0
 74
0
  7

 75
0
147
1.0
148
0.0
149
0.0
100
AcDbLayout
  1
Layout1
 70
0
 71
1
 10
0.0
 20
0.0
 11
22.0
 21
17.0
 12
0.0
 22
0.0
 32
0.0
 14
0.0
 24
0.0
 34
0.0
 15
0.0
 25
0.0
 35
0.0
146
0.0
 13
0.0
 23
0.0
 33
0.0
 16
1.0
 26
0.0
 36
0.0
 17
0.0
 27
1.0
 37
0.0
 76
0
330
203
345
0
346
0
  0
ENDSEC
  0
EOF
