  0
SECTION
  2
HEADER
  9
$ACADVER
  1
AC1015
  9
$DWGCODEPAGE
  3
ANSI_1252
  9
$EXTMAX
 10
33.1102362205
 20
23.3858267717
 30
0.0
  9
$EXTMIN
 10
0.0
 20
0.0
 30
0.0
  9
$LIMMIN
 10
0.0
 20
0.0
  9
$LIMMAX
 10
33.1102362205
 20
23.3858267717
  9
$VIEWCTR
 10
16.5551181102
 20
11.6929133858
  9
$VIEWSIZE
 40
23.3858267717
  9
$CLAYER
  8
0
  9
$LTSCALE
 40
1.8210629921
  9
$CELTYPE
  6
BYLAYER
  9
$DIMSCALE
 40
1.0
  9
$DIMASZ
 40
0.1
  9
$DIMEXO
 40
0.2069389764
  9
$DIMDLI
 40
1.2581889764
  9
$DIMEXE
 40
0.595984252
  9
$DIMCEN
 40
0.297992126
  9
$DIMLFAC
 40
1.0
  9
$DIMBLK
  1
_FILLED
  9
$DIMTXT
 40
0.08
  9
$DIMTOL
 70
1
  9
$DIMLIM
 70
0
  9
$DIMTFAC
 40
1.0
  9
$DIMTP
 40
0.01
  9
$DIMTM
 40
0.01
  9
$PDMODE
 70
3
  9
$PDSIZE
 40
0.3125
  9
$HANDSEED
  5
248
  9
$TILEMODE
 70
1
  9
$MEASUREMENT
 70
0
  9
$INSUNITS
 70
1
  0
ENDSEC
  0
SECTION
  2
CLASSES
  0
CLASS
  1
ACDBDICTIONARYWDFLT
  2
AcDbDictionaryWithDefault
  3
AutoCAD 2000
 90
0
280
0
281
0
  0
CLASS
  1
ACDBPLACEHOLDER
  2
AcDbPlaceHolder
  3
AutoCAD 2000
 90
0
280
0
281
0
  0
CLASS
  1
LAYOUT
  2
AcDbLayout
  3
AutoCAD 2000
 90
0
280
0
281
0
  0
ENDSEC
  0
SECTION
  2
TABLES
  0
TABLE
  2
VPORT
  5
8
100
AcDbSymbolTable
 70
2
  0
VPORT
  5
1F4
100
AcDbSymbolTableRecord
100
AcDbViewportTableRecord
  2
*ACTIVE
 70
0
 10
0.0
 20
0.0
 11
1.0
 21
1.0
 12
16.5551181102
 22
11.6929133858
 13
0.0
 23
0.0
 14
1.0
 24
1.0
 15
0.0
 25
0.0
 16
0.0
 26
0.0
 36
1.0
 17
0.0
 27
0.0
 37
0.0
 40
23.3858267717
 41
1.4158249158
 42
50.0
 43
0.0
 44
0.0
 50
0.0
 51
0.0
 71
0
 72
100
 73
1
 74
1
 75
0
 76
0
 77
0
 78
0
  0
ENDTAB
  0
TABLE
  2
LTYPE
  5
5
100
AcDbSymbolTable
 70
6
  0
LTYPE
  5
14
100
AcDbSymbolTableRecord
100
AcDbLinetypeTableRecord
  2
BYBLOCK
 70
0
  3

 72
65
 73
0
 40
0.0
  0
LTYPE
  5
15
100
AcDbSymbolTableRecord
100
AcDbLinetypeTableRecord
  2
BYLAYER
 70
0
  3

 72
65
 73
0
 40
0.0
  0
LTYPE
  5
16
100
AcDbSymbolTableRecord
100
AcDbLinetypeTableRecord
  2
CONTINUOUS
 70
64
  3
Solid line
 72
65
 73
0
 40
0.0
  0
LTYPE
  5
1F5
100
AcDbSymbolTableRecord
100
AcDbLinetypeTableRecord
  2
CENTER
 70
64
  3
____ _ ____ _ ____ _ ____ _ ____ _ ____ _ ____
 72
65
 73
4
 40
0.6
 49
0.375
 74
0
 49
-0.075
 74
0
 49
0.075
 74
0
 49
-0.075
 74
0
  0
LTYPE
  5
1F6
100
AcDbSymbolTableRecord
100
AcDbLinetypeTableRecord
  2
HIDDEN
 70
64
  3
- - - - - - - - - - - - - - - - - - - -
 72
65
 73
2
 40
0.2
 49
0.1
 74
0
 49
-0.1
 74
0
  0
LTYPE
  5
1F7
100
AcDbSymbolTableRecord
100
AcDbLinetypeTableRecord
  2
PHANTOM
 70
64
  3
_____ _ _ _____ _ _ _____ _ _ _____
 72
65
 73
6
 40
0.8
 49
0.45
 74
0
 49
-0.05
 74
0
 49
0.1
 74
0
 49
-0.05
 74
0
 49
0.1
 74
0
 49
-0.05
 74
0
  0
LTYPE
  5
1F8
100
AcDbSymbolTableRecord
100
AcDbLinetypeTableRecord
  2
DOT
 70
64
  3
. . . . . . . . . . . . . . . . . . . .
 72
65
 73
2
 40
0.2
 49
0.1
 74
0
 49
-0.1
 74
0
  0
LTYPE
  5
1F9
100
AcDbSymbolTableRecord
100
AcDbLinetypeTableRecord
  2
DASHED
 70
64
  3
- - - - - - - - - - - - - - - - - - - -
 72
65
 73
2
 40
0.2
 49
0.1
 74
0
 49
-0.1
 74
0
  0
ENDTAB
  0
TABLE
  2
LAYER
  5
2
100
AcDbSymbolTable
 70
36
  0
LAYER
  5
10
100
AcDbSymbolTableRecord
100
AcDbLayerTableRecord
  2
0
 70
0
 62
7
  6
CONTINUOUS
370
-3
390
F
  0
LAYER
  5
1FA
100
AcDbSymbolTableRecord
100
AcDbLayerTableRecord
  2
DEFAULT_1
 70
0
 62
7
  6
CENTER
370
-3
390
F
  0
LAYER
  5
1FB
100
AcDbSymbolTableRecord
100
AcDbLayerTableRecord
  2
DEFAULT_2
 70
0
 62
8
  6
HIDDEN
370
-3
390
F
  0
LAYER
  5
1FC
100
AcDbSymbolTableRecord
100
AcDbLayerTableRecord
  2
DEFAULT_3
 70
0
 62
7
  6
PHANTOM
370
-3
390
F
  0
LAYER
  5
1FD
100
AcDbSymbolTableRecord
100
AcDbLayerTableRecord
  2
ALL_ASSEMBLY_MEMBERS
 70
0
 62
7
  6
CONTINUOUS
370
-3
390
F
  0
LAYER
  5
1FE
100
AcDbSymbolTableRecord
100
AcDbLayerTableRecord
  2
ALL_FEATURES
 70
0
 62
7
  6
CONTINUOUS
370
-3
390
F
  0
LAYER
  5
1FF
100
AcDbSymbolTableRecord
100
AcDbLayerTableRecord
  2
AXES_FEATURES
 70
0
 62
7
  6
CONTINUOUS
370
-3
390
F
  0
LAYER
  5
200
100
AcDbSymbolTableRecord
100
AcDbLayerTableRecord
  2
CHAMFER_FEATURES
 70
0
 62
7
  6
CONTINUOUS
370
-3
390
F
  0
LAYER
  5
201
100
AcDbSymbolTableRecord
100
AcDbLayerTableRecord
  2
CUT_FEATURES
 70
0
 62
7
  6
CONTINUOUS
370
-3
390
F
  0
LAYER
  5
202
100
AcDbSymbolTableRecord
100
AcDbLayerTableRecord
  2
DATUM_CURVES
 70
0
 62
7
  6
CONTINUOUS
370
-3
390
F
  0
LAYER
  5
203
100
AcDbSymbolTableRecord
100
AcDbLayerTableRecord
  2
DATUM_PLANES
 70
0
 62
7
  6
CONTINUOUS
370
-3
390
F
  0
LAYER
  5
204
100
AcDbSymbolTableRecord
100
AcDbLayerTableRecord
  2
DEFAULT_COORDINATE_SYSTEM
 70
0
 62
7
  6
CONTINUOUS
370
-3
390
F
  0
LAYER
  5
205
100
AcDbSymbolTableRecord
100
AcDbLayerTableRecord
  2
DEFAULT_DATUM_AXES
 70
0
 62
7
  6
CONTINUOUS
370
-3
390
F
  0
LAYER
  5
206
100
AcDbSymbolTableRecord
100
AcDbLayerTableRecord
  2
DEFAULT_DATUM_CURVES
 70
0
 62
7
  6
CONTINUOUS
370
-3
390
F
  0
LAYER
  5
207
100
AcDbSymbolTableRecord
100
AcDbLayerTableRecord
  2
DEFAULT_DATUM_PLANES
 70
0
 62
7
  6
CONTINUOUS
370
-3
390
F
  0
LAYER
  5
208
100
AcDbSymbolTableRecord
100
AcDbLayerTableRecord
  2
DETAIL_ITEMS
 70
0
 62
7
  6
CONTINUOUS
370
-3
390
F
  0
LAYER
  5
209
100
AcDbSymbolTableRecord
100
AcDbLayerTableRecord
  2
DIMENSIONS
 70
0
 62
7
  6
CONTINUOUS
370
-3
390
F
  0
LAYER
  5
20A
100
AcDbSymbolTableRecord
100
AcDbLayerTableRecord
  2
DRAWING_TABLES
 70
0
 62
7
  6
CONTINUOUS
370
-3
390
F
  0
LAYER
  5
20B
100
AcDbSymbolTableRecord
100
AcDbLayerTableRecord
  2
NOTES
 70
0
 62
7
  6
CONTINUOUS
370
-3
390
F
  0
LAYER
  5
20C
100
AcDbSymbolTableRecord
100
AcDbLayerTableRecord
  2
PART_REFERENCE_DIMENSIONS
 70
0
 62
7
  6
CONTINUOUS
370
-3
390
F
  0
LAYER
  5
20D
100
AcDbSymbolTableRecord
100
AcDbLayerTableRecord
  2
PROTRUSION_FEATURES
 70
0
 62
7
  6
CONTINUOUS
370
-3
390
F
  0
LAYER
  5
20E
100
AcDbSymbolTableRecord
100
AcDbLayerTableRecord
  2
QUILT
 70
0
 62
7
  6
CONTINUOUS
370
-3
390
F
  0
LAYER
  5
20F
100
AcDbSymbolTableRecord
100
AcDbLayerTableRecord
  2
REFERENCE_DIMENSIONS
 70
0
 62
7
  6
CONTINUOUS
370
-3
390
F
  0
LAYER
  5
210
100
AcDbSymbolTableRecord
100
AcDbLayerTableRecord
  2
ROUND_FEATURES
 70
0
 62
7
  6
CONTINUOUS
370
-3
390
F
  0
LAYER
  5
211
100
AcDbSymbolTableRecord
100
AcDbLayerTableRecord
  2
SHELL_FEATURES
 70
0
 62
7
  6
CONTINUOUS
370
-3
390
F
  0
LAYER
  5
212
100
AcDbSymbolTableRecord
100
AcDbLayerTableRecord
  2
XSEC_DATUMS
 70
0
 62
7
  6
CONTINUOUS
370
-3
390
F
  0
ENDTAB
  0
TABLE
  2
STYLE
  5
3
100
AcDbSymbolTable
 70
1
  0
STYLE
  5
11
100
AcDbSymbolTableRecord
100
AcDbTextStyleTableRecord
  2
STANDARD
 70
0
 40
0.0
 41
0.8
 50
0.0
 71
0
 42
0.2
  3
txt
  4

  0
STYLE
  5
213
100
AcDbSymbolTableRecord
100
AcDbTextStyleTableRecord
  2
TEXTSTYLE_1
 70
0
 40
0.0
 41
0.8
 50
0.0
 71
0
 42
0.2
  3
gdt
  4

  0
ENDTAB
  0
TABLE
  2
VIEW
  5
6
100
AcDbSymbolTable
 70
0
  0
ENDTAB
  0
TABLE
  2
UCS
  5
7
100
AcDbSymbolTable
 70
0
  0
ENDTAB
  0
TABLE
  2
APPID
  5
9
100
AcDbSymbolTable
 70
1
  0
APPID
  5
214
100
AcDbSymbolTableRecord
100
AcDbRegAppTableRecord
  2
ACAD
 70
0
  0
ENDTAB
  0
TABLE
  2
BLOCK_RECORD
  5
1
100
AcDbSymbolTable
 70
0
  0
BLOCK_RECORD
  5
215
100
AcDbSymbolTableRecord
100
AcDbBlockTableRecord
  2
*Model_Space
  0
BLOCK_RECORD
  5
216
100
AcDbSymbolTableRecord
100
AcDbBlockTableRecord
  2
*Paper_Space
  0
ENDTAB
  0
TABLE
  2
DIMSTYLE
  5
A
100
AcDbSymbolTable
 70
1
100
AcDbDimStyleTable
 71
0
  0
DIMSTYLE
105
217
100
AcDbSymbolTableRecord
100
AcDbDimStyleTableRecord
  2
STANDARD
 70
0
  3

  4

 40
1.0
 41
0.1
 42
0.0625
 43
0.38
 44
0.18
 45
0.0
 46
0.0
 47
0.01
 48
0.01
140
0.08
141
0.09
142
0.0
143
25.4
144
1.0
145
0.0
146
1.0
147
0.09
 71
1.0
 72
0.0
 73
1
 74
1
 75
0
 76
0
 77
0
 78
4
170
0
171
2
172
0
173
0
174
0
175
0
176
0
177
0
178
0
270
2
271
2
272
2
273
2
274
2
275
0
280
0
281
0
282
0
283
1
284
4
285
0
286
0
287
3
288
0
340
11
  0
ENDTAB
  0
ENDSEC
  0
SECTION
  2
BLOCKS
  0
BLOCK
  5
20
100
AcDbEntity
  8
0
100
AcDbBlockBegin
  2
*Model_Space
 70
0
 10
0.0
 20
0.0
 30
0.0
  3
*Model_Space
  1

  0
ENDBLK
  5
21
100
AcDbEntity
  8
0
100
AcDbBlockEnd
  0
BLOCK
  5
1C
100
AcDbEntity
  8
0
100
AcDbBlockBegin
  2
*Paper_Space
 70
0
 10
0.0
 20
0.0
 30
0.0
  3
*Paper_Space
  1

  0
ENDBLK
  5
1D
100
AcDbEntity
  8
0
100
AcDbBlockEnd
  0
ENDSEC
  0
SECTION
  2
ENTITIES
  0
LINE
  5
218
100
AcDbEntity
  8
0
100
AcDbLine
 62
6
  6
CONTINUOUS
 10
-21.4714620881
 20
-25.3165190087
 11
-21.4214620881
 21
-25.3165190087
  0
LINE
  5
219
100
AcDbEntity
  8
0
100
AcDbLine
 62
6
  6
CONTINUOUS
 10
-21.3114620881
 20
-25.3165190087
 11
-21.0824620881
 21
-25.3165190087
  0
LINE
  5
21A
100
AcDbEntity
  8
0
100
AcDbLine
 62
6
  6
CONTINUOUS
 10
-21.4214620881
 20
-25.2475190087
 11
-21.3114620881
 21
-25.2475190087
  0
LINE
  5
21B
100
AcDbEntity
  8
0
100
AcDbLine
 62
6
  6
CONTINUOUS
 10
-23.4794620881
 20
-24.8790190087
 11
-21.5414620881
 21
-24.8790190087
  0
LINE
  5
21C
100
AcDbEntity
  8
0
100
AcDbLine
 62
6
  6
CONTINUOUS
 10
-21.4140536959
 20
-24.8740190087
 11
-21.4214620881
 21
-24.8740190087
  0
LINE
  5
21D
100
AcDbEntity
  8
0
100
AcDbLine
 62
6
  6
CONTINUOUS
 10
-21.4714620881
 20
-24.8740190087
 11
-21.5414620881
 21
-24.8740190087
  0
LINE
  5
21E
100
AcDbEntity
  8
0
100
AcDbLine
 62
6
  6
CONTINUOUS
 10
-21.4140532366
 20
-23.6340190087
 11
-21.4214620881
 21
-23.6340190087
  0
LINE
  5
21F
100
AcDbEntity
  8
0
100
AcDbLine
 62
6
  6
CONTINUOUS
 10
-21.4714620881
 20
-23.6340190087
 11
-21.5414620881
 21
-23.6340190087
  0
LINE
  5
220
100
AcDbEntity
  8
0
100
AcDbLine
 62
6
  6
CONTINUOUS
 10
-23.4794620881
 20
-23.6290190087
 11
-21.5414620881
 21
-23.6290190087
  0
LINE
  5
221
100
AcDbEntity
  8
0
100
AcDbLine
 62
9
  6
CONTINUOUS
 10
-21.7294620881
 20
-23.6290190087
 11
-21.7294620881
 21
-24.8790190087
  0
LINE
  5
222
100
AcDbEntity
  8
0
100
AcDbLine
 62
6
  6
CONTINUOUS
 10
-21.4214620881
 20
-23.2605190087
 11
-21.3114620881
 21
-23.2605190087
  0
LINE
  5
223
100
AcDbEntity
  8
0
100
AcDbLine
 62
7
  6
CONTINUOUS
 10
-21.5414620881
 20
-23.6290190087
 11
-21.5414620881
 21
-24.8790190087
  0
LINE
  5
224
100
AcDbEntity
  8
0
100
AcDbLine
 62
6
  6
CONTINUOUS
 10
-21.4714620881
 20
-23.1915190087
 11
-21.4714620881
 21
-25.3165190087
  0
LINE
  5
225
100
AcDbEntity
  8
0
100
AcDbLine
 62
6
  6
CONTINUOUS
 10
-21.4714620881
 20
-23.1915190087
 11
-21.4214620881
 21
-23.1915190087
  0
LINE
  5
226
100
AcDbEntity
  8
0
100
AcDbLine
 62
6
  6
CONTINUOUS
 10
-21.3114620881
 20
-23.1915190087
 11
-21.0824620881
 21
-23.1915190087
  0
LINE
  5
227
100
AcDbEntity
  8
0
100
AcDbLine
 62
6
  6
CONTINUOUS
 10
-21.4214620881
 20
-23.1915190087
 11
-21.4214620881
 21
-25.3165190087
  0
LINE
  5
228
100
AcDbEntity
  8
0
100
AcDbLine
 62
6
  6
CONTINUOUS
 10
-21.3114620881
 20
-23.1915190087
 11
-21.3114620881
 21
-25.3165190087
  0
LINE
  5
229
100
AcDbEntity
  8
0
100
AcDbLine
 62
6
  6
CONTINUOUS
 10
-21.0824620881
 20
-23.1915190087
 11
-21.0824620881
 21
-25.3165190087
  0
LINE
  5
22A
100
AcDbEntity
  8
0
100
AcDbLine
 62
6
  6
CONTINUOUS
 10
16.4961387795
 20
11.1911704396
 11
16.5461387795
 21
11.1911704396
  0
LINE
  5
22B
100
AcDbEntity
  8
0
100
AcDbLine
 62
6
  6
CONTINUOUS
 10
16.6561387795
 20
11.1911704396
 11
16.8851387795
 21
11.1911704396
  0
LINE
  5
22C
100
AcDbEntity
  8
0
100
AcDbLine
 62
6
  6
CONTINUOUS
 10
16.5461387795
 20
11.2601704396
 11
16.6561387795
 21
11.2601704396
  0
LINE
  5
22D
100
AcDbEntity
  8
0
100
AcDbLine
 62
6
  6
CONTINUOUS
 10
14.4881387795
 20
11.6286704396
 11
16.4261387795
 21
11.6286704396
  0
LINE
  5
22E
100
AcDbEntity
  8
0
100
AcDbLine
 62
6
  6
CONTINUOUS
 10
16.5535471718
 20
11.6336704396
 11
16.5461387795
 21
11.6336704396
  0
LINE
  5
22F
100
AcDbEntity
  8
0
100
AcDbLine
 62
6
  6
CONTINUOUS
 10
16.4961387795
 20
11.6336704396
 11
16.4261387795
 21
11.6336704396
  0
LINE
  5
230
100
AcDbEntity
  8
0
100
AcDbLine
 62
6
  6
CONTINUOUS
 10
16.5535476311
 20
12.8736704396
 11
16.5461387795
 21
12.8736704396
  0
LINE
  5
231
100
AcDbEntity
  8
0
100
AcDbLine
 62
6
  6
CONTINUOUS
 10
16.4961387795
 20
12.8736704396
 11
16.4261387795
 21
12.8736704396
  0
LINE
  5
232
100
AcDbEntity
  8
0
100
AcDbLine
 62
6
  6
CONTINUOUS
 10
14.4881387795
 20
12.8786704396
 11
16.4261387795
 21
12.8786704396
  0
LINE
  5
233
100
AcDbEntity
  8
0
100
AcDbLine
 62
9
  6
CONTINUOUS
 10
16.2381387795
 20
12.8786704396
 11
16.2381387795
 21
11.6286704396
  0
LINE
  5
234
100
AcDbEntity
  8
0
100
AcDbLine
 62
6
  6
CONTINUOUS
 10
16.5461387795
 20
13.2471704396
 11
16.6561387795
 21
13.2471704396
  0
LINE
  5
235
100
AcDbEntity
  8
0
100
AcDbLine
 62
7
  6
CONTINUOUS
 10
16.4261387795
 20
12.8786704396
 11
16.4261387795
 21
11.6286704396
  0
LINE
  5
236
100
AcDbEntity
  8
0
100
AcDbLine
 62
6
  6
CONTINUOUS
 10
16.4961387795
 20
11.1911704396
 11
16.4961387795
 21
13.3161704396
  0
LINE
  5
237
100
AcDbEntity
  8
0
100
AcDbLine
 62
6
  6
CONTINUOUS
 10
16.4961387795
 20
13.3161704396
 11
16.5461387795
 21
13.3161704396
  0
LINE
  5
238
100
AcDbEntity
  8
0
100
AcDbLine
 62
6
  6
CONTINUOUS
 10
16.6561387795
 20
13.3161704396
 11
16.8851387795
 21
13.3161704396
  0
LINE
  5
239
100
AcDbEntity
  8
0
100
AcDbLine
 62
6
  6
CONTINUOUS
 10
16.5461387795
 20
11.1911704396
 11
16.5461387795
 21
13.3161704396
  0
LINE
  5
23A
100
AcDbEntity
  8
0
100
AcDbLine
 62
6
  6
CONTINUOUS
 10
16.6561387795
 20
11.1911704396
 11
16.6561387795
 21
13.3161704396
  0
LINE
  5
23B
100
AcDbEntity
  8
0
100
AcDbLine
 62
6
  6
CONTINUOUS
 10
16.8851387795
 20
11.1911704396
 11
16.8851387795
 21
13.3161704396
  0
ARC
  5
23C
100
AcDbEntity
  8
0
100
AcDbCircle
 62
9
  6
CONTINUOUS
 10
-23.4794620881
 20
-24.2540190087
 40
0.625
100
AcDbArc
 50
90.0
 51
270.0
  0
ARC
  5
23D
100
AcDbEntity
  8
0
100
AcDbCircle
 62
9
  6
CONTINUOUS
 10
14.4881387795
 20
12.2536704396
 40
0.625
100
AcDbArc
 50
90.0
 51
270.0
  0
SPLINE
  5
23E
100
AcDbEntity
  8
0
100
AcDbSpline
 62
7
  6
CONTINUOUS
 70
0
 71
3
 72
11
 73
7
 74
5
 42
0.0000001
 43
0.0000001
 44
0.0000000001
 12
0.0
 22
-0.0444361753
 32
0.0
 13
-0.0175425135
 23
-0.0408268771
 33
0.0
 40
0.0
 40
0.0
 40
0.0
 40
0.0
 40
0.2517211543
 40
0.5015564434
 40
0.7506738731
 40
1.0
 40
1.0
 40
1.0
 40
1.0
 10
-21.4122181151
 20
-24.8926284989
 30
0.0
 10
-21.4122181151
 20
-24.8963570073
 30
0.0
 10
-21.4126224697
 20
-24.9037927
 30
0.0
 10
-21.4144371478
 20
-24.9147834767
 30
0.0
 10
-21.417375594
 20
-24.9254892924
 30
0.0
 10
-21.4200041525
 20
-24.9324009145
 30
0.0
 10
-21.4214620881
 20
-24.9357939836
 30
0.0
 11
-21.4122181151
 21
-24.8926284989
 31
0.0
 11
-21.412827539
 21
-24.9037974102
 31
0.0
 11
-21.4146277228
 21
-24.9147522096
 31
0.0
 11
-21.4175424341
 21
-24.9254314184
 31
0.0
 11
-21.4214620881
 21
-24.9357939836
 31
0.0
  0
SPLINE
  5
23F
100
AcDbEntity
  8
0
100
AcDbSpline
 62
7
  6
CONTINUOUS
 70
0
 71
3
 72
11
 73
7
 74
5
 42
0.0000001
 43
0.0000001
 44
0.0000000001
 12
0.0168868273
 22
-0.043339085
 32
0.0
 13
0.0
 23
-0.0465128071
 33
0.0
 40
0.0
 40
0.0
 40
0.0
 40
0.0
 40
0.2569583004
 40
0.5090572698
 40
0.7565269391
 40
1.0
 40
1.0
 40
1.0
 40
1.0
 10
-21.4214620881
 20
-24.8473027879
 30
0.0
 10
-21.4200156846
 20
-24.8510149004
 30
0.0
 10
-21.4174076191
 20
-24.8584735686
 30
0.0
 10
-21.4144632189
 20
-24.8698431311
 30
0.0
 10
-21.4126373522
 20
-24.881236195
 30
0.0
 10
-21.4122181151
 20
-24.8888536271
 30
0.0
 10
-21.4122181151
 20
-24.8926284989
 30
0.0
 11
-21.4214620881
 21
-24.8473027879
 31
0.0
 11
-21.4175424333
 21
-24.8585936279
 31
0.0
 11
-21.4146277219
 21
-24.8699514254
 31
0.0
 11
-21.4128275359
 21
-24.8813202929
 31
0.0
 11
-21.4122181151
 21
-24.8926284989
 31
0.0
  0
SPLINE
  5
240
100
AcDbEntity
  8
0
100
AcDbSpline
 62
7
  6
CONTINUOUS
 70
0
 71
3
 72
11
 73
7
 74
5
 42
0.0000001
 43
0.0000001
 44
0.0000000001
 12
0.0
 22
-0.046512807
 32
0.0
 13
-0.0168868272
 23
-0.0433390849
 33
0.0
 40
0.0
 40
0.0
 40
0.0
 40
0.0
 40
0.2434732236
 40
0.4909429636
 40
0.7430417674
 40
1.0
 40
1.0
 40
1.0
 40
1.0
 10
-21.4122181151
 20
-23.6154095184
 30
0.0
 10
-21.4122181151
 20
-23.6191843928
 30
0.0
 10
-21.4126373576
 20
-23.6268018281
 30
0.0
 10
-21.414463217
 20
-23.6381948941
 30
0.0
 10
-21.4174076215
 20
-23.649564453
 30
0.0
 10
-21.420015685
 20
-23.6570231179
 30
0.0
 10
-21.4214620881
 20
-23.6607352295
 30
0.0
 11
-21.4122181151
 21
-23.6154095184
 31
0.0
 11
-21.412827539
 21
-23.6267177318
 31
0.0
 11
-21.4146277228
 21
-23.638086603
 31
0.0
 11
-21.4175424341
 21
-23.6494443925
 31
0.0
 11
-21.4214620881
 21
-23.6607352295
 31
0.0
  0
SPLINE
  5
241
100
AcDbEntity
  8
0
100
AcDbSpline
 62
7
  6
CONTINUOUS
 70
0
 71
3
 72
11
 73
7
 74
5
 42
0.0000001
 43
0.0000001
 44
0.0000000001
 12
0.0175425135
 22
-0.0408268772
 32
0.0
 13
-0.0
 23
-0.0444361754
 33
0.0
 40
0.0
 40
0.0
 40
0.0
 40
0.0
 40
0.2493261937
 40
0.4984437932
 40
0.748279004
 40
1.0
 40
1.0
 40
1.0
 40
1.0
 10
-21.4214620881
 20
-23.5722440338
 30
0.0
 10
-21.4200041521
 20
-23.5756371037
 30
0.0
 10
-21.4173755916
 20
-23.582548729
 30
0.0
 10
-21.4144371497
 20
-23.5932545481
 30
0.0
 10
-21.4126224643
 20
-23.6042453227
 30
0.0
 10
-21.4122181151
 20
-23.6116810123
 30
0.0
 10
-21.4122181151
 20
-23.6154095184
 30
0.0
 11
-21.4214620881
 21
-23.5722440338
 31
0.0
 11
-21.4175424333
 21
-23.5826066018
 31
0.0
 11
-21.4146277219
 21
-23.5932858185
 31
0.0
 11
-21.4128275359
 21
-23.604240614
 31
0.0
 11
-21.4122181151
 21
-23.6154095184
 31
0.0
  0
SPLINE
  5
242
100
AcDbEntity
  8
0
100
AcDbSpline
 62
7
  6
CONTINUOUS
 70
0
 71
3
 72
11
 73
7
 74
5
 42
0.0000001
 43
0.0000001
 44
0.0000000001
 12
0.0
 22
-0.0444361753
 32
0.0
 13
-0.0175425135
 23
-0.0408268771
 33
0.0
 40
0.0
 40
0.0
 40
0.0
 40
0.0
 40
0.2517211543
 40
0.5015564434
 40
0.7506738731
 40
1.0
 40
1.0
 40
1.0
 40
1.0
 10
16.5553827525
 20
11.6150609494
 30
0.0
 10
16.5553827525
 20
11.611332441
 30
0.0
 10
16.5549783979
 20
11.6038967483
 30
0.0
 10
16.5531637199
 20
11.5929059716
 30
0.0
 10
16.5502252736
 20
11.5822001559
 30
0.0
 10
16.5475967152
 20
11.5752885338
 30
0.0
 10
16.5461387795
 20
11.5718954647
 30
0.0
 11
16.5553827525
 21
11.6150609494
 31
0.0
 11
16.5547733286
 21
11.6038920381
 31
0.0
 11
16.5529731449
 21
11.5929372387
 31
0.0
 11
16.5500584336
 21
11.5822580299
 31
0.0
 11
16.5461387795
 21
11.5718954647
 31
0.0
  0
SPLINE
  5
243
100
AcDbEntity
  8
0
100
AcDbSpline
 62
7
  6
CONTINUOUS
 70
0
 71
3
 72
11
 73
7
 74
5
 42
0.0000001
 43
0.0000001
 44
0.0000000001
 12
0.0168868273
 22
-0.043339085
 32
0.0
 13
0.0
 23
-0.0465128071
 33
0.0
 40
0.0
 40
0.0
 40
0.0
 40
0.0
 40
0.2569583004
 40
0.5090572698
 40
0.7565269391
 40
1.0
 40
1.0
 40
1.0
 40
1.0
 10
16.5461387795
 20
11.6603866604
 30
0.0
 10
16.547585183
 20
11.6566745479
 30
0.0
 10
16.5501932486
 20
11.6492158797
 30
0.0
 10
16.5531376488
 20
11.6378463172
 30
0.0
 10
16.5549635154
 20
11.6264532533
 30
0.0
 10
16.5553827525
 20
11.6188358212
 30
0.0
 10
16.5553827525
 20
11.6150609494
 30
0.0
 11
16.5461387795
 21
11.6603866604
 31
0.0
 11
16.5500584344
 21
11.6490958204
 31
0.0
 11
16.5529731458
 21
11.6377380229
 31
0.0
 11
16.5547733317
 21
11.6263691554
 31
0.0
 11
16.5553827525
 21
11.6150609494
 31
0.0
  0
SPLINE
  5
244
100
AcDbEntity
  8
0
100
AcDbSpline
 62
7
  6
CONTINUOUS
 70
0
 71
3
 72
11
 73
7
 74
5
 42
0.0000001
 43
0.0000001
 44
0.0000000001
 12
0.0
 22
-0.046512807
 32
0.0
 13
-0.0168868272
 23
-0.0433390849
 33
0.0
 40
0.0
 40
0.0
 40
0.0
 40
0.0
 40
0.2434732236
 40
0.4909429636
 40
0.7430417674
 40
1.0
 40
1.0
 40
1.0
 40
1.0
 10
16.5553827525
 20
12.8922799299
 30
0.0
 10
16.5553827525
 20
12.8885050555
 30
0.0
 10
16.5549635101
 20
12.8808876202
 30
0.0
 10
16.5531376506
 20
12.8694945542
 30
0.0
 10
16.5501932462
 20
12.8581249953
 30
0.0
 10
16.5475851826
 20
12.8506663304
 30
0.0
 10
16.5461387795
 20
12.8469542188
 30
0.0
 11
16.5553827525
 21
12.8922799299
 31
0.0
 11
16.5547733286
 21
12.8809717165
 31
0.0
 11
16.5529731449
 21
12.8696028453
 31
0.0
 11
16.5500584336
 21
12.8582450558
 31
0.0
 11
16.5461387795
 21
12.8469542188
 31
0.0
  0
SPLINE
  5
245
100
AcDbEntity
  8
0
100
AcDbSpline
 62
7
  6
CONTINUOUS
 70
0
 71
3
 72
11
 73
7
 74
5
 42
0.0000001
 43
0.0000001
 44
0.0000000001
 12
0.0175425135
 22
-0.0408268772
 32
0.0
 13
-0.0
 23
-0.0444361754
 33
0.0
 40
0.0
 40
0.0
 40
0.0
 40
0.0
 40
0.2493261937
 40
0.4984437932
 40
0.748279004
 40
1.0
 40
1.0
 40
1.0
 40
1.0
 10
16.5461387795
 20
12.9354454145
 30
0.0
 10
16.5475967156
 20
12.9320523446
 30
0.0
 10
16.550225276
 20
12.9251407193
 30
0.0
 10
16.553163718
 20
12.9144349002
 30
0.0
 10
16.5549784034
 20
12.9034441256
 30
0.0
 10
16.5553827525
 20
12.896008436
 30
0.0
 10
16.5553827525
 20
12.8922799299
 30
0.0
 11
16.5461387795
 21
12.9354454145
 31
0.0
 11
16.5500584344
 21
12.9250828465
 31
0.0
 11
16.5529731458
 21
12.9144036298
 31
0.0
 11
16.5547733317
 21
12.9034488343
 31
0.0
 11
16.5553827525
 21
12.8922799299
 31
0.0
  0
ENDSEC
  0
SECTION
  2
OBJECTS
  0
DICTIONARY
  5
C
100
AcDbDictionary
280
0
281
1
  3
ACAD_GROUP
350
D
  3
ACAD_MLINESTYLE
350
17
  3
ACAD_LAYOUT
350
1A
  3
ACAD_PLOTSETTINGS
350
19
  3
ACAD_PLOTSTYLENAME
350
E
  0
DICTIONARY
  5
D
102
{ACAD_REACTORS
330
C
102
}
100
AcDbDictionary
280
0
281
1
  0
ACDBDICTIONARYWDFLT
  5
E
102
{ACAD_REACTORS
330
C
102
}
100
AcDbDictionary
281
1
  3
Normal
350
F
100
AcDbDictionaryWithDefault
340
F
  0
DICTIONARY
  5
17
102
{ACAD_REACTORS
330
C
102
}
100
AcDbDictionary
280
0
281
1
  3
Standard
350
18
  0
DICTIONARY
  5
19
102
{ACAD_REACTORS
330
C
102
}
100
AcDbDictionary
281
1
  0
DICTIONARY
  5
1A
102
{ACAD_REACTORS
330
C
102
}
100
AcDbDictionary
281
1
  3
Model
350
246
  3
Layout1
350
247
  0
ACDBPLACEHOLDER
  5
F
102
{ACAD_REACTORS
330
E
102
}
  0
MLINESTYLE
  5
18
102
{ACAD_REACTORS
330
17
102
}
100
AcDbMlineStyle
  2
STANDARD
 70
0
  3

 62
256
 51
90.0
 52
90.0
 71
2
 49
0.5
 62
256
  6
BYLAYER
 49
-0.5
 62
256
  6
BYLAYER
  0
LAYOUT
  5
246
102
{ACAD_REACTORS
330
1A
102
}
100
AcDbPlotSettings
  1

  2
none_device
  4
ISO_A1_(594.00_x_841.00_MM)
  6

 40
0.0
 41
0.0
 42
0.0
 43
0.0
 44
841.0
 45
594.0
 46
0.0
 47
0.0
 48
0.0
 49
0.0
140
0.0
141
0.0
142
1.0
143
1.0
 70
1024
 72
0
 73
0
 74
0
  7

 75
0
147
1.0
148
0.0
149
0.0
100
AcDbLayout
  1
Model
 70
0
 71
0
 10
0.0
 20
0.0
 11
33.1102362205
 21
23.3858267717
 12
0.0
 22
0.0
 32
0.0
 14
0.0
 24
0.0
 34
0.0
 15
0.0
 25
0.0
 35
0.0
146
0.0
 13
0.0
 23
0.0
 33
0.0
 16
1.0
 26
0.0
 36
0.0
 17
0.0
 27
1.0
 37
0.0
 76
0
330
215
345
0
346
0
  0
LAYOUT
  5
247
102
{ACAD_REACTORS
330
1A
102
}
100
AcDbPlotSettings
  1

  2
none_device
  4
ISO_A1_(594.00_x_841.00_MM)
  6

 40
0.0
 41
0.0
 42
0.0
 43
0.0
 44
841.0
 45
594.0
 46
0.0
 47
0.0
 48
0.0
 49
0.0
140
0.0
141
0.0
142
1.0
143
1.0
 70
0
 72
0
 73
0
 74
0
  7

 75
0
147
1.0
148
0.0
149
0.0
100
AcDbLayout
  1
Layout1
 70
0
 71
1
 10
0.0
 20
0.0
 11
33.1102362205
 21
23.3858267717
 12
0.0
 22
0.0
 32
0.0
 14
0.0
 24
0.0
 34
0.0
 15
0.0
 25
0.0
 35
0.0
146
0.0
 13
0.0
 23
0.0
 33
0.0
 16
1.0
 26
0.0
 36
0.0
 17
0.0
 27
1.0
 37
0.0
 76
0
330
216
345
0
346
0
  0
ENDSEC
  0
EOF
