999
DXF file: E:\BT Custom\CADOUTPUT\_FRONT.dxf
999
Pro/ENGINEER 2018400 by Parametric Technology Corporation
  0
SECTION
  2
HEADER
  9
$ACADVER
  1
AC1018
  9
$DWGCODEPAGE
  3
ANSI_1252
  9
$EXTMAX
 10
22.0
 20
17.0
 30
0.0
  9
$EXTMIN
 10
0.0
 20
0.0
 30
0.0
  9
$LIMMIN
 10
0.0
 20
0.0
  9
$LIMMAX
 10
22.0
 20
17.0
  9
$VIEWCTR
 10
11.0
 20
8.5
  9
$VIEWSIZE
 40
17.0
  9
$CLAYER
  8
0
  9
$LTSCALE
 40
1.21
  9
$CELTYPE
  6
BYLAYER
  9
$DIMSCALE
 40
1.0
  9
$DIMASZ
 40
0.1
  9
$DIMEXO
 40
0.0625
  9
$DIMDLI
 40
0.836
  9
$DIMEXE
 40
0.125
  9
$DIMCEN
 40
0.198
  9
$DIMLFAC
 40
1.0
  9
$DIMBLK
  1
_FILLED
  9
$DIMALT
 70
1
  9
$DIMALTD
 70
2
  9
$DIMALTTD
 70
2
  9
$DIMALTF
 40
25.4
  9
$DIMTXT
 40
0.08
  9
$DIMTOL
 70
1
  9
$DIMLIM
 70
0
  9
$DIMTFAC
 40
1.0
  9
$DIMTP
 40
0.001
  9
$DIMTM
 40
0.001
  9
$DIMGAP
 40
0.09
  9
$DIMDSEP
 70
46
  9
$AUNITS
 70
0
  9
$PDMODE
 70
3
  9
$PDSIZE
 40
0.06
  9
$HANDSEED
  5
518
  9
$TILEMODE
 70
1
  9
$MEASUREMENT
 70
0
  9
$INSUNITS
 70
1
  0
ENDSEC
  0
SECTION
  2
CLASSES
  0
CLASS
  1
ACDBDICTIONARYWDFLT
  2
AcDbDictionaryWithDefault
  3
AutoCAD 2000
 90
0
 91
1
280
0
281
0
  0
CLASS
  1
ACDBPLACEHOLDER
  2
AcDbPlaceHolder
  3
AutoCAD 2000
 90
0
 91
1
280
0
281
0
  0
CLASS
  1
LAYOUT
  2
AcDbLayout
  3
AutoCAD 2000
 90
0
 91
0
280
0
281
0
  0
ENDSEC
  0
SECTION
  2
TABLES
  0
TABLE
  2
VPORT
  5
8
100
AcDbSymbolTable
 70
2
  0
VPORT
  5
1F4
100
AcDbSymbolTableRecord
100
AcDbViewportTableRecord
  2
*ACTIVE
 70
0
 10
0.0
 20
0.0
 11
1.0
 21
1.0
 12
11.0
 22
8.5
 13
0.0
 23
0.0
 14
1.0
 24
1.0
 15
0.0
 25
0.0
 16
0.0
 26
0.0
 36
1.0
 17
0.0
 27
0.0
 37
0.0
 40
17.0
 41
1.2941176471
 42
50.0
 43
0.0
 44
0.0
 50
0.0
 51
0.0
 71
0
 72
100
 73
1
 74
1
 75
0
 76
0
 77
0
 78
0
  0
ENDTAB
  0
TABLE
  2
LTYPE
  5
5
100
AcDbSymbolTable
 70
6
  0
LTYPE
  5
14
100
AcDbSymbolTableRecord
100
AcDbLinetypeTableRecord
  2
BYBLOCK
 70
0
  3

 72
65
 73
0
 40
0.0
  0
LTYPE
  5
15
100
AcDbSymbolTableRecord
100
AcDbLinetypeTableRecord
  2
BYLAYER
 70
0
  3

 72
65
 73
0
 40
0.0
  0
LTYPE
  5
16
100
AcDbSymbolTableRecord
100
AcDbLinetypeTableRecord
  2
CONTINUOUS
 70
64
  3
Solid line
 72
65
 73
0
 40
0.0
  0
LTYPE
  5
1F5
100
AcDbSymbolTableRecord
100
AcDbLinetypeTableRecord
  2
CENTER
 70
64
  3
____ _ ____ _ ____ _ ____ _ ____ _ ____ _ ____
 72
65
 73
4
 40
0.6
 49
0.375
 74
0
 49
-0.075
 74
0
 49
0.075
 74
0
 49
-0.075
 74
0
  0
LTYPE
  5
1F6
100
AcDbSymbolTableRecord
100
AcDbLinetypeTableRecord
  2
HIDDEN
 70
64
  3
- - - - - - - - - - - - - - - - - - - -
 72
65
 73
2
 40
0.2
 49
0.1
 74
0
 49
-0.1
 74
0
  0
LTYPE
  5
1F7
100
AcDbSymbolTableRecord
100
AcDbLinetypeTableRecord
  2
PHANTOM
 70
64
  3
_____ _ _ _____ _ _ _____ _ _ _____
 72
65
 73
6
 40
0.8
 49
0.45
 74
0
 49
-0.05
 74
0
 49
0.1
 74
0
 49
-0.05
 74
0
 49
0.1
 74
0
 49
-0.05
 74
0
  0
LTYPE
  5
1F8
100
AcDbSymbolTableRecord
100
AcDbLinetypeTableRecord
  2
DOT
 70
64
  3
. . . . . . . . . . . . . . . . . . . .
 72
65
 73
2
 40
0.2
 49
0.1
 74
0
 49
-0.1
 74
0
  0
LTYPE
  5
1F9
100
AcDbSymbolTableRecord
100
AcDbLinetypeTableRecord
  2
DASHED
 70
64
  3
- - - - - - - - - - - - - - - - - - - -
 72
65
 73
2
 40
0.2
 49
0.1
 74
0
 49
-0.1
 74
0
  0
ENDTAB
  0
TABLE
  2
LAYER
  5
2
100
AcDbSymbolTable
 70
36
  0
LAYER
  5
10
100
AcDbSymbolTableRecord
100
AcDbLayerTableRecord
  2
0
 70
0
 62
7
  6
CONTINUOUS
370
-3
390
F
  0
LAYER
  5
1FA
100
AcDbSymbolTableRecord
100
AcDbLayerTableRecord
  2
DEFAULT_1
 70
0
 62
7
  6
CENTER
370
-3
390
F
  0
LAYER
  5
1FB
100
AcDbSymbolTableRecord
100
AcDbLayerTableRecord
  2
DEFAULT_2
 70
0
 62
8
  6
HIDDEN
370
-3
390
F
  0
LAYER
  5
1FC
100
AcDbSymbolTableRecord
100
AcDbLayerTableRecord
  2
DEFAULT_3
 70
0
 62
7
  6
PHANTOM
370
-3
390
F
  0
LAYER
  5
1FD
100
AcDbSymbolTableRecord
100
AcDbLayerTableRecord
  2
ALL_FEATURES
 70
0
 62
7
  6
CONTINUOUS
370
-3
390
F
  0
LAYER
  5
1FE
100
AcDbSymbolTableRecord
100
AcDbLayerTableRecord
  2
AXES_FEATURES
 70
0
 62
7
  6
CONTINUOUS
370
-3
390
F
  0
LAYER
  5
1FF
100
AcDbSymbolTableRecord
100
AcDbLayerTableRecord
  2
DIMENSIONS
 70
0
 62
7
  6
CONTINUOUS
370
-3
390
F
  0
ENDTAB
  0
TABLE
  2
STYLE
  5
3
100
AcDbSymbolTable
 70
1
  0
STYLE
  5
11
100
AcDbSymbolTableRecord
100
AcDbTextStyleTableRecord
  2
STANDARD
 70
0
 40
0.0
 41
0.8
 50
0.0
 71
0
 42
0.2
  3
txt
  4

  0
STYLE
  5
200
100
AcDbSymbolTableRecord
100
AcDbTextStyleTableRecord
  2
TEXTSTYLE_1
 70
0
 40
0.0
 41
0.8
 50
0.0
 71
0
 42
0.2
  3
gdt
  4

  0
ENDTAB
  0
TABLE
  2
VIEW
  5
6
100
AcDbSymbolTable
 70
0
  0
ENDTAB
  0
TABLE
  2
UCS
  5
7
100
AcDbSymbolTable
 70
0
  0
ENDTAB
  0
TABLE
  2
APPID
  5
9
100
AcDbSymbolTable
 70
1
  0
APPID
  5
201
100
AcDbSymbolTableRecord
100
AcDbRegAppTableRecord
  2
ACAD
 70
0
  0
ENDTAB
  0
TABLE
  2
BLOCK_RECORD
  5
1
100
AcDbSymbolTable
 70
0
  0
BLOCK_RECORD
  5
202
100
AcDbSymbolTableRecord
100
AcDbBlockTableRecord
  2
*Model_Space
  0
BLOCK_RECORD
  5
203
100
AcDbSymbolTableRecord
100
AcDbBlockTableRecord
  2
*Paper_Space
  0
BLOCK_RECORD
  5
204
100
AcDbSymbolTableRecord
100
AcDbBlockTableRecord
  2
_FILLED
  0
ENDTAB
  0
TABLE
  2
DIMSTYLE
  5
A
100
AcDbSymbolTable
 70
1
100
AcDbDimStyleTable
 71
0
  0
DIMSTYLE
105
205
100
AcDbSymbolTableRecord
100
AcDbDimStyleTableRecord
  2
STANDARD
 70
0
  3

  4

 40
1.0
 41
0.1
 42
0.0625
 43
0.38
 44
0.125
 45
0.0
 46
0.0
 47
0.001
 48
0.001
140
0.08
141
0.09
142
0.0
143
25.4
144
1.0
145
0.0
146
1.0
147
0.09
 71
1.0
 72
0.0
 73
1
 74
1
 75
0
 76
0
 77
0
 78
4
 79
1
170
1
171
2
172
0
173
0
174
0
175
0
176
0
177
0
178
0
270
2
179
3
271
3
272
3
273
2
274
2
275
0
280
0
281
0
282
0
283
1
284
4
285
0
286
0
287
3
288
0
340
11
278
46
341
204
342
204
343
204
344
204
  0
ENDTAB
  0
ENDSEC
  0
SECTION
  2
BLOCKS
  0
BLOCK
  5
20
100
AcDbEntity
  8
0
100
AcDbBlockBegin
  2
*Model_Space
 70
0
 10
0.0
 20
0.0
 30
0.0
  3
*Model_Space
  1

  0
ENDBLK
  5
21
100
AcDbEntity
  8
0
100
AcDbBlockEnd
  0
BLOCK
  5
1C
100
AcDbEntity
  8
0
100
AcDbBlockBegin
  2
*Paper_Space
 70
0
 10
0.0
 20
0.0
 30
0.0
  3
*Paper_Space
  1

  0
ENDBLK
  5
1D
100
AcDbEntity
  8
0
100
AcDbBlockEnd
  0
BLOCK
  5
206
100
AcDbEntity
  8
0
100
AcDbBlockBegin
  2
_FILLED
 70
64
 10
0.0
 20
0.0
  3
_FILLED
  1

  0
SOLID
  5
207
100
AcDbEntity
  8
0
  6
BYBLOCK
 62
0
100
AcDbTrace
 10
0.0
 20
0.0
 11
-1.0
 21
0.2
 12
-1.0
 22
-0.2
 13
-1.0
 23
-0.2
  0
ENDBLK
  5
208
100
AcDbEntity
  8
0
  6
BYBLOCK
 62
0
100
AcDbBlockEnd
  0
ENDSEC
  0
SECTION
  2
ENTITIES
  0
LINE
  5
209
100
AcDbEntity
  8
0
100
AcDbLine
 62
9
  6
CONTINUOUS
 10
4.1287567977
 20
9.3004180773
 11
4.1289003272
 21
9.2828000278
  0
LINE
  5
20A
100
AcDbEntity
  8
0
100
AcDbLine
 62
7
  6
CONTINUOUS
 10
4.0876927857
 20
8.8915868754
 11
4.0876923427
 21
9.2604277439
  0
LINE
  5
20B
100
AcDbEntity
  8
0
100
AcDbLine
 62
9
  6
CONTINUOUS
 10
4.1290949877
 20
8.9088481808
 11
4.1290948971
 21
9.2431669549
  0
LINE
  5
20C
100
AcDbEntity
  8
0
100
AcDbLine
 62
9
  6
CONTINUOUS
 10
4.1278603787
 20
8.8691972449
 11
4.127707006
 21
8.8515868557
  0
LINE
  5
20D
100
AcDbEntity
  8
0
100
AcDbLine
 62
7
  6
CONTINUOUS
 10
5.6876923427
 20
6.5911695021
 11
5.6876923427
 21
6.7411695021
  0
LINE
  5
20E
100
AcDbEntity
  8
0
100
AcDbLine
 62
7
  6
CONTINUOUS
 10
5.6877109272
 20
7.0661695021
 11
5.6877109272
 21
6.9911695021
  0
LINE
  5
20F
100
AcDbEntity
  8
0
100
AcDbLine
 62
7
  6
CONTINUOUS
 10
5.6882344994
 20
6.9911695021
 11
5.6882344994
 21
7.0661695021
  0
LINE
  5
210
100
AcDbEntity
  8
0
100
AcDbLine
 62
7
  6
CONTINUOUS
 10
5.6887102648
 20
7.0661695021
 11
5.6887102648
 21
6.9911695021
  0
LINE
  5
211
100
AcDbEntity
  8
0
100
AcDbLine
 62
7
  6
CONTINUOUS
 10
5.6902803435
 20
6.9911695021
 11
5.6902803435
 21
7.0661695021
  0
LINE
  5
212
100
AcDbEntity
  8
0
100
AcDbLine
 62
7
  6
CONTINUOUS
 10
5.6912312947
 20
7.0661695021
 11
5.6912312947
 21
6.9911695021
  0
LINE
  5
213
100
AcDbEntity
  8
0
100
AcDbLine
 62
7
  6
CONTINUOUS
 10
5.693845967
 20
6.9911695021
 11
5.693845967
 21
7.0661695021
  0
LINE
  5
214
100
AcDbEntity
  8
0
100
AcDbLine
 62
7
  6
CONTINUOUS
 10
5.6952709454
 20
7.0661695021
 11
5.6952709454
 21
6.9911695021
  0
LINE
  5
215
100
AcDbEntity
  8
0
100
AcDbLine
 62
7
  6
CONTINUOUS
 10
5.6989270257
 20
6.9911695021
 11
5.6989270257
 21
7.0661695021
  0
LINE
  5
216
100
AcDbEntity
  8
0
100
AcDbLine
 62
7
  6
CONTINUOUS
 10
5.7008242952
 20
7.0661695021
 11
5.7008242952
 21
6.9911695021
  0
LINE
  5
217
100
AcDbEntity
  8
0
100
AcDbLine
 62
7
  6
CONTINUOUS
 10
5.7055173291
 20
6.9911695021
 11
5.7055173291
 21
7.0661695021
  0
LINE
  5
218
100
AcDbEntity
  8
0
100
AcDbLine
 62
7
  6
CONTINUOUS
 10
5.7078845781
 20
7.0661695021
 11
5.7078845781
 21
6.9911695021
  0
LINE
  5
219
100
AcDbEntity
  8
0
100
AcDbLine
 62
7
  6
CONTINUOUS
 10
5.713608848
 20
6.9911695021
 11
5.713608848
 21
7.0661695021
  0
LINE
  5
21A
100
AcDbEntity
  8
0
100
AcDbLine
 62
7
  6
CONTINUOUS
 10
5.7164431924
 20
7.0661695021
 11
5.7164431924
 21
6.9911695021
  0
LINE
  5
21B
100
AcDbEntity
  8
0
100
AcDbLine
 62
7
  6
CONTINUOUS
 10
5.723191724
 20
6.9911695021
 11
5.723191724
 21
7.0661695021
  0
LINE
  5
21C
100
AcDbEntity
  8
0
100
AcDbLine
 62
7
  6
CONTINUOUS
 10
5.7264897107
 20
7.0661695021
 11
5.7264897107
 21
6.9911695021
  0
LINE
  5
21D
100
AcDbEntity
  8
0
100
AcDbLine
 62
7
  6
CONTINUOUS
 10
5.734254282
 20
6.9911695021
 11
5.734254282
 21
7.0661695021
  0
LINE
  5
21E
100
AcDbEntity
  8
0
100
AcDbLine
 62
7
  6
CONTINUOUS
 10
5.7376923427
 20
6.7911695021
 11
5.7376923427
 21
6.9911695021
  0
LINE
  5
21F
100
AcDbEntity
  8
0
100
AcDbLine
 62
7
  6
CONTINUOUS
 10
5.7380118927
 20
7.0661695021
 11
5.7380118927
 21
6.9911695021
  0
LINE
  5
220
100
AcDbEntity
  8
0
100
AcDbLine
 62
7
  6
CONTINUOUS
 10
5.7467830439
 20
6.9911695021
 11
5.7467830439
 21
7.0661695021
  0
LINE
  5
221
100
AcDbEntity
  8
0
100
AcDbLine
 62
7
  6
CONTINUOUS
 10
5.7509957007
 20
7.0661695021
 11
5.7509957007
 21
6.9911695021
  0
LINE
  5
222
100
AcDbEntity
  8
0
100
AcDbLine
 62
7
  6
CONTINUOUS
 10
5.7607627453
 20
6.9911695021
 11
5.7607627453
 21
7.0661695021
  0
LINE
  5
223
100
AcDbEntity
  8
0
100
AcDbLine
 62
7
  6
CONTINUOUS
 10
5.7654253156
 20
7.0661695021
 11
5.7654253156
 21
6.9911695021
  0
LINE
  5
224
100
AcDbEntity
  8
0
100
AcDbLine
 62
7
  6
CONTINUOUS
 10
5.7761763541
 20
6.9911695021
 11
5.7761763541
 21
7.0661695021
  0
LINE
  5
225
100
AcDbEntity
  8
0
100
AcDbLine
 62
7
  6
CONTINUOUS
 10
5.7812831574
 20
7.0661695021
 11
5.7812831574
 21
6.9911695021
  0
LINE
  5
226
100
AcDbEntity
  8
0
100
AcDbLine
 62
7
  6
CONTINUOUS
 10
5.7930050913
 20
6.9911695021
 11
5.7930050913
 21
7.0661695021
  0
LINE
  5
227
100
AcDbEntity
  8
0
100
AcDbLine
 62
7
  6
CONTINUOUS
 10
5.7985499057
 20
7.0661695021
 11
5.7985499057
 21
6.9911695021
  0
LINE
  5
228
100
AcDbEntity
  8
0
100
AcDbLine
 62
7
  6
CONTINUOUS
 10
5.8112284535
 20
6.9911695021
 11
5.8112284535
 21
7.0661695021
  0
LINE
  5
229
100
AcDbEntity
  8
0
100
AcDbLine
 62
7
  6
CONTINUOUS
 10
5.8172045235
 20
7.0661695021
 11
5.8172045235
 21
6.9911695021
  0
LINE
  5
22A
100
AcDbEntity
  8
0
100
AcDbLine
 62
7
  6
CONTINUOUS
 10
5.8308242385
 20
6.9911695021
 11
5.8308242385
 21
7.0661695021
  0
LINE
  5
22B
100
AcDbEntity
  8
0
100
AcDbLine
 62
7
  6
CONTINUOUS
 10
5.8372242831
 20
7.0661695021
 11
5.8372242831
 21
6.9911695021
  0
LINE
  5
22C
100
AcDbEntity
  8
0
100
AcDbLine
 62
7
  6
CONTINUOUS
 10
5.8517685717
 20
6.9911695021
 11
5.8517685717
 21
7.0661695021
  0
LINE
  5
22D
100
AcDbEntity
  8
0
100
AcDbLine
 62
7
  6
CONTINUOUS
 10
5.8585847936
 20
7.0661695021
 11
5.8585847936
 21
6.9911695021
  0
LINE
  5
22E
100
AcDbEntity
  8
0
100
AcDbLine
 62
7
  6
CONTINUOUS
 10
5.8740359358
 20
6.9911695021
 11
5.8740359358
 21
7.0661695021
  0
LINE
  5
22F
100
AcDbEntity
  8
0
100
AcDbLine
 62
7
  6
CONTINUOUS
 10
5.8812600303
 20
7.0661695021
 11
5.8812600303
 21
6.9911695021
  0
LINE
  5
230
100
AcDbEntity
  8
0
100
AcDbLine
 62
7
  6
CONTINUOUS
 10
5.8975992014
 20
6.9911695021
 11
5.8975992014
 21
7.0661695021
  0
LINE
  5
231
100
AcDbEntity
  8
0
100
AcDbLine
 62
7
  6
CONTINUOUS
 10
5.9052223672
 20
7.0661695021
 11
5.9052223672
 21
6.9911695021
  0
LINE
  5
232
100
AcDbEntity
  8
0
100
AcDbLine
 62
7
  6
CONTINUOUS
 10
5.9126923427
 20
7.9661695021
 11
5.9126923427
 21
8.1661695021
  0
LINE
  5
233
100
AcDbEntity
  8
0
100
AcDbLine
 62
7
  6
CONTINUOUS
 10
5.9224296603
 20
6.9911695021
 11
5.9224296603
 21
7.0661695021
  0
LINE
  5
234
100
AcDbEntity
  8
0
100
AcDbLine
 62
7
  6
CONTINUOUS
 10
5.9304426096
 20
7.0661695021
 11
5.9304426096
 21
6.9911695021
  0
LINE
  5
235
100
AcDbEntity
  8
0
100
AcDbLine
 62
7
  6
CONTINUOUS
 10
5.9484970603
 20
6.9911695021
 11
5.9484970603
 21
7.0661695021
  0
LINE
  5
236
100
AcDbEntity
  8
0
100
AcDbLine
 62
7
  6
CONTINUOUS
 10
5.9568900307
 20
7.0661695021
 11
5.9568900307
 21
6.9911695021
  0
LINE
  5
237
100
AcDbEntity
  8
0
100
AcDbLine
 62
7
  6
CONTINUOUS
 10
5.9757696424
 20
6.9911695021
 11
5.9757696424
 21
7.0661695021
  0
LINE
  5
238
100
AcDbEntity
  8
0
100
AcDbLine
 62
7
  6
CONTINUOUS
 10
5.9845324083
 20
7.0661695021
 11
5.9845324083
 21
6.9911695021
  0
LINE
  5
239
100
AcDbEntity
  8
0
100
AcDbLine
 62
7
  6
CONTINUOUS
 10
5.9876923427
 20
7.8661695021
 11
5.9876923427
 21
7.9661695021
  0
LINE
  5
23A
100
AcDbEntity
  8
0
100
AcDbLine
 62
7
  6
CONTINUOUS
 10
5.9876923427
 20
8.1661695021
 11
5.9876923427
 21
8.2161695021
  0
LINE
  5
23B
100
AcDbEntity
  8
0
100
AcDbLine
 62
7
  6
CONTINUOUS
 10
6.0042141792
 20
6.9911695021
 11
6.0042141792
 21
7.0661695021
  0
LINE
  5
23C
100
AcDbEntity
  8
0
100
AcDbLine
 62
7
  6
CONTINUOUS
 10
6.0133360645
 20
7.0661695021
 11
6.0133360645
 21
6.9911695021
  0
LINE
  5
23D
100
AcDbEntity
  8
0
100
AcDbLine
 62
7
  6
CONTINUOUS
 10
6.0337960153
 20
6.9911695021
 11
6.0337960153
 21
7.0661695021
  0
LINE
  5
23E
100
AcDbEntity
  8
0
100
AcDbLine
 62
7
  6
CONTINUOUS
 10
6.0432659064
 20
7.0661695021
 11
6.0432659064
 21
6.9911695021
  0
LINE
  5
23F
100
AcDbEntity
  8
0
100
AcDbLine
 62
7
  6
CONTINUOUS
 10
6.0626923427
 20
7.2661695021
 11
6.0626923427
 21
7.7911695021
  0
LINE
  5
240
100
AcDbEntity
  8
0
100
AcDbLine
 62
7
  6
CONTINUOUS
 10
6.0644791099
 20
6.9911695021
 11
6.0644791099
 21
7.0661695021
  0
LINE
  5
241
100
AcDbEntity
  8
0
100
AcDbLine
 62
7
  6
CONTINUOUS
 10
6.0742854692
 20
7.0661695021
 11
6.0742854692
 21
6.9911695021
  0
LINE
  5
242
100
AcDbEntity
  8
0
100
AcDbLine
 62
7
  6
CONTINUOUS
 10
6.0954857501
 20
6.9911695021
 11
6.0954857501
 21
7.0661695021
  0
LINE
  5
243
100
AcDbEntity
  8
0
100
AcDbLine
 62
7
  6
CONTINUOUS
 10
6.0962260802
 20
6.9911695021
 11
6.0962260802
 21
7.0661695021
  0
LINE
  5
244
100
AcDbEntity
  8
0
100
AcDbLine
 62
7
  6
CONTINUOUS
 10
6.5366688606
 20
8.818886151
 11
6.5376923251
 21
8.8091695021
  0
LINE
  5
245
100
AcDbEntity
  8
0
100
AcDbLine
 62
7
  6
CONTINUOUS
 10
6.1063569602
 20
7.0661695021
 11
6.1063569602
 21
6.9911695021
  0
LINE
  5
246
100
AcDbEntity
  8
0
100
AcDbLine
 62
7
  6
CONTINUOUS
 10
6.1275184894
 20
6.9911695021
 11
6.1275184894
 21
7.0661695021
  0
LINE
  5
247
100
AcDbEntity
  8
0
100
AcDbLine
 62
7
  6
CONTINUOUS
 10
6.1289982476
 20
6.9911695021
 11
6.1289982476
 21
7.0661695021
  0
LINE
  5
248
100
AcDbEntity
  8
0
100
AcDbLine
 62
7
  6
CONTINUOUS
 10
6.1394413054
 20
7.0661695021
 11
6.1394413054
 21
6.9911695021
  0
LINE
  5
249
100
AcDbEntity
  8
0
100
AcDbLine
 62
7
  6
CONTINUOUS
 10
6.1605383007
 20
6.9911695021
 11
6.1605383007
 21
7.0661695021
  0
LINE
  5
24A
100
AcDbEntity
  8
0
100
AcDbLine
 62
7
  6
CONTINUOUS
 10
6.1627556842
 20
6.9911695021
 11
6.1627556842
 21
7.0661695021
  0
LINE
  5
24B
100
AcDbEntity
  8
0
100
AcDbLine
 62
7
  6
CONTINUOUS
 10
6.1734981964
 20
7.0661695021
 11
6.1734981964
 21
6.9911695021
  0
LINE
  5
24C
100
AcDbEntity
  8
0
100
AcDbLine
 62
7
  6
CONTINUOUS
 10
6.1876923427
 20
8.3161695021
 11
6.1876923427
 21
8.3661695021
  0
LINE
  5
24D
100
AcDbEntity
  8
0
100
AcDbLine
 62
7
  6
CONTINUOUS
 10
6.1945049544
 20
6.9911695021
 11
6.1945049544
 21
7.0661695021
  0
LINE
  5
24E
100
AcDbEntity
  8
0
100
AcDbLine
 62
7
  6
CONTINUOUS
 10
6.1974572618
 20
6.9911695021
 11
6.1974572618
 21
7.0661695021
  0
LINE
  5
24F
100
AcDbEntity
  8
0
100
AcDbLine
 62
7
  6
CONTINUOUS
 10
6.2084861404
 20
7.0661695021
 11
6.2084861404
 21
6.9911695021
  0
LINE
  5
250
100
AcDbEntity
  8
0
100
AcDbLine
 62
7
  6
CONTINUOUS
 10
6.2293770676
 20
6.9911695021
 11
6.2293770676
 21
7.0661695021
  0
LINE
  5
251
100
AcDbEntity
  8
0
100
AcDbLine
 62
7
  6
CONTINUOUS
 10
6.2330607017
 20
6.9911695021
 11
6.2330607017
 21
7.0661695021
  0
LINE
  5
252
100
AcDbEntity
  8
0
100
AcDbLine
 62
7
  6
CONTINUOUS
 10
6.2443625097
 20
7.0661695021
 11
6.2443625097
 21
6.9911695021
  0
LINE
  5
253
100
AcDbEntity
  8
0
100
AcDbLine
 62
7
  6
CONTINUOUS
 10
6.2651121538
 20
6.9911695021
 11
6.2651121538
 21
7.0661695021
  0
LINE
  5
254
100
AcDbEntity
  8
0
100
AcDbLine
 62
7
  6
CONTINUOUS
 10
6.2695226268
 20
6.9911695021
 11
6.2695226268
 21
7.0661695021
  0
LINE
  5
255
100
AcDbEntity
  8
0
100
AcDbLine
 62
7
  6
CONTINUOUS
 10
6.2810835947
 20
7.0661695021
 11
6.2810835947
 21
6.9911695021
  0
LINE
  5
256
100
AcDbEntity
  8
0
100
AcDbLine
 62
7
  6
CONTINUOUS
 10
6.3016666753
 20
6.9911695021
 11
6.3016666753
 21
7.0661695021
  0
LINE
  5
257
100
AcDbEntity
  8
0
100
AcDbLine
 62
7
  6
CONTINUOUS
 10
6.3067986137
 20
6.9911695021
 11
6.3067986137
 21
7.0661695021
  0
LINE
  5
258
100
AcDbEntity
  8
0
100
AcDbLine
 62
7
  6
CONTINUOUS
 10
6.3186046563
 20
7.0661695021
 11
6.3186046563
 21
6.9911695021
  0
LINE
  5
259
100
AcDbEntity
  8
0
100
AcDbLine
 62
7
  6
CONTINUOUS
 10
6.3389960962
 20
6.9911695021
 11
6.3389960962
 21
7.0661695021
  0
LINE
  5
25A
100
AcDbEntity
  8
0
100
AcDbLine
 62
7
  6
CONTINUOUS
 10
6.3448432475
 20
6.9911695021
 11
6.3448432475
 21
7.0661695021
  0
LINE
  5
25B
100
AcDbEntity
  8
0
100
AcDbLine
 62
7
  6
CONTINUOUS
 10
6.3568799808
 20
7.0661695021
 11
6.3568799808
 21
6.9911695021
  0
LINE
  5
25C
100
AcDbEntity
  8
0
100
AcDbLine
 62
7
  6
CONTINUOUS
 10
6.3770549362
 20
6.9911695021
 11
6.3770549362
 21
7.0661695021
  0
LINE
  5
25D
100
AcDbEntity
  8
0
100
AcDbLine
 62
7
  6
CONTINUOUS
 10
6.3836101765
 20
6.9911695021
 11
6.3836101765
 21
7.0661695021
  0
LINE
  5
25E
100
AcDbEntity
  8
0
100
AcDbLine
 62
7
  6
CONTINUOUS
 10
6.3958629358
 20
7.0661695021
 11
6.3958629358
 21
6.9911695021
  0
LINE
  5
25F
100
AcDbEntity
  8
0
100
AcDbLine
 62
7
  6
CONTINUOUS
 10
6.4157968265
 20
6.9911695021
 11
6.4157968265
 21
7.0661695021
  0
LINE
  5
260
100
AcDbEntity
  8
0
100
AcDbLine
 62
7
  6
CONTINUOUS
 10
6.4230521694
 20
6.9911695021
 11
6.4230521694
 21
7.0661695021
  0
LINE
  5
261
100
AcDbEntity
  8
0
100
AcDbLine
 62
7
  6
CONTINUOUS
 10
6.4355060264
 20
7.0661695021
 11
6.4355060264
 21
6.9911695021
  0
LINE
  5
262
100
AcDbEntity
  8
0
100
AcDbLine
 62
7
  6
CONTINUOUS
 10
6.4551745661
 20
6.9911695021
 11
6.4551745661
 21
7.0661695021
  0
LINE
  5
263
100
AcDbEntity
  8
0
100
AcDbLine
 62
7
  6
CONTINUOUS
 10
6.463121172
 20
6.9911695021
 11
6.463121172
 21
7.0661695021
  0
LINE
  5
264
100
AcDbEntity
  8
0
100
AcDbLine
 62
7
  6
CONTINUOUS
 10
6.4757609537
 20
7.0661695021
 11
6.4757609537
 21
6.9911695021
  0
LINE
  5
265
100
AcDbEntity
  8
0
100
AcDbLine
 62
7
  6
CONTINUOUS
 10
6.4951401793
 20
6.9911695021
 11
6.4951401793
 21
7.0661695021
  0
LINE
  5
266
100
AcDbEntity
  8
0
100
AcDbLine
 62
7
  6
CONTINUOUS
 10
6.5037683665
 20
6.9911695021
 11
6.5037683665
 21
7.0661695021
  0
LINE
  5
267
100
AcDbEntity
  8
0
100
AcDbLine
 62
7
  6
CONTINUOUS
 10
6.5165786732
 20
7.0661695021
 11
6.5165786732
 21
6.9911695021
  0
LINE
  5
268
100
AcDbEntity
  8
0
100
AcDbLine
 62
7
  6
CONTINUOUS
 10
6.5356449742
 20
6.9911695021
 11
6.5356449742
 21
7.0661695021
  0
LINE
  5
269
100
AcDbEntity
  8
0
100
AcDbLine
 62
7
  6
CONTINUOUS
 10
6.5376923427
 20
9.2841695021
 11
6.5376923427
 21
9.2819599872
  0
LINE
  5
26A
100
AcDbEntity
  8
0
100
AcDbLine
 62
7
  6
CONTINUOUS
 10
6.5376923427
 20
8.3661695021
 11
6.5376923427
 21
8.4661695021
  0
LINE
  5
26B
100
AcDbEntity
  8
0
100
AcDbLine
 62
7
  6
CONTINUOUS
 10
6.5449442305
 20
6.9911695021
 11
6.5449442305
 21
7.0661695021
  0
LINE
  5
26C
100
AcDbEntity
  8
0
100
AcDbLine
 62
7
  6
CONTINUOUS
 10
6.5579094549
 20
7.0661695021
 11
6.5579094549
 21
6.9911695021
  0
LINE
  5
26D
100
AcDbEntity
  8
0
100
AcDbLine
 62
9
  6
CONTINUOUS
 10
6.5680209816
 20
9.188540912
 11
6.5680209816
 21
8.9005013533
  0
LINE
  5
26E
100
AcDbEntity
  8
0
100
AcDbLine
 62
7
  6
CONTINUOUS
 10
6.5766396018
 20
6.9911695021
 11
6.5766396018
 21
7.0661695021
  0
LINE
  5
26F
100
AcDbEntity
  8
0
100
AcDbLine
 62
7
  6
CONTINUOUS
 10
6.5865985976
 20
6.9911695021
 11
6.5865985976
 21
7.0661695021
  0
LINE
  5
270
100
AcDbEntity
  8
0
100
AcDbLine
 62
7
  6
CONTINUOUS
 10
6.0626923427
 20
7.7911695021
 11
5.9876923427
 21
7.8661695021
  0
LINE
  5
271
100
AcDbEntity
  8
0
100
AcDbLine
 62
7
  6
CONTINUOUS
 10
6.5997029435
 20
7.0661695021
 11
6.5997029435
 21
6.9911695021
  0
LINE
  5
272
100
AcDbEntity
  8
0
100
AcDbLine
 62
9
  6
CONTINUOUS
 10
6.6144024231
 20
8.8249622379
 11
6.6144024231
 21
9.2630016442
  0
LINE
  5
273
100
AcDbEntity
  8
0
100
AcDbLine
 62
7
  6
CONTINUOUS
 10
6.6180741166
 20
6.9911695021
 11
6.6180741166
 21
7.0661695021
  0
LINE
  5
274
100
AcDbEntity
  8
0
100
AcDbLine
 62
7
  6
CONTINUOUS
 10
6.6251923427
 20
8.7891695021
 11
6.6251923427
 21
8.4961695021
  0
LINE
  5
275
100
AcDbEntity
  8
0
100
AcDbLine
 62
7
  6
CONTINUOUS
 10
6.6286807183
 20
6.9911695021
 11
6.6286807183
 21
7.0661695021
  0
LINE
  5
276
100
AcDbEntity
  8
0
100
AcDbLine
 62
7
  6
CONTINUOUS
 10
6.6419082202
 20
7.0661695021
 11
6.6419082202
 21
6.9911695021
  0
LINE
  5
277
100
AcDbEntity
  8
0
100
AcDbLine
 62
7
  6
CONTINUOUS
 10
6.6598980369
 20
6.9911695021
 11
6.6598980369
 21
7.0661695021
  0
LINE
  5
278
100
AcDbEntity
  8
0
100
AcDbLine
 62
7
  6
CONTINUOUS
 10
6.6711393221
 20
6.9911695021
 11
6.6711393221
 21
7.0661695021
  0
LINE
  5
279
100
AcDbEntity
  8
0
100
AcDbLine
 62
7
  6
CONTINUOUS
 10
6.6751923427
 20
9.4091695021
 11
6.6751923427
 21
9.3791695021
  0
LINE
  5
27A
100
AcDbEntity
  8
0
100
AcDbLine
 62
7
  6
CONTINUOUS
 10
6.6844738642
 20
7.0661695021
 11
6.6844738642
 21
6.9911695021
  0
LINE
  5
27B
100
AcDbEntity
  8
0
100
AcDbLine
 62
7
  6
CONTINUOUS
 10
6.7020604069
 20
6.9911695021
 11
6.7020604069
 21
7.0661695021
  0
LINE
  5
27C
100
AcDbEntity
  8
0
100
AcDbLine
 62
7
  6
CONTINUOUS
 10
6.7139226797
 20
6.9911695021
 11
6.7139226797
 21
7.0661695021
  0
LINE
  5
27D
100
AcDbEntity
  8
0
100
AcDbLine
 62
7
  6
CONTINUOUS
 10
6.7273480159
 20
7.0661695021
 11
6.7273480159
 21
6.9911695021
  0
LINE
  5
27E
100
AcDbEntity
  8
0
100
AcDbLine
 62
7
  6
CONTINUOUS
 10
6.7376923427
 20
8.4961695021
 11
6.7376923427
 21
8.4661695021
  0
LINE
  5
27F
100
AcDbEntity
  8
0
100
AcDbLine
 62
7
  6
CONTINUOUS
 10
6.744509858
 20
6.9911695021
 11
6.744509858
 21
7.0661695021
  0
LINE
  5
280
100
AcDbEntity
  8
0
100
AcDbLine
 62
7
  6
CONTINUOUS
 10
6.7569786662
 20
6.9911695021
 11
6.7569786662
 21
7.0661695021
  0
LINE
  5
281
100
AcDbEntity
  8
0
100
AcDbLine
 62
7
  6
CONTINUOUS
 10
6.7704784398
 20
7.0661695021
 11
6.7704784398
 21
6.9911695021
  0
LINE
  5
282
100
AcDbEntity
  8
0
100
AcDbLine
 62
7
  6
CONTINUOUS
 10
6.7871946723
 20
6.9911695021
 11
6.7871946723
 21
7.0661695021
  0
LINE
  5
283
100
AcDbEntity
  8
0
100
AcDbLine
 62
7
  6
CONTINUOUS
 10
6.8002548244
 20
6.9911695021
 11
6.8002548244
 21
7.0661695021
  0
LINE
  5
284
100
AcDbEntity
  8
0
100
AcDbLine
 62
7
  6
CONTINUOUS
 10
6.8138125881
 20
7.0661695021
 11
6.8138125881
 21
6.9911695021
  0
LINE
  5
285
100
AcDbEntity
  8
0
100
AcDbLine
 62
7
  6
CONTINUOUS
 10
6.8300628447
 20
6.9911695021
 11
6.8300628447
 21
7.0661695021
  0
LINE
  5
286
100
AcDbEntity
  8
0
100
AcDbLine
 62
7
  6
CONTINUOUS
 10
6.8436984291
 20
6.9911695021
 11
6.8436984291
 21
7.0661695021
  0
LINE
  5
287
100
AcDbEntity
  8
0
100
AcDbLine
 62
7
  6
CONTINUOUS
 10
6.8572976648
 20
7.0661695021
 11
6.8572976648
 21
6.9911695021
  0
LINE
  5
288
100
AcDbEntity
  8
0
100
AcDbLine
 62
7
  6
CONTINUOUS
 10
6.8730621472
 20
6.9911695021
 11
6.8730621472
 21
7.0661695021
  0
LINE
  5
289
100
AcDbEntity
  8
0
100
AcDbLine
 62
7
  6
CONTINUOUS
 10
6.8872565509
 20
6.9911695021
 11
6.8872565509
 21
7.0661695021
  0
LINE
  5
28A
100
AcDbEntity
  8
0
100
AcDbLine
 62
7
  6
CONTINUOUS
 10
6.90088069
 20
7.0661695021
 11
6.90088069
 21
6.9911695021
  0
LINE
  5
28B
100
AcDbEntity
  8
0
100
AcDbLine
 62
7
  6
CONTINUOUS
 10
6.9161401916
 20
6.9911695021
 11
6.9161401916
 21
7.0661695021
  0
LINE
  5
28C
100
AcDbEntity
  8
0
100
AcDbLine
 62
7
  6
CONTINUOUS
 10
6.9308761209
 20
6.9911695021
 11
6.9308761209
 21
7.0661695021
  0
LINE
  5
28D
100
AcDbEntity
  8
0
100
AcDbLine
 62
7
  6
CONTINUOUS
 10
6.9445085646
 20
7.0661695021
 11
6.9445085646
 21
6.9911695021
  0
LINE
  5
28E
100
AcDbEntity
  8
0
100
AcDbLine
 62
7
  6
CONTINUOUS
 10
6.9592444939
 20
6.9911695021
 11
6.9592444939
 21
7.0661695021
  0
LINE
  5
28F
100
AcDbEntity
  8
0
100
AcDbLine
 62
7
  6
CONTINUOUS
 10
6.9745039954
 20
6.9911695021
 11
6.9745039954
 21
7.0661695021
  0
LINE
  5
290
100
AcDbEntity
  8
0
100
AcDbLine
 62
7
  6
CONTINUOUS
 10
6.9881281346
 20
7.0661695021
 11
6.9881281346
 21
6.9911695021
  0
LINE
  5
291
100
AcDbEntity
  8
0
100
AcDbLine
 62
7
  6
CONTINUOUS
 10
7.0023225383
 20
6.9911695021
 11
7.0023225383
 21
7.0661695021
  0
LINE
  5
292
100
AcDbEntity
  8
0
100
AcDbLine
 62
7
  6
CONTINUOUS
 10
7.0180870207
 20
6.9911695021
 11
7.0180870207
 21
7.0661695021
  0
LINE
  5
293
100
AcDbEntity
  8
0
100
AcDbLine
 62
7
  6
CONTINUOUS
 10
7.0316862564
 20
7.0661695021
 11
7.0316862564
 21
6.9911695021
  0
LINE
  5
294
100
AcDbEntity
  8
0
100
AcDbLine
 62
7
  6
CONTINUOUS
 10
7.0453218407
 20
6.9911695021
 11
7.0453218407
 21
7.0661695021
  0
LINE
  5
295
100
AcDbEntity
  8
0
100
AcDbLine
 62
7
  6
CONTINUOUS
 10
7.0615720973
 20
6.9911695021
 11
7.0615720973
 21
7.0661695021
  0
LINE
  5
296
100
AcDbEntity
  8
0
100
AcDbLine
 62
7
  6
CONTINUOUS
 10
7.0751298611
 20
7.0661695021
 11
7.0751298611
 21
6.9911695021
  0
LINE
  5
297
100
AcDbEntity
  8
0
100
AcDbLine
 62
7
  6
CONTINUOUS
 10
6.5313141813
 20
8.834015111
 11
6.5366688606
 21
8.818886151
  0
LINE
  5
298
100
AcDbEntity
  8
0
100
AcDbLine
 62
7
  6
CONTINUOUS
 10
7.0881900132
 20
6.9911695021
 11
7.0881900132
 21
7.0661695021
  0
LINE
  5
299
100
AcDbEntity
  8
0
100
AcDbLine
 62
7
  6
CONTINUOUS
 10
7.1049062456
 20
6.9911695021
 11
7.1049062456
 21
7.0661695021
  0
LINE
  5
29A
100
AcDbEntity
  8
0
100
AcDbLine
 62
7
  6
CONTINUOUS
 10
7.1184060193
 20
7.0661695021
 11
7.1184060193
 21
6.9911695021
  0
LINE
  5
29B
100
AcDbEntity
  8
0
100
AcDbLine
 62
7
  6
CONTINUOUS
 10
7.1308748275
 20
6.9911695021
 11
7.1308748275
 21
7.0661695021
  0
LINE
  5
29C
100
AcDbEntity
  8
0
100
AcDbLine
 62
7
  6
CONTINUOUS
 10
7.1376923427
 20
8.4961695021
 11
7.1376923427
 21
8.4661695021
  0
LINE
  5
29D
100
AcDbEntity
  8
0
100
AcDbLine
 62
7
  6
CONTINUOUS
 10
7.1480366695
 20
6.9911695021
 11
7.1480366695
 21
7.0661695021
  0
LINE
  5
29E
100
AcDbEntity
  8
0
100
AcDbLine
 62
7
  6
CONTINUOUS
 10
7.1614620058
 20
7.0661695021
 11
7.1614620058
 21
6.9911695021
  0
LINE
  5
29F
100
AcDbEntity
  8
0
100
AcDbLine
 62
7
  6
CONTINUOUS
 10
7.1733242786
 20
6.9911695021
 11
7.1733242786
 21
7.0661695021
  0
LINE
  5
2A0
100
AcDbEntity
  8
0
100
AcDbLine
 62
7
  6
CONTINUOUS
 10
7.1909108213
 20
6.9911695021
 11
7.1909108213
 21
7.0661695021
  0
LINE
  5
2A1
100
AcDbEntity
  8
0
100
AcDbLine
 62
7
  6
CONTINUOUS
 10
7.2001923427
 20
9.4091695021
 11
7.2001923427
 21
9.3791695021
  0
LINE
  5
2A2
100
AcDbEntity
  8
0
100
AcDbLine
 62
7
  6
CONTINUOUS
 10
7.2042453634
 20
7.0661695021
 11
7.2042453634
 21
6.9911695021
  0
LINE
  5
2A3
100
AcDbEntity
  8
0
100
AcDbLine
 62
7
  6
CONTINUOUS
 10
7.2154866485
 20
6.9911695021
 11
7.2154866485
 21
7.0661695021
  0
LINE
  5
2A4
100
AcDbEntity
  8
0
100
AcDbLine
 62
7
  6
CONTINUOUS
 10
7.2334764653
 20
6.9911695021
 11
7.2334764653
 21
7.0661695021
  0
LINE
  5
2A5
100
AcDbEntity
  8
0
100
AcDbLine
 62
7
  6
CONTINUOUS
 10
7.2467039672
 20
7.0661695021
 11
7.2467039672
 21
6.9911695021
  0
LINE
  5
2A6
100
AcDbEntity
  8
0
100
AcDbLine
 62
7
  6
CONTINUOUS
 10
7.2501923427
 20
8.7891695021
 11
7.2501923427
 21
8.4961695021
  0
LINE
  5
2A7
100
AcDbEntity
  8
0
100
AcDbLine
 62
7
  6
CONTINUOUS
 10
7.2573105689
 20
6.9911695021
 11
7.2573105689
 21
7.0661695021
  0
LINE
  5
2A8
100
AcDbEntity
  8
0
100
AcDbLine
 62
7
  6
CONTINUOUS
 10
7.275681742
 20
6.9911695021
 11
7.275681742
 21
7.0661695021
  0
LINE
  5
2A9
100
AcDbEntity
  8
0
100
AcDbLine
 62
7
  6
CONTINUOUS
 10
7.2887860879
 20
7.0661695021
 11
7.2887860879
 21
6.9911695021
  0
LINE
  5
2AA
100
AcDbEntity
  8
0
100
AcDbLine
 62
7
  6
CONTINUOUS
 10
7.2987450837
 20
6.9911695021
 11
7.2987450837
 21
7.0661695021
  0
LINE
  5
2AB
100
AcDbEntity
  8
0
100
AcDbLine
 62
7
  6
CONTINUOUS
 10
7.3174752306
 20
6.9911695021
 11
7.3174752306
 21
7.0661695021
  0
LINE
  5
2AC
100
AcDbEntity
  8
0
100
AcDbLine
 62
7
  6
CONTINUOUS
 10
7.330440455
 20
7.0661695021
 11
7.330440455
 21
6.9911695021
  0
LINE
  5
2AD
100
AcDbEntity
  8
0
100
AcDbLine
 62
7
  6
CONTINUOUS
 10
7.3376923427
 20
9.2841695021
 11
7.3376923427
 21
8.8091695021
  0
LINE
  5
2AE
100
AcDbEntity
  8
0
100
AcDbLine
 62
7
  6
CONTINUOUS
 10
7.3376923427
 20
8.3661695021
 11
7.3376923427
 21
8.4661695021
  0
LINE
  5
2AF
100
AcDbEntity
  8
0
100
AcDbLine
 62
7
  6
CONTINUOUS
 10
7.3397397113
 20
6.9911695021
 11
7.3397397113
 21
7.0661695021
  0
LINE
  5
2B0
100
AcDbEntity
  8
0
100
AcDbLine
 62
7
  6
CONTINUOUS
 10
7.3588060123
 20
6.9911695021
 11
7.3588060123
 21
7.0661695021
  0
LINE
  5
2B1
100
AcDbEntity
  8
0
100
AcDbLine
 62
7
  6
CONTINUOUS
 10
7.371616319
 20
7.0661695021
 11
7.371616319
 21
6.9911695021
  0
LINE
  5
2B2
100
AcDbEntity
  8
0
100
AcDbLine
 62
7
  6
CONTINUOUS
 10
7.3802445061
 20
6.9911695021
 11
7.3802445061
 21
7.0661695021
  0
LINE
  5
2B3
100
AcDbEntity
  8
0
100
AcDbLine
 62
7
  6
CONTINUOUS
 10
7.3996237318
 20
6.9911695021
 11
7.3996237318
 21
7.0661695021
  0
LINE
  5
2B4
100
AcDbEntity
  8
0
100
AcDbLine
 62
7
  6
CONTINUOUS
 10
7.4122635135
 20
7.0661695021
 11
7.4122635135
 21
6.9911695021
  0
LINE
  5
2B5
100
AcDbEntity
  8
0
100
AcDbLine
 62
7
  6
CONTINUOUS
 10
7.4202101194
 20
6.9911695021
 11
7.4202101194
 21
7.0661695021
  0
LINE
  5
2B6
100
AcDbEntity
  8
0
100
AcDbLine
 62
7
  6
CONTINUOUS
 10
7.4398786591
 20
6.9911695021
 11
7.4398786591
 21
7.0661695021
  0
LINE
  5
2B7
100
AcDbEntity
  8
0
100
AcDbLine
 62
7
  6
CONTINUOUS
 10
7.4523325161
 20
7.0661695021
 11
7.4523325161
 21
6.9911695021
  0
LINE
  5
2B8
100
AcDbEntity
  8
0
100
AcDbLine
 62
7
  6
CONTINUOUS
 10
7.459587859
 20
6.9911695021
 11
7.459587859
 21
7.0661695021
  0
LINE
  5
2B9
100
AcDbEntity
  8
0
100
AcDbLine
 62
7
  6
CONTINUOUS
 10
7.4795217497
 20
6.9911695021
 11
7.4795217497
 21
7.0661695021
  0
LINE
  5
2BA
100
AcDbEntity
  8
0
100
AcDbLine
 62
7
  6
CONTINUOUS
 10
7.4917745089
 20
7.0661695021
 11
7.4917745089
 21
6.9911695021
  0
LINE
  5
2BB
100
AcDbEntity
  8
0
100
AcDbLine
 62
7
  6
CONTINUOUS
 10
7.4983297493
 20
6.9911695021
 11
7.4983297493
 21
7.0661695021
  0
LINE
  5
2BC
100
AcDbEntity
  8
0
100
AcDbLine
 62
7
  6
CONTINUOUS
 10
7.5185047047
 20
6.9911695021
 11
7.5185047047
 21
7.0661695021
  0
LINE
  5
2BD
100
AcDbEntity
  8
0
100
AcDbLine
 62
7
  6
CONTINUOUS
 10
7.530541438
 20
7.0661695021
 11
7.530541438
 21
6.9911695021
  0
LINE
  5
2BE
100
AcDbEntity
  8
0
100
AcDbLine
 62
7
  6
CONTINUOUS
 10
7.5363885893
 20
6.9911695021
 11
7.5363885893
 21
7.0661695021
  0
LINE
  5
2BF
100
AcDbEntity
  8
0
100
AcDbLine
 62
7
  6
CONTINUOUS
 10
7.5567800292
 20
6.9911695021
 11
7.5567800292
 21
7.0661695021
  0
LINE
  5
2C0
100
AcDbEntity
  8
0
100
AcDbLine
 62
7
  6
CONTINUOUS
 10
7.5685860718
 20
7.0661695021
 11
7.5685860718
 21
6.9911695021
  0
LINE
  5
2C1
100
AcDbEntity
  8
0
100
AcDbLine
 62
7
  6
CONTINUOUS
 10
8.1876923427
 20
6.7411695021
 11
8.1376923427
 21
6.7911695021
  0
LINE
  5
2C2
100
AcDbEntity
  8
0
100
AcDbLine
 62
7
  6
CONTINUOUS
 10
6.5225131315
 20
8.846239124
 11
6.5313141813
 21
8.834015111
  0
LINE
  5
2C3
100
AcDbEntity
  8
0
100
AcDbLine
 62
7
  6
CONTINUOUS
 10
7.5737180102
 20
6.9911695021
 11
7.5737180102
 21
7.0661695021
  0
LINE
  5
2C4
100
AcDbEntity
  8
0
100
AcDbLine
 62
7
  6
CONTINUOUS
 10
7.5943010908
 20
6.9911695021
 11
7.5943010908
 21
7.0661695021
  0
LINE
  5
2C5
100
AcDbEntity
  8
0
100
AcDbLine
 62
7
  6
CONTINUOUS
 10
7.6058620587
 20
7.0661695021
 11
7.6058620587
 21
6.9911695021
  0
LINE
  5
2C6
100
AcDbEntity
  8
0
100
AcDbLine
 62
7
  6
CONTINUOUS
 10
7.6102725317
 20
6.9911695021
 11
7.6102725317
 21
7.0661695021
  0
LINE
  5
2C7
100
AcDbEntity
  8
0
100
AcDbLine
 62
7
  6
CONTINUOUS
 10
7.6310221757
 20
6.9911695021
 11
7.6310221757
 21
7.0661695021
  0
LINE
  5
2C8
100
AcDbEntity
  8
0
100
AcDbLine
 62
7
  6
CONTINUOUS
 10
7.6423239838
 20
7.0661695021
 11
7.6423239838
 21
6.9911695021
  0
LINE
  5
2C9
100
AcDbEntity
  8
0
100
AcDbLine
 62
7
  6
CONTINUOUS
 10
7.6460076179
 20
6.9911695021
 11
7.6460076179
 21
7.0661695021
  0
LINE
  5
2CA
100
AcDbEntity
  8
0
100
AcDbLine
 62
7
  6
CONTINUOUS
 10
7.6668985451
 20
6.9911695021
 11
7.6668985451
 21
7.0661695021
  0
LINE
  5
2CB
100
AcDbEntity
  8
0
100
AcDbLine
 62
7
  6
CONTINUOUS
 10
7.6779274237
 20
7.0661695021
 11
7.6779274237
 21
6.9911695021
  0
LINE
  5
2CC
100
AcDbEntity
  8
0
100
AcDbLine
 62
7
  6
CONTINUOUS
 10
7.680879731
 20
6.9911695021
 11
7.680879731
 21
7.0661695021
  0
LINE
  5
2CD
100
AcDbEntity
  8
0
100
AcDbLine
 62
7
  6
CONTINUOUS
 10
7.6876923427
 20
8.3161695021
 11
7.6876923427
 21
8.3661695021
  0
LINE
  5
2CE
100
AcDbEntity
  8
0
100
AcDbLine
 62
7
  6
CONTINUOUS
 10
7.701886489
 20
6.9911695021
 11
7.701886489
 21
7.0661695021
  0
LINE
  5
2CF
100
AcDbEntity
  8
0
100
AcDbLine
 62
7
  6
CONTINUOUS
 10
7.7126290013
 20
7.0661695021
 11
7.7126290013
 21
6.9911695021
  0
LINE
  5
2D0
100
AcDbEntity
  8
0
100
AcDbLine
 62
7
  6
CONTINUOUS
 10
7.7148463848
 20
6.9911695021
 11
7.7148463848
 21
7.0661695021
  0
LINE
  5
2D1
100
AcDbEntity
  8
0
100
AcDbLine
 62
7
  6
CONTINUOUS
 10
7.7359433801
 20
6.9911695021
 11
7.7359433801
 21
7.0661695021
  0
LINE
  5
2D2
100
AcDbEntity
  8
0
100
AcDbLine
 62
7
  6
CONTINUOUS
 10
7.7463864378
 20
7.0661695021
 11
7.7463864378
 21
6.9911695021
  0
LINE
  5
2D3
100
AcDbEntity
  8
0
100
AcDbLine
 62
7
  6
CONTINUOUS
 10
7.7478661961
 20
6.9911695021
 11
7.7478661961
 21
7.0661695021
  0
LINE
  5
2D4
100
AcDbEntity
  8
0
100
AcDbLine
 62
7
  6
CONTINUOUS
 10
7.7690277252
 20
6.9911695021
 11
7.7690277252
 21
7.0661695021
  0
LINE
  5
2D5
100
AcDbEntity
  8
0
100
AcDbLine
 62
7
  6
CONTINUOUS
 10
7.7791586052
 20
7.0661695021
 11
7.7791586052
 21
6.9911695021
  0
LINE
  5
2D6
100
AcDbEntity
  8
0
100
AcDbLine
 62
7
  6
CONTINUOUS
 10
7.7798989354
 20
6.9911695021
 11
7.7798989354
 21
7.0661695021
  0
LINE
  5
2D7
100
AcDbEntity
  8
0
100
AcDbLine
 62
7
  6
CONTINUOUS
 10
7.8010992163
 20
6.9911695021
 11
7.8010992163
 21
7.0661695021
  0
LINE
  5
2D8
100
AcDbEntity
  8
0
100
AcDbLine
 62
7
  6
CONTINUOUS
 10
7.8109055756
 20
7.0661695021
 11
7.8109055756
 21
6.9911695021
  0
LINE
  5
2D9
100
AcDbEntity
  8
0
100
AcDbLine
 62
7
  6
CONTINUOUS
 10
7.8126923427
 20
7.2661695021
 11
7.8126923427
 21
7.7911695021
  0
LINE
  5
2DA
100
AcDbEntity
  8
0
100
AcDbLine
 62
7
  6
CONTINUOUS
 10
7.832118779
 20
6.9911695021
 11
7.832118779
 21
7.0661695021
  0
LINE
  5
2DB
100
AcDbEntity
  8
0
100
AcDbLine
 62
7
  6
CONTINUOUS
 10
7.8415886702
 20
7.0661695021
 11
7.8415886702
 21
6.9911695021
  0
LINE
  5
2DC
100
AcDbEntity
  8
0
100
AcDbLine
 62
7
  6
CONTINUOUS
 10
7.862048621
 20
6.9911695021
 11
7.862048621
 21
7.0661695021
  0
LINE
  5
2DD
100
AcDbEntity
  8
0
100
AcDbLine
 62
7
  6
CONTINUOUS
 10
7.8711705063
 20
7.0661695021
 11
7.8711705063
 21
6.9911695021
  0
LINE
  5
2DE
100
AcDbEntity
  8
0
100
AcDbLine
 62
7
  6
CONTINUOUS
 10
7.8876923427
 20
7.8661695021
 11
7.8876923427
 21
7.9661695021
  0
LINE
  5
2DF
100
AcDbEntity
  8
0
100
AcDbLine
 62
7
  6
CONTINUOUS
 10
7.8876923427
 20
8.1661695021
 11
7.8876923427
 21
8.2161695021
  0
LINE
  5
2E0
100
AcDbEntity
  8
0
100
AcDbLine
 62
7
  6
CONTINUOUS
 10
7.8908522771
 20
6.9911695021
 11
7.8908522771
 21
7.0661695021
  0
LINE
  5
2E1
100
AcDbEntity
  8
0
100
AcDbLine
 62
7
  6
CONTINUOUS
 10
7.899615043
 20
7.0661695021
 11
7.899615043
 21
6.9911695021
  0
LINE
  5
2E2
100
AcDbEntity
  8
0
100
AcDbLine
 62
7
  6
CONTINUOUS
 10
7.9184946548
 20
6.9911695021
 11
7.9184946548
 21
7.0661695021
  0
LINE
  5
2E3
100
AcDbEntity
  8
0
100
AcDbLine
 62
7
  6
CONTINUOUS
 10
7.9268876252
 20
7.0661695021
 11
7.9268876252
 21
6.9911695021
  0
LINE
  5
2E4
100
AcDbEntity
  8
0
100
AcDbLine
 62
7
  6
CONTINUOUS
 10
7.9449420759
 20
6.9911695021
 11
7.9449420759
 21
7.0661695021
  0
LINE
  5
2E5
100
AcDbEntity
  8
0
100
AcDbLine
 62
7
  6
CONTINUOUS
 10
7.9529550252
 20
7.0661695021
 11
7.9529550252
 21
6.9911695021
  0
LINE
  5
2E6
100
AcDbEntity
  8
0
100
AcDbLine
 62
7
  6
CONTINUOUS
 10
7.9626923427
 20
7.9661695021
 11
7.9626923427
 21
8.1661695021
  0
LINE
  5
2E7
100
AcDbEntity
  8
0
100
AcDbLine
 62
7
  6
CONTINUOUS
 10
7.9701623183
 20
6.9911695021
 11
7.9701623183
 21
7.0661695021
  0
LINE
  5
2E8
100
AcDbEntity
  8
0
100
AcDbLine
 62
7
  6
CONTINUOUS
 10
7.9777854841
 20
7.0661695021
 11
7.9777854841
 21
6.9911695021
  0
LINE
  5
2E9
100
AcDbEntity
  8
0
100
AcDbLine
 62
7
  6
CONTINUOUS
 10
7.9941246551
 20
6.9911695021
 11
7.9941246551
 21
7.0661695021
  0
LINE
  5
2EA
100
AcDbEntity
  8
0
100
AcDbLine
 62
7
  6
CONTINUOUS
 10
8.0013487497
 20
7.0661695021
 11
8.0013487497
 21
6.9911695021
  0
LINE
  5
2EB
100
AcDbEntity
  8
0
100
AcDbLine
 62
7
  6
CONTINUOUS
 10
8.0167998919
 20
6.9911695021
 11
8.0167998919
 21
7.0661695021
  0
LINE
  5
2EC
100
AcDbEntity
  8
0
100
AcDbLine
 62
7
  6
CONTINUOUS
 10
8.0236161138
 20
7.0661695021
 11
8.0236161138
 21
6.9911695021
  0
LINE
  5
2ED
100
AcDbEntity
  8
0
100
AcDbLine
 62
7
  6
CONTINUOUS
 10
8.0381604024
 20
6.9911695021
 11
8.0381604024
 21
7.0661695021
  0
LINE
  5
2EE
100
AcDbEntity
  8
0
100
AcDbLine
 62
7
  6
CONTINUOUS
 10
8.044560447
 20
7.0661695021
 11
8.044560447
 21
6.9911695021
  0
LINE
  5
2EF
100
AcDbEntity
  8
0
100
AcDbLine
 62
7
  6
CONTINUOUS
 10
8.058180162
 20
6.9911695021
 11
8.058180162
 21
7.0661695021
  0
LINE
  5
2F0
100
AcDbEntity
  8
0
100
AcDbLine
 62
7
  6
CONTINUOUS
 10
6.5114953067
 20
8.8551529035
 11
6.5225131315
 21
8.846239124
  0
LINE
  5
2F1
100
AcDbEntity
  8
0
100
AcDbLine
 62
7
  6
CONTINUOUS
 10
8.064156232
 20
7.0661695021
 11
8.064156232
 21
6.9911695021
  0
LINE
  5
2F2
100
AcDbEntity
  8
0
100
AcDbLine
 62
7
  6
CONTINUOUS
 10
8.0768347798
 20
6.9911695021
 11
8.0768347798
 21
7.0661695021
  0
LINE
  5
2F3
100
AcDbEntity
  8
0
100
AcDbLine
 62
7
  6
CONTINUOUS
 10
8.0823795942
 20
7.0661695021
 11
8.0823795942
 21
6.9911695021
  0
LINE
  5
2F4
100
AcDbEntity
  8
0
100
AcDbLine
 62
7
  6
CONTINUOUS
 10
8.0941015281
 20
6.9911695021
 11
8.0941015281
 21
7.0661695021
  0
LINE
  5
2F5
100
AcDbEntity
  8
0
100
AcDbLine
 62
7
  6
CONTINUOUS
 10
8.0992083314
 20
7.0661695021
 11
8.0992083314
 21
6.9911695021
  0
LINE
  5
2F6
100
AcDbEntity
  8
0
100
AcDbLine
 62
7
  6
CONTINUOUS
 10
8.1099593698
 20
6.9911695021
 11
8.1099593698
 21
7.0661695021
  0
LINE
  5
2F7
100
AcDbEntity
  8
0
100
AcDbLine
 62
7
  6
CONTINUOUS
 10
8.1146219402
 20
7.0661695021
 11
8.1146219402
 21
6.9911695021
  0
LINE
  5
2F8
100
AcDbEntity
  8
0
100
AcDbLine
 62
7
  6
CONTINUOUS
 10
8.1243889848
 20
6.9911695021
 11
8.1243889848
 21
7.0661695021
  0
LINE
  5
2F9
100
AcDbEntity
  8
0
100
AcDbLine
 62
7
  6
CONTINUOUS
 10
8.1286016416
 20
7.0661695021
 11
8.1286016416
 21
6.9911695021
  0
LINE
  5
2FA
100
AcDbEntity
  8
0
100
AcDbLine
 62
7
  6
CONTINUOUS
 10
8.1373727927
 20
6.9911695021
 11
8.1373727927
 21
7.0661695021
  0
LINE
  5
2FB
100
AcDbEntity
  8
0
100
AcDbLine
 62
7
  6
CONTINUOUS
 10
8.1376923427
 20
6.7911695021
 11
8.1376923427
 21
6.9911695021
  0
LINE
  5
2FC
100
AcDbEntity
  8
0
100
AcDbLine
 62
7
  6
CONTINUOUS
 10
8.1411304035
 20
7.0661695021
 11
8.1411304035
 21
6.9911695021
  0
LINE
  5
2FD
100
AcDbEntity
  8
0
100
AcDbLine
 62
7
  6
CONTINUOUS
 10
8.1488949748
 20
6.9911695021
 11
8.1488949748
 21
7.0661695021
  0
LINE
  5
2FE
100
AcDbEntity
  8
0
100
AcDbLine
 62
7
  6
CONTINUOUS
 10
8.1521929614
 20
7.0661695021
 11
8.1521929614
 21
6.9911695021
  0
LINE
  5
2FF
100
AcDbEntity
  8
0
100
AcDbLine
 62
7
  6
CONTINUOUS
 10
8.1589414931
 20
6.9911695021
 11
8.1589414931
 21
7.0661695021
  0
LINE
  5
300
100
AcDbEntity
  8
0
100
AcDbLine
 62
7
  6
CONTINUOUS
 10
8.1617758375
 20
7.0661695021
 11
8.1617758375
 21
6.9911695021
  0
LINE
  5
301
100
AcDbEntity
  8
0
100
AcDbLine
 62
7
  6
CONTINUOUS
 10
8.1675001074
 20
6.9911695021
 11
8.1675001074
 21
7.0661695021
  0
LINE
  5
302
100
AcDbEntity
  8
0
100
AcDbLine
 62
7
  6
CONTINUOUS
 10
8.1698673564
 20
7.0661695021
 11
8.1698673564
 21
6.9911695021
  0
LINE
  5
303
100
AcDbEntity
  8
0
100
AcDbLine
 62
7
  6
CONTINUOUS
 10
8.1745603903
 20
6.9911695021
 11
8.1745603903
 21
7.0661695021
  0
LINE
  5
304
100
AcDbEntity
  8
0
100
AcDbLine
 62
7
  6
CONTINUOUS
 10
8.1764576598
 20
7.0661695021
 11
8.1764576598
 21
6.9911695021
  0
LINE
  5
305
100
AcDbEntity
  8
0
100
AcDbLine
 62
7
  6
CONTINUOUS
 10
8.1801137401
 20
6.9911695021
 11
8.1801137401
 21
7.0661695021
  0
LINE
  5
306
100
AcDbEntity
  8
0
100
AcDbLine
 62
7
  6
CONTINUOUS
 10
8.1815387185
 20
7.0661695021
 11
8.1815387185
 21
6.9911695021
  0
LINE
  5
307
100
AcDbEntity
  8
0
100
AcDbLine
 62
7
  6
CONTINUOUS
 10
8.1841533907
 20
6.9911695021
 11
8.1841533907
 21
7.0661695021
  0
LINE
  5
308
100
AcDbEntity
  8
0
100
AcDbLine
 62
7
  6
CONTINUOUS
 10
8.1851043419
 20
7.0661695021
 11
8.1851043419
 21
6.9911695021
  0
LINE
  5
309
100
AcDbEntity
  8
0
100
AcDbLine
 62
7
  6
CONTINUOUS
 10
8.1866744206
 20
6.9911695021
 11
8.1866744206
 21
7.0661695021
  0
LINE
  5
30A
100
AcDbEntity
  8
0
100
AcDbLine
 62
7
  6
CONTINUOUS
 10
8.1871501861
 20
7.0661695021
 11
8.1871501861
 21
6.9911695021
  0
LINE
  5
30B
100
AcDbEntity
  8
0
100
AcDbLine
 62
7
  6
CONTINUOUS
 10
8.1876737582
 20
6.9911695021
 11
8.1876737582
 21
7.0661695021
  0
LINE
  5
30C
100
AcDbEntity
  8
0
100
AcDbLine
 62
7
  6
CONTINUOUS
 10
8.1876923427
 20
6.5911695021
 11
8.1876923427
 21
6.7411695021
  0
LINE
  5
30D
100
AcDbEntity
  8
0
100
AcDbLine
 62
7
  6
CONTINUOUS
 10
5.6876923427
 20
6.5911695021
 11
8.1876923427
 21
6.5911695021
  0
LINE
  5
30E
100
AcDbEntity
  8
0
100
AcDbLine
 62
7
  6
CONTINUOUS
 10
9.8951403427
 20
6.5911695021
 11
11.9201403427
 21
6.5911695021
  0
LINE
  5
30F
100
AcDbEntity
  8
0
100
AcDbLine
 62
7
  6
CONTINUOUS
 10
13.6876923427
 20
6.5911695021
 11
16.1876923427
 21
6.5911695021
  0
LINE
  5
310
100
AcDbEntity
  8
0
100
AcDbLine
 62
7
  6
CONTINUOUS
 10
16.1876923427
 20
6.7411695021
 11
13.6876923427
 21
6.7411695021
  0
LINE
  5
311
100
AcDbEntity
  8
0
100
AcDbLine
 62
7
  6
CONTINUOUS
 10
8.1876923427
 20
6.7411695021
 11
5.6876923427
 21
6.7411695021
  0
LINE
  5
312
100
AcDbEntity
  8
0
100
AcDbLine
 62
7
  6
CONTINUOUS
 10
5.7376923427
 20
6.7911695021
 11
8.1376923427
 21
6.7911695021
  0
LINE
  5
313
100
AcDbEntity
  8
0
100
AcDbLine
 62
7
  6
CONTINUOUS
 10
13.7376923427
 20
6.7911695021
 11
16.1376923427
 21
6.7911695021
  0
LINE
  5
314
100
AcDbEntity
  8
0
100
AcDbLine
 62
9
  6
CONTINUOUS
 10
11.9201403427
 20
6.8401369698
 11
11.6344325794
 21
6.8401369698
  0
LINE
  5
315
100
AcDbEntity
  8
0
100
AcDbLine
 62
9
  6
CONTINUOUS
 10
10.240952106
 20
6.8401369698
 11
9.8951403427
 21
6.8401369698
  0
LINE
  5
316
100
AcDbEntity
  8
0
100
AcDbLine
 62
7
  6
CONTINUOUS
 10
5.6876923427
 20
6.7411695021
 11
5.7376923427
 21
6.7911695021
  0
LINE
  5
317
100
AcDbEntity
  8
0
100
AcDbLine
 62
7
  6
CONTINUOUS
 10
11.8826403427
 20
6.9111695021
 11
11.5924278532
 21
6.9111695021
  0
LINE
  5
318
100
AcDbEntity
  8
0
100
AcDbLine
 62
7
  6
CONTINUOUS
 10
10.2829568323
 20
6.9111695021
 11
9.9326403427
 21
6.9111695021
  0
LINE
  5
319
100
AcDbEntity
  8
0
100
AcDbLine
 62
7
  6
CONTINUOUS
 10
5.6877109272
 20
6.9911695021
 11
8.1841533907
 21
6.9911695021
  0
LINE
  5
31A
100
AcDbEntity
  8
0
100
AcDbLine
 62
7
  6
CONTINUOUS
 10
8.1848038382
 20
6.9911695021
 11
8.1876737582
 21
6.9911695021
  0
LINE
  5
31B
100
AcDbEntity
  8
0
100
AcDbLine
 62
7
  6
CONTINUOUS
 10
16.1848038382
 20
6.9911695021
 11
16.1876737582
 21
6.9911695021
  0
LINE
  5
31C
100
AcDbEntity
  8
0
100
AcDbLine
 62
7
  6
CONTINUOUS
 10
13.6877109272
 20
6.9911695021
 11
16.1841533907
 21
6.9911695021
  0
LINE
  5
31D
100
AcDbEntity
  8
0
100
AcDbLine
 62
7
  6
CONTINUOUS
 10
13.6905808473
 20
7.0661695021
 11
13.6877109272
 21
7.0661695021
  0
LINE
  5
31E
100
AcDbEntity
  8
0
100
AcDbLine
 62
7
  6
CONTINUOUS
 10
5.6905808473
 20
7.0661695021
 11
5.6877109272
 21
7.0661695021
  0
LINE
  5
31F
100
AcDbEntity
  8
0
100
AcDbLine
 62
7
  6
CONTINUOUS
 10
5.6912312947
 20
7.0661695021
 11
8.1876737582
 21
7.0661695021
  0
LINE
  5
320
100
AcDbEntity
  8
0
100
AcDbLine
 62
7
  6
CONTINUOUS
 10
13.6912312947
 20
7.0661695021
 11
16.1876737582
 21
7.0661695021
  0
LINE
  5
321
100
AcDbEntity
  8
0
100
AcDbLine
 62
7
  6
CONTINUOUS
 10
11.4326923427
 20
7.0911695021
 11
10.4426923427
 21
7.0911695021
  0
LINE
  5
322
100
AcDbEntity
  8
0
100
AcDbLine
 62
7
  6
CONTINUOUS
 10
16.0126923427
 20
7.1661695021
 11
13.8626923427
 21
7.1661695021
  0
LINE
  5
323
100
AcDbEntity
  8
0
100
AcDbLine
 62
7
  6
CONTINUOUS
 10
8.0126923427
 20
7.1661695021
 11
5.8626923427
 21
7.1661695021
  0
LINE
  5
324
100
AcDbEntity
  8
0
100
AcDbLine
 62
9
  6
CONTINUOUS
 10
11.4001923427
 20
7.1711695021
 11
10.4751923427
 21
7.1711695021
  0
LINE
  5
325
100
AcDbEntity
  8
0
100
AcDbLine
 62
7
  6
CONTINUOUS
 10
15.8626923427
 20
7.2661695021
 11
14.0126923427
 21
7.2661695021
  0
LINE
  5
326
100
AcDbEntity
  8
0
100
AcDbLine
 62
7
  6
CONTINUOUS
 10
7.8626923427
 20
7.2661695021
 11
6.0126923427
 21
7.2661695021
  0
LINE
  5
327
100
AcDbEntity
  8
0
100
AcDbLine
 62
9
  6
CONTINUOUS
 10
10.5104088365
 20
7.3352720662
 11
11.3649804298
 21
7.3352720662
  0
LINE
  5
328
100
AcDbEntity
  8
0
100
AcDbLine
 62
7
  6
CONTINUOUS
 10
11.3558607276
 20
7.3411695021
 11
10.5195284409
 21
7.3411695021
  0
LINE
  5
329
100
AcDbEntity
  8
0
100
AcDbLine
 62
7
  6
CONTINUOUS
 10
6.4992764319
 20
8.8607359716
 11
6.5114953067
 21
8.8551529035
  0
LINE
  5
32A
100
AcDbEntity
  8
0
100
AcDbLine
 62
7
  6
CONTINUOUS
 10
11.3376923427
 20
7.4661695021
 11
10.5376923427
 21
7.4661695021
  0
LINE
  5
32B
100
AcDbEntity
  8
0
100
AcDbLine
 62
7
  6
CONTINUOUS
 10
11.2501923427
 20
7.5411695021
 11
10.6251923427
 21
7.5411695021
  0
LINE
  5
32C
100
AcDbEntity
  8
0
100
AcDbLine
 62
7
  6
CONTINUOUS
 10
11.2001923427
 20
7.5911695021
 11
10.6751923427
 21
7.5911695021
  0
LINE
  5
32D
100
AcDbEntity
  8
0
100
AcDbLine
 62
9
  6
CONTINUOUS
 10
10.1994481452
 20
7.7519146422
 11
11.6158325403
 21
7.7519146422
  0
LINE
  5
32E
100
AcDbEntity
  8
0
100
AcDbLine
 62
7
  6
CONTINUOUS
 10
15.8126923427
 20
7.7911695021
 11
14.0626923427
 21
7.7911695021
  0
LINE
  5
32F
100
AcDbEntity
  8
0
100
AcDbLine
 62
7
  6
CONTINUOUS
 10
7.8126923427
 20
7.7911695021
 11
6.0626923427
 21
7.7911695021
  0
LINE
  5
330
100
AcDbEntity
  8
0
100
AcDbLine
 62
7
  6
CONTINUOUS
 10
9.8422627386
 20
11.0591695021
 11
9.8422627386
 21
11.6691695021
  0
LINE
  5
331
100
AcDbEntity
  8
0
100
AcDbLine
 62
7
  6
CONTINUOUS
 10
9.8951403427
 20
6.8401369698
 11
9.8951403427
 21
6.5911695021
  0
LINE
  5
332
100
AcDbEntity
  8
0
100
AcDbLine
 62
7
  6
CONTINUOUS
 10
7.8126923427
 20
7.7911695021
 11
7.8876923427
 21
7.8661695021
  0
LINE
  5
333
100
AcDbEntity
  8
0
100
AcDbLine
 62
7
  6
CONTINUOUS
 10
15.3760417258
 20
8.860714912
 11
15.3886144015
 21
8.8631399883
  0
LINE
  5
334
100
AcDbEntity
  8
0
100
AcDbLine
 62
7
  6
CONTINUOUS
 10
5.9876923427
 20
7.8661695021
 11
7.8876923427
 21
7.8661695021
  0
LINE
  5
335
100
AcDbEntity
  8
0
100
AcDbLine
 62
7
  6
CONTINUOUS
 10
13.9876923427
 20
7.8661695021
 11
15.8876923427
 21
7.8661695021
  0
LINE
  5
336
100
AcDbEntity
  8
0
100
AcDbLine
 62
9
  6
CONTINUOUS
 10
10.2507697393
 20
7.894510275
 11
11.5645109461
 21
7.894510275
  0
LINE
  5
337
100
AcDbEntity
  8
0
100
AcDbLine
 62
7
  6
CONTINUOUS
 10
5.9126923427
 20
7.9661695021
 11
7.9626923427
 21
7.9661695021
  0
LINE
  5
338
100
AcDbEntity
  8
0
100
AcDbLine
 62
7
  6
CONTINUOUS
 10
13.9126923427
 20
7.9661695021
 11
15.9626923427
 21
7.9661695021
  0
LINE
  5
339
100
AcDbEntity
  8
0
100
AcDbLine
 62
7
  6
CONTINUOUS
 10
15.9626923427
 20
8.1661695021
 11
13.9126923427
 21
8.1661695021
  0
LINE
  5
33A
100
AcDbEntity
  8
0
100
AcDbLine
 62
7
  6
CONTINUOUS
 10
7.9626923427
 20
8.1661695021
 11
5.9126923427
 21
8.1661695021
  0
LINE
  5
33B
100
AcDbEntity
  8
0
100
AcDbLine
 62
7
  6
CONTINUOUS
 10
15.8876923427
 20
8.2161695021
 11
13.9876923427
 21
8.2161695021
  0
LINE
  5
33C
100
AcDbEntity
  8
0
100
AcDbLine
 62
7
  6
CONTINUOUS
 10
7.8876923427
 20
8.2161695021
 11
5.9876923427
 21
8.2161695021
  0
LINE
  5
33D
100
AcDbEntity
  8
0
100
AcDbLine
 62
7
  6
CONTINUOUS
 10
15.7876923427
 20
8.3161695021
 11
14.0876923427
 21
8.3161695021
  0
LINE
  5
33E
100
AcDbEntity
  8
0
100
AcDbLine
 62
7
  6
CONTINUOUS
 10
7.7876923427
 20
8.3161695021
 11
6.0876923427
 21
8.3161695021
  0
LINE
  5
33F
100
AcDbEntity
  8
0
100
AcDbLine
 62
7
  6
CONTINUOUS
 10
6.4867470252
 20
8.8631444593
 11
6.4992764319
 21
8.8607359716
  0
LINE
  5
340
100
AcDbEntity
  8
0
100
AcDbLine
 62
7
  6
CONTINUOUS
 10
10.2691122053
 20
11.0432445345
 11
10.2682712992
 21
11.0591695021
  0
LINE
  5
341
100
AcDbEntity
  8
0
100
AcDbLine
 62
7
  6
CONTINUOUS
 10
10.0403379294
 20
11.0591695021
 11
10.0403379294
 21
11.6691695021
  0
LINE
  5
342
100
AcDbEntity
  8
0
100
AcDbLine
 62
7
  6
CONTINUOUS
 10
10.1476403427
 20
10.693430271
 11
10.1476403427
 21
10.1340026499
  0
LINE
  5
343
100
AcDbEntity
  8
0
100
AcDbLine
 62
7
  6
CONTINUOUS
 10
10.2682712992
 20
11.0591695021
 11
10.2682712992
 21
11.6691695021
  0
LINE
  5
344
100
AcDbEntity
  8
0
100
AcDbLine
 62
7
  6
CONTINUOUS
 10
10.4751923427
 20
7.0911695021
 11
10.4751923427
 21
7.1711695021
  0
LINE
  5
345
100
AcDbEntity
  8
0
100
AcDbLine
 62
7
  6
CONTINUOUS
 10
10.3320514099
 20
10.0591695021
 11
10.2507697393
 21
7.894510275
  0
LINE
  5
346
100
AcDbEntity
  8
0
100
AcDbLine
 62
7
  6
CONTINUOUS
 10
11.8976403427
 20
10.969602573
 11
11.6961091215
 21
10.7633107717
  0
LINE
  5
347
100
AcDbEntity
  8
0
100
AcDbLine
 62
7
  6
CONTINUOUS
 10
15.3885431634
 20
8.8631374285
 11
15.3928802397
 21
8.8632932755
  0
LINE
  5
348
100
AcDbEntity
  8
0
100
AcDbLine
 62
7
  6
CONTINUOUS
 10
15.6876923427
 20
8.3661695021
 11
14.1876923427
 21
8.3661695021
  0
LINE
  5
349
100
AcDbEntity
  8
0
100
AcDbLine
 62
7
  6
CONTINUOUS
 10
7.6876923427
 20
8.3661695021
 11
6.1876923427
 21
8.3661695021
  0
LINE
  5
34A
100
AcDbEntity
  8
0
100
AcDbLine
 62
7
  6
CONTINUOUS
 10
15.3376923427
 20
8.4661695021
 11
14.5376923427
 21
8.4661695021
  0
LINE
  5
34B
100
AcDbEntity
  8
0
100
AcDbLine
 62
7
  6
CONTINUOUS
 10
7.3376923427
 20
8.4661695021
 11
6.5376923427
 21
8.4661695021
  0
LINE
  5
34C
100
AcDbEntity
  8
0
100
AcDbLine
 62
7
  6
CONTINUOUS
 10
6.6251923427
 20
8.4961695021
 11
7.2501923427
 21
8.4961695021
  0
LINE
  5
34D
100
AcDbEntity
  8
0
100
AcDbLine
 62
7
  6
CONTINUOUS
 10
14.6251923427
 20
8.4961695021
 11
15.2501923427
 21
8.4961695021
  0
LINE
  5
34E
100
AcDbEntity
  8
0
100
AcDbLine
 62
9
  6
CONTINUOUS
 10
15.2501923427
 20
8.7891695021
 11
14.6252380081
 21
8.7891695021
  0
LINE
  5
34F
100
AcDbEntity
  8
0
100
AcDbLine
 62
9
  6
CONTINUOUS
 10
7.2501923427
 20
8.7891695021
 11
6.6252380081
 21
8.7891695021
  0
LINE
  5
350
100
AcDbEntity
  8
0
100
AcDbLine
 62
7
  6
CONTINUOUS
 10
6.5376922329
 20
8.8091695021
 11
7.3376923427
 21
8.8091695021
  0
LINE
  5
351
100
AcDbEntity
  8
0
100
AcDbLine
 62
7
  6
CONTINUOUS
 10
14.5376923427
 20
8.8091695021
 11
15.3376924517
 21
8.8091695021
  0
LINE
  5
352
100
AcDbEntity
  8
0
100
AcDbLine
 62
7
  6
CONTINUOUS
 10
6.4825046188
 20
8.8632932465
 11
6.4868415223
 21
8.8631374285
  0
LINE
  5
353
100
AcDbEntity
  8
0
100
AcDbLine
 62
7
  6
CONTINUOUS
 10
10.5376923427
 20
7.4661695021
 11
10.5376923427
 21
7.3411695021
  0
LINE
  5
354
100
AcDbEntity
  8
0
100
AcDbLine
 62
7
  6
CONTINUOUS
 10
10.6751923427
 20
7.5911695021
 11
10.6751923427
 21
7.5411695021
  0
LINE
  5
355
100
AcDbEntity
  8
0
100
AcDbLine
 62
7
  6
CONTINUOUS
 10
10.7464671113
 20
11.0591695021
 11
10.7464671113
 21
11.6691695021
  0
LWPOLYLINE
  5
356
100
AcDbEntity
  8
0
100
AcDbPolyline
 62
7
  6
CONTINUOUS
 90
4
 70
0
 10
17.746627931
 20
9.3004132993
 10
17.0280034399
 20
9.2793587656
 10
16.2254522458
 20
9.2533106518
 10
15.3943308267
 20
9.2269843984
  0
LWPOLYLINE
  5
357
100
AcDbEntity
  8
0
100
AcDbPolyline
 62
7
  6
CONTINUOUS
 90
4
 70
0
 10
4.1277070053
 20
8.8515916245
 10
4.8470332266
 20
8.8537854594
 10
5.6504312243
 20
8.8587768157
 10
6.482504113
 20
8.8632933452
  0
LINE
  5
358
100
AcDbEntity
  8
0
100
AcDbLine
 62
9
  6
CONTINUOUS
 10
4.1290949424
 20
8.9088417424
 11
4.0876923427
 21
8.9088417424
  0
LINE
  5
359
100
AcDbEntity
  8
0
100
AcDbLine
 62
9
  6
CONTINUOUS
 10
17.7462897436
 20
8.9088417424
 11
17.7876923427
 21
8.9088417424
  0
LINE
  5
35A
100
AcDbEntity
  8
0
100
AcDbLine
 62
9
  6
CONTINUOUS
 10
4.1290949424
 20
9.2431734433
 11
4.0876923427
 21
9.2431734433
  0
LINE
  5
35B
100
AcDbEntity
  8
0
100
AcDbLine
 62
9
  6
CONTINUOUS
 10
17.7462897436
 20
9.2431734433
 11
17.7876923427
 21
9.2431734433
  0
LINE
  5
35C
100
AcDbEntity
  8
0
100
AcDbLine
 62
7
  6
CONTINUOUS
 10
15.3376923427
 20
9.2841695021
 11
14.5376923427
 21
9.2841695021
  0
LINE
  5
35D
100
AcDbEntity
  8
0
100
AcDbLine
 62
7
  6
CONTINUOUS
 10
7.3376923427
 20
9.2841695021
 11
6.5376923427
 21
9.2841695021
  0
LWPOLYLINE
  5
35E
100
AcDbEntity
  8
0
100
AcDbPolyline
 62
7
  6
CONTINUOUS
 90
4
 70
0
 10
15.3928805724
 20
8.8632933452
 10
16.2249534612
 20
8.8587768157
 10
17.0283514589
 20
8.8537854594
 10
17.7476776802
 20
8.8515916245
  0
LWPOLYLINE
  5
35F
100
AcDbEntity
  8
0
100
AcDbPolyline
 62
7
  6
CONTINUOUS
 90
4
 70
0
 10
6.4810538588
 20
9.2269843984
 10
5.6499324397
 20
9.2533106518
 10
4.8473812456
 20
9.2793587656
 10
4.1287567545
 20
9.3004132993
  0
LINE
  5
360
100
AcDbEntity
  8
0
100
AcDbLine
 62
7
  6
CONTINUOUS
 10
11.0688135742
 20
11.0591695021
 11
11.0688135742
 21
11.6691695021
  0
LINE
  5
361
100
AcDbEntity
  8
0
100
AcDbLine
 62
7
  6
CONTINUOUS
 10
11.2001923427
 20
7.5911695021
 11
11.2001923427
 21
7.5411695021
  0
LINE
  5
362
100
AcDbEntity
  8
0
100
AcDbLine
 62
7
  6
CONTINUOUS
 10
11.3376923427
 20
7.4661695021
 11
11.3376923427
 21
7.3411695021
  0
LINE
  5
363
100
AcDbEntity
  8
0
100
AcDbLine
 62
7
  6
CONTINUOUS
 10
11.4001923427
 20
7.0911695021
 11
11.4001923427
 21
7.1711695021
  0
LINE
  5
364
100
AcDbEntity
  8
0
100
AcDbLine
 62
7
  6
CONTINUOUS
 10
11.5470093863
 20
11.0591695021
 11
11.5461684802
 21
11.0432442885
  0
LINE
  5
365
100
AcDbEntity
  8
0
100
AcDbLine
 62
7
  6
CONTINUOUS
 10
15.2501923427
 20
9.3591695021
 11
14.6251923427
 21
9.3591695021
  0
LINE
  5
366
100
AcDbEntity
  8
0
100
AcDbLine
 62
7
  6
CONTINUOUS
 10
7.2501923427
 20
9.3591695021
 11
6.6251923427
 21
9.3591695021
  0
LINE
  5
367
100
AcDbEntity
  8
0
100
AcDbLine
 62
9
  6
CONTINUOUS
 10
6.6751923427
 20
9.3791695021
 11
7.2001923427
 21
9.3791695021
  0
LINE
  5
368
100
AcDbEntity
  8
0
100
AcDbLine
 62
9
  6
CONTINUOUS
 10
14.6751923427
 20
9.3791695021
 11
15.2001923427
 21
9.3791695021
  0
LINE
  5
369
100
AcDbEntity
  8
0
100
AcDbLine
 62
7
  6
CONTINUOUS
 10
15.2001923427
 20
9.4091695021
 11
14.6751923427
 21
9.4091695021
  0
LINE
  5
36A
100
AcDbEntity
  8
0
100
AcDbLine
 62
7
  6
CONTINUOUS
 10
7.2001923427
 20
9.4091695021
 11
6.6751923427
 21
9.4091695021
  0
LINE
  5
36B
100
AcDbEntity
  8
0
100
AcDbLine
 62
7
  6
CONTINUOUS
 10
9.9176403427
 20
10.969602573
 11
10.119171564
 21
10.7633107717
  0
LINE
  5
36C
100
AcDbEntity
  8
0
100
AcDbLine
 62
7
  6
CONTINUOUS
 10
11.4832292755
 20
10.0591695021
 11
11.5645109461
 21
7.894510275
  0
LINE
  5
36D
100
AcDbEntity
  8
0
100
AcDbLine
 62
7
  6
CONTINUOUS
 10
11.5470093863
 20
11.0591695021
 11
11.5470093863
 21
11.6691695021
  0
LINE
  5
36E
100
AcDbEntity
  8
0
100
AcDbLine
 62
7
  6
CONTINUOUS
 10
11.6676403427
 20
10.693430271
 11
11.6676403427
 21
10.1340026499
  0
LINE
  5
36F
100
AcDbEntity
  8
0
100
AcDbLine
 62
7
  6
CONTINUOUS
 10
11.7749427561
 20
11.0591695021
 11
11.7749427561
 21
11.6691695021
  0
LINE
  5
370
100
AcDbEntity
  8
0
100
AcDbLine
 62
7
  6
CONTINUOUS
 10
11.9201403427
 20
6.8401369698
 11
11.9201403427
 21
6.5911695021
  0
LINE
  5
371
100
AcDbEntity
  8
0
100
AcDbLine
 62
7
  6
CONTINUOUS
 10
11.9730179469
 20
11.0591695021
 11
11.9730179469
 21
11.6691695021
  0
LINE
  5
372
100
AcDbEntity
  8
0
100
AcDbLine
 62
7
  6
CONTINUOUS
 10
10.1676403427
 20
10.0591695021
 11
11.6476403427
 21
10.0591695021
  0
LINE
  5
373
100
AcDbEntity
  8
0
100
AcDbLine
 62
9
  6
CONTINUOUS
 10
10.1476403427
 20
10.1340026499
 11
11.6676403427
 21
10.1340026499
  0
LINE
  5
374
100
AcDbEntity
  8
0
100
AcDbLine
 62
9
  6
CONTINUOUS
 10
11.6676403427
 20
10.693430271
 11
10.1476548276
 21
10.693430271
  0
LINE
  5
375
100
AcDbEntity
  8
0
100
AcDbLine
 62
9
  6
CONTINUOUS
 10
10.119171564
 20
10.7633107717
 11
11.6961091215
 21
10.7633107717
  0
LINE
  5
376
100
AcDbEntity
  8
0
100
AcDbLine
 62
7
  6
CONTINUOUS
 10
14.0626923427
 20
7.7911695021
 11
13.9876923427
 21
7.8661695021
  0
LINE
  5
377
100
AcDbEntity
  8
0
100
AcDbLine
 62
7
  6
CONTINUOUS
 10
9.8422627386
 20
11.0591695021
 11
10.0403379294
 21
11.0591695021
  0
LINE
  5
378
100
AcDbEntity
  8
0
100
AcDbLine
 62
7
  6
CONTINUOUS
 10
10.2682712992
 20
11.0591695021
 11
10.7464671113
 21
11.0591695021
  0
LINE
  5
379
100
AcDbEntity
  8
0
100
AcDbLine
 62
7
  6
CONTINUOUS
 10
11.0688135742
 20
11.0591695021
 11
11.5470093863
 21
11.0591695021
  0
LINE
  5
37A
100
AcDbEntity
  8
0
100
AcDbLine
 62
7
  6
CONTINUOUS
 10
11.7749427561
 20
11.0591695021
 11
11.9730179469
 21
11.0591695021
  0
LINE
  5
37B
100
AcDbEntity
  8
0
100
AcDbLine
 62
7
  6
CONTINUOUS
 10
16.1876923427
 20
6.7411695021
 11
16.1376923427
 21
6.7911695021
  0
LINE
  5
37C
100
AcDbEntity
  8
0
100
AcDbLine
 62
7
  6
CONTINUOUS
 10
15.3638503385
 20
8.8551289034
 11
15.3760417258
 21
8.860714912
  0
LINE
  5
37D
100
AcDbEntity
  8
0
100
AcDbLine
 62
9
  6
CONTINUOUS
 10
11.9730179469
 20
11.6691695021
 11
11.7749427561
 21
11.6691695021
  0
LINE
  5
37E
100
AcDbEntity
  8
0
100
AcDbLine
 62
9
  6
CONTINUOUS
 10
11.5470093863
 20
11.6691695021
 11
11.0688135742
 21
11.6691695021
  0
LINE
  5
37F
100
AcDbEntity
  8
0
100
AcDbLine
 62
9
  6
CONTINUOUS
 10
10.7464671113
 20
11.6691695021
 11
10.2682712992
 21
11.6691695021
  0
LINE
  5
380
100
AcDbEntity
  8
0
100
AcDbLine
 62
9
  6
CONTINUOUS
 10
10.0403379294
 20
11.6691695021
 11
9.8422627386
 21
11.6691695021
  0
LINE
  5
381
100
AcDbEntity
  8
0
100
AcDbLine
 62
7
  6
CONTINUOUS
 10
13.6876923427
 20
6.5911695021
 11
13.6876923427
 21
6.7411695021
  0
LINE
  5
382
100
AcDbEntity
  8
0
100
AcDbLine
 62
7
  6
CONTINUOUS
 10
13.6877109272
 20
7.0661695021
 11
13.6877109272
 21
6.9911695021
  0
LINE
  5
383
100
AcDbEntity
  8
0
100
AcDbLine
 62
7
  6
CONTINUOUS
 10
13.6882344994
 20
6.9911695021
 11
13.6882344994
 21
7.0661695021
  0
LINE
  5
384
100
AcDbEntity
  8
0
100
AcDbLine
 62
7
  6
CONTINUOUS
 10
13.6887102648
 20
7.0661695021
 11
13.6887102648
 21
6.9911695021
  0
LINE
  5
385
100
AcDbEntity
  8
0
100
AcDbLine
 62
7
  6
CONTINUOUS
 10
13.6902803435
 20
6.9911695021
 11
13.6902803435
 21
7.0661695021
  0
LINE
  5
386
100
AcDbEntity
  8
0
100
AcDbLine
 62
7
  6
CONTINUOUS
 10
13.6912312947
 20
7.0661695021
 11
13.6912312947
 21
6.9911695021
  0
LINE
  5
387
100
AcDbEntity
  8
0
100
AcDbLine
 62
7
  6
CONTINUOUS
 10
13.693845967
 20
6.9911695021
 11
13.693845967
 21
7.0661695021
  0
LINE
  5
388
100
AcDbEntity
  8
0
100
AcDbLine
 62
7
  6
CONTINUOUS
 10
13.6952709454
 20
7.0661695021
 11
13.6952709454
 21
6.9911695021
  0
LINE
  5
389
100
AcDbEntity
  8
0
100
AcDbLine
 62
7
  6
CONTINUOUS
 10
13.6989270257
 20
6.9911695021
 11
13.6989270257
 21
7.0661695021
  0
LINE
  5
38A
100
AcDbEntity
  8
0
100
AcDbLine
 62
7
  6
CONTINUOUS
 10
13.7008242952
 20
7.0661695021
 11
13.7008242952
 21
6.9911695021
  0
LINE
  5
38B
100
AcDbEntity
  8
0
100
AcDbLine
 62
7
  6
CONTINUOUS
 10
13.7055173291
 20
6.9911695021
 11
13.7055173291
 21
7.0661695021
  0
LINE
  5
38C
100
AcDbEntity
  8
0
100
AcDbLine
 62
7
  6
CONTINUOUS
 10
13.7078845781
 20
7.0661695021
 11
13.7078845781
 21
6.9911695021
  0
LINE
  5
38D
100
AcDbEntity
  8
0
100
AcDbLine
 62
7
  6
CONTINUOUS
 10
13.713608848
 20
6.9911695021
 11
13.713608848
 21
7.0661695021
  0
LINE
  5
38E
100
AcDbEntity
  8
0
100
AcDbLine
 62
7
  6
CONTINUOUS
 10
13.7164431924
 20
7.0661695021
 11
13.7164431924
 21
6.9911695021
  0
LINE
  5
38F
100
AcDbEntity
  8
0
100
AcDbLine
 62
7
  6
CONTINUOUS
 10
13.723191724
 20
6.9911695021
 11
13.723191724
 21
7.0661695021
  0
LINE
  5
390
100
AcDbEntity
  8
0
100
AcDbLine
 62
7
  6
CONTINUOUS
 10
13.7264897107
 20
7.0661695021
 11
13.7264897107
 21
6.9911695021
  0
LINE
  5
391
100
AcDbEntity
  8
0
100
AcDbLine
 62
7
  6
CONTINUOUS
 10
13.734254282
 20
6.9911695021
 11
13.734254282
 21
7.0661695021
  0
LINE
  5
392
100
AcDbEntity
  8
0
100
AcDbLine
 62
7
  6
CONTINUOUS
 10
13.7376923427
 20
6.7911695021
 11
13.7376923427
 21
6.9911695021
  0
LINE
  5
393
100
AcDbEntity
  8
0
100
AcDbLine
 62
7
  6
CONTINUOUS
 10
13.7380118927
 20
7.0661695021
 11
13.7380118927
 21
6.9911695021
  0
LINE
  5
394
100
AcDbEntity
  8
0
100
AcDbLine
 62
7
  6
CONTINUOUS
 10
13.7467830439
 20
6.9911695021
 11
13.7467830439
 21
7.0661695021
  0
LINE
  5
395
100
AcDbEntity
  8
0
100
AcDbLine
 62
7
  6
CONTINUOUS
 10
13.7509957007
 20
7.0661695021
 11
13.7509957007
 21
6.9911695021
  0
LINE
  5
396
100
AcDbEntity
  8
0
100
AcDbLine
 62
7
  6
CONTINUOUS
 10
13.7607627453
 20
6.9911695021
 11
13.7607627453
 21
7.0661695021
  0
LINE
  5
397
100
AcDbEntity
  8
0
100
AcDbLine
 62
7
  6
CONTINUOUS
 10
13.7654253156
 20
7.0661695021
 11
13.7654253156
 21
6.9911695021
  0
LINE
  5
398
100
AcDbEntity
  8
0
100
AcDbLine
 62
7
  6
CONTINUOUS
 10
13.7761763541
 20
6.9911695021
 11
13.7761763541
 21
7.0661695021
  0
LINE
  5
399
100
AcDbEntity
  8
0
100
AcDbLine
 62
7
  6
CONTINUOUS
 10
13.7812831574
 20
7.0661695021
 11
13.7812831574
 21
6.9911695021
  0
LINE
  5
39A
100
AcDbEntity
  8
0
100
AcDbLine
 62
7
  6
CONTINUOUS
 10
13.7930050913
 20
6.9911695021
 11
13.7930050913
 21
7.0661695021
  0
LINE
  5
39B
100
AcDbEntity
  8
0
100
AcDbLine
 62
7
  6
CONTINUOUS
 10
13.7985499057
 20
7.0661695021
 11
13.7985499057
 21
6.9911695021
  0
LINE
  5
39C
100
AcDbEntity
  8
0
100
AcDbLine
 62
7
  6
CONTINUOUS
 10
13.8112284535
 20
6.9911695021
 11
13.8112284535
 21
7.0661695021
  0
LINE
  5
39D
100
AcDbEntity
  8
0
100
AcDbLine
 62
7
  6
CONTINUOUS
 10
13.8172045235
 20
7.0661695021
 11
13.8172045235
 21
6.9911695021
  0
LINE
  5
39E
100
AcDbEntity
  8
0
100
AcDbLine
 62
7
  6
CONTINUOUS
 10
13.8308242385
 20
6.9911695021
 11
13.8308242385
 21
7.0661695021
  0
LINE
  5
39F
100
AcDbEntity
  8
0
100
AcDbLine
 62
7
  6
CONTINUOUS
 10
13.8372242831
 20
7.0661695021
 11
13.8372242831
 21
6.9911695021
  0
LINE
  5
3A0
100
AcDbEntity
  8
0
100
AcDbLine
 62
7
  6
CONTINUOUS
 10
13.8517685717
 20
6.9911695021
 11
13.8517685717
 21
7.0661695021
  0
LINE
  5
3A1
100
AcDbEntity
  8
0
100
AcDbLine
 62
7
  6
CONTINUOUS
 10
13.8585847936
 20
7.0661695021
 11
13.8585847936
 21
6.9911695021
  0
LINE
  5
3A2
100
AcDbEntity
  8
0
100
AcDbLine
 62
7
  6
CONTINUOUS
 10
13.8740359358
 20
6.9911695021
 11
13.8740359358
 21
7.0661695021
  0
LINE
  5
3A3
100
AcDbEntity
  8
0
100
AcDbLine
 62
7
  6
CONTINUOUS
 10
13.8812600303
 20
7.0661695021
 11
13.8812600303
 21
6.9911695021
  0
LINE
  5
3A4
100
AcDbEntity
  8
0
100
AcDbLine
 62
7
  6
CONTINUOUS
 10
13.8975992014
 20
6.9911695021
 11
13.8975992014
 21
7.0661695021
  0
LINE
  5
3A5
100
AcDbEntity
  8
0
100
AcDbLine
 62
7
  6
CONTINUOUS
 10
13.9052223672
 20
7.0661695021
 11
13.9052223672
 21
6.9911695021
  0
LINE
  5
3A6
100
AcDbEntity
  8
0
100
AcDbLine
 62
7
  6
CONTINUOUS
 10
13.9126923427
 20
7.9661695021
 11
13.9126923427
 21
8.1661695021
  0
LINE
  5
3A7
100
AcDbEntity
  8
0
100
AcDbLine
 62
7
  6
CONTINUOUS
 10
13.9224296603
 20
6.9911695021
 11
13.9224296603
 21
7.0661695021
  0
LINE
  5
3A8
100
AcDbEntity
  8
0
100
AcDbLine
 62
7
  6
CONTINUOUS
 10
13.9304426096
 20
7.0661695021
 11
13.9304426096
 21
6.9911695021
  0
LINE
  5
3A9
100
AcDbEntity
  8
0
100
AcDbLine
 62
7
  6
CONTINUOUS
 10
11.8351403427
 20
11.8191695021
 11
9.9801403427
 21
11.8191695021
  0
LINE
  5
3AA
100
AcDbEntity
  8
0
100
AcDbLine
 62
9
  6
CONTINUOUS
 10
9.9985039097
 20
11.8791695021
 11
11.8167767758
 21
11.8791695021
  0
LINE
  5
3AB
100
AcDbEntity
  8
0
100
AcDbLine
 62
7
  6
CONTINUOUS
 10
13.9484970603
 20
6.9911695021
 11
13.9484970603
 21
7.0661695021
  0
LINE
  5
3AC
100
AcDbEntity
  8
0
100
AcDbLine
 62
7
  6
CONTINUOUS
 10
13.9568900307
 20
7.0661695021
 11
13.9568900307
 21
6.9911695021
  0
LINE
  5
3AD
100
AcDbEntity
  8
0
100
AcDbLine
 62
7
  6
CONTINUOUS
 10
13.9757696424
 20
6.9911695021
 11
13.9757696424
 21
7.0661695021
  0
LINE
  5
3AE
100
AcDbEntity
  8
0
100
AcDbLine
 62
7
  6
CONTINUOUS
 10
13.9845324083
 20
7.0661695021
 11
13.9845324083
 21
6.9911695021
  0
LINE
  5
3AF
100
AcDbEntity
  8
0
100
AcDbLine
 62
7
  6
CONTINUOUS
 10
13.9876923427
 20
7.8661695021
 11
13.9876923427
 21
7.9661695021
  0
LINE
  5
3B0
100
AcDbEntity
  8
0
100
AcDbLine
 62
7
  6
CONTINUOUS
 10
13.9876923427
 20
8.1661695021
 11
13.9876923427
 21
8.2161695021
  0
LINE
  5
3B1
100
AcDbEntity
  8
0
100
AcDbLine
 62
7
  6
CONTINUOUS
 10
14.0042141792
 20
6.9911695021
 11
14.0042141792
 21
7.0661695021
  0
LINE
  5
3B2
100
AcDbEntity
  8
0
100
AcDbLine
 62
7
  6
CONTINUOUS
 10
14.0133360645
 20
7.0661695021
 11
14.0133360645
 21
6.9911695021
  0
LINE
  5
3B3
100
AcDbEntity
  8
0
100
AcDbLine
 62
7
  6
CONTINUOUS
 10
14.0337960153
 20
6.9911695021
 11
14.0337960153
 21
7.0661695021
  0
LINE
  5
3B4
100
AcDbEntity
  8
0
100
AcDbLine
 62
7
  6
CONTINUOUS
 10
14.0432659064
 20
7.0661695021
 11
14.0432659064
 21
6.9911695021
  0
LINE
  5
3B5
100
AcDbEntity
  8
0
100
AcDbLine
 62
7
  6
CONTINUOUS
 10
14.0626923427
 20
7.2661695021
 11
14.0626923427
 21
7.7911695021
  0
LINE
  5
3B6
100
AcDbEntity
  8
0
100
AcDbLine
 62
7
  6
CONTINUOUS
 10
14.0644791099
 20
6.9911695021
 11
14.0644791099
 21
7.0661695021
  0
LINE
  5
3B7
100
AcDbEntity
  8
0
100
AcDbLine
 62
7
  6
CONTINUOUS
 10
14.0742854692
 20
7.0661695021
 11
14.0742854692
 21
6.9911695021
  0
LINE
  5
3B8
100
AcDbEntity
  8
0
100
AcDbLine
 62
7
  6
CONTINUOUS
 10
14.0954857501
 20
6.9911695021
 11
14.0954857501
 21
7.0661695021
  0
LINE
  5
3B9
100
AcDbEntity
  8
0
100
AcDbLine
 62
7
  6
CONTINUOUS
 10
14.0962260802
 20
6.9911695021
 11
14.0962260802
 21
7.0661695021
  0
LINE
  5
3BA
100
AcDbEntity
  8
0
100
AcDbLine
 62
7
  6
CONTINUOUS
 10
14.1063569602
 20
7.0661695021
 11
14.1063569602
 21
6.9911695021
  0
LINE
  5
3BB
100
AcDbEntity
  8
0
100
AcDbLine
 62
7
  6
CONTINUOUS
 10
14.1275184894
 20
6.9911695021
 11
14.1275184894
 21
7.0661695021
  0
LINE
  5
3BC
100
AcDbEntity
  8
0
100
AcDbLine
 62
7
  6
CONTINUOUS
 10
14.1289982476
 20
6.9911695021
 11
14.1289982476
 21
7.0661695021
  0
LINE
  5
3BD
100
AcDbEntity
  8
0
100
AcDbLine
 62
7
  6
CONTINUOUS
 10
14.1394413054
 20
7.0661695021
 11
14.1394413054
 21
6.9911695021
  0
LINE
  5
3BE
100
AcDbEntity
  8
0
100
AcDbLine
 62
7
  6
CONTINUOUS
 10
14.1605383007
 20
6.9911695021
 11
14.1605383007
 21
7.0661695021
  0
LINE
  5
3BF
100
AcDbEntity
  8
0
100
AcDbLine
 62
7
  6
CONTINUOUS
 10
14.1627556842
 20
6.9911695021
 11
14.1627556842
 21
7.0661695021
  0
LINE
  5
3C0
100
AcDbEntity
  8
0
100
AcDbLine
 62
7
  6
CONTINUOUS
 10
14.1734981964
 20
7.0661695021
 11
14.1734981964
 21
6.9911695021
  0
LINE
  5
3C1
100
AcDbEntity
  8
0
100
AcDbLine
 62
7
  6
CONTINUOUS
 10
14.1876923427
 20
8.3161695021
 11
14.1876923427
 21
8.3661695021
  0
LINE
  5
3C2
100
AcDbEntity
  8
0
100
AcDbLine
 62
7
  6
CONTINUOUS
 10
14.1945049544
 20
6.9911695021
 11
14.1945049544
 21
7.0661695021
  0
LINE
  5
3C3
100
AcDbEntity
  8
0
100
AcDbLine
 62
7
  6
CONTINUOUS
 10
14.1974572618
 20
6.9911695021
 11
14.1974572618
 21
7.0661695021
  0
LINE
  5
3C4
100
AcDbEntity
  8
0
100
AcDbLine
 62
7
  6
CONTINUOUS
 10
14.2084861404
 20
7.0661695021
 11
14.2084861404
 21
6.9911695021
  0
LINE
  5
3C5
100
AcDbEntity
  8
0
100
AcDbLine
 62
7
  6
CONTINUOUS
 10
14.2293770676
 20
6.9911695021
 11
14.2293770676
 21
7.0661695021
  0
LINE
  5
3C6
100
AcDbEntity
  8
0
100
AcDbLine
 62
7
  6
CONTINUOUS
 10
14.2330607017
 20
6.9911695021
 11
14.2330607017
 21
7.0661695021
  0
LINE
  5
3C7
100
AcDbEntity
  8
0
100
AcDbLine
 62
7
  6
CONTINUOUS
 10
14.2443625097
 20
7.0661695021
 11
14.2443625097
 21
6.9911695021
  0
LINE
  5
3C8
100
AcDbEntity
  8
0
100
AcDbLine
 62
7
  6
CONTINUOUS
 10
14.2651121538
 20
6.9911695021
 11
14.2651121538
 21
7.0661695021
  0
LINE
  5
3C9
100
AcDbEntity
  8
0
100
AcDbLine
 62
7
  6
CONTINUOUS
 10
14.2695226268
 20
6.9911695021
 11
14.2695226268
 21
7.0661695021
  0
LINE
  5
3CA
100
AcDbEntity
  8
0
100
AcDbLine
 62
7
  6
CONTINUOUS
 10
14.2810835947
 20
7.0661695021
 11
14.2810835947
 21
6.9911695021
  0
LINE
  5
3CB
100
AcDbEntity
  8
0
100
AcDbLine
 62
7
  6
CONTINUOUS
 10
14.3016666753
 20
6.9911695021
 11
14.3016666753
 21
7.0661695021
  0
LINE
  5
3CC
100
AcDbEntity
  8
0
100
AcDbLine
 62
7
  6
CONTINUOUS
 10
14.3067986137
 20
6.9911695021
 11
14.3067986137
 21
7.0661695021
  0
LINE
  5
3CD
100
AcDbEntity
  8
0
100
AcDbLine
 62
7
  6
CONTINUOUS
 10
14.3186046563
 20
7.0661695021
 11
14.3186046563
 21
6.9911695021
  0
LINE
  5
3CE
100
AcDbEntity
  8
0
100
AcDbLine
 62
7
  6
CONTINUOUS
 10
14.3389960962
 20
6.9911695021
 11
14.3389960962
 21
7.0661695021
  0
LINE
  5
3CF
100
AcDbEntity
  8
0
100
AcDbLine
 62
7
  6
CONTINUOUS
 10
14.3448432475
 20
6.9911695021
 11
14.3448432475
 21
7.0661695021
  0
LINE
  5
3D0
100
AcDbEntity
  8
0
100
AcDbLine
 62
7
  6
CONTINUOUS
 10
14.3568799808
 20
7.0661695021
 11
14.3568799808
 21
6.9911695021
  0
LINE
  5
3D1
100
AcDbEntity
  8
0
100
AcDbLine
 62
7
  6
CONTINUOUS
 10
14.3770549362
 20
6.9911695021
 11
14.3770549362
 21
7.0661695021
  0
LINE
  5
3D2
100
AcDbEntity
  8
0
100
AcDbLine
 62
7
  6
CONTINUOUS
 10
14.3836101765
 20
6.9911695021
 11
14.3836101765
 21
7.0661695021
  0
LINE
  5
3D3
100
AcDbEntity
  8
0
100
AcDbLine
 62
7
  6
CONTINUOUS
 10
14.3958629358
 20
7.0661695021
 11
14.3958629358
 21
6.9911695021
  0
LINE
  5
3D4
100
AcDbEntity
  8
0
100
AcDbLine
 62
7
  6
CONTINUOUS
 10
14.4157968265
 20
6.9911695021
 11
14.4157968265
 21
7.0661695021
  0
LINE
  5
3D5
100
AcDbEntity
  8
0
100
AcDbLine
 62
7
  6
CONTINUOUS
 10
14.4230521694
 20
6.9911695021
 11
14.4230521694
 21
7.0661695021
  0
LINE
  5
3D6
100
AcDbEntity
  8
0
100
AcDbLine
 62
7
  6
CONTINUOUS
 10
15.352846448
 20
8.8462127768
 11
15.3638503385
 21
8.8551289034
  0
LINE
  5
3D7
100
AcDbEntity
  8
0
100
AcDbLine
 62
7
  6
CONTINUOUS
 10
14.4355060264
 20
7.0661695021
 11
14.4355060264
 21
6.9911695021
  0
LINE
  5
3D8
100
AcDbEntity
  8
0
100
AcDbLine
 62
7
  6
CONTINUOUS
 10
14.4551745661
 20
6.9911695021
 11
14.4551745661
 21
7.0661695021
  0
LINE
  5
3D9
100
AcDbEntity
  8
0
100
AcDbLine
 62
7
  6
CONTINUOUS
 10
14.463121172
 20
6.9911695021
 11
14.463121172
 21
7.0661695021
  0
LINE
  5
3DA
100
AcDbEntity
  8
0
100
AcDbLine
 62
7
  6
CONTINUOUS
 10
14.4757609537
 20
7.0661695021
 11
14.4757609537
 21
6.9911695021
  0
LINE
  5
3DB
100
AcDbEntity
  8
0
100
AcDbLine
 62
7
  6
CONTINUOUS
 10
14.4951401793
 20
6.9911695021
 11
14.4951401793
 21
7.0661695021
  0
LINE
  5
3DC
100
AcDbEntity
  8
0
100
AcDbLine
 62
7
  6
CONTINUOUS
 10
14.5037683665
 20
6.9911695021
 11
14.5037683665
 21
7.0661695021
  0
LINE
  5
3DD
100
AcDbEntity
  8
0
100
AcDbLine
 62
7
  6
CONTINUOUS
 10
14.5165786732
 20
7.0661695021
 11
14.5165786732
 21
6.9911695021
  0
LINE
  5
3DE
100
AcDbEntity
  8
0
100
AcDbLine
 62
7
  6
CONTINUOUS
 10
14.5356449742
 20
6.9911695021
 11
14.5356449742
 21
7.0661695021
  0
LINE
  5
3DF
100
AcDbEntity
  8
0
100
AcDbLine
 62
7
  6
CONTINUOUS
 10
14.5376923427
 20
9.2841695021
 11
14.5376923427
 21
8.8091695021
  0
LINE
  5
3E0
100
AcDbEntity
  8
0
100
AcDbLine
 62
7
  6
CONTINUOUS
 10
14.5376923427
 20
8.3661695021
 11
14.5376923427
 21
8.4661695021
  0
LINE
  5
3E1
100
AcDbEntity
  8
0
100
AcDbLine
 62
7
  6
CONTINUOUS
 10
14.5449442305
 20
6.9911695021
 11
14.5449442305
 21
7.0661695021
  0
LINE
  5
3E2
100
AcDbEntity
  8
0
100
AcDbLine
 62
7
  6
CONTINUOUS
 10
14.5579094549
 20
7.0661695021
 11
14.5579094549
 21
6.9911695021
  0
LINE
  5
3E3
100
AcDbEntity
  8
0
100
AcDbLine
 62
7
  6
CONTINUOUS
 10
14.5766396018
 20
6.9911695021
 11
14.5766396018
 21
7.0661695021
  0
LINE
  5
3E4
100
AcDbEntity
  8
0
100
AcDbLine
 62
7
  6
CONTINUOUS
 10
14.5865985976
 20
6.9911695021
 11
14.5865985976
 21
7.0661695021
  0
LINE
  5
3E5
100
AcDbEntity
  8
0
100
AcDbLine
 62
7
  6
CONTINUOUS
 10
14.5997029435
 20
7.0661695021
 11
14.5997029435
 21
6.9911695021
  0
LINE
  5
3E6
100
AcDbEntity
  8
0
100
AcDbLine
 62
7
  6
CONTINUOUS
 10
14.6180741166
 20
6.9911695021
 11
14.6180741166
 21
7.0661695021
  0
LINE
  5
3E7
100
AcDbEntity
  8
0
100
AcDbLine
 62
7
  6
CONTINUOUS
 10
14.6251923427
 20
8.7891695021
 11
14.6251923427
 21
8.4961695021
  0
LINE
  5
3E8
100
AcDbEntity
  8
0
100
AcDbLine
 62
7
  6
CONTINUOUS
 10
14.6286807183
 20
6.9911695021
 11
14.6286807183
 21
7.0661695021
  0
LINE
  5
3E9
100
AcDbEntity
  8
0
100
AcDbLine
 62
7
  6
CONTINUOUS
 10
14.6419082202
 20
7.0661695021
 11
14.6419082202
 21
6.9911695021
  0
LINE
  5
3EA
100
AcDbEntity
  8
0
100
AcDbLine
 62
7
  6
CONTINUOUS
 10
14.6598980369
 20
6.9911695021
 11
14.6598980369
 21
7.0661695021
  0
LINE
  5
3EB
100
AcDbEntity
  8
0
100
AcDbLine
 62
7
  6
CONTINUOUS
 10
14.6711393221
 20
6.9911695021
 11
14.6711393221
 21
7.0661695021
  0
LINE
  5
3EC
100
AcDbEntity
  8
0
100
AcDbLine
 62
7
  6
CONTINUOUS
 10
14.6751923427
 20
9.4091695021
 11
14.6751923427
 21
9.3791695021
  0
LINE
  5
3ED
100
AcDbEntity
  8
0
100
AcDbLine
 62
7
  6
CONTINUOUS
 10
14.6844738642
 20
7.0661695021
 11
14.6844738642
 21
6.9911695021
  0
LINE
  5
3EE
100
AcDbEntity
  8
0
100
AcDbLine
 62
7
  6
CONTINUOUS
 10
14.7020604069
 20
6.9911695021
 11
14.7020604069
 21
7.0661695021
  0
LINE
  5
3EF
100
AcDbEntity
  8
0
100
AcDbLine
 62
7
  6
CONTINUOUS
 10
14.7139226797
 20
6.9911695021
 11
14.7139226797
 21
7.0661695021
  0
LINE
  5
3F0
100
AcDbEntity
  8
0
100
AcDbLine
 62
7
  6
CONTINUOUS
 10
14.7273480159
 20
7.0661695021
 11
14.7273480159
 21
6.9911695021
  0
LINE
  5
3F1
100
AcDbEntity
  8
0
100
AcDbLine
 62
7
  6
CONTINUOUS
 10
14.7376923427
 20
8.4961695021
 11
14.7376923427
 21
8.4661695021
  0
LINE
  5
3F2
100
AcDbEntity
  8
0
100
AcDbLine
 62
7
  6
CONTINUOUS
 10
14.744509858
 20
6.9911695021
 11
14.744509858
 21
7.0661695021
  0
LINE
  5
3F3
100
AcDbEntity
  8
0
100
AcDbLine
 62
7
  6
CONTINUOUS
 10
14.7569786662
 20
6.9911695021
 11
14.7569786662
 21
7.0661695021
  0
LINE
  5
3F4
100
AcDbEntity
  8
0
100
AcDbLine
 62
7
  6
CONTINUOUS
 10
14.7704784398
 20
7.0661695021
 11
14.7704784398
 21
6.9911695021
  0
LINE
  5
3F5
100
AcDbEntity
  8
0
100
AcDbLine
 62
7
  6
CONTINUOUS
 10
14.7871946723
 20
6.9911695021
 11
14.7871946723
 21
7.0661695021
  0
LINE
  5
3F6
100
AcDbEntity
  8
0
100
AcDbLine
 62
7
  6
CONTINUOUS
 10
14.8002548244
 20
6.9911695021
 11
14.8002548244
 21
7.0661695021
  0
LINE
  5
3F7
100
AcDbEntity
  8
0
100
AcDbLine
 62
7
  6
CONTINUOUS
 10
14.8138125881
 20
7.0661695021
 11
14.8138125881
 21
6.9911695021
  0
LINE
  5
3F8
100
AcDbEntity
  8
0
100
AcDbLine
 62
7
  6
CONTINUOUS
 10
14.8300628447
 20
6.9911695021
 11
14.8300628447
 21
7.0661695021
  0
LINE
  5
3F9
100
AcDbEntity
  8
0
100
AcDbLine
 62
7
  6
CONTINUOUS
 10
14.8436984291
 20
6.9911695021
 11
14.8436984291
 21
7.0661695021
  0
LINE
  5
3FA
100
AcDbEntity
  8
0
100
AcDbLine
 62
7
  6
CONTINUOUS
 10
14.8572976648
 20
7.0661695021
 11
14.8572976648
 21
6.9911695021
  0
LINE
  5
3FB
100
AcDbEntity
  8
0
100
AcDbLine
 62
7
  6
CONTINUOUS
 10
14.8730621472
 20
6.9911695021
 11
14.8730621472
 21
7.0661695021
  0
LINE
  5
3FC
100
AcDbEntity
  8
0
100
AcDbLine
 62
7
  6
CONTINUOUS
 10
14.8872565509
 20
6.9911695021
 11
14.8872565509
 21
7.0661695021
  0
LINE
  5
3FD
100
AcDbEntity
  8
0
100
AcDbLine
 62
7
  6
CONTINUOUS
 10
14.90088069
 20
7.0661695021
 11
14.90088069
 21
6.9911695021
  0
LINE
  5
3FE
100
AcDbEntity
  8
0
100
AcDbLine
 62
7
  6
CONTINUOUS
 10
14.9161401916
 20
6.9911695021
 11
14.9161401916
 21
7.0661695021
  0
LINE
  5
3FF
100
AcDbEntity
  8
0
100
AcDbLine
 62
7
  6
CONTINUOUS
 10
15.3440583606
 20
8.8339921591
 11
15.352846448
 21
8.8462127768
  0
LINE
  5
400
100
AcDbEntity
  8
0
100
AcDbLine
 62
7
  6
CONTINUOUS
 10
13.6876923427
 20
6.7411695021
 11
13.7376923427
 21
6.7911695021
  0
LINE
  5
401
100
AcDbEntity
  8
0
100
AcDbLine
 62
7
  6
CONTINUOUS
 10
14.9308761209
 20
6.9911695021
 11
14.9308761209
 21
7.0661695021
  0
LINE
  5
402
100
AcDbEntity
  8
0
100
AcDbLine
 62
7
  6
CONTINUOUS
 10
14.9445085646
 20
7.0661695021
 11
14.9445085646
 21
6.9911695021
  0
LINE
  5
403
100
AcDbEntity
  8
0
100
AcDbLine
 62
7
  6
CONTINUOUS
 10
14.9592444939
 20
6.9911695021
 11
14.9592444939
 21
7.0661695021
  0
LINE
  5
404
100
AcDbEntity
  8
0
100
AcDbLine
 62
7
  6
CONTINUOUS
 10
14.9745039954
 20
6.9911695021
 11
14.9745039954
 21
7.0661695021
  0
LINE
  5
405
100
AcDbEntity
  8
0
100
AcDbLine
 62
7
  6
CONTINUOUS
 10
14.9881281346
 20
7.0661695021
 11
14.9881281346
 21
6.9911695021
  0
LINE
  5
406
100
AcDbEntity
  8
0
100
AcDbLine
 62
7
  6
CONTINUOUS
 10
15.0023225383
 20
6.9911695021
 11
15.0023225383
 21
7.0661695021
  0
LINE
  5
407
100
AcDbEntity
  8
0
100
AcDbLine
 62
7
  6
CONTINUOUS
 10
15.0180870207
 20
6.9911695021
 11
15.0180870207
 21
7.0661695021
  0
LINE
  5
408
100
AcDbEntity
  8
0
100
AcDbLine
 62
7
  6
CONTINUOUS
 10
15.0316862564
 20
7.0661695021
 11
15.0316862564
 21
6.9911695021
  0
LINE
  5
409
100
AcDbEntity
  8
0
100
AcDbLine
 62
7
  6
CONTINUOUS
 10
15.0453218407
 20
6.9911695021
 11
15.0453218407
 21
7.0661695021
  0
LINE
  5
40A
100
AcDbEntity
  8
0
100
AcDbLine
 62
7
  6
CONTINUOUS
 10
15.0615720973
 20
6.9911695021
 11
15.0615720973
 21
7.0661695021
  0
LINE
  5
40B
100
AcDbEntity
  8
0
100
AcDbLine
 62
7
  6
CONTINUOUS
 10
15.0751298611
 20
7.0661695021
 11
15.0751298611
 21
6.9911695021
  0
LINE
  5
40C
100
AcDbEntity
  8
0
100
AcDbLine
 62
7
  6
CONTINUOUS
 10
15.0881900132
 20
6.9911695021
 11
15.0881900132
 21
7.0661695021
  0
LINE
  5
40D
100
AcDbEntity
  8
0
100
AcDbLine
 62
7
  6
CONTINUOUS
 10
15.1049062456
 20
6.9911695021
 11
15.1049062456
 21
7.0661695021
  0
LINE
  5
40E
100
AcDbEntity
  8
0
100
AcDbLine
 62
7
  6
CONTINUOUS
 10
15.1184060193
 20
7.0661695021
 11
15.1184060193
 21
6.9911695021
  0
LINE
  5
40F
100
AcDbEntity
  8
0
100
AcDbLine
 62
7
  6
CONTINUOUS
 10
15.1308748275
 20
6.9911695021
 11
15.1308748275
 21
7.0661695021
  0
LINE
  5
410
100
AcDbEntity
  8
0
100
AcDbLine
 62
7
  6
CONTINUOUS
 10
15.1376923427
 20
8.4961695021
 11
15.1376923427
 21
8.4661695021
  0
LINE
  5
411
100
AcDbEntity
  8
0
100
AcDbLine
 62
7
  6
CONTINUOUS
 10
15.1480366695
 20
6.9911695021
 11
15.1480366695
 21
7.0661695021
  0
LINE
  5
412
100
AcDbEntity
  8
0
100
AcDbLine
 62
7
  6
CONTINUOUS
 10
15.1614620058
 20
7.0661695021
 11
15.1614620058
 21
6.9911695021
  0
LINE
  5
413
100
AcDbEntity
  8
0
100
AcDbLine
 62
7
  6
CONTINUOUS
 10
15.1733242786
 20
6.9911695021
 11
15.1733242786
 21
7.0661695021
  0
LINE
  5
414
100
AcDbEntity
  8
0
100
AcDbLine
 62
7
  6
CONTINUOUS
 10
15.1909108213
 20
6.9911695021
 11
15.1909108213
 21
7.0661695021
  0
LINE
  5
415
100
AcDbEntity
  8
0
100
AcDbLine
 62
7
  6
CONTINUOUS
 10
15.2001923427
 20
9.4091695021
 11
15.2001923427
 21
9.3791695021
  0
LINE
  5
416
100
AcDbEntity
  8
0
100
AcDbLine
 62
7
  6
CONTINUOUS
 10
15.2042453634
 20
7.0661695021
 11
15.2042453634
 21
6.9911695021
  0
LINE
  5
417
100
AcDbEntity
  8
0
100
AcDbLine
 62
7
  6
CONTINUOUS
 10
15.2154866485
 20
6.9911695021
 11
15.2154866485
 21
7.0661695021
  0
LINE
  5
418
100
AcDbEntity
  8
0
100
AcDbLine
 62
7
  6
CONTINUOUS
 10
15.2334764653
 20
6.9911695021
 11
15.2334764653
 21
7.0661695021
  0
LINE
  5
419
100
AcDbEntity
  8
0
100
AcDbLine
 62
7
  6
CONTINUOUS
 10
15.2467039672
 20
7.0661695021
 11
15.2467039672
 21
6.9911695021
  0
LINE
  5
41A
100
AcDbEntity
  8
0
100
AcDbLine
 62
7
  6
CONTINUOUS
 10
15.2501923427
 20
8.7891695021
 11
15.2501923427
 21
8.4961695021
  0
LINE
  5
41B
100
AcDbEntity
  8
0
100
AcDbLine
 62
7
  6
CONTINUOUS
 10
15.2573105689
 20
6.9911695021
 11
15.2573105689
 21
7.0661695021
  0
LINE
  5
41C
100
AcDbEntity
  8
0
100
AcDbLine
 62
9
  6
CONTINUOUS
 10
15.2609824653
 20
9.2630016726
 11
15.2609824653
 21
8.8249615903
  0
LINE
  5
41D
100
AcDbEntity
  8
0
100
AcDbLine
 62
7
  6
CONTINUOUS
 10
15.275681742
 20
6.9911695021
 11
15.275681742
 21
7.0661695021
  0
LINE
  5
41E
100
AcDbEntity
  8
0
100
AcDbLine
 62
7
  6
CONTINUOUS
 10
15.2887860879
 20
7.0661695021
 11
15.2887860879
 21
6.9911695021
  0
LINE
  5
41F
100
AcDbEntity
  8
0
100
AcDbLine
 62
7
  6
CONTINUOUS
 10
15.2987450837
 20
6.9911695021
 11
15.2987450837
 21
7.0661695021
  0
LINE
  5
420
100
AcDbEntity
  8
0
100
AcDbLine
 62
9
  6
CONTINUOUS
 10
15.3073637039
 20
8.9005013332
 11
15.3073637039
 21
9.1885409334
  0
LINE
  5
421
100
AcDbEntity
  8
0
100
AcDbLine
 62
7
  6
CONTINUOUS
 10
15.3174752306
 20
6.9911695021
 11
15.3174752306
 21
7.0661695021
  0
LINE
  5
422
100
AcDbEntity
  8
0
100
AcDbLine
 62
7
  6
CONTINUOUS
 10
15.330440455
 20
7.0661695021
 11
15.330440455
 21
6.9911695021
  0
LINE
  5
423
100
AcDbEntity
  8
0
100
AcDbLine
 62
7
  6
CONTINUOUS
 10
15.3376923427
 20
9.2841695021
 11
15.3376923427
 21
9.2819599872
  0
LINE
  5
424
100
AcDbEntity
  8
0
100
AcDbLine
 62
7
  6
CONTINUOUS
 10
15.3376923427
 20
8.3661695021
 11
15.3376923427
 21
8.4661695021
  0
LINE
  5
425
100
AcDbEntity
  8
0
100
AcDbLine
 62
7
  6
CONTINUOUS
 10
15.3397397113
 20
6.9911695021
 11
15.3397397113
 21
7.0661695021
  0
LINE
  5
426
100
AcDbEntity
  8
0
100
AcDbLine
 62
7
  6
CONTINUOUS
 10
15.3588060123
 20
6.9911695021
 11
15.3588060123
 21
7.0661695021
  0
LINE
  5
427
100
AcDbEntity
  8
0
100
AcDbLine
 62
7
  6
CONTINUOUS
 10
15.371616319
 20
7.0661695021
 11
15.371616319
 21
6.9911695021
  0
LINE
  5
428
100
AcDbEntity
  8
0
100
AcDbLine
 62
7
  6
CONTINUOUS
 10
15.3802445061
 20
6.9911695021
 11
15.3802445061
 21
7.0661695021
  0
LINE
  5
429
100
AcDbEntity
  8
0
100
AcDbLine
 62
7
  6
CONTINUOUS
 10
15.3996237318
 20
6.9911695021
 11
15.3996237318
 21
7.0661695021
  0
LINE
  5
42A
100
AcDbEntity
  8
0
100
AcDbLine
 62
7
  6
CONTINUOUS
 10
15.4122635135
 20
7.0661695021
 11
15.4122635135
 21
6.9911695021
  0
LINE
  5
42B
100
AcDbEntity
  8
0
100
AcDbLine
 62
7
  6
CONTINUOUS
 10
15.3376923604
 20
8.8091695021
 11
15.3387158248
 21
8.818886151
  0
LINE
  5
42C
100
AcDbEntity
  8
0
100
AcDbLine
 62
7
  6
CONTINUOUS
 10
15.3387158248
 20
8.818886151
 11
15.3440583606
 21
8.8339921591
  0
LINE
  5
42D
100
AcDbEntity
  8
0
100
AcDbLine
 62
7
  6
CONTINUOUS
 10
15.4202101194
 20
6.9911695021
 11
15.4202101194
 21
7.0661695021
  0
LINE
  5
42E
100
AcDbEntity
  8
0
100
AcDbLine
 62
7
  6
CONTINUOUS
 10
15.4398786591
 20
6.9911695021
 11
15.4398786591
 21
7.0661695021
  0
LINE
  5
42F
100
AcDbEntity
  8
0
100
AcDbLine
 62
7
  6
CONTINUOUS
 10
15.4523325161
 20
7.0661695021
 11
15.4523325161
 21
6.9911695021
  0
LINE
  5
430
100
AcDbEntity
  8
0
100
AcDbLine
 62
7
  6
CONTINUOUS
 10
15.459587859
 20
6.9911695021
 11
15.459587859
 21
7.0661695021
  0
LINE
  5
431
100
AcDbEntity
  8
0
100
AcDbLine
 62
7
  6
CONTINUOUS
 10
15.4795217497
 20
6.9911695021
 11
15.4795217497
 21
7.0661695021
  0
LINE
  5
432
100
AcDbEntity
  8
0
100
AcDbLine
 62
7
  6
CONTINUOUS
 10
15.4917745089
 20
7.0661695021
 11
15.4917745089
 21
6.9911695021
  0
LINE
  5
433
100
AcDbEntity
  8
0
100
AcDbLine
 62
7
  6
CONTINUOUS
 10
15.4983297493
 20
6.9911695021
 11
15.4983297493
 21
7.0661695021
  0
LINE
  5
434
100
AcDbEntity
  8
0
100
AcDbLine
 62
7
  6
CONTINUOUS
 10
15.5185047047
 20
6.9911695021
 11
15.5185047047
 21
7.0661695021
  0
LINE
  5
435
100
AcDbEntity
  8
0
100
AcDbLine
 62
7
  6
CONTINUOUS
 10
15.530541438
 20
7.0661695021
 11
15.530541438
 21
6.9911695021
  0
LINE
  5
436
100
AcDbEntity
  8
0
100
AcDbLine
 62
7
  6
CONTINUOUS
 10
15.5363885893
 20
6.9911695021
 11
15.5363885893
 21
7.0661695021
  0
LINE
  5
437
100
AcDbEntity
  8
0
100
AcDbLine
 62
7
  6
CONTINUOUS
 10
15.5567800292
 20
6.9911695021
 11
15.5567800292
 21
7.0661695021
  0
LINE
  5
438
100
AcDbEntity
  8
0
100
AcDbLine
 62
7
  6
CONTINUOUS
 10
15.5685860718
 20
7.0661695021
 11
15.5685860718
 21
6.9911695021
  0
LINE
  5
439
100
AcDbEntity
  8
0
100
AcDbLine
 62
7
  6
CONTINUOUS
 10
15.5737180102
 20
6.9911695021
 11
15.5737180102
 21
7.0661695021
  0
LINE
  5
43A
100
AcDbEntity
  8
0
100
AcDbLine
 62
7
  6
CONTINUOUS
 10
15.5943010908
 20
6.9911695021
 11
15.5943010908
 21
7.0661695021
  0
LINE
  5
43B
100
AcDbEntity
  8
0
100
AcDbLine
 62
7
  6
CONTINUOUS
 10
15.6058620587
 20
7.0661695021
 11
15.6058620587
 21
6.9911695021
  0
LINE
  5
43C
100
AcDbEntity
  8
0
100
AcDbLine
 62
7
  6
CONTINUOUS
 10
15.6102725317
 20
6.9911695021
 11
15.6102725317
 21
7.0661695021
  0
LINE
  5
43D
100
AcDbEntity
  8
0
100
AcDbLine
 62
7
  6
CONTINUOUS
 10
15.6310221757
 20
6.9911695021
 11
15.6310221757
 21
7.0661695021
  0
LINE
  5
43E
100
AcDbEntity
  8
0
100
AcDbLine
 62
7
  6
CONTINUOUS
 10
15.6423239838
 20
7.0661695021
 11
15.6423239838
 21
6.9911695021
  0
LINE
  5
43F
100
AcDbEntity
  8
0
100
AcDbLine
 62
7
  6
CONTINUOUS
 10
15.6460076179
 20
6.9911695021
 11
15.6460076179
 21
7.0661695021
  0
LINE
  5
440
100
AcDbEntity
  8
0
100
AcDbLine
 62
7
  6
CONTINUOUS
 10
15.6668985451
 20
6.9911695021
 11
15.6668985451
 21
7.0661695021
  0
LINE
  5
441
100
AcDbEntity
  8
0
100
AcDbLine
 62
7
  6
CONTINUOUS
 10
15.6779274237
 20
7.0661695021
 11
15.6779274237
 21
6.9911695021
  0
LINE
  5
442
100
AcDbEntity
  8
0
100
AcDbLine
 62
7
  6
CONTINUOUS
 10
15.680879731
 20
6.9911695021
 11
15.680879731
 21
7.0661695021
  0
LINE
  5
443
100
AcDbEntity
  8
0
100
AcDbLine
 62
7
  6
CONTINUOUS
 10
15.6876923427
 20
8.3161695021
 11
15.6876923427
 21
8.3661695021
  0
LINE
  5
444
100
AcDbEntity
  8
0
100
AcDbLine
 62
7
  6
CONTINUOUS
 10
15.701886489
 20
6.9911695021
 11
15.701886489
 21
7.0661695021
  0
LINE
  5
445
100
AcDbEntity
  8
0
100
AcDbLine
 62
7
  6
CONTINUOUS
 10
15.7126290013
 20
7.0661695021
 11
15.7126290013
 21
6.9911695021
  0
LINE
  5
446
100
AcDbEntity
  8
0
100
AcDbLine
 62
7
  6
CONTINUOUS
 10
15.7148463848
 20
6.9911695021
 11
15.7148463848
 21
7.0661695021
  0
LINE
  5
447
100
AcDbEntity
  8
0
100
AcDbLine
 62
7
  6
CONTINUOUS
 10
15.7359433801
 20
6.9911695021
 11
15.7359433801
 21
7.0661695021
  0
LINE
  5
448
100
AcDbEntity
  8
0
100
AcDbLine
 62
7
  6
CONTINUOUS
 10
15.7463864378
 20
7.0661695021
 11
15.7463864378
 21
6.9911695021
  0
LINE
  5
449
100
AcDbEntity
  8
0
100
AcDbLine
 62
7
  6
CONTINUOUS
 10
15.7478661961
 20
6.9911695021
 11
15.7478661961
 21
7.0661695021
  0
LINE
  5
44A
100
AcDbEntity
  8
0
100
AcDbLine
 62
7
  6
CONTINUOUS
 10
15.7690277252
 20
6.9911695021
 11
15.7690277252
 21
7.0661695021
  0
LINE
  5
44B
100
AcDbEntity
  8
0
100
AcDbLine
 62
7
  6
CONTINUOUS
 10
15.7791586052
 20
7.0661695021
 11
15.7791586052
 21
6.9911695021
  0
LINE
  5
44C
100
AcDbEntity
  8
0
100
AcDbLine
 62
7
  6
CONTINUOUS
 10
15.7798989354
 20
6.9911695021
 11
15.7798989354
 21
7.0661695021
  0
LINE
  5
44D
100
AcDbEntity
  8
0
100
AcDbLine
 62
7
  6
CONTINUOUS
 10
15.8010992163
 20
6.9911695021
 11
15.8010992163
 21
7.0661695021
  0
LINE
  5
44E
100
AcDbEntity
  8
0
100
AcDbLine
 62
7
  6
CONTINUOUS
 10
15.8109055756
 20
7.0661695021
 11
15.8109055756
 21
6.9911695021
  0
LINE
  5
44F
100
AcDbEntity
  8
0
100
AcDbLine
 62
7
  6
CONTINUOUS
 10
15.8126923427
 20
7.2661695021
 11
15.8126923427
 21
7.7911695021
  0
LINE
  5
450
100
AcDbEntity
  8
0
100
AcDbLine
 62
7
  6
CONTINUOUS
 10
15.832118779
 20
6.9911695021
 11
15.832118779
 21
7.0661695021
  0
LINE
  5
451
100
AcDbEntity
  8
0
100
AcDbLine
 62
7
  6
CONTINUOUS
 10
15.8415886702
 20
7.0661695021
 11
15.8415886702
 21
6.9911695021
  0
LINE
  5
452
100
AcDbEntity
  8
0
100
AcDbLine
 62
7
  6
CONTINUOUS
 10
15.862048621
 20
6.9911695021
 11
15.862048621
 21
7.0661695021
  0
LINE
  5
453
100
AcDbEntity
  8
0
100
AcDbLine
 62
7
  6
CONTINUOUS
 10
15.8711705063
 20
7.0661695021
 11
15.8711705063
 21
6.9911695021
  0
LINE
  5
454
100
AcDbEntity
  8
0
100
AcDbLine
 62
7
  6
CONTINUOUS
 10
15.8876923427
 20
7.8661695021
 11
15.8876923427
 21
7.9661695021
  0
LINE
  5
455
100
AcDbEntity
  8
0
100
AcDbLine
 62
7
  6
CONTINUOUS
 10
15.8876923427
 20
8.1661695021
 11
15.8876923427
 21
8.2161695021
  0
LINE
  5
456
100
AcDbEntity
  8
0
100
AcDbLine
 62
7
  6
CONTINUOUS
 10
15.8908522771
 20
6.9911695021
 11
15.8908522771
 21
7.0661695021
  0
LINE
  5
457
100
AcDbEntity
  8
0
100
AcDbLine
 62
7
  6
CONTINUOUS
 10
15.899615043
 20
7.0661695021
 11
15.899615043
 21
6.9911695021
  0
LINE
  5
458
100
AcDbEntity
  8
0
100
AcDbLine
 62
7
  6
CONTINUOUS
 10
15.8126923427
 20
7.7911695021
 11
15.8876923427
 21
7.8661695021
  0
LINE
  5
459
100
AcDbEntity
  8
0
100
AcDbLine
 62
7
  6
CONTINUOUS
 10
15.9184946548
 20
6.9911695021
 11
15.9184946548
 21
7.0661695021
  0
LINE
  5
45A
100
AcDbEntity
  8
0
100
AcDbLine
 62
7
  6
CONTINUOUS
 10
15.9268876252
 20
7.0661695021
 11
15.9268876252
 21
6.9911695021
  0
LINE
  5
45B
100
AcDbEntity
  8
0
100
AcDbLine
 62
7
  6
CONTINUOUS
 10
15.9449420759
 20
6.9911695021
 11
15.9449420759
 21
7.0661695021
  0
LINE
  5
45C
100
AcDbEntity
  8
0
100
AcDbLine
 62
7
  6
CONTINUOUS
 10
15.9529550252
 20
7.0661695021
 11
15.9529550252
 21
6.9911695021
  0
LINE
  5
45D
100
AcDbEntity
  8
0
100
AcDbLine
 62
7
  6
CONTINUOUS
 10
15.9626923427
 20
7.9661695021
 11
15.9626923427
 21
8.1661695021
  0
LINE
  5
45E
100
AcDbEntity
  8
0
100
AcDbLine
 62
7
  6
CONTINUOUS
 10
15.9701623183
 20
6.9911695021
 11
15.9701623183
 21
7.0661695021
  0
LINE
  5
45F
100
AcDbEntity
  8
0
100
AcDbLine
 62
7
  6
CONTINUOUS
 10
15.9777854841
 20
7.0661695021
 11
15.9777854841
 21
6.9911695021
  0
LINE
  5
460
100
AcDbEntity
  8
0
100
AcDbLine
 62
7
  6
CONTINUOUS
 10
15.9941246551
 20
6.9911695021
 11
15.9941246551
 21
7.0661695021
  0
LINE
  5
461
100
AcDbEntity
  8
0
100
AcDbLine
 62
7
  6
CONTINUOUS
 10
16.0013487497
 20
7.0661695021
 11
16.0013487497
 21
6.9911695021
  0
LINE
  5
462
100
AcDbEntity
  8
0
100
AcDbLine
 62
7
  6
CONTINUOUS
 10
16.0167998919
 20
6.9911695021
 11
16.0167998919
 21
7.0661695021
  0
LINE
  5
463
100
AcDbEntity
  8
0
100
AcDbLine
 62
7
  6
CONTINUOUS
 10
16.0236161138
 20
7.0661695021
 11
16.0236161138
 21
6.9911695021
  0
LINE
  5
464
100
AcDbEntity
  8
0
100
AcDbLine
 62
7
  6
CONTINUOUS
 10
16.0381604024
 20
6.9911695021
 11
16.0381604024
 21
7.0661695021
  0
LINE
  5
465
100
AcDbEntity
  8
0
100
AcDbLine
 62
7
  6
CONTINUOUS
 10
16.044560447
 20
7.0661695021
 11
16.044560447
 21
6.9911695021
  0
LINE
  5
466
100
AcDbEntity
  8
0
100
AcDbLine
 62
7
  6
CONTINUOUS
 10
16.058180162
 20
6.9911695021
 11
16.058180162
 21
7.0661695021
  0
LINE
  5
467
100
AcDbEntity
  8
0
100
AcDbLine
 62
7
  6
CONTINUOUS
 10
16.064156232
 20
7.0661695021
 11
16.064156232
 21
6.9911695021
  0
LINE
  5
468
100
AcDbEntity
  8
0
100
AcDbLine
 62
7
  6
CONTINUOUS
 10
16.0768347798
 20
6.9911695021
 11
16.0768347798
 21
7.0661695021
  0
LINE
  5
469
100
AcDbEntity
  8
0
100
AcDbLine
 62
7
  6
CONTINUOUS
 10
16.0823795942
 20
7.0661695021
 11
16.0823795942
 21
6.9911695021
  0
LINE
  5
46A
100
AcDbEntity
  8
0
100
AcDbLine
 62
7
  6
CONTINUOUS
 10
16.0941015281
 20
6.9911695021
 11
16.0941015281
 21
7.0661695021
  0
LINE
  5
46B
100
AcDbEntity
  8
0
100
AcDbLine
 62
7
  6
CONTINUOUS
 10
16.0992083314
 20
7.0661695021
 11
16.0992083314
 21
6.9911695021
  0
LINE
  5
46C
100
AcDbEntity
  8
0
100
AcDbLine
 62
7
  6
CONTINUOUS
 10
16.1099593698
 20
6.9911695021
 11
16.1099593698
 21
7.0661695021
  0
LINE
  5
46D
100
AcDbEntity
  8
0
100
AcDbLine
 62
7
  6
CONTINUOUS
 10
16.1146219402
 20
7.0661695021
 11
16.1146219402
 21
6.9911695021
  0
LINE
  5
46E
100
AcDbEntity
  8
0
100
AcDbLine
 62
7
  6
CONTINUOUS
 10
16.1243889848
 20
6.9911695021
 11
16.1243889848
 21
7.0661695021
  0
LINE
  5
46F
100
AcDbEntity
  8
0
100
AcDbLine
 62
7
  6
CONTINUOUS
 10
16.1286016416
 20
7.0661695021
 11
16.1286016416
 21
6.9911695021
  0
LINE
  5
470
100
AcDbEntity
  8
0
100
AcDbLine
 62
7
  6
CONTINUOUS
 10
16.1373727927
 20
6.9911695021
 11
16.1373727927
 21
7.0661695021
  0
LINE
  5
471
100
AcDbEntity
  8
0
100
AcDbLine
 62
7
  6
CONTINUOUS
 10
16.1376923427
 20
6.7911695021
 11
16.1376923427
 21
6.9911695021
  0
LINE
  5
472
100
AcDbEntity
  8
0
100
AcDbLine
 62
7
  6
CONTINUOUS
 10
16.1411304035
 20
7.0661695021
 11
16.1411304035
 21
6.9911695021
  0
LINE
  5
473
100
AcDbEntity
  8
0
100
AcDbLine
 62
7
  6
CONTINUOUS
 10
16.1488949748
 20
6.9911695021
 11
16.1488949748
 21
7.0661695021
  0
LINE
  5
474
100
AcDbEntity
  8
0
100
AcDbLine
 62
7
  6
CONTINUOUS
 10
16.1521929614
 20
7.0661695021
 11
16.1521929614
 21
6.9911695021
  0
LINE
  5
475
100
AcDbEntity
  8
0
100
AcDbLine
 62
7
  6
CONTINUOUS
 10
16.1589414931
 20
6.9911695021
 11
16.1589414931
 21
7.0661695021
  0
LINE
  5
476
100
AcDbEntity
  8
0
100
AcDbLine
 62
7
  6
CONTINUOUS
 10
16.1617758375
 20
7.0661695021
 11
16.1617758375
 21
6.9911695021
  0
LINE
  5
477
100
AcDbEntity
  8
0
100
AcDbLine
 62
7
  6
CONTINUOUS
 10
16.1675001074
 20
6.9911695021
 11
16.1675001074
 21
7.0661695021
  0
LINE
  5
478
100
AcDbEntity
  8
0
100
AcDbLine
 62
7
  6
CONTINUOUS
 10
16.1698673564
 20
7.0661695021
 11
16.1698673564
 21
6.9911695021
  0
LINE
  5
479
100
AcDbEntity
  8
0
100
AcDbLine
 62
7
  6
CONTINUOUS
 10
16.1745603903
 20
6.9911695021
 11
16.1745603903
 21
7.0661695021
  0
LINE
  5
47A
100
AcDbEntity
  8
0
100
AcDbLine
 62
7
  6
CONTINUOUS
 10
16.1764576598
 20
7.0661695021
 11
16.1764576598
 21
6.9911695021
  0
LINE
  5
47B
100
AcDbEntity
  8
0
100
AcDbLine
 62
7
  6
CONTINUOUS
 10
16.1801137401
 20
6.9911695021
 11
16.1801137401
 21
7.0661695021
  0
LINE
  5
47C
100
AcDbEntity
  8
0
100
AcDbLine
 62
7
  6
CONTINUOUS
 10
16.1815387185
 20
7.0661695021
 11
16.1815387185
 21
6.9911695021
  0
LINE
  5
47D
100
AcDbEntity
  8
0
100
AcDbLine
 62
7
  6
CONTINUOUS
 10
16.1841533907
 20
6.9911695021
 11
16.1841533907
 21
7.0661695021
  0
LINE
  5
47E
100
AcDbEntity
  8
0
100
AcDbLine
 62
7
  6
CONTINUOUS
 10
16.1851043419
 20
7.0661695021
 11
16.1851043419
 21
6.9911695021
  0
LINE
  5
47F
100
AcDbEntity
  8
0
100
AcDbLine
 62
7
  6
CONTINUOUS
 10
16.1866744206
 20
6.9911695021
 11
16.1866744206
 21
7.0661695021
  0
LINE
  5
480
100
AcDbEntity
  8
0
100
AcDbLine
 62
7
  6
CONTINUOUS
 10
16.1871501861
 20
7.0661695021
 11
16.1871501861
 21
6.9911695021
  0
LINE
  5
481
100
AcDbEntity
  8
0
100
AcDbLine
 62
7
  6
CONTINUOUS
 10
16.1876737582
 20
6.9911695021
 11
16.1876737582
 21
7.0661695021
  0
LINE
  5
482
100
AcDbEntity
  8
0
100
AcDbLine
 62
7
  6
CONTINUOUS
 10
16.1876923427
 20
6.5911695021
 11
16.1876923427
 21
6.7411695021
  0
LINE
  5
483
100
AcDbEntity
  8
0
100
AcDbLine
 62
9
  6
CONTINUOUS
 10
17.7476776795
 20
8.8515868557
 11
17.7475243095
 21
8.8691972487
  0
LINE
  5
484
100
AcDbEntity
  8
0
100
AcDbLine
 62
9
  6
CONTINUOUS
 10
17.7462897895
 20
9.2431668747
 11
17.7462896978
 21
8.9088481002
  0
LINE
  5
485
100
AcDbEntity
  8
0
100
AcDbLine
 62
7
  6
CONTINUOUS
 10
17.7876923427
 20
8.8915913374
 11
17.787691911
 21
9.26043221
  0
LINE
  5
486
100
AcDbEntity
  8
0
100
AcDbLine
 62
9
  6
CONTINUOUS
 10
17.7464842888
 20
9.2828000246
 11
17.7466278878
 21
9.3004180773
  0
ARC
  5
487
100
AcDbEntity
  8
0
100
AcDbCircle
 62
7
  6
CONTINUOUS
 10
10.9076403427
 20
5.553753703
 40
6.3904157991
100
AcDbArc
 50
81.821031102
 51
98.178968898
  0
ARC
  5
488
100
AcDbEntity
  8
0
100
AcDbCircle
 62
9
  6
CONTINUOUS
 10
6.9927101495
 20
6.3675221911
 40
2.54738984
100
AcDbArc
 50
100.6781494563
 51
101.457585955
  0
ARC
  5
489
100
AcDbEntity
  8
0
100
AcDbCircle
 62
9
  6
CONTINUOUS
 10
6.9880524053
 20
6.9203676784
 40
1.9408999061
100
AcDbArc
 50
101.0995159732
 51
103.3051214689
  0
ARC
  5
48A
100
AcDbEntity
  8
0
100
AcDbCircle
 62
7
  6
CONTINUOUS
 10
10.5836203347
 20
6.9616374993
 40
1.3
100
AcDbArc
 50
357.7751307226
 51
37.4382101819
  0
ARC
  5
48B
100
AcDbEntity
  8
0
100
AcDbCircle
 62
7
  6
CONTINUOUS
 10
10.8464719365
 20
6.4082744624
 40
0.9
100
AcDbArc
 50
11.7251268757
 51
49.3560828237
  0
ARC
  5
48C
100
AcDbEntity
  8
0
100
AcDbCircle
 62
7
  6
CONTINUOUS
 10
10.8751923427
 20
7.1711695021
 40
0.4
100
AcDbArc
 50
155.7790568907
 51
180.0
  0
ARC
  5
48D
100
AcDbEntity
  8
0
100
AcDbCircle
 62
7
  6
CONTINUOUS
 10
10.0009457979
 20
7.9038910159
 40
0.25
100
AcDbArc
 50
322.5617898181
 51
357.849587733
  0
ARC
  5
48E
100
AcDbEntity
  8
0
100
AcDbCircle
 62
7
  6
CONTINUOUS
 10
7.8876923427
 20
8.3161695021
 40
0.1
100
AcDbArc
 50
180.0
 51
270.0
  0
ARC
  5
48F
100
AcDbEntity
  8
0
100
AcDbCircle
 62
7
  6
CONTINUOUS
 10
5.9876923427
 20
8.3161695021
 40
0.1
100
AcDbArc
 50
270.0
 51
360.0
  0
ARC
  5
490
100
AcDbEntity
  8
0
100
AcDbCircle
 62
7
  6
CONTINUOUS
 10
7.9626923427
 20
7.2661695021
 40
0.1
100
AcDbArc
 50
180.0
 51
270.0
  0
ARC
  5
491
100
AcDbEntity
  8
0
100
AcDbCircle
 62
7
  6
CONTINUOUS
 10
5.9126923427
 20
7.2661695021
 40
0.1
100
AcDbArc
 50
270.0
 51
360.0
  0
ARC
  5
492
100
AcDbEntity
  8
0
100
AcDbCircle
 62
7
  6
CONTINUOUS
 10
8.1126923427
 20
7.1661695021
 40
0.1
100
AcDbArc
 50
180.0
 51
265.8016412496
  0
ARC
  5
493
100
AcDbEntity
  8
0
100
AcDbCircle
 62
7
  6
CONTINUOUS
 10
5.7626923427
 20
7.1661695021
 40
0.1
100
AcDbArc
 50
274.1983587504
 51
360.0
  0
ARC
  5
494
100
AcDbEntity
  8
0
100
AcDbCircle
 62
7
  6
CONTINUOUS
 10
9.9811652848
 20
6.8401369698
 40
0.0860249421
100
AcDbArc
 50
124.338423378
 51
180.0
  0
ARC
  5
495
100
AcDbEntity
  8
0
100
AcDbCircle
 62
7
  6
CONTINUOUS
 10
10.5501923427
 20
7.5411695021
 40
0.075
100
AcDbArc
 50
270.0
 51
360.0
  0
ARC
  5
496
100
AcDbEntity
  8
0
100
AcDbCircle
 62
7
  6
CONTINUOUS
 10
10.5195239579
 20
7.3311695021
 40
0.01
100
AcDbArc
 50
90.0
 51
155.7790568908
  0
ARC
  5
497
100
AcDbEntity
  8
0
100
AcDbCircle
 62
7
  6
CONTINUOUS
 10
7.7463074716
 20
9.2187570077
 40
2.7892914209
100
AcDbArc
 50
38.880829516
 51
41.2856606205
  0
ARC
  5
498
100
AcDbEntity
  8
0
100
AcDbCircle
 62
9
  6
CONTINUOUS
 10
7.0665799347
 20
11.2588280898
 40
2.0464094614
100
AcDbArc
 50
255.3111609529
 51
257.2344888415
  0
ARC
  5
499
100
AcDbEntity
  8
0
100
AcDbCircle
 62
9
  6
CONTINUOUS
 10
6.9482200405
 20
10.8075680716
 40
1.5798839042
100
AcDbArc
 50
255.1230002882
 51
255.3135461893
  0
ARC
  5
49A
100
AcDbEntity
  8
0
100
AcDbCircle
 62
7
  6
CONTINUOUS
 10
9.9801403427
 20
11.6691695021
 40
0.15
100
AcDbArc
 50
90.0
 51
114.6243183522
  0
ARC
  5
49B
100
AcDbEntity
  8
0
100
AcDbCircle
 62
7
  6
CONTINUOUS
 10
10.2976403427
 20
10.1340026499
 40
0.15
100
AcDbArc
 50
180.0
 51
209.9264348665
  0
ARC
  5
49C
100
AcDbEntity
  8
0
100
AcDbCircle
 62
7
  6
CONTINUOUS
 10
10.0476403427
 20
10.693430271
 40
0.1
100
AcDbArc
 50
0.0
 51
44.3312080467
  0
ARC
  5
49D
100
AcDbEntity
  8
0
100
AcDbCircle
 62
7
  6
CONTINUOUS
 10
6.5501923427
 20
9.3591695021
 40
0.075
100
AcDbArc
 50
270.0
 51
360.0
  0
ARC
  5
49E
100
AcDbEntity
  8
0
100
AcDbCircle
 62
7
  6
CONTINUOUS
 10
7.3251923427
 20
9.3591695021
 40
0.075
100
AcDbArc
 50
180.0
 51
270.0
  0
ARC
  5
49F
100
AcDbEntity
  8
0
100
AcDbCircle
 62
7
  6
CONTINUOUS
 10
6.4819340014
 20
8.8078143144
 40
0.0558873056
100
AcDbArc
 50
32.8239427036
 51
39.6151193728
  0
ARC
  5
4A0
100
AcDbEntity
  8
0
100
AcDbCircle
 62
7
  6
CONTINUOUS
 10
6.4822504114
 20
8.8075399721
 40
0.0558607872
100
AcDbArc
 50
50.7032929382
 51
56.2329365664
  0
ARC
  5
4A1
100
AcDbEntity
  8
0
100
AcDbCircle
 62
7
  6
CONTINUOUS
 10
6.4820161031
 20
8.8078329155
 40
0.0558082368
100
AcDbArc
 50
23.1860534721
 51
32.8535850662
  0
ARC
  5
4A2
100
AcDbEntity
  8
0
100
AcDbCircle
 62
7
  6
CONTINUOUS
 10
6.482629718
 20
8.8078564489
 40
0.0554389722
100
AcDbArc
 50
72.4171149072
 51
85.9982044928
  0
ARC
  5
4A3
100
AcDbEntity
  8
0
100
AcDbCircle
 62
7
  6
CONTINUOUS
 10
6.4822918587
 20
8.8082330353
 40
0.0554083848
100
AcDbArc
 50
0.9684124596
 51
15.1263413025
  0
ARC
  5
4A4
100
AcDbEntity
  8
0
100
AcDbCircle
 62
7
  6
CONTINUOUS
 10
6.4826661615
 20
9.2819872659
 40
0.0550276506
100
AcDbArc
 50
268.3209657189
 51
359.9714093636
  0
ARC
  5
4A5
100
AcDbEntity
  8
0
100
AcDbCircle
 62
7
  6
CONTINUOUS
 10
6.4826918035
 20
8.8089053648
 40
0.054388282
100
AcDbArc
 50
85.986334821
 51
90.1977225007
  0
ARC
  5
4A6
100
AcDbEntity
  8
0
100
AcDbCircle
 62
7
  6
CONTINUOUS
 10
6.483743808
 20
8.8086536496
 40
0.0538969897
100
AcDbArc
 50
15.0974712577
 51
23.1071576617
  0
ARC
  5
4A7
100
AcDbEntity
  8
0
100
AcDbCircle
 62
7
  6
CONTINUOUS
 10
6.4837950075
 20
8.8094035421
 40
0.0534403671
100
AcDbArc
 50
39.5747796027
 51
50.7194395297
  0
ARC
  5
4A8
100
AcDbEntity
  8
0
100
AcDbCircle
 62
7
  6
CONTINUOUS
 10
4.127692808
 20
8.8915868754
 40
0.0400000223
100
AcDbArc
 50
180.0
 51
270.0203370907
  0
ARC
  5
4A9
100
AcDbEntity
  8
0
100
AcDbCircle
 62
7
  6
CONTINUOUS
 10
4.1276927956
 20
9.26043221
 40
0.040000021
100
AcDbArc
 50
88.4757502233
 51
180.0
  0
ARC
  5
4AA
100
AcDbEntity
  8
0
100
AcDbCircle
 62
9
  6
CONTINUOUS
 10
4.1272135239
 20
9.2431412701
 40
0.0395216041
100
AcDbArc
 50
161.6240163338
 51
179.955322452
  0
ARC
  5
4AB
100
AcDbEntity
  8
0
100
AcDbCircle
 62
9
  6
CONTINUOUS
 10
4.1272064387
 20
8.9088724247
 40
0.0395141069
100
AcDbArc
 50
180.0427064756
 51
198.0637194452
  0
ARC
  5
4AC
100
AcDbEntity
  8
0
100
AcDbCircle
 62
7
  6
CONTINUOUS
 10
10.0027936949
 20
11.8493228543
 40
0.0301533521
100
AcDbArc
 50
98.1789688981
 51
270.0
  0
ARC
  5
4AD
100
AcDbEntity
  8
0
100
AcDbCircle
 62
7
  6
CONTINUOUS
 10
7.2201923427
 20
9.3791695021
 40
0.02
100
AcDbArc
 50
180.0
 51
270.0
  0
ARC
  5
4AE
100
AcDbEntity
  8
0
100
AcDbCircle
 62
7
  6
CONTINUOUS
 10
6.6551923427
 20
9.3791695021
 40
0.02
100
AcDbArc
 50
270.0
 51
360.0
  0
ARC
  5
4AF
100
AcDbEntity
  8
0
100
AcDbCircle
 62
7
  6
CONTINUOUS
 10
7.2701923427
 20
8.7891695021
 40
0.02
100
AcDbArc
 50
90.0
 51
180.0
  0
ARC
  5
4B0
100
AcDbEntity
  8
0
100
AcDbCircle
 62
7
  6
CONTINUOUS
 10
6.6051923427
 20
8.7891695021
 40
0.02
100
AcDbArc
 50
0.0
 51
90.0
  0
ARC
  5
4B1
100
AcDbEntity
  8
0
100
AcDbCircle
 62
9
  6
CONTINUOUS
 10
14.88502763
 20
6.3797392011
 40
2.5349483404
100
AcDbArc
 50
78.5397430341
 51
79.3229540947
  0
ARC
  5
4B2
100
AcDbEntity
  8
0
100
AcDbCircle
 62
9
  6
CONTINUOUS
 10
14.8873451113
 20
6.9204267011
 40
1.9408394918
100
AcDbArc
 50
76.6948448089
 51
78.90051251
  0
ARC
  5
4B3
100
AcDbEntity
  8
0
100
AcDbCircle
 62
7
  6
CONTINUOUS
 10
11.2316603508
 20
6.9616374993
 40
1.3
100
AcDbArc
 50
142.5617898182
 51
182.2248692774
  0
ARC
  5
4B4
100
AcDbEntity
  8
0
100
AcDbCircle
 62
7
  6
CONTINUOUS
 10
11.028912749
 20
6.4082744624
 40
0.9
100
AcDbArc
 50
130.6439171763
 51
168.2748731243
  0
ARC
  5
4B5
100
AcDbEntity
  8
0
100
AcDbCircle
 62
7
  6
CONTINUOUS
 10
11.0001923427
 20
7.1711695021
 40
0.4
100
AcDbArc
 50
0.0
 51
24.2209431093
  0
ARC
  5
4B6
100
AcDbEntity
  8
0
100
AcDbCircle
 62
7
  6
CONTINUOUS
 10
11.8143348875
 20
7.9038910159
 40
0.25
100
AcDbArc
 50
182.150412267
 51
217.4382101819
  0
ARC
  5
4B7
100
AcDbEntity
  8
0
100
AcDbCircle
 62
7
  6
CONTINUOUS
 10
13.9876923427
 20
8.3161695021
 40
0.1
100
AcDbArc
 50
270.0
 51
360.0
  0
ARC
  5
4B8
100
AcDbEntity
  8
0
100
AcDbCircle
 62
7
  6
CONTINUOUS
 10
15.8876923427
 20
8.3161695021
 40
0.1
100
AcDbArc
 50
180.0
 51
270.0
  0
ARC
  5
4B9
100
AcDbEntity
  8
0
100
AcDbCircle
 62
7
  6
CONTINUOUS
 10
13.9126923427
 20
7.2661695021
 40
0.1
100
AcDbArc
 50
270.0
 51
360.0
  0
ARC
  5
4BA
100
AcDbEntity
  8
0
100
AcDbCircle
 62
7
  6
CONTINUOUS
 10
15.9626923427
 20
7.2661695021
 40
0.1
100
AcDbArc
 50
180.0
 51
270.0
  0
ARC
  5
4BB
100
AcDbEntity
  8
0
100
AcDbCircle
 62
7
  6
CONTINUOUS
 10
13.7626923427
 20
7.1661695021
 40
0.1
100
AcDbArc
 50
274.1983587504
 51
360.0
  0
ARC
  5
4BC
100
AcDbEntity
  8
0
100
AcDbCircle
 62
7
  6
CONTINUOUS
 10
16.1126923427
 20
7.1661695021
 40
0.1
100
AcDbArc
 50
180.0
 51
265.8016412496
  0
ARC
  5
4BD
100
AcDbEntity
  8
0
100
AcDbCircle
 62
7
  6
CONTINUOUS
 10
11.8341154007
 20
6.8401369698
 40
0.0860249421
100
AcDbArc
 50
0.0
 51
55.661576622
  0
ARC
  5
4BE
100
AcDbEntity
  8
0
100
AcDbCircle
 62
7
  6
CONTINUOUS
 10
11.3251923427
 20
7.5411695021
 40
0.075
100
AcDbArc
 50
180.0
 51
270.0
  0
ARC
  5
4BF
100
AcDbEntity
  8
0
100
AcDbCircle
 62
7
  6
CONTINUOUS
 10
11.3558607276
 20
7.3311695021
 40
0.01
100
AcDbArc
 50
24.2209431092
 51
90.0
  0
ARC
  5
4C0
100
AcDbEntity
  8
0
100
AcDbCircle
 62
7
  6
CONTINUOUS
 10
14.0689745889
 20
9.2187558505
 40
2.7892932177
100
AcDbArc
 50
138.7143401541
 51
141.1191697093
  0
ARC
  5
4C1
100
AcDbEntity
  8
0
100
AcDbCircle
 62
9
  6
CONTINUOUS
 10
14.8194127093
 20
11.2152339012
 40
2.0015473926
100
AcDbArc
 50
282.7451038023
 51
284.7115438052
  0
ARC
  5
4C2
100
AcDbEntity
  8
0
100
AcDbCircle
 62
9
  6
CONTINUOUS
 10
14.9492886324
 20
10.7237340993
 40
1.4931799179
100
AcDbArc
 50
284.6808315994
 51
284.8824998871
  0
ARC
  5
4C3
100
AcDbEntity
  8
0
100
AcDbCircle
 62
7
  6
CONTINUOUS
 10
11.8351403427
 20
11.6691695021
 40
0.15
100
AcDbArc
 50
65.3756816478
 51
90.0
  0
ARC
  5
4C4
100
AcDbEntity
  8
0
100
AcDbCircle
 62
7
  6
CONTINUOUS
 10
11.5176403427
 20
10.1340026499
 40
0.15
100
AcDbArc
 50
330.0735651335
 51
360.0
  0
ARC
  5
4C5
100
AcDbEntity
  8
0
100
AcDbCircle
 62
7
  6
CONTINUOUS
 10
11.7676403427
 20
10.693430271
 40
0.1
100
AcDbArc
 50
135.6687919533
 51
180.0
  0
ARC
  5
4C6
100
AcDbEntity
  8
0
100
AcDbCircle
 62
7
  6
CONTINUOUS
 10
15.3251923427
 20
9.3591695021
 40
0.075
100
AcDbArc
 50
180.0
 51
270.0
  0
ARC
  5
4C7
100
AcDbEntity
  8
0
100
AcDbCircle
 62
7
  6
CONTINUOUS
 10
14.5501923427
 20
9.3591695021
 40
0.075
100
AcDbArc
 50
270.0
 51
360.0
  0
ARC
  5
4C8
100
AcDbEntity
  8
0
100
AcDbCircle
 62
7
  6
CONTINUOUS
 10
15.393450684
 20
8.8078143144
 40
0.0558873056
100
AcDbArc
 50
140.3848805688
 51
147.1760572769
  0
ARC
  5
4C9
100
AcDbEntity
  8
0
100
AcDbCircle
 62
7
  6
CONTINUOUS
 10
15.393134274
 20
8.8075399721
 40
0.0558607871
100
AcDbArc
 50
123.7670633613
 51
129.2967070752
  0
ARC
  5
4CA
100
AcDbEntity
  8
0
100
AcDbCircle
 62
7
  6
CONTINUOUS
 10
15.3933685824
 20
8.8078329155
 40
0.0558082368
100
AcDbArc
 50
147.1464149143
 51
156.8139464776
  0
ARC
  5
4CB
100
AcDbEntity
  8
0
100
AcDbCircle
 62
7
  6
CONTINUOUS
 10
15.3927549676
 20
8.8078564504
 40
0.0554389708
100
AcDbArc
 50
94.0043658358
 51
107.5828855824
  0
ARC
  5
4CC
100
AcDbEntity
  8
0
100
AcDbCircle
 62
7
  6
CONTINUOUS
 10
15.3930928268
 20
8.8082330353
 40
0.0554083848
100
AcDbArc
 50
164.873658687
 51
179.0315875394
  0
ARC
  5
4CD
100
AcDbEntity
  8
0
100
AcDbCircle
 62
7
  6
CONTINUOUS
 10
15.3927185239
 20
9.2819872659
 40
0.0550276506
100
AcDbArc
 50
180.0285906217
 51
271.6790342959
  0
ARC
  5
4CE
100
AcDbEntity
  8
0
100
AcDbCircle
 62
7
  6
CONTINUOUS
 10
15.3926928865
 20
8.8089049807
 40
0.0543886661
100
AcDbArc
 50
89.8022835533
 51
94.0162613476
  0
ARC
  5
4CF
100
AcDbEntity
  8
0
100
AcDbCircle
 62
7
  6
CONTINUOUS
 10
15.3916408775
 20
8.8086536496
 40
0.0538969897
100
AcDbArc
 50
156.8928422876
 51
164.9025287321
  0
ARC
  5
4D0
100
AcDbEntity
  8
0
100
AcDbCircle
 62
7
  6
CONTINUOUS
 10
15.3915896779
 20
8.8094035421
 40
0.0534403671
100
AcDbArc
 50
129.280560486
 51
140.425220339
  0
ARC
  5
4D1
100
AcDbEntity
  8
0
100
AcDbCircle
 62
7
  6
CONTINUOUS
 10
17.7476918775
 20
8.8915868754
 40
0.0400000223
100
AcDbArc
 50
269.9796629093
 51
360.0
  0
ARC
  5
4D2
100
AcDbEntity
  8
0
100
AcDbCircle
 62
7
  6
CONTINUOUS
 10
17.7476918899
 20
9.26043221
 40
0.040000021
100
AcDbArc
 50
0.0
 51
91.5242497767
  0
ARC
  5
4D3
100
AcDbEntity
  8
0
100
AcDbCircle
 62
9
  6
CONTINUOUS
 10
17.7481716649
 20
9.2431412794
 40
0.0395206896
100
AcDbArc
 50
0.044252998
 51
18.3507523962
  0
ARC
  5
4D4
100
AcDbEntity
  8
0
100
AcDbCircle
 62
9
  6
CONTINUOUS
 10
17.7481779489
 20
8.9088723995
 40
0.0395148298
100
AcDbArc
 50
341.917977022
 51
359.95791905
  0
ARC
  5
4D5
100
AcDbEntity
  8
0
100
AcDbCircle
 62
7
  6
CONTINUOUS
 10
11.8124869906
 20
11.8493228543
 40
0.0301533521
100
AcDbArc
 50
270.0
 51
81.8210311019
  0
ARC
  5
4D6
100
AcDbEntity
  8
0
100
AcDbCircle
 62
7
  6
CONTINUOUS
 10
14.6551923427
 20
9.3791695021
 40
0.02
100
AcDbArc
 50
270.0
 51
360.0
  0
ARC
  5
4D7
100
AcDbEntity
  8
0
100
AcDbCircle
 62
7
  6
CONTINUOUS
 10
15.2201923427
 20
9.3791695021
 40
0.02
100
AcDbArc
 50
180.0
 51
270.0
  0
ARC
  5
4D8
100
AcDbEntity
  8
0
100
AcDbCircle
 62
7
  6
CONTINUOUS
 10
14.6051923427
 20
8.7891695021
 40
0.02
100
AcDbArc
 50
0.0
 51
90.0
  0
ARC
  5
4D9
100
AcDbEntity
  8
0
100
AcDbCircle
 62
7
  6
CONTINUOUS
 10
15.2701923427
 20
8.7891695021
 40
0.02
100
AcDbArc
 50
90.0
 51
180.0
  0
SPLINE
  5
4DA
100
AcDbEntity
  8
0
100
AcDbSpline
 62
7
  6
CONTINUOUS
 70
0
 71
3
 72
11
 73
7
 74
0
 42
0.0000001
 43
0.0000001
 44
0.0000000001
 40
0.0
 40
0.0
 40
0.0
 40
0.0
 40
0.2326544343
 40
0.4802808574
 40
0.7379516124
 40
1.0
 40
1.0
 40
1.0
 40
1.0
 10
11.5461685814
 20
11.7356950878
 30
0.0
 10
11.5461678576
 20
11.7305354541
 30
0.0
 10
11.5463073244
 20
11.7198843963
 30
0.0
 10
11.546656294
 20
11.7035225544
 30
0.0
 10
11.5469299781
 20
11.686506979
 30
0.0
 10
11.5470093863
 20
11.6749810128
 30
0.0
 10
11.5470093863
 20
11.6691695021
 30
0.0
  0
SPLINE
  5
4DB
100
AcDbEntity
  8
0
100
AcDbSpline
 62
7
  6
CONTINUOUS
 70
0
 71
3
 72
11
 73
7
 74
0
 42
0.0000001
 43
0.0000001
 44
0.0000000001
 40
0.0
 40
0.0
 40
0.0
 40
0.0
 40
0.2620304958
 40
0.5197018232
 40
0.7673427158
 40
1.0
 40
1.0
 40
1.0
 40
1.0
 10
10.2682712992
 20
11.6691695021
 30
0.0
 10
10.2682712992
 20
11.6749806319
 30
0.0
 10
10.2683509264
 20
11.6865062433
 30
0.0
 10
10.268624309
 20
11.7035218073
 30
0.0
 10
10.2689735618
 20
11.7198840819
 30
0.0
 10
10.2691133234
 20
11.7305355563
 30
0.0
 10
10.2691122277
 20
11.7356952673
 30
0.0
  0
SPLINE
  5
4DC
100
AcDbEntity
  8
0
100
AcDbSpline
 62
7
  6
CONTINUOUS
 70
0
 71
3
 72
17
 73
13
 74
0
 42
0.0000001
 43
0.0000001
 44
0.0000000001
 40
0.0
 40
0.0
 40
0.0
 40
0.0
 40
0.098499791
 40
0.1965007716
 40
0.2930557988
 40
0.3873023199
 40
0.4782814775
 40
0.5647881672
 40
0.6455569091
 40
0.719425745
 40
0.9304063414
 40
1.0
 40
1.0
 40
1.0
 40
1.0
 10
9.8422627386
 20
11.6691695021
 30
0.0
 10
9.8422627386
 20
11.6745212904
 30
0.0
 10
9.8427830115
 20
11.6852044048
 30
0.0
 10
9.8450633203
 20
11.7009862966
 30
0.0
 10
9.8487947858
 20
11.7162523346
 30
0.0
 10
9.8538076946
 20
11.7307418652
 30
0.0
 10
9.8599199523
 20
11.7442039511
 30
0.0
 10
9.8668381897
 20
11.7564318096
 30
0.0
 10
9.8742731375
 20
11.7672423363
 30
0.0
 10
9.8868240664
 20
11.7826488888
 30
0.0
 10
9.9013534951
 20
11.7956659788
 30
0.0
 10
9.9143362673
 20
11.8036932543
 30
0.0
 10
9.9176403427
 20
11.8055284036
 30
0.0
  0
SPLINE
  5
4DD
100
AcDbEntity
  8
0
100
AcDbSpline
 62
7
  6
CONTINUOUS
 70
0
 71
3
 72
23
 73
19
 74
0
 42
0.0000001
 43
0.0000001
 44
0.0000000001
 40
0.0
 40
0.0
 40
0.0
 40
0.0
 40
0.0043115697
 40
0.0172907338
 40
0.0390137303
 40
0.0695627328
 40
0.1090684003
 40
0.1576205893
 40
0.2149925254
 40
0.2809826199
 40
0.3548347196
 40
0.4355570085
 40
0.5220501876
 40
0.6129699947
 40
0.7071697789
 40
0.8036797008
 40
0.9016065435
 40
1.0
 40
1.0
 40
1.0
 40
1.0
 10
11.8976403427
 20
11.8055284036
 30
0.0
 10
11.8978465058
 20
11.8054168757
 30
0.0
 10
11.898670082
 20
11.8049638479
 30
0.0
 10
11.9005041769
 20
11.8038984333
 30
0.0
 10
11.9035391073
 20
11.8020618035
 30
0.0
 10
11.9077201809
 20
11.7993369018
 30
0.0
 10
11.9129539317
 20
11.7955668277
 30
0.0
 10
11.9191245637
 20
11.7906178
 30
0.0
 10
11.9260332382
 20
11.7843133882
 30
0.0
 10
11.9334263276
 20
11.7765362443
 30
0.0
 10
11.941016616
 20
11.7672381543
 30
0.0
 10
11.9484432353
 20
11.7564214275
 30
0.0
 10
11.9553645999
 20
11.7441939229
 30
0.0
 10
11.9614780568
 20
11.7307309848
 30
0.0
 10
11.9664877216
 20
11.7162405415
 30
0.0
 10
11.9702195919
 20
11.7009754599
 30
0.0
 10
11.9724970147
 20
11.6851971081
 30
0.0
 10
11.9730179469
 20
11.6745183129
 30
0.0
 10
11.9730179469
 20
11.6691695021
 30
0.0
  0
SPLINE
  5
4DE
100
AcDbEntity
  8
0
100
AcDbSpline
 62
7
  6
CONTINUOUS
 70
0
 71
3
 72
38
 73
34
 74
0
 42
0.0000001
 43
0.0000001
 44
0.0000000001
 40
0.0
 40
0.0
 40
0.0
 40
0.0
 40
0.0394052619
 40
0.0788922194
 40
0.1183792786
 40
0.157837894
 40
0.19728382
 40
0.2367397841
 40
0.2761749659
 40
0.2958683431
 40
0.3155265111
 40
0.3546808573
 40
0.3935026541
 40
0.4693243054
 40
0.5415962763
 40
0.5759676575
 40
0.6089201127
 40
0.640307799
 40
0.6700169112
 40
0.6979297382
 40
0.7239661256
 40
0.7480917754
 40
0.7703291969
 40
0.7908396171
 40
0.8099660513
 40
0.8282804959
 40
0.846638853
 40
0.8660309124
 40
0.8873707053
 40
0.9112517791
 40
0.9380090028
 40
0.9676752679
 40
1.0
 40
1.0
 40
1.0
 40
1.0
 10
11.7749427561
 20
11.6691695021
 30
0.0
 10
11.7749427561
 20
11.6737948243
 30
0.0
 10
11.7744390089
 20
11.6830626294
 30
0.0
 10
11.7721935526
 20
11.6968013688
 30
0.0
 10
11.7684584301
 20
11.7102214209
 30
0.0
 10
11.7632606416
 20
11.723139973
 30
0.0
 10
11.7566605287
 20
11.7353987963
 30
0.0
 10
11.748716772
 20
11.7468280895
 30
0.0
 10
11.7410943234
 20
11.7555672322
 30
0.0
 10
11.7344689009
 20
11.7620246181
 30
0.0
 10
11.7275298726
 20
11.7680938276
 30
0.0
 10
11.7183311007
 20
11.7749636154
 30
0.0
 10
11.7028923634
 20
11.7843632622
 30
0.0
 10
11.6827232425
 20
11.7932536169
 30
0.0
 10
11.6620721151
 20
11.799128778
 30
0.0
 10
11.6459845885
 20
11.8022695314
 30
0.0
 10
11.634513396
 20
11.803932604
 30
0.0
 10
11.6235224978
 20
11.8050073875
 30
0.0
 10
11.6130841645
 20
11.8055333686
 30
0.0
 10
11.6032605205
 20
11.8055661279
 30
0.0
 10
11.5941028249
 20
11.8050894373
 30
0.0
 10
11.5856584392
 20
11.8040679815
 30
0.0
 10
11.5779604101
 20
11.802473127
 30
0.0
 10
11.5710399787
 20
11.8002051486
 30
0.0
 10
11.564930068
 20
11.7971445553
 30
0.0
 10
11.5596793149
 20
11.7931576064
 30
0.0
 10
11.5553418167
 20
11.7881444963
 30
0.0
 10
11.551947007
 20
11.7820462194
 30
0.0
 10
11.5494729626
 20
11.774845826
 30
0.0
 10
11.5477712426
 20
11.7665539597
 30
0.0
 10
11.5467378351
 20
11.7571755287
 30
0.0
 10
11.5462418142
 20
11.746766371
 30
0.0
 10
11.5461691137
 20
11.7394893095
 30
0.0
 10
11.5461685814
 20
11.7356950878
 30
0.0
  0
SPLINE
  5
4DF
100
AcDbEntity
  8
0
100
AcDbSpline
 62
7
  6
CONTINUOUS
 70
0
 71
3
 72
30
 73
26
 74
0
 42
0.0000001
 43
0.0000001
 44
0.0000000001
 40
0.0
 40
0.0
 40
0.0
 40
0.0
 40
0.0813579608
 40
0.1627145651
 40
0.243588545
 40
0.3233527156
 40
0.4011369208
 40
0.4757894229
 40
0.511523561
 40
0.545944389
 40
0.5788839025
 40
0.6102089683
 40
0.6398461314
 40
0.6678039265
 40
0.6941822523
 40
0.7191699651
 40
0.7430283562
 40
0.7660584652
 40
0.7885664861
 40
0.8108376385
 40
0.8331137254
 40
0.8555858017
 40
0.9016040889
 40
0.9496497689
 40
1.0
 40
1.0
 40
1.0
 40
1.0
 10
10.0403379294
 20
11.0591695021
 30
0.0
 10
10.0464865311
 20
11.0537682292
 30
0.0
 10
10.058963329
 20
11.0431678764
 30
0.0
 10
10.0782186833
 20
11.0280036091
 30
0.0
 10
10.0979813201
 20
11.0137751001
 30
0.0
 10
10.1181500149
 20
11.0007722436
 30
0.0
 10
10.1385556753
 20
10.9893696943
 30
0.0
 10
10.1557881497
 20
10.981465125
 30
0.0
 10
10.1694725001
 20
10.9764518969
 30
0.0
 10
10.17941338
 20
10.973472301
 30
0.0
 10
10.1891045907
 20
10.9712801529
 30
0.0
 10
10.1984647057
 20
10.9699288501
 30
0.0
 10
10.2074107185
 20
10.969454468
 30
0.0
 10
10.2158640917
 20
10.9698726073
 30
0.0
 10
10.2237556073
 20
10.9711772092
 30
0.0
 10
10.2310291874
 20
10.9733397275
 30
0.0
 10
10.2376454831
 20
10.9763099569
 30
0.0
 10
10.2435825516
 20
10.9800234704
 30
0.0
 10
10.248835836
 20
10.9844066077
 30
0.0
 10
10.2534170755
 20
10.9893823318
 30
0.0
 10
10.257348133
 20
10.9948789934
 30
0.0
 10
10.2617950575
 20
11.0028720131
 30
0.0
 10
10.2658689742
 20
11.0139448927
 30
0.0
 10
10.268579919
 20
11.0282656341
 30
0.0
 10
10.2691121431
 20
11.0381777725
 30
0.0
 10
10.2691122597
 20
11.043242673
 30
0.0
  0
SPLINE
  5
4E0
100
AcDbEntity
  8
0
100
AcDbSpline
 62
7
  6
CONTINUOUS
 70
0
 71
3
 72
21
 73
17
 74
0
 42
0.0000001
 43
0.0000001
 44
0.0000000001
 40
0.0
 40
0.0
 40
0.0
 40
0.0
 40
0.114390993
 40
0.1741407295
 40
0.2357520819
 40
0.2993212888
 40
0.3648128899
 40
0.4319268813
 40
0.4999999069
 40
0.568072851
 40
0.635186881
 40
0.7006783724
 40
0.7642475523
 40
0.825858946
 40
0.8856087487
 40
1.0
 40
1.0
 40
1.0
 40
1.0
 10
10.7464671113
 20
11.0591695021
 30
0.0
 10
10.7550840813
 20
11.0474087857
 30
0.0
 10
10.7697748565
 20
11.0305687093
 30
0.0
 10
10.7925172873
 20
11.0108750577
 30
0.0
 10
10.8118738601
 20
10.9973402968
 30
0.0
 10
10.8333040823
 20
10.9857567189
 30
0.0
 10
10.8567026857
 20
10.9767322922
 30
0.0
 10
10.8817087269
 20
10.9709367904
 30
0.0
 10
10.9076402974
 20
10.968931085
 30
0.0
 10
10.9335718724
 20
10.9709367813
 30
0.0
 10
10.9585779008
 20
10.9767322542
 30
0.0
 10
10.9819764946
 20
10.9857566711
 30
0.0
 10
11.0034067149
 20
10.9973402261
 30
0.0
 10
11.0227633045
 20
11.0108749812
 30
0.0
 10
11.0455057826
 20
11.0305686497
 30
0.0
 10
11.0601965847
 20
11.0474087591
 30
0.0
 10
11.0688135742
 20
11.0591695021
 30
0.0
  0
SPLINE
  5
4E1
100
AcDbEntity
  8
0
100
AcDbSpline
 62
7
  6
CONTINUOUS
 70
0
 71
3
 72
43
 73
39
 74
0
 42
0.0000001
 43
0.0000001
 44
0.0000000001
 40
0.0
 40
0.0
 40
0.0
 40
0.0
 40
0.033033805
 40
0.065838083
 40
0.0980622924
 40
0.1295054771
 40
0.160110656
 40
0.1899671833
 40
0.2046885878
 40
0.2193180178
 40
0.2484833625
 40
0.2631302834
 40
0.2778672192
 40
0.3077390835
 40
0.3382986061
 40
0.3695814828
 40
0.4015376523
 40
0.4340298675
 40
0.466893944
 40
0.4999526908
 40
0.5330111791
 40
0.5658811539
 40
0.5983868758
 40
0.6303515205
 40
0.6616480572
 40
0.6922242841
 40
0.7221089286
 40
0.7368529341
 40
0.7515068423
 40
0.780683346
 40
0.7953163555
 40
0.8100402318
 40
0.8399002359
 40
0.8705057587
 40
0.9019455778
 40
0.9341651946
 40
0.9669668395
 40
1.0
 40
1.0
 40
1.0
 40
1.0
 10
11.0688135742
 20
11.6691695021
 30
0.0
 10
11.0688135742
 20
11.6745170214
 30
0.0
 10
11.0683895279
 20
11.6851801018
 30
0.0
 10
11.0664513778
 20
11.7009542583
 30
0.0
 10
11.0631683616
 20
11.7162458156
 30
0.0
 10
11.0584708684
 20
11.7307974092
 30
0.0
 10
11.0522707383
 20
11.7443619654
 30
0.0
 10
11.0457889542
 20
11.7547126243
 30
0.0
 10
11.0398509939
 20
11.7622463322
 30
0.0
 10
11.0334430098
 20
11.7692323887
 30
0.0
 10
11.0262864227
 20
11.7754796816
 30
0.0
 10
11.0185225301
 20
11.7809259949
 30
0.0
 10
11.0103038335
 20
11.7858858552
 30
0.0
 10
10.9992949458
 20
11.7911441371
 30
0.0
 10
10.9852614354
 20
11.7960601131
 30
0.0
 10
10.9705218687
 20
11.799777599
 30
0.0
 10
10.9552472518
 20
11.8024567996
 30
0.0
 10
10.939591522
 20
11.8042703597
 30
0.0
 10
10.9236878751
 20
11.8053063942
 30
0.0
 10
10.9076636116
 20
11.805639218
 30
0.0
 10
10.8916379395
 20
11.8053134531
 30
0.0
 10
10.8757320235
 20
11.8042669152
 30
0.0
 10
10.8600702688
 20
11.8024674233
 30
0.0
 10
10.8447897728
 20
11.7997863471
 30
0.0
 10
10.8300448825
 20
11.7960649323
 30
0.0
 10
10.8160032418
 20
11.7911515902
 30
0.0
 10
10.8049872686
 20
11.7858937279
 30
0.0
 10
10.7967661663
 20
11.7809293823
 30
0.0
 10
10.7889994254
 20
11.7754801067
 30
0.0
 10
10.7818394759
 20
11.7692314488
 30
0.0
 10
10.7754281433
 20
11.7622446702
 30
0.0
 10
10.7694884725
 20
11.7547102758
 30
0.0
 10
10.7630080414
 20
11.7443574923
 30
0.0
 10
10.7568082173
 20
11.7307928386
 30
0.0
 10
10.7521111991
 20
11.7162423517
 30
0.0
 10
10.7488291483
 20
11.7009523493
 30
0.0
 10
10.7468912354
 20
11.6851794652
 30
0.0
 10
10.7464671113
 20
11.674516917
 30
0.0
 10
10.7464671113
 20
11.6691695021
 30
0.0
  0
SPLINE
  5
4E2
100
AcDbEntity
  8
0
100
AcDbSpline
 62
7
  6
CONTINUOUS
 70
0
 71
3
 72
38
 73
34
 74
0
 42
0.0000001
 43
0.0000001
 44
0.0000000001
 40
0.0
 40
0.0
 40
0.0
 40
0.0
 40
0.0323246037
 40
0.0619885103
 40
0.0887459382
 40
0.1126232631
 40
0.1339530487
 40
0.1533362222
 40
0.1716887624
 40
0.1899999108
 40
0.2091140759
 40
0.229610857
 40
0.2518426866
 40
0.2759571268
 40
0.3019852073
 40
0.3298954299
 40
0.3595982817
 40
0.3909902608
 40
0.4583073833
 40
0.4939259394
 40
0.5306522312
 40
0.5682615191
 40
0.6065622236
 40
0.6454051344
 40
0.6845753869
 40
0.7042389983
 40
0.7239363371
 40
0.7633773762
 40
0.8028374496
 40
0.8422828015
 40
0.8817376776
 40
0.9212217071
 40
1.0
 40
1.0
 40
1.0
 40
1.0
 10
10.2691122277
 20
11.7356952673
 30
0.0
 10
10.269111422
 20
11.7394893135
 30
0.0
 10
10.2690382659
 20
11.7467657704
 30
0.0
 10
10.2685422082
 20
11.7571741976
 30
0.0
 10
10.2675106536
 20
11.7665516774
 30
0.0
 10
10.265811129
 20
11.7748420866
 30
0.0
 10
10.263336658
 20
11.782039291
 30
0.0
 10
10.2599442825
 20
11.7881347208
 30
0.0
 10
10.2556135535
 20
11.7931505718
 30
0.0
 10
10.2503647544
 20
11.7971360777
 30
0.0
 10
10.2442581279
 20
11.8001946943
 30
0.0
 10
10.237342419
 20
11.8024631037
 30
0.0
 10
10.2296505813
 20
11.8040689111
 30
0.0
 10
10.221208586
 20
11.8050858883
 30
0.0
 10
10.212054059
 20
11.8055591055
 30
0.0
 10
10.2022328601
 20
11.8055412636
 30
0.0
 10
10.1917951602
 20
11.8050099178
 30
0.0
 10
10.1767917963
 20
11.8035380043
 30
0.0
 10
10.1612128885
 20
11.8009149789
 30
0.0
 10
10.145316694
 20
11.7968796086
 30
0.0
 10
10.1330168834
 20
11.7929408378
 30
0.0
 10
10.1207249666
 20
11.7880412719
 30
0.0
 10
10.1086318253
 20
11.782074434
 30
0.0
 10
10.0969554763
 20
11.7749646145
 30
0.0
 10
10.0877525785
 20
11.7680935273
 30
0.0
 10
10.0808105448
 20
11.7620237508
 30
0.0
 10
10.0741836149
 20
11.7555658717
 30
0.0
 10
10.0665617328
 20
11.7468246872
 30
0.0
 10
10.0586181902
 20
11.7353945425
 30
0.0
 10
10.0520178574
 20
11.7231372148
 30
0.0
 10
10.0468212623
 20
11.7102170854
 30
0.0
 10
10.0418492865
 20
11.6923587405
 30
0.0
 10
10.0403379294
 20
11.6784159725
 30
0.0
 10
10.0403379294
 20
11.6691695021
 30
0.0
  0
SPLINE
  5
4E3
100
AcDbEntity
  8
0
100
AcDbSpline
 62
7
  6
CONTINUOUS
 70
0
 71
3
 72
30
 73
26
 74
0
 42
0.0000001
 43
0.0000001
 44
0.0000000001
 40
0.0
 40
0.0
 40
0.0
 40
0.0
 40
0.0503501041
 40
0.0983957476
 40
0.144414003
 40
0.1668860968
 40
0.1891621772
 40
0.2114333333
 40
0.2339413579
 40
0.2569715641
 40
0.2808299519
 40
0.3058176022
 40
0.33219595
 40
0.3601537688
 40
0.389790886
 40
0.4211158907
 40
0.4540554785
 40
0.4884762701
 40
0.5242102409
 40
0.5988626876
 40
0.6766468446
 40
0.7564110555
 40
0.8372850861
 40
0.9186418794
 40
1.0
 40
1.0
 40
1.0
 40
1.0
 10
11.5461684277
 20
11.0432426748
 30
0.0
 10
11.5461685431
 20
11.0381777871
 30
0.0
 10
11.5467007683
 20
11.0282656653
 30
0.0
 10
11.549411699
 20
11.0139449417
 30
0.0
 10
11.5534856041
 20
11.0028720632
 30
0.0
 10
11.5579325225
 20
10.9948790423
 30
0.0
 10
11.5618635758
 20
10.9893823761
 30
0.0
 10
11.566444807
 20
10.9844066442
 30
0.0
 10
11.5716980966
 20
10.9800234957
 30
0.0
 10
11.5776351744
 20
10.9763099796
 30
0.0
 10
11.5842514653
 20
10.9733397311
 30
0.0
 10
11.5915250442
 20
10.971177223
 30
0.0
 10
11.5994165555
 20
10.9698726083
 30
0.0
 10
11.6078699292
 20
10.9694544682
 30
0.0
 10
11.6168159334
 20
10.9699288476
 30
0.0
 10
11.6261760469
 20
10.9712801396
 30
0.0
 10
11.635867254
 20
10.9734722935
 30
0.0
 10
11.6458081254
 20
10.9764518717
 30
0.0
 10
11.6594924507
 20
10.9814650935
 30
0.0
 10
11.6767249057
 20
10.989369639
 30
0.0
 10
11.6971305636
 20
11.0007721804
 30
0.0
 10
11.717299267
 20
11.0137750317
 30
0.0
 10
11.7370619305
 20
11.0280035521
 30
0.0
 10
11.7563173192
 20
11.0431678409
 30
0.0
 10
11.7687941422
 20
11.0537682186
 30
0.0
 10
11.7749427561
 20
11.0591695021
 30
0.0
  0
SPLINE
  5
4E4
100
AcDbEntity
  8
0
100
AcDbSpline
 62
7
  6
CONTINUOUS
 70
0
 71
3
 72
9
 73
5
 74
0
 42
0.0000001
 43
0.0000001
 44
0.0000000001
 40
0.0
 40
0.0
 40
0.0
 40
0.0
 40
0.4939826838
 40
1.0
 40
1.0
 40
1.0
 40
1.0
 10
6.4993770081
 20
8.8607053648
 30
0.0
 10
6.5018094605
 20
8.859932238
 30
0.0
 10
6.5066263226
 20
8.8580096237
 30
0.0
 10
6.5111254697
 20
8.85543066
 30
0.0
 10
6.513298833
 20
8.8539772745
 30
0.0
  0
SPLINE
  5
4E5
100
AcDbEntity
  8
0
100
AcDbSpline
 62
9
  6
CONTINUOUS
 70
0
 71
3
 72
20
 73
16
 74
0
 42
0.0000001
 43
0.0000001
 44
0.0000000001
 40
0.0
 40
0.0
 40
0.0
 40
0.0
 40
0.1742496878
 40
0.351755788
 40
0.5233411892
 40
0.678706101
 40
0.7471242315
 40
0.8082598217
 40
0.8615299285
 40
0.9063533825
 40
0.9423116655
 40
0.9696284058
 40
0.9887019596
 40
0.9952877724
 40
1.0
 40
1.0
 40
1.0
 40
1.0
 10
6.5219645836
 20
8.9106626955
 30
0.0
 10
6.521965836
 20
8.9083443366
 30
0.0
 10
6.5219539842
 20
8.9036642748
 30
0.0
 10
6.5218926985
 20
8.8967015316
 30
0.0
 10
6.5217828916
 20
8.8899906717
 30
0.0
 10
6.5216516189
 20
8.8847318935
 30
0.0
 10
6.5215198383
 20
8.8809433642
 30
0.0
 10
6.5214168315
 20
8.878513087
 30
0.0
 10
6.5213076339
 20
8.876397336
 30
0.0
 10
6.5211941379
 20
8.8746174021
 30
0.0
 10
6.5210779584
 20
8.8731836502
 30
0.0
 10
6.520960427
 20
8.8720944402
 30
0.0
 10
6.5208574624
 20
8.8713963275
 30
0.0
 10
6.5207685419
 20
8.8710021284
 30
0.0
 10
6.5207240578
 20
8.8708580055
 30
0.0
 10
6.5206997275
 20
8.8708002237
 30
0.0
  0
SPLINE
  5
4E6
100
AcDbEntity
  8
0
100
AcDbSpline
 62
9
  6
CONTINUOUS
 70
0
 71
3
 72
9
 73
5
 74
0
 42
0.0000001
 43
0.0000001
 44
0.0000000001
 40
0.0
 40
0.0
 40
0.0
 40
0.0
 40
0.5000151176
 40
1.0
 40
1.0
 40
1.0
 40
1.0
 10
6.5195186264
 20
9.1786212384
 30
0.0
 10
6.527821868
 20
9.1783981849
 30
0.0
 10
6.5445323318
 20
9.1798346865
 30
0.0
 10
6.5604866941
 20
9.1850452373
 30
0.0
 10
6.5680209816
 20
9.188540912
 30
0.0
  0
SPLINE
  5
4E7
100
AcDbEntity
  8
0
100
AcDbSpline
 62
9
  6
CONTINUOUS
 70
0
 71
3
 72
18
 73
14
 74
0
 42
0.0000001
 43
0.0000001
 44
0.0000000001
 40
0.0
 40
0.0
 40
0.0
 40
0.0
 40
0.0148466344
 40
0.0370517339
 40
0.066946712
 40
0.1048395286
 40
0.1508935373
 40
0.2047207986
 40
0.3335827787
 40
0.4863268246
 40
0.6543667092
 40
0.8284295036
 40
1.0
 40
1.0
 40
1.0
 40
1.0
 10
4.1288997509
 20
9.2827998457
 30
0.0
 10
4.1289444189
 20
9.2826087788
 30
0.0
 10
4.129017483
 20
9.2821235918
 30
0.0
 10
4.1291062805
 20
9.2812434419
 30
0.0
 10
4.1291875581
 20
9.2800565528
 30
0.0
 10
4.1292602345
 20
9.2785537302
 30
0.0
 10
4.1293214315
 20
9.2767338142
 30
0.0
 10
4.1293912677
 20
9.2737114359
 30
0.0
 10
4.1294368236
 20
9.2692782833
 30
0.0
 10
4.1294305253
 20
9.263335527
 30
0.0
 10
4.1293693548
 20
9.2567956647
 30
0.0
 10
4.1292565424
 20
9.2500076585
 30
0.0
 10
4.129152707
 20
9.245440789
 30
0.0
 10
4.1290943497
 20
9.2431740004
 30
0.0
  0
SPLINE
  5
4E8
100
AcDbEntity
  8
0
100
AcDbSpline
 62
9
  6
CONTINUOUS
 70
0
 71
3
 72
17
 73
13
 74
0
 42
0.0000001
 43
0.0000001
 44
0.0000000001
 40
0.0
 40
0.0
 40
0.0
 40
0.0
 40
0.1159978006
 40
0.2388541074
 40
0.302571962
 40
0.3673912507
 40
0.4985834157
 40
0.6300164939
 40
0.6951174836
 40
0.7592049074
 40
0.8829865839
 40
1.0
 40
1.0
 40
1.0
 40
1.0
 10
6.486692963
 20
8.8641482931
 30
0.0
 10
6.4900162989
 20
8.8641473201
 30
0.0
 10
6.4968727095
 20
8.8635026942
 30
0.0
 10
6.5052578916
 20
8.8610835992
 30
0.0
 10
6.5118061705
 20
8.8580568218
 30
0.0
 10
6.518225884
 20
8.8542747293
 30
0.0
 10
6.5255679162
 20
8.8483192915
 30
0.0
 10
6.5314875944
 20
8.840938798
 30
0.0
 10
6.5352551123
 20
8.8344811595
 30
0.0
 10
6.538279275
 20
8.8278821124
 30
0.0
 10
6.5407049624
 20
8.8194312676
 30
0.0
 10
6.541367385
 20
8.8125219058
 30
0.0
 10
6.5413801615
 20
8.8091694967
 30
0.0
  0
LINE
  5
4E9
100
AcDbEntity
  8
0
100
AcDbLine
 62
9
  6
CONTINUOUS
 10
6.5425930013
 20
9.2806431043
 11
6.5376927123
 21
9.2819598086
  0
SPLINE
  5
4EA
100
AcDbEntity
  8
0
100
AcDbSpline
 62
9
  6
CONTINUOUS
 70
0
 71
3
 72
13
 73
9
 74
0
 42
0.0000001
 43
0.0000001
 44
0.0000000001
 40
0.0
 40
0.0
 40
0.0
 40
0.0
 40
0.2503982297
 40
0.5003896742
 40
0.6255316187
 40
0.7505041073
 40
0.8752845871
 40
1.0
 40
1.0
 40
1.0
 40
1.0
 10
4.1278604047
 20
8.869197436
 30
0.0
 10
4.1236732581
 20
8.8691793379
 30
0.0
 10
4.1152446917
 20
8.8704632897
 30
0.0
 10
4.1057360595
 20
8.875240463
 30
0.0
 10
4.0993269481
 20
8.880658121
 30
0.0
 10
4.0952093382
 20
8.8854214381
 30
0.0
 10
4.0919032118
 20
8.8907686357
 30
0.0
 10
4.0902871757
 20
8.8946375965
 30
0.0
 10
4.0896398926
 20
8.8966201083
 30
0.0
  0
SPLINE
  5
4EB
100
AcDbEntity
  8
0
100
AcDbSpline
 62
9
  6
CONTINUOUS
 70
0
 71
3
 72
12
 73
8
 74
0
 42
0.0000001
 43
0.0000001
 44
0.0000000001
 40
0.0
 40
0.0
 40
0.0
 40
0.0
 40
0.2277080489
 40
0.4708717636
 40
0.5981098042
 40
0.729082353
 40
1.0
 40
1.0
 40
1.0
 40
1.0
 10
6.614402635
 20
9.2630037328
 30
0.0
 10
6.6100391274
 20
9.259327291
 30
0.0
 10
6.6007806716
 20
9.251999604
 30
0.0
 10
6.5884625139
 20
9.2434447647
 30
0.0
 10
6.5778036548
 20
9.2367882489
 30
0.0
 10
6.5662766877
 20
9.2302361731
 30
0.0
 10
6.5571492618
 20
9.2258995345
 30
0.0
 10
6.5508132998
 20
9.2234623138
 30
0.0
  0
SPLINE
  5
4EC
100
AcDbEntity
  8
0
100
AcDbSpline
 62
9
  6
CONTINUOUS
 70
0
 71
3
 72
9
 73
5
 74
0
 42
0.0000001
 43
0.0000001
 44
0.0000000001
 40
0.0
 40
0.0
 40
0.0
 40
0.0
 40
0.4987466185
 40
1.0
 40
1.0
 40
1.0
 40
1.0
 10
6.5508134105
 20
9.2234620829
 30
0.0
 10
6.5458360458
 20
9.2215483892
 30
0.0
 10
6.5354093411
 20
9.218804977
 30
0.0
 10
6.5246532653
 20
9.2182196694
 30
0.0
 10
6.5192995983
 20
9.2184670561
 30
0.0
  0
SPLINE
  5
4ED
100
AcDbEntity
  8
0
100
AcDbSpline
 62
9
  6
CONTINUOUS
 70
0
 71
3
 72
18
 73
14
 74
0
 42
0.0000001
 43
0.0000001
 44
0.0000000001
 40
0.0
 40
0.0
 40
0.0
 40
0.0
 40
0.171519066
 40
0.3455623915
 40
0.5136087713
 40
0.6663734744
 40
0.7952580111
 40
0.8490947818
 40
0.8951560489
 40
0.9330532729
 40
0.9629500998
 40
0.9851550244
 40
1.0
 40
1.0
 40
1.0
 40
1.0
 10
4.1290943918
 20
8.9088417427
 30
0.0
 10
4.1290933282
 20
8.9065727562
 30
0.0
 10
4.1290774304
 20
8.9020013861
 30
0.0
 10
4.1290122291
 20
8.8952072376
 30
0.0
 10
4.1289018329
 20
8.8886617824
 30
0.0
 10
4.128752173
 20
8.8827146722
 30
0.0
 10
4.1285902221
 20
8.8782793843
 30
0.0
 10
4.1284409972
 20
8.8752565236
 30
0.0
 10
4.128331983
 20
8.8734368529
 30
0.0
 10
4.1282198062
 20
8.8719348668
 30
0.0
 10
4.128107319
 20
8.8707493258
 30
0.0
 10
4.1279953623
 20
8.8698709845
 30
0.0
 10
4.1279095196
 20
8.8693874511
 30
0.0
 10
4.1278598082
 20
8.8691974664
 30
0.0
  0
SPLINE
  5
4EE
100
AcDbEntity
  8
0
100
AcDbSpline
 62
9
  6
CONTINUOUS
 70
0
 71
3
 72
9
 73
5
 74
0
 42
0.0000001
 43
0.0000001
 44
0.0000000001
 40
0.0
 40
0.0
 40
0.0
 40
0.0
 40
0.5000079686
 40
1.0
 40
1.0
 40
1.0
 40
1.0
 10
6.5219645907
 20
8.9106626955
 30
0.0
 10
6.529872744
 20
8.9106669681
 30
0.0
 10
6.5457361782
 20
8.9089648776
 30
0.0
 10
6.5608607528
 20
8.903857846
 30
0.0
 10
6.5680209816
 20
8.9005013533
 30
0.0
  0
SPLINE
  5
4EF
100
AcDbEntity
  8
0
100
AcDbSpline
 62
9
  6
CONTINUOUS
 70
0
 71
3
 72
14
 73
10
 74
0
 42
0.0000001
 43
0.0000001
 44
0.0000000001
 40
0.0
 40
0.0
 40
0.0
 40
0.0
 40
0.32800253
 40
0.4871890935
 40
0.633892021
 40
0.7616801078
 40
0.866561499
 40
0.9458955402
 40
1.0
 40
1.0
 40
1.0
 40
1.0
 10
6.5680208187
 20
8.9005014289
 30
0.0
 10
6.566209524
 20
8.8966334544
 30
0.0
 10
6.56349108
 20
8.8909013262
 30
0.0
 10
6.5598896609
 20
8.8834742143
 30
0.0
 10
6.5573927203
 20
8.8784090508
 30
0.0
 10
6.5551711382
 20
8.8739967643
 30
0.0
 10
6.5533065117
 20
8.87038697
 30
0.0
 10
6.5518383007
 20
8.8676530274
 30
0.0
 10
6.5509805876
 20
8.8661412228
 30
0.0
 10
6.5506131542
 20
8.8655401082
 30
0.0
  0
SPLINE
  5
4F0
100
AcDbEntity
  8
0
100
AcDbSpline
 62
9
  6
CONTINUOUS
 70
0
 71
3
 72
13
 73
9
 74
0
 42
0.0000001
 43
0.0000001
 44
0.0000000001
 40
0.0
 40
0.0
 40
0.0
 40
0.0
 40
0.1362710783
 40
0.2704894933
 40
0.4012476293
 40
0.5283523669
 40
0.7716164147
 40
1.0
 40
1.0
 40
1.0
 40
1.0
 10
6.5506129899
 20
8.8655393233
 30
0.0
 10
6.5538236797
 20
8.864281092
 30
0.0
 10
6.560098731
 20
8.8615287413
 30
0.0
 10
6.5691227001
 20
8.8568636005
 30
0.0
 10
6.5777023364
 20
8.8518730661
 30
0.0
 10
6.5883882597
 20
8.8450400003
 30
0.0
 10
6.6007438265
 20
8.8362507514
 30
0.0
 10
6.610024006
 20
8.8287321576
 30
0.0
 10
6.6144027012
 20
8.8249600912
 30
0.0
  0
SPLINE
  5
4F1
100
AcDbEntity
  8
0
100
AcDbSpline
 62
9
  6
CONTINUOUS
 70
0
 71
3
 72
9
 73
5
 74
0
 42
0.0000001
 43
0.0000001
 44
0.0000000001
 40
0.0
 40
0.0
 40
0.0
 40
0.0
 40
0.5010814184
 40
1.0
 40
1.0
 40
1.0
 40
1.0
 10
6.5206995251
 20
8.8707999982
 30
0.0
 10
6.5257958661
 20
8.870900904
 30
0.0
 10
6.5360082075
 20
8.8701204258
 30
0.0
 10
6.5458875122
 20
8.8673910931
 30
0.0
 10
6.5506132469
 20
8.865540016
 30
0.0
  0
SPLINE
  5
4F2
100
AcDbEntity
  8
0
100
AcDbSpline
 62
9
  6
CONTINUOUS
 70
0
 71
3
 72
13
 73
9
 74
0
 42
0.0000001
 43
0.0000001
 44
0.0000000001
 40
0.0
 40
0.0
 40
0.0
 40
0.0
 40
0.129715524
 40
0.2585212575
 40
0.3859438076
 40
0.5118781445
 40
0.7591034496
 40
1.0
 40
1.0
 40
1.0
 40
1.0
 10
6.5680209816
 20
8.9005013533
 30
0.0
 10
6.571032829
 20
8.8980608391
 30
0.0
 10
6.5766670117
 20
8.8927350866
 30
0.0
 10
6.5841335569
 20
8.8839246551
 30
0.0
 10
6.5907576854
 20
8.8746068364
 30
0.0
 10
6.5985718703
 20
8.8618397221
 30
0.0
 10
6.6067827452
 20
8.8453896595
 30
0.0
 10
6.6120895571
 20
8.8317797321
 30
0.0
 10
6.6144024231
 20
8.8249622526
 30
0.0
  0
SPLINE
  5
4F3
100
AcDbEntity
  8
0
100
AcDbSpline
 62
9
  6
CONTINUOUS
 70
0
 71
3
 72
13
 73
9
 74
0
 42
0.0000001
 43
0.0000001
 44
0.0000000001
 40
0.0
 40
0.0
 40
0.0
 40
0.0
 40
0.1298241083
 40
0.2587309946
 40
0.3862313426
 40
0.5122080252
 40
0.7593807784
 40
1.0
 40
1.0
 40
1.0
 40
1.0
 10
6.5680209816
 20
9.188540912
 30
0.0
 10
6.57101649
 20
9.1909429513
 30
0.0
 10
6.5766276246
 20
9.1961845895
 30
0.0
 10
6.5840798072
 20
9.2048613931
 30
0.0
 10
6.5907024207
 20
9.2140429246
 30
0.0
 10
6.5985233096
 20
9.2266264716
 30
0.0
 10
6.6067525402
 20
9.2428452787
 30
0.0
 10
6.6120807294
 20
9.2562745363
 30
0.0
 10
6.6144024231
 20
9.2630016589
 30
0.0
  0
LINE
  5
4F4
100
AcDbEntity
  8
0
100
AcDbLine
 62
9
  6
CONTINUOUS
 10
6.4810538588
 20
9.2269843984
 11
6.5192995249
 21
9.2184663499
  0
SPLINE
  5
4F5
100
AcDbEntity
  8
0
100
AcDbSpline
 62
9
  6
CONTINUOUS
 70
0
 71
3
 72
14
 73
10
 74
0
 42
0.0000001
 43
0.0000001
 44
0.0000000001
 40
0.0
 40
0.0
 40
0.0
 40
0.0
 40
0.0552478379
 40
0.1353356644
 40
0.2405264704
 40
0.3682193717
 40
0.5145034209
 40
0.6730980862
 40
1.0
 40
1.0
 40
1.0
 40
1.0
 10
6.5508130144
 20
9.2234618142
 30
0.0
 10
6.5511821127
 20
9.222846998
 30
0.0
 10
6.5520406124
 20
9.221313843
 30
0.0
 10
6.5535043194
 20
9.2185562823
 30
0.0
 10
6.5553529779
 20
9.2149388256
 30
0.0
 10
6.5575478194
 20
9.2105338274
 30
0.0
 10
6.560009923
 20
9.2054877382
 30
0.0
 10
6.5635582418
 20
9.1980948218
 30
0.0
 10
6.5662360502
 20
9.1923903063
 30
0.0
 10
6.5680203644
 20
9.1885406298
 30
0.0
  0
SPLINE
  5
4F6
100
AcDbEntity
  8
0
100
AcDbSpline
 62
9
  6
CONTINUOUS
 70
0
 71
3
 72
20
 73
16
 74
0
 42
0.0000001
 43
0.0000001
 44
0.0000000001
 40
0.0
 40
0.0
 40
0.0
 40
0.0
 40
0.0047136201
 40
0.0113005524
 40
0.0303751321
 40
0.0576907016
 40
0.0936449471
 40
0.1384610922
 40
0.1917212563
 40
0.2528451694
 40
0.3212507875
 40
0.4765930103
 40
0.6481706406
 40
0.8256967659
 40
1.0
 40
1.0
 40
1.0
 40
1.0
 10
6.519299519
 20
9.2184663565
 30
0.0
 10
6.5193223027
 20
9.2184079899
 30
0.0
 10
6.5193629531
 20
9.2182628497
 30
0.0
 10
6.5194414271
 20
9.2178667709
 30
0.0
 10
6.5195259649
 20
9.2171668321
 30
0.0
 10
6.5196148004
 20
9.2160759774
 30
0.0
 10
6.5196932595
 20
9.2146411644
 30
0.0
 10
6.5197599709
 20
9.212860795
 30
0.0
 10
6.5198135945
 20
9.2107452481
 30
0.0
 10
6.5198528001
 20
9.208315805
 30
0.0
 10
6.519885169
 20
9.2045292462
 30
0.0
 10
6.5198785356
 20
9.1992742625
 30
0.0
 10
6.5198124447
 20
9.1925691661
 30
0.0
 10
6.5196913058
 20
9.1856127626
 30
0.0
 10
6.5195805823
 20
9.1809373402
 30
0.0
 10
6.5195186181
 20
9.1786212386
 30
0.0
  0
LINE
  5
4F7
100
AcDbEntity
  8
0
100
AcDbLine
 62
9
  6
CONTINUOUS
 10
6.5195186264
 20
9.1786212384
 11
4.1290948971
 21
9.2431669549
  0
SPLINE
  5
4F8
100
AcDbEntity
  8
0
100
AcDbSpline
 62
9
  6
CONTINUOUS
 70
0
 71
3
 72
9
 73
5
 74
0
 42
0.0000001
 43
0.0000001
 44
0.0000000001
 40
0.0
 40
0.0
 40
0.0
 40
0.0
 40
0.4999825505
 40
1.0
 40
1.0
 40
1.0
 40
1.0
 10
6.5192995099
 20
9.2184663568
 30
0.0
 10
6.1209116266
 20
9.229116961
 30
0.0
 10
5.3241276876
 20
9.2511432032
 30
0.0
 10
4.5273254179
 20
9.2725049512
 30
0.0
 10
4.128900353
 20
9.2827996928
 30
0.0
  0
SPLINE
  5
4F9
100
AcDbEntity
  8
0
100
AcDbSpline
 62
9
  6
CONTINUOUS
 70
0
 71
3
 72
9
 73
5
 74
0
 42
0.0000001
 43
0.0000001
 44
0.0000000001
 40
0.0
 40
0.0
 40
0.0
 40
0.0
 40
0.5000175034
 40
1.0
 40
1.0
 40
1.0
 40
1.0
 10
4.1278604126
 20
8.8691976009
 30
0.0
 10
4.5266809628
 20
8.8690352624
 30
0.0
 10
5.3242943776
 20
8.8694868289
 30
0.0
 10
6.1219068964
 20
8.87060525
 30
0.0
 10
6.5206995101
 20
8.8708002236
 30
0.0
  0
LINE
  5
4FA
100
AcDbEntity
  8
0
100
AcDbLine
 62
9
  6
CONTINUOUS
 10
6.4866903239
 20
8.8641477003
 11
6.4825041122
 21
8.8632933454
  0
LINE
  5
4FB
100
AcDbEntity
  8
0
100
AcDbLine
 62
9
  6
CONTINUOUS
 10
4.1290949877
 20
8.9088481808
 11
6.5219645907
 21
8.9106626955
  0
SPLINE
  5
4FC
100
AcDbEntity
  8
0
100
AcDbSpline
 62
9
  6
CONTINUOUS
 70
0
 71
3
 72
13
 73
9
 74
0
 42
0.0000001
 43
0.0000001
 44
0.0000000001
 40
0.0
 40
0.0
 40
0.0
 40
0.0
 40
0.2503786077
 40
0.5003664029
 40
0.6255183836
 40
0.7504984126
 40
0.875282332
 40
1.0
 40
1.0
 40
1.0
 40
1.0
 10
4.1289003272
 20
9.2828000278
 30
0.0
 10
4.1246471291
 20
9.2829281761
 30
0.0
 10
4.1160482464
 20
9.2818222132
 30
0.0
 10
4.1062927186
 20
9.2771410974
 30
0.0
 10
4.0996996229
 20
9.2717286319
 30
0.0
 10
4.0954565966
 20
9.2669369624
 30
0.0
 10
4.0920454175
 20
9.2615332828
 30
0.0
 10
4.0903760513
 20
9.2576117545
 30
0.0
 10
4.0897071961
 20
9.2556005062
 30
0.0
  0
SPLINE
  5
4FD
100
AcDbEntity
  8
0
100
AcDbSpline
 62
7
  6
CONTINUOUS
 70
0
 71
3
 72
9
 73
5
 74
0
 42
0.0000001
 43
0.0000001
 44
0.0000000001
 40
0.0
 40
0.0
 40
0.0
 40
0.0
 40
0.4939826838
 40
1.0
 40
1.0
 40
1.0
 40
1.0
 10
15.3760076775
 20
8.8607053648
 30
0.0
 10
15.3735752251
 20
8.859932238
 30
0.0
 10
15.368758363
 20
8.8580096237
 30
0.0
 10
15.3642592158
 20
8.85543066
 30
0.0
 10
15.3620858525
 20
8.8539772746
 30
0.0
  0
SPLINE
  5
4FE
100
AcDbEntity
  8
0
100
AcDbSpline
 62
9
  6
CONTINUOUS
 70
0
 71
3
 72
18
 73
14
 74
0
 42
0.0000001
 43
0.0000001
 44
0.0000000001
 40
0.0
 40
0.0
 40
0.0
 40
0.0
 40
0.171569438
 40
0.3456317785
 40
0.5136717057
 40
0.6664161498
 40
0.795278632
 40
0.8491061165
 40
0.8951603146
 40
0.9330532649
 40
0.9629483104
 40
0.9851534158
 40
1.0
 40
1.0
 40
1.0
 40
1.0
 10
17.7462903897
 20
9.2431734619
 30
0.0
 10
17.7462320309
 20
9.2454402675
 30
0.0
 10
17.7461281925
 20
9.2500071794
 30
0.0
 10
17.7460153759
 20
9.256795259
 30
0.0
 10
17.7459542018
 20
9.2633352106
 30
0.0
 10
17.7459479008
 20
9.2692780606
 30
0.0
 10
17.7459934554
 20
9.2737112887
 30
0.0
 10
17.7460632913
 20
9.2767337205
 30
0.0
 10
17.7461244884
 20
9.2785536686
 30
0.0
 10
17.7461971652
 20
9.280056517
 30
0.0
 10
17.7462784434
 20
9.2812434251
 30
0.0
 10
17.7463672418
 20
9.2821235873
 30
0.0
 10
17.7464403066
 20
9.2826087805
 30
0.0
 10
17.7464849753
 20
9.2827998492
 30
0.0
  0
SPLINE
  5
4FF
100
AcDbEntity
  8
0
100
AcDbSpline
 62
9
  6
CONTINUOUS
 70
0
 71
3
 72
13
 73
9
 74
0
 42
0.0000001
 43
0.0000001
 44
0.0000000001
 40
0.0
 40
0.0
 40
0.0
 40
0.0
 40
0.25037793
 40
0.5003663979
 40
0.625518884
 40
0.7504991287
 40
0.8752830464
 40
1.0
 40
1.0
 40
1.0
 40
1.0
 10
17.7464842937
 20
9.282799862
 30
0.0
 10
17.7507389037
 20
9.2829279778
 30
0.0
 10
17.7593407099
 20
9.2818212069
 30
0.0
 10
17.7690988122
 20
9.277136741
 30
0.0
 10
17.7756927766
 20
9.2717207779
 30
0.0
 10
17.7799357786
 20
9.2669261864
 30
0.0
 10
17.7833461328
 20
9.2615194497
 30
0.0
 10
17.7850144217
 20
9.2575959139
 30
0.0
 10
17.7856826078
 20
9.2555837097
 30
0.0
  0
SPLINE
  5
500
100
AcDbEntity
  8
0
100
AcDbSpline
 62
9
  6
CONTINUOUS
 70
0
 71
3
 72
14
 73
10
 74
0
 42
0.0000001
 43
0.0000001
 44
0.0000000001
 40
0.0
 40
0.0
 40
0.0
 40
0.0
 40
0.0541045695
 40
0.1334387227
 40
0.2383202194
 40
0.3661083851
 40
0.5128113412
 40
0.6719978579
 40
1.0
 40
1.0
 40
1.0
 40
1.0
 10
15.3247715847
 20
8.8655400436
 30
0.0
 10
15.32440415
 20
8.8661411604
 30
0.0
 10
15.3235464343
 20
8.8676529701
 30
0.0
 10
15.3220782195
 20
8.8703869211
 30
0.0
 10
15.3202135895
 20
8.8739967252
 30
0.0
 10
15.3179920043
 20
8.8784090222
 30
0.0
 10
15.3154950617
 20
8.8834741956
 30
0.0
 10
15.3118936429
 20
8.8909013165
 30
0.0
 10
15.3091752002
 20
8.8966334504
 30
0.0
 10
15.3073639072
 20
8.9005014276
 30
0.0
  0
SPLINE
  5
501
100
AcDbEntity
  8
0
100
AcDbSpline
 62
9
  6
CONTINUOUS
 70
0
 71
3
 72
20
 73
16
 74
0
 42
0.0000001
 43
0.0000001
 44
0.0000000001
 40
0.0
 40
0.0
 40
0.0
 40
0.0
 40
0.0047122288
 40
0.0112980429
 40
0.0303715991
 40
0.0576883416
 40
0.0936466263
 40
0.1384700815
 40
0.1917401886
 40
0.2528757786
 40
0.3212939081
 40
0.4766588163
 40
0.6482442133
 40
0.8257503111
 40
1.0
 40
1.0
 40
1.0
 40
1.0
 10
15.3546849724
 20
8.870800229
 30
0.0
 10
15.3546606421
 20
8.8708580108
 30
0.0
 10
15.354616158
 20
8.8710021337
 30
0.0
 10
15.3545272376
 20
8.8713963328
 30
0.0
 10
15.3544242729
 20
8.8720944455
 30
0.0
 10
15.3543067415
 20
8.8731836554
 30
0.0
 10
15.3541905621
 20
8.8746174072
 30
0.0
 10
15.3540770661
 20
8.8763973408
 30
0.0
 10
15.3539678685
 20
8.8785130915
 30
0.0
 10
15.3538648618
 20
8.8809433683
 30
0.0
 10
15.3537330811
 20
8.884731897
 30
0.0
 10
15.3536018084
 20
8.8899906743
 30
0.0
 10
15.3534920015
 20
8.8967015331
 30
0.0
 10
15.3534307159
 20
8.9036642751
 30
0.0
 10
15.3534188641
 20
8.9083443362
 30
0.0
 10
15.3534201165
 20
8.9106626948
 30
0.0
  0
LINE
  5
502
100
AcDbEntity
  8
0
100
AcDbLine
 62
9
  6
CONTINUOUS
 10
15.3534201083
 20
8.9106626948
 11
17.7462896978
 21
8.9088481002
  0
SPLINE
  5
503
100
AcDbEntity
  8
0
100
AcDbSpline
 62
9
  6
CONTINUOUS
 70
0
 71
3
 72
12
 73
8
 74
0
 42
0.0000001
 43
0.0000001
 44
0.0000000001
 40
0.0
 40
0.0
 40
0.0
 40
0.0
 40
0.2284331926
 40
0.4717239954
 40
0.5988489507
 40
0.729623513
 40
1.0
 40
1.0
 40
1.0
 40
1.0
 10
15.2609828932
 20
8.8249600949
 30
0.0
 10
15.2653616962
 20
8.8287326433
 30
0.0
 10
15.2746418372
 20
8.8362517596
 30
0.0
 10
15.2869972729
 20
8.8450406686
 30
0.0
 10
15.2976840126
 20
8.851873931
 30
0.0
 10
15.3092383386
 20
8.858594334
 30
0.0
 10
15.3184023078
 20
8.8630432279
 30
0.0
 10
15.3247717374
 20
8.8655392665
 30
0.0
  0
SPLINE
  5
504
100
AcDbEntity
  8
0
100
AcDbSpline
 62
9
  6
CONTINUOUS
 70
0
 71
3
 72
9
 73
5
 74
0
 42
0.0000001
 43
0.0000001
 44
0.0000000001
 40
0.0
 40
0.0
 40
0.0
 40
0.0
 40
0.4988917363
 40
1.0
 40
1.0
 40
1.0
 40
1.0
 10
15.3247714625
 20
8.8655398887
 30
0.0
 10
15.3294969374
 20
8.8673907807
 30
0.0
 10
15.339375956
 20
8.8701206674
 30
0.0
 10
15.3495883293
 20
8.8709012012
 30
0.0
 10
15.3546848991
 20
8.8707999072
 30
0.0
  0
SPLINE
  5
505
100
AcDbEntity
  8
0
100
AcDbSpline
 62
9
  6
CONTINUOUS
 70
0
 71
3
 72
17
 73
13
 74
0
 42
0.0000001
 43
0.0000001
 44
0.0000000001
 40
0.0
 40
0.0
 40
0.0
 40
0.0
 40
0.1159979115
 40
0.2388543276
 40
0.302572229
 40
0.3673915553
 40
0.4985837566
 40
0.6300168125
 40
0.6951177709
 40
0.7592051515
 40
0.882986714
 40
1.0
 40
1.0
 40
1.0
 40
1.0
 10
15.3886916585
 20
8.8641477324
 30
0.0
 10
15.3853683401
 20
8.8641467793
 30
0.0
 10
15.378511962
 20
8.8635021993
 30
0.0
 10
15.3701268092
 20
8.8610831715
 30
0.0
 10
15.3635785461
 20
8.8580564537
 30
0.0
 10
15.3571588446
 20
8.8542744254
 30
0.0
 10
15.3498168175
 20
8.8483190722
 30
0.0
 10
15.3438971297
 20
8.8409386622
 30
0.0
 10
15.3401295982
 20
8.8344810887
 30
0.0
 10
15.3371054188
 20
8.8278821048
 30
0.0
 10
15.3346797043
 20
8.8194313329
 30
0.0
 10
15.3340172545
 20
8.8125220239
 30
0.0
 10
15.3340044637
 20
8.8091696395
 30
0.0
  0
SPLINE
  5
506
100
AcDbEntity
  8
0
100
AcDbSpline
 62
9
  6
CONTINUOUS
 70
0
 71
3
 72
13
 73
9
 74
0
 42
0.0000001
 43
0.0000001
 44
0.0000000001
 40
0.0
 40
0.0
 40
0.0
 40
0.0
 40
0.1297151345
 40
0.258520555
 40
0.3859427604
 40
0.5118764959
 40
0.7591016138
 40
1.0
 40
1.0
 40
1.0
 40
1.0
 10
15.3073637039
 20
8.9005013332
 30
0.0
 10
15.3043516289
 20
8.8980610434
 30
0.0
 10
15.2987173776
 20
8.8927351898
 30
0.0
 10
15.291251151
 20
8.8839243663
 30
0.0
 10
15.2846268487
 20
8.8746065633
 30
0.0
 10
15.2768123169
 20
8.8618394709
 30
0.0
 10
15.2686018574
 20
8.8453889265
 30
0.0
 10
15.2632947611
 20
8.8317788364
 30
0.0
 10
15.2609824653
 20
8.8249610132
 30
0.0
  0
LINE
  5
507
100
AcDbEntity
  8
0
100
AcDbLine
 62
9
  6
CONTINUOUS
 10
15.337691937
 20
9.2819597897
 11
15.3327934035
 21
9.2806435416
  0
SPLINE
  5
508
100
AcDbEntity
  8
0
100
AcDbSpline
 62
9
  6
CONTINUOUS
 70
0
 71
3
 72
9
 73
5
 74
0
 42
0.0000001
 43
0.0000001
 44
0.0000000001
 40
0.0
 40
0.0
 40
0.0
 40
0.0
 40
0.5000174496
 40
1.0
 40
1.0
 40
1.0
 40
1.0
 10
17.7464843357
 20
9.2827996937
 30
0.0
 10
17.3480592732
 20
9.2725049571
 30
0.0
 10
16.5512570094
 20
9.251143183
 30
0.0
 10
15.754473073
 20
9.2291170357
 30
0.0
 10
15.3560851941
 20
9.2184663627
 30
0.0
  0
LINE
  5
509
100
AcDbEntity
  8
0
100
AcDbLine
 62
9
  6
CONTINUOUS
 10
15.3560851795
 20
9.218466351
 11
15.3943308267
 21
9.2269843984
  0
SPLINE
  5
50A
100
AcDbEntity
  8
0
100
AcDbSpline
 62
9
  6
CONTINUOUS
 70
0
 71
3
 72
9
 73
5
 74
0
 42
0.0000001
 43
0.0000001
 44
0.0000000001
 40
0.0
 40
0.0
 40
0.0
 40
0.0
 40
0.4999824967
 40
1.0
 40
1.0
 40
1.0
 40
1.0
 10
15.3546849811
 20
8.870800229
 30
0.0
 10
15.7534776279
 20
8.8706053245
 30
0.0
 10
16.5510902125
 20
8.8694868082
 30
0.0
 10
17.3487036931
 20
8.8690352679
 30
0.0
 10
17.7475242762
 20
8.8691976015
 30
0.0
  0
SPLINE
  5
50B
100
AcDbEntity
  8
0
100
AcDbSpline
 62
9
  6
CONTINUOUS
 70
0
 71
3
 72
13
 73
9
 74
0
 42
0.0000001
 43
0.0000001
 44
0.0000000001
 40
0.0
 40
0.0
 40
0.0
 40
0.0
 40
0.2503987458
 40
0.5003900531
 40
0.6255314833
 40
0.7505035762
 40
0.8752840077
 40
1.0
 40
1.0
 40
1.0
 40
1.0
 10
17.7475243095
 20
8.8691972487
 30
0.0
 10
17.7517104461
 20
8.8691790514
 30
0.0
 10
17.7601369612
 20
8.8704623461
 30
0.0
 10
17.7696437775
 20
8.8752371314
 30
0.0
 10
17.7760523099
 20
8.8806522645
 30
0.0
 10
17.7801699634
 20
8.8854134801
 30
0.0
 10
17.7834766931
 20
8.890758495
 30
0.0
 10
17.785093503
 20
8.8946260268
 30
0.0
 10
17.7857412662
 20
8.8966078585
 30
0.0
  0
SPLINE
  5
50C
100
AcDbEntity
  8
0
100
AcDbSpline
 62
9
  6
CONTINUOUS
 70
0
 71
3
 72
18
 73
14
 74
0
 42
0.0000001
 43
0.0000001
 44
0.0000000001
 40
0.0
 40
0.0
 40
0.0
 40
0.0
 40
0.0148450311
 40
0.0370499382
 40
0.0669466675
 40
0.1048437072
 40
0.1509047185
 40
0.2047411912
 40
0.3336250621
 40
0.486389243
 40
0.6544355781
 40
0.8284795172
 40
1.0
 40
1.0
 40
1.0
 40
1.0
 10
17.7475248479
 20
8.8691974689
 30
0.0
 10
17.7474751374
 20
8.8693874509
 30
0.0
 10
17.7473892958
 20
8.8698709759
 30
0.0
 10
17.7472773407
 20
8.8707493005
 30
0.0
 10
17.747164855
 20
8.8719348159
 30
0.0
 10
17.7470526795
 20
8.8734367676
 30
0.0
 10
17.7469436666
 20
8.8752563954
 30
0.0
 10
17.7467944432
 20
8.878279185
 30
0.0
 10
17.7466324931
 20
8.8827143728
 30
0.0
 10
17.7464828329
 20
8.8886613586
 30
0.0
 10
17.746372435
 20
8.8952066957
 30
0.0
 10
17.7463072306
 20
8.902000747
 30
0.0
 10
17.7462913303
 20
8.906572061
 30
0.0
 10
17.7462902653
 20
8.9088410251
 30
0.0
  0
LINE
  5
50D
100
AcDbEntity
  8
0
100
AcDbLine
 62
9
  6
CONTINUOUS
 10
15.3928800094
 20
8.8632934676
 11
15.3886918638
 21
8.8641476675
  0
SPLINE
  5
50E
100
AcDbEntity
  8
0
100
AcDbSpline
 62
9
  6
CONTINUOUS
 70
0
 71
3
 72
9
 73
5
 74
0
 42
0.0000001
 43
0.0000001
 44
0.0000000001
 40
0.0
 40
0.0
 40
0.0
 40
0.0
 40
0.5000061204
 40
1.0
 40
1.0
 40
1.0
 40
1.0
 10
15.3534201083
 20
8.9106626948
 30
0.0
 10
15.3455119786
 20
8.9106676262
 30
0.0
 10
15.3296484756
 20
8.9089647759
 30
0.0
 10
15.3145240226
 20
8.9038577172
 30
0.0
 10
15.3073637039
 20
8.9005013332
 30
0.0
  0
SPLINE
  5
50F
100
AcDbEntity
  8
0
100
AcDbSpline
 62
9
  6
CONTINUOUS
 70
0
 71
3
 72
13
 73
9
 74
0
 42
0.0000001
 43
0.0000001
 44
0.0000000001
 40
0.0
 40
0.0
 40
0.0
 40
0.0
 40
0.1365499258
 40
0.2710182431
 40
0.4019746214
 40
0.5291938048
 40
0.7723299008
 40
1.0
 40
1.0
 40
1.0
 40
1.0
 10
15.3245713598
 20
9.2234622761
 30
0.0
 10
15.3213774442
 20
9.224690884
 30
0.0
 10
15.3151313543
 20
9.2273759444
 30
0.0
 10
15.3061376699
 20
9.2319241295
 30
0.0
 10
15.2975801571
 20
9.2367886273
 30
0.0
 10
15.2869221462
 20
9.2434447815
 30
0.0
 10
15.2746037385
 20
9.2519998633
 30
0.0
 10
15.2653453781
 20
9.2593273598
 30
0.0
 10
15.2609820485
 20
9.2630037127
 30
0.0
  0
SPLINE
  5
510
100
AcDbEntity
  8
0
100
AcDbSpline
 62
9
  6
CONTINUOUS
 70
0
 71
3
 72
9
 73
5
 74
0
 42
0.0000001
 43
0.0000001
 44
0.0000000001
 40
0.0
 40
0.0
 40
0.0
 40
0.0
 40
0.5012254692
 40
1.0
 40
1.0
 40
1.0
 40
1.0
 10
15.3560851431
 20
9.2184668577
 30
0.0
 10
15.3507317498
 20
9.2182199924
 30
0.0
 10
15.339975829
 20
9.2188054155
 30
0.0
 10
15.3295488432
 20
9.22154801
 30
0.0
 10
15.3245712356
 20
9.2234619062
 30
0.0
  0
SPLINE
  5
511
100
AcDbEntity
  8
0
100
AcDbSpline
 62
9
  6
CONTINUOUS
 70
0
 71
3
 72
13
 73
9
 74
0
 42
0.0000001
 43
0.0000001
 44
0.0000000001
 40
0.0
 40
0.0
 40
0.0
 40
0.0
 40
0.1298241254
 40
0.2587309476
 40
0.3862312513
 40
0.5122080669
 40
0.759380541
 40
1.0
 40
1.0
 40
1.0
 40
1.0
 10
15.3073637039
 20
9.1885409334
 30
0.0
 10
15.3043683859
 20
9.1909431675
 30
0.0
 10
15.2987572898
 20
9.1961847086
 30
0.0
 10
15.2913048434
 20
9.2048611947
 30
0.0
 10
15.284682356
 20
9.2140427305
 30
0.0
 10
15.2768616737
 20
9.226626265
 30
0.0
 10
15.268632179
 20
9.2428448055
 30
0.0
 10
15.2633043
 20
9.2562740715
 30
0.0
 10
15.2609824653
 20
9.2630010996
 30
0.0
  0
SPLINE
  5
512
100
AcDbEntity
  8
0
100
AcDbSpline
 62
9
  6
CONTINUOUS
 70
0
 71
3
 72
9
 73
5
 74
0
 42
0.0000001
 43
0.0000001
 44
0.0000000001
 40
0.0
 40
0.0
 40
0.0
 40
0.0
 40
0.5000144669
 40
1.0
 40
1.0
 40
1.0
 40
1.0
 10
15.3558660683
 20
9.1786212392
 30
0.0
 10
15.3475628363
 20
9.1783990189
 30
0.0
 10
15.3308526632
 20
9.1798355587
 30
0.0
 10
15.3148978995
 20
9.1850450851
 30
0.0
 10
15.3073637039
 20
9.1885409334
 30
0.0
  0
SPLINE
  5
513
100
AcDbEntity
  8
0
100
AcDbSpline
 62
9
  6
CONTINUOUS
 70
0
 71
3
 72
14
 73
10
 74
0
 42
0.0000001
 43
0.0000001
 44
0.0000000001
 40
0.0
 40
0.0
 40
0.0
 40
0.0
 40
0.326902664
 40
0.4854973774
 40
0.6317813276
 40
0.7594740506
 40
0.8646646563
 40
0.9447523052
 40
1.0
 40
1.0
 40
1.0
 40
1.0
 10
15.3073641988
 20
9.1885407073
 30
0.0
 10
15.3091485205
 20
9.1923903725
 30
0.0
 10
15.3118263371
 20
9.1980948681
 30
0.0
 10
15.3153746628
 20
9.2054877553
 30
0.0
 10
15.3178367659
 20
9.2105338167
 30
0.0
 10
15.3200316043
 20
9.2149387878
 30
0.0
 10
15.3218802581
 20
9.2185562207
 30
0.0
 10
15.3233439596
 20
9.2213137627
 30
0.0
 10
15.324202455
 20
9.2228469074
 30
0.0
 10
15.3245715509
 20
9.2234617195
 30
0.0
  0
LINE
  5
514
100
AcDbEntity
  8
0
100
AcDbLine
 62
9
  6
CONTINUOUS
 10
17.7462897895
 20
9.2431668747
 11
15.3558660683
 21
9.1786212392
  0
SPLINE
  5
515
100
AcDbEntity
  8
0
100
AcDbSpline
 62
9
  6
CONTINUOUS
 70
0
 71
3
 72
20
 73
16
 74
0
 42
0.0000001
 43
0.0000001
 44
0.0000000001
 40
0.0
 40
0.0
 40
0.0
 40
0.0
 40
0.174303232
 40
0.3518293598
 40
0.5234069953
 40
0.6787492238
 40
0.747154844
 40
0.8082787583
 40
0.8615389227
 40
0.906355067
 40
0.9423093104
 40
0.9696248767
 40
0.9886994523
 40
0.9952863823
 40
1.0
 40
1.0
 40
1.0
 40
1.0
 10
15.3558660775
 20
9.1786212394
 30
0.0
 10
15.3558041133
 20
9.1809373413
 30
0.0
 10
15.3556933898
 20
9.1856127643
 30
0.0
 10
15.3555722508
 20
9.1925691687
 30
0.0
 10
15.3555061599
 20
9.1992742661
 30
0.0
 10
15.3554995265
 20
9.2045292506
 30
0.0
 10
15.3555318955
 20
9.20831581
 30
0.0
 10
15.3555711011
 20
9.2107452535
 30
0.0
 10
15.3556247247
 20
9.2128608006
 30
0.0
 10
15.3556914361
 20
9.2146411702
 30
0.0
 10
15.3557698952
 20
9.2160759833
 30
0.0
 10
15.3558587307
 20
9.2171668379
 30
0.0
 10
15.3559432686
 20
9.2178667768
 30
0.0
 10
15.3560217426
 20
9.2182628554
 30
0.0
 10
15.356062393
 20
9.2184079956
 30
0.0
 10
15.3560851767
 20
9.2184663622
 30
0.0
  0
ENDSEC
  0
SECTION
  2
OBJECTS
  0
DICTIONARY
  5
C
100
AcDbDictionary
280
0
281
1
  3
ACAD_GROUP
350
D
  3
ACAD_MLINESTYLE
350
17
  3
ACAD_LAYOUT
350
1A
  3
ACAD_PLOTSETTINGS
350
19
  3
ACAD_PLOTSTYLENAME
350
E
  0
DICTIONARY
  5
D
102
{ACAD_REACTORS
330
C
102
}
100
AcDbDictionary
280
0
281
1
  0
ACDBDICTIONARYWDFLT
  5
E
102
{ACAD_REACTORS
330
C
102
}
100
AcDbDictionary
281
1
  3
Normal
350
F
100
AcDbDictionaryWithDefault
340
F
  0
DICTIONARY
  5
17
102
{ACAD_REACTORS
330
C
102
}
100
AcDbDictionary
280
0
281
1
  3
Standard
350
18
  0
DICTIONARY
  5
19
102
{ACAD_REACTORS
330
C
102
}
100
AcDbDictionary
281
1
  0
DICTIONARY
  5
1A
102
{ACAD_REACTORS
330
C
102
}
100
AcDbDictionary
281
1
  3
Model
350
516
  3
Layout1
350
517
  0
ACDBPLACEHOLDER
  5
F
102
{ACAD_REACTORS
330
E
102
}
  0
MLINESTYLE
  5
18
102
{ACAD_REACTORS
330
17
102
}
100
AcDbMlineStyle
  2
STANDARD
 70
0
  3

 62
256
 51
90.0
 52
90.0
 71
2
 49
0.5
 62
256
  6
BYLAYER
 49
-0.5
 62
256
  6
BYLAYER
  0
LAYOUT
  5
516
102
{ACAD_REACTORS
330
1A
102
}
100
AcDbPlotSettings
  1

  2
none_device
  4
ANSI_C_(22.00_x_17.00_Inches)
  6

 40
0.0
 41
0.0
 42
0.0
 43
0.0
 44
558.8
 45
431.8
 46
0.0
 47
0.0
 48
0.0
 49
0.0
140
0.0
141
0.0
142
1.0
143
1.0
 70
1024
 72
0
 73
0
 74
0
  7

 75
0
147
1.0
148
0.0
149
0.0
100
AcDbLayout
  1
Model
 70
0
 71
0
 10
0.0
 20
0.0
 11
22.0
 21
17.0
 12
0.0
 22
0.0
 32
0.0
 14
0.0
 24
0.0
 34
0.0
 15
0.0
 25
0.0
 35
0.0
146
0.0
 13
0.0
 23
0.0
 33
0.0
 16
1.0
 26
0.0
 36
0.0
 17
0.0
 27
1.0
 37
0.0
 76
0
330
202
345
0
346
0
  0
LAYOUT
  5
517
102
{ACAD_REACTORS
330
1A
102
}
100
AcDbPlotSettings
  1

  2
none_device
  4
ANSI_C_(22.00_x_17.00_Inches)
  6

 40
0.0
 41
0.0
 42
0.0
 43
0.0
 44
558.8
 45
431.8
 46
0.0
 47
0.0
 48
0.0
 49
0.0
140
0.0
141
0.0
142
1.0
143
1.0
 70
0
 72
0
 73
0
 74
0
  7

 75
0
147
1.0
148
0.0
149
0.0
100
AcDbLayout
  1
Layout1
 70
0
 71
1
 10
0.0
 20
0.0
 11
22.0
 21
17.0
 12
0.0
 22
0.0
 32
0.0
 14
0.0
 24
0.0
 34
0.0
 15
0.0
 25
0.0
 35
0.0
146
0.0
 13
0.0
 23
0.0
 33
0.0
 16
1.0
 26
0.0
 36
0.0
 17
0.0
 27
1.0
 37
0.0
 76
0
330
203
345
0
346
0
  0
ENDSEC
  0
EOF
