999
DXF file: E:\BRASSTECH\RAY\EN-4300m\Webdata\1640\CAD\1640_TOP.dxf
999
Pro/ENGINEER 2018400 by Parametric Technology Corporation
  0
SECTION
  2
HEADER
  9
$ACADVER
  1
AC1018
  9
$DWGCODEPAGE
  3
ANSI_1252
  9
$EXTMAX
 10
22.0
 20
17.0
 30
0.0
  9
$EXTMIN
 10
0.0
 20
0.0
 30
0.0
  9
$LIMMIN
 10
0.0
 20
0.0
  9
$LIMMAX
 10
22.0
 20
17.0
  9
$VIEWCTR
 10
11.0
 20
8.5
  9
$VIEWSIZE
 40
17.0
  9
$CLAYER
  8
0
  9
$LTSCALE
 40
1.21
  9
$CELTYPE
  6
BYLAYER
  9
$DIMSCALE
 40
1.0
  9
$DIMASZ
 40
0.1
  9
$DIMEXO
 40
0.0625
  9
$DIMDLI
 40
0.836
  9
$DIMEXE
 40
0.125
  9
$DIMCEN
 40
0.198
  9
$DIMLFAC
 40
1.0
  9
$DIMBLK
  1
_FILLED
  9
$DIMALT
 70
1
  9
$DIMALTD
 70
2
  9
$DIMALTTD
 70
2
  9
$DIMALTF
 40
25.4
  9
$DIMTXT
 40
0.08
  9
$DIMTOL
 70
1
  9
$DIMLIM
 70
0
  9
$DIMTFAC
 40
1.0
  9
$DIMTP
 40
0.001
  9
$DIMTM
 40
0.001
  9
$DIMGAP
 40
0.09
  9
$DIMDSEP
 70
46
  9
$AUNITS
 70
0
  9
$PDMODE
 70
3
  9
$PDSIZE
 40
0.06
  9
$HANDSEED
  5
5E9
  9
$TILEMODE
 70
1
  9
$MEASUREMENT
 70
0
  9
$INSUNITS
 70
1
  0
ENDSEC
  0
SECTION
  2
CLASSES
  0
CLASS
  1
ACDBDICTIONARYWDFLT
  2
AcDbDictionaryWithDefault
  3
AutoCAD 2000
 90
0
 91
1
280
0
281
0
  0
CLASS
  1
ACDBPLACEHOLDER
  2
AcDbPlaceHolder
  3
AutoCAD 2000
 90
0
 91
1
280
0
281
0
  0
CLASS
  1
LAYOUT
  2
AcDbLayout
  3
AutoCAD 2000
 90
0
 91
0
280
0
281
0
  0
ENDSEC
  0
SECTION
  2
TABLES
  0
TABLE
  2
VPORT
  5
8
100
AcDbSymbolTable
 70
2
  0
VPORT
  5
1F4
100
AcDbSymbolTableRecord
100
AcDbViewportTableRecord
  2
*ACTIVE
 70
0
 10
0.0
 20
0.0
 11
1.0
 21
1.0
 12
11.0
 22
8.5
 13
0.0
 23
0.0
 14
1.0
 24
1.0
 15
0.0
 25
0.0
 16
0.0
 26
0.0
 36
1.0
 17
0.0
 27
0.0
 37
0.0
 40
17.0
 41
1.2941176471
 42
50.0
 43
0.0
 44
0.0
 50
0.0
 51
0.0
 71
0
 72
100
 73
1
 74
1
 75
0
 76
0
 77
0
 78
0
  0
ENDTAB
  0
TABLE
  2
LTYPE
  5
5
100
AcDbSymbolTable
 70
6
  0
LTYPE
  5
14
100
AcDbSymbolTableRecord
100
AcDbLinetypeTableRecord
  2
BYBLOCK
 70
0
  3

 72
65
 73
0
 40
0.0
  0
LTYPE
  5
15
100
AcDbSymbolTableRecord
100
AcDbLinetypeTableRecord
  2
BYLAYER
 70
0
  3

 72
65
 73
0
 40
0.0
  0
LTYPE
  5
16
100
AcDbSymbolTableRecord
100
AcDbLinetypeTableRecord
  2
CONTINUOUS
 70
64
  3
Solid line
 72
65
 73
0
 40
0.0
  0
LTYPE
  5
1F5
100
AcDbSymbolTableRecord
100
AcDbLinetypeTableRecord
  2
CENTER
 70
64
  3
____ _ ____ _ ____ _ ____ _ ____ _ ____ _ ____
 72
65
 73
4
 40
0.6
 49
0.375
 74
0
 49
-0.075
 74
0
 49
0.075
 74
0
 49
-0.075
 74
0
  0
LTYPE
  5
1F6
100
AcDbSymbolTableRecord
100
AcDbLinetypeTableRecord
  2
HIDDEN
 70
64
  3
- - - - - - - - - - - - - - - - - - - -
 72
65
 73
2
 40
0.2
 49
0.1
 74
0
 49
-0.1
 74
0
  0
LTYPE
  5
1F7
100
AcDbSymbolTableRecord
100
AcDbLinetypeTableRecord
  2
PHANTOM
 70
64
  3
_____ _ _ _____ _ _ _____ _ _ _____
 72
65
 73
6
 40
0.8
 49
0.45
 74
0
 49
-0.05
 74
0
 49
0.1
 74
0
 49
-0.05
 74
0
 49
0.1
 74
0
 49
-0.05
 74
0
  0
LTYPE
  5
1F8
100
AcDbSymbolTableRecord
100
AcDbLinetypeTableRecord
  2
DOT
 70
64
  3
. . . . . . . . . . . . . . . . . . . .
 72
65
 73
2
 40
0.2
 49
0.1
 74
0
 49
-0.1
 74
0
  0
LTYPE
  5
1F9
100
AcDbSymbolTableRecord
100
AcDbLinetypeTableRecord
  2
DASHED
 70
64
  3
- - - - - - - - - - - - - - - - - - - -
 72
65
 73
2
 40
0.2
 49
0.1
 74
0
 49
-0.1
 74
0
  0
ENDTAB
  0
TABLE
  2
LAYER
  5
2
100
AcDbSymbolTable
 70
36
  0
LAYER
  5
10
100
AcDbSymbolTableRecord
100
AcDbLayerTableRecord
  2
0
 70
0
 62
7
  6
CONTINUOUS
370
-3
390
F
  0
LAYER
  5
1FA
100
AcDbSymbolTableRecord
100
AcDbLayerTableRecord
  2
DEFAULT_1
 70
0
 62
7
  6
CENTER
370
-3
390
F
  0
LAYER
  5
1FB
100
AcDbSymbolTableRecord
100
AcDbLayerTableRecord
  2
DEFAULT_2
 70
0
 62
8
  6
HIDDEN
370
-3
390
F
  0
LAYER
  5
1FC
100
AcDbSymbolTableRecord
100
AcDbLayerTableRecord
  2
DEFAULT_3
 70
0
 62
7
  6
PHANTOM
370
-3
390
F
  0
LAYER
  5
1FD
100
AcDbSymbolTableRecord
100
AcDbLayerTableRecord
  2
ALL_FEATURES
 70
0
 62
7
  6
CONTINUOUS
370
-3
390
F
  0
LAYER
  5
1FE
100
AcDbSymbolTableRecord
100
AcDbLayerTableRecord
  2
AXES_FEATURES
 70
0
 62
7
  6
CONTINUOUS
370
-3
390
F
  0
LAYER
  5
1FF
100
AcDbSymbolTableRecord
100
AcDbLayerTableRecord
  2
DIMENSIONS
 70
0
 62
7
  6
CONTINUOUS
370
-3
390
F
  0
ENDTAB
  0
TABLE
  2
STYLE
  5
3
100
AcDbSymbolTable
 70
1
  0
STYLE
  5
11
100
AcDbSymbolTableRecord
100
AcDbTextStyleTableRecord
  2
STANDARD
 70
0
 40
0.0
 41
0.8
 50
0.0
 71
0
 42
0.2
  3
txt
  4

  0
STYLE
  5
200
100
AcDbSymbolTableRecord
100
AcDbTextStyleTableRecord
  2
TEXTSTYLE_1
 70
0
 40
0.0
 41
0.8
 50
0.0
 71
0
 42
0.2
  3
gdt
  4

  0
ENDTAB
  0
TABLE
  2
VIEW
  5
6
100
AcDbSymbolTable
 70
0
  0
ENDTAB
  0
TABLE
  2
UCS
  5
7
100
AcDbSymbolTable
 70
0
  0
ENDTAB
  0
TABLE
  2
APPID
  5
9
100
AcDbSymbolTable
 70
1
  0
APPID
  5
201
100
AcDbSymbolTableRecord
100
AcDbRegAppTableRecord
  2
ACAD
 70
0
  0
ENDTAB
  0
TABLE
  2
BLOCK_RECORD
  5
1
100
AcDbSymbolTable
 70
0
  0
BLOCK_RECORD
  5
202
100
AcDbSymbolTableRecord
100
AcDbBlockTableRecord
  2
*Model_Space
  0
BLOCK_RECORD
  5
203
100
AcDbSymbolTableRecord
100
AcDbBlockTableRecord
  2
*Paper_Space
  0
BLOCK_RECORD
  5
204
100
AcDbSymbolTableRecord
100
AcDbBlockTableRecord
  2
_FILLED
  0
ENDTAB
  0
TABLE
  2
DIMSTYLE
  5
A
100
AcDbSymbolTable
 70
1
100
AcDbDimStyleTable
 71
0
  0
DIMSTYLE
105
205
100
AcDbSymbolTableRecord
100
AcDbDimStyleTableRecord
  2
STANDARD
 70
0
  3

  4

 40
1.0
 41
0.1
 42
0.0625
 43
0.38
 44
0.125
 45
0.0
 46
0.0
 47
0.001
 48
0.001
140
0.08
141
0.09
142
0.0
143
25.4
144
1.0
145
0.0
146
1.0
147
0.09
 71
1.0
 72
0.0
 73
1
 74
1
 75
0
 76
0
 77
0
 78
4
 79
1
170
1
171
2
172
0
173
0
174
0
175
0
176
0
177
0
178
0
270
2
179
3
271
3
272
3
273
2
274
2
275
0
280
0
281
0
282
0
283
1
284
4
285
0
286
0
287
3
288
0
340
11
278
46
341
204
342
204
343
204
344
204
  0
ENDTAB
  0
ENDSEC
  0
SECTION
  2
BLOCKS
  0
BLOCK
  5
20
100
AcDbEntity
  8
0
100
AcDbBlockBegin
  2
*Model_Space
 70
0
 10
0.0
 20
0.0
 30
0.0
  3
*Model_Space
  1

  0
ENDBLK
  5
21
100
AcDbEntity
  8
0
100
AcDbBlockEnd
  0
BLOCK
  5
1C
100
AcDbEntity
  8
0
100
AcDbBlockBegin
  2
*Paper_Space
 70
0
 10
0.0
 20
0.0
 30
0.0
  3
*Paper_Space
  1

  0
ENDBLK
  5
1D
100
AcDbEntity
  8
0
100
AcDbBlockEnd
  0
BLOCK
  5
206
100
AcDbEntity
  8
0
100
AcDbBlockBegin
  2
_FILLED
 70
64
 10
0.0
 20
0.0
  3
_FILLED
  1

  0
SOLID
  5
207
100
AcDbEntity
  8
0
  6
BYBLOCK
 62
0
100
AcDbTrace
 10
0.0
 20
0.0
 11
-1.0
 21
0.2
 12
-1.0
 22
-0.2
 13
-1.0
 23
-0.2
  0
ENDBLK
  5
208
100
AcDbEntity
  8
0
  6
BYBLOCK
 62
0
100
AcDbBlockEnd
  0
ENDSEC
  0
SECTION
  2
ENTITIES
  0
LINE
  5
209
100
AcDbEntity
  8
0
100
AcDbLine
 62
9
  6
CONTINUOUS
 10
5.9014692651
 20
10.8873850584
 11
6.0527768351
 21
11.0386926285
  0
LINE
  5
20A
100
AcDbEntity
  8
0
100
AcDbLine
 62
9
  6
CONTINUOUS
 10
6.2944113702
 20
10.980767263
 11
5.9593946306
 21
10.6457505233
  0
LINE
  5
20B
100
AcDbEntity
  8
0
100
AcDbLine
 62
9
  6
CONTINUOUS
 10
6.491841275
 20
10.7833373582
 11
6.1568245354
 21
10.4483206186
  0
LINE
  5
20C
100
AcDbEntity
  8
0
100
AcDbLine
 62
9
  6
CONTINUOUS
 10
6.5355839647
 20
10.6940835717
 11
6.2460783219
 21
10.4045779289
  0
LINE
  5
20D
100
AcDbEntity
  8
0
100
AcDbLine
 62
9
  6
CONTINUOUS
 10
6.6577046006
 20
10.4945893273
 11
6.4455725663
 21
10.282457293
  0
LINE
  5
20E
100
AcDbEntity
  8
0
100
AcDbLine
 62
7
  6
CONTINUOUS
 10
6.941403355
 20
10.2003438789
 11
6.9426111709
 21
10.2031893148
  0
LINE
  5
20F
100
AcDbEntity
  8
0
100
AcDbLine
 62
7
  6
CONTINUOUS
 10
6.9385314037
 20
10.2242208712
 11
6.9415332289
 21
10.2294159694
  0
LINE
  5
210
100
AcDbEntity
  8
0
100
AcDbLine
 62
7
  6
CONTINUOUS
 10
6.6923185624
 20
9.8928419164
 11
6.6923183383
 21
9.8926633763
  0
LINE
  5
211
100
AcDbEntity
  8
0
100
AcDbLine
 62
7
  6
CONTINUOUS
 10
6.9575633794
 20
10.1790620861
 11
6.9597260255
 21
10.1950650864
  0
LINE
  5
212
100
AcDbEntity
  8
0
100
AcDbLine
 62
7
  6
CONTINUOUS
 10
6.9595129934
 20
9.604804979
 11
6.9582655233
 21
9.5989360934
  0
LINE
  5
213
100
AcDbEntity
  8
0
100
AcDbLine
 62
7
  6
CONTINUOUS
 10
6.9489094972
 20
9.5549194514
 11
6.947038292
 21
9.546116123
  0
LINE
  5
214
100
AcDbEntity
  8
0
100
AcDbLine
 62
7
  6
CONTINUOUS
 10
6.9616647102
 20
9.5884744718
 11
6.9562699339
 21
9.5630940445
  0
LINE
  5
215
100
AcDbEntity
  8
0
100
AcDbLine
 62
7
  6
CONTINUOUS
 10
6.969955945
 20
9.5649551183
 11
6.9689858527
 21
9.5603911925
  0
LINE
  5
216
100
AcDbEntity
  8
0
100
AcDbLine
 62
7
  6
CONTINUOUS
 10
6.971664344
 20
9.5729925034
 11
6.9760682832
 21
9.5937114085
  0
LINE
  5
217
100
AcDbEntity
  8
0
100
AcDbLine
 62
7
  6
CONTINUOUS
 10
6.9723850396
 20
9.5499295708
 11
6.9705138344
 21
9.5411262424
  0
LINE
  5
218
100
AcDbEntity
  8
0
100
AcDbLine
 62
7
  6
CONTINUOUS
 10
7.005727148
 20
9.5336414215
 11
7.0075983532
 21
9.54244475
  0
LINE
  5
219
100
AcDbEntity
  8
0
100
AcDbLine
 62
7
  6
CONTINUOUS
 10
6.9956243476
 20
10.2433931196
 11
6.9879264339
 21
10.2105973489
  0
LINE
  5
21A
100
AcDbEntity
  8
0
100
AcDbLine
 62
7
  6
CONTINUOUS
 10
6.9881241101
 20
10.1851827181
 11
6.9958220238
 21
10.2179784888
  0
LINE
  5
21B
100
AcDbEntity
  8
0
100
AcDbLine
 62
7
  6
CONTINUOUS
 10
7.0183223694
 20
10.236915795
 11
7.0130799491
 21
10.2145812743
  0
LINE
  5
21C
100
AcDbEntity
  8
0
100
AcDbLine
 62
7
  6
CONTINUOUS
 10
7.0132776253
 20
10.1891666435
 11
7.0257563116
 21
10.2423301563
  0
LINE
  5
21D
100
AcDbEntity
  8
0
100
AcDbLine
 62
7
  6
CONTINUOUS
 10
7.2869502079
 20
10.1508302843
 11
7.2896170983
 21
10.159116556
  0
LINE
  5
21E
100
AcDbEntity
  8
0
100
AcDbLine
 62
7
  6
CONTINUOUS
 10
7.0348183383
 20
9.9628435553
 11
6.998832307
 21
9.863972747
  0
LINE
  5
21F
100
AcDbEntity
  8
0
100
AcDbLine
 62
7
  6
CONTINUOUS
 10
7.0140089016
 20
9.861813032
 11
7.0162038326
 21
9.8678435553
  0
LINE
  5
220
100
AcDbEntity
  8
0
100
AcDbLine
 62
7
  6
CONTINUOUS
 10
7.0234832373
 20
9.8878435553
 11
7.041837005
 21
9.9382701176
  0
LINE
  5
221
100
AcDbEntity
  8
0
100
AcDbLine
 62
7
  6
CONTINUOUS
 10
7.0418183383
 20
9.5928435553
 11
7.0265536142
 21
9.5509040705
  0
LINE
  5
222
100
AcDbEntity
  8
0
100
AcDbLine
 62
7
  6
CONTINUOUS
 10
7.0324720009
 20
9.549621878
 11
7.0332806253
 21
9.5518435553
  0
LINE
  5
223
100
AcDbEntity
  8
0
100
AcDbLine
 62
7
  6
CONTINUOUS
 10
7.0365563574
 20
9.5608435553
 11
7.0445937161
 21
9.5829260167
  0
LINE
  5
224
100
AcDbEntity
  8
0
100
AcDbLine
 62
7
  6
CONTINUOUS
 10
6.9070264362
 20
9.6269146509
 11
6.9045860163
 21
9.6214333781
  0
LINE
  5
225
100
AcDbEntity
  8
0
100
AcDbLine
 62
7
  6
CONTINUOUS
 10
6.8862828674
 20
9.5803238325
 11
6.8826222376
 21
9.5721019234
  0
LINE
  5
226
100
AcDbEntity
  8
0
100
AcDbLine
 62
7
  6
CONTINUOUS
 10
6.9064252713
 20
9.6132714457
 11
6.893579067
 21
9.5844183985
  0
LINE
  5
227
100
AcDbEntity
  8
0
100
AcDbLine
 62
7
  6
CONTINUOUS
 10
6.9197095525
 20
9.6136053097
 11
6.9136085028
 21
9.5999021279
  0
LINE
  5
228
100
AcDbEntity
  8
0
100
AcDbLine
 62
7
  6
CONTINUOUS
 10
6.9095411364
 20
9.5907666733
 11
6.9014064035
 21
9.5724957641
  0
LINE
  5
229
100
AcDbEntity
  8
0
100
AcDbLine
 62
7
  6
CONTINUOUS
 10
7.1822237288
 20
10.2264698966
 11
7.1795935019
 21
10.2210771323
  0
LINE
  5
22A
100
AcDbEntity
  8
0
100
AcDbLine
 62
7
  6
CONTINUOUS
 10
7.1598668003
 20
10.1806314002
 11
7.15592146
 21
10.1725422538
  0
LINE
  5
22B
100
AcDbEntity
  8
0
100
AcDbLine
 62
7
  6
CONTINUOUS
 10
7.1803608232
 20
10.2101039278
 11
7.1689862136
 21
10.1867825222
  0
LINE
  5
22C
100
AcDbEntity
  8
0
100
AcDbLine
 62
7
  6
CONTINUOUS
 10
7.1806705362
 20
10.1810836973
 11
7.1827159263
 21
10.1852773684
  0
LINE
  5
22D
100
AcDbEntity
  8
0
100
AcDbLine
 62
7
  6
CONTINUOUS
 10
7.1863179979
 20
10.1926627097
 11
7.1956034781
 21
10.2117007654
  0
LINE
  5
22E
100
AcDbEntity
  8
0
100
AcDbLine
 62
7
  6
CONTINUOUS
 10
7.1774925171
 20
10.1620213463
 11
7.1814378574
 21
10.1701104927
  0
LINE
  5
22F
100
AcDbEntity
  8
0
100
AcDbLine
 62
7
  6
CONTINUOUS
 10
7.2098491028
 20
10.146239985
 11
7.2137944431
 21
10.1543291314
  0
LINE
  5
230
100
AcDbEntity
  8
0
100
AcDbLine
 62
7
  6
CONTINUOUS
 10
7.2266979329
 20
10.1435544666
 11
7.2211569796
 21
10.1364623698
  0
LINE
  5
231
100
AcDbEntity
  8
0
100
AcDbLine
 62
7
  6
CONTINUOUS
 10
7.2584781447
 20
10.1736735326
 11
7.238751323
 21
10.1484243523
  0
LINE
  5
232
100
AcDbEntity
  8
0
100
AcDbLine
 62
7
  6
CONTINUOUS
 10
7.2489954628
 20
10.1404207531
 11
7.2687222845
 21
10.1656699335
  0
LINE
  5
233
100
AcDbEntity
  8
0
100
AcDbLine
 62
7
  6
CONTINUOUS
 10
7.2416452592
 20
10.1204551715
 11
7.2471862125
 21
10.1275472682
  0
LINE
  5
234
100
AcDbEntity
  8
0
100
AcDbLine
 62
7
  6
CONTINUOUS
 10
6.6044326784
 20
9.6620899298
 11
6.4455725663
 21
9.5032298176
  0
LINE
  5
235
100
AcDbEntity
  8
0
100
AcDbLine
 62
7
  6
CONTINUOUS
 10
7.2780804818
 20
10.3357377332
 11
7.436932076
 21
10.4945893273
  0
LINE
  5
236
100
AcDbEntity
  8
0
100
AcDbLine
 62
7
  6
CONTINUOUS
 10
6.8165561947
 20
9.4499493774
 11
6.6577046006
 21
9.2910977833
  0
LINE
  5
237
100
AcDbEntity
  8
0
100
AcDbLine
 62
7
  6
CONTINUOUS
 10
7.4902039982
 20
10.1235971808
 11
7.6490641103
 21
10.282457293
  0
LINE
  5
238
100
AcDbEntity
  8
0
100
AcDbLine
 62
7
  6
CONTINUOUS
 10
6.8630009935
 20
10.2026775696
 11
6.8452026196
 21
10.1897462941
  0
LINE
  5
239
100
AcDbEntity
  8
0
100
AcDbLine
 62
7
  6
CONTINUOUS
 10
6.8258068287
 20
10.1756544271
 11
6.8120329229
 21
10.1656470987
  0
LINE
  5
23A
100
AcDbEntity
  8
0
100
AcDbLine
 62
7
  6
CONTINUOUS
 10
6.847300038
 20
10.1171060791
 11
6.8650984119
 21
10.1300373546
  0
LINE
  5
23B
100
AcDbEntity
  8
0
100
AcDbLine
 62
7
  6
CONTINUOUS
 10
6.8844942028
 20
10.1441292216
 11
6.8982681087
 21
10.1541365499
  0
LINE
  5
23C
100
AcDbEntity
  8
0
100
AcDbLine
 62
7
  6
CONTINUOUS
 10
7.2470645176
 20
10.1923622757
 11
7.2396695627
 21
10.1877699728
  0
LINE
  5
23D
100
AcDbEntity
  8
0
100
AcDbLine
 62
7
  6
CONTINUOUS
 10
7.0905409839
 20
9.5564910885
 11
7.0913260232
 21
9.5415116454
  0
LINE
  5
23E
100
AcDbEntity
  8
0
100
AcDbLine
 62
7
  6
CONTINUOUS
 10
6.8373183383
 20
9.9628435553
 11
6.8373183383
 21
9.9478435553
  0
LINE
  5
23F
100
AcDbEntity
  8
0
100
AcDbLine
 62
7
  6
CONTINUOUS
 10
6.8373183383
 20
9.8428435553
 11
6.8373183383
 21
9.8228435553
  0
LINE
  5
240
100
AcDbEntity
  8
0
100
AcDbLine
 62
7
  6
CONTINUOUS
 10
6.8518183383
 20
9.9236146708
 11
6.8518183383
 21
9.8620724398
  0
LINE
  5
241
100
AcDbEntity
  8
0
100
AcDbLine
 62
7
  6
CONTINUOUS
 10
6.8848183383
 20
9.8620724398
 11
6.8848183383
 21
9.8848435553
  0
LINE
  5
242
100
AcDbEntity
  8
0
100
AcDbLine
 62
7
  6
CONTINUOUS
 10
6.8848183383
 20
9.9036146708
 11
6.8848183383
 21
9.9236146708
  0
LINE
  5
243
100
AcDbEntity
  8
0
100
AcDbLine
 62
7
  6
CONTINUOUS
 10
6.8973183383
 20
9.8228435553
 11
6.8973183383
 21
9.8435319436
  0
LINE
  5
244
100
AcDbEntity
  8
0
100
AcDbLine
 62
7
  6
CONTINUOUS
 10
6.8973183383
 20
9.942155167
 11
6.8973183383
 21
9.9628435553
  0
LINE
  5
245
100
AcDbEntity
  8
0
100
AcDbLine
 62
7
  6
CONTINUOUS
 10
6.9123183383
 20
9.9628435553
 11
6.9123183383
 21
9.942155167
  0
LINE
  5
246
100
AcDbEntity
  8
0
100
AcDbLine
 62
7
  6
CONTINUOUS
 10
6.9123183383
 20
9.8435319436
 11
6.9123183383
 21
9.8228435553
  0
LINE
  5
247
100
AcDbEntity
  8
0
100
AcDbLine
 62
7
  6
CONTINUOUS
 10
6.9248183383
 20
9.9236146708
 11
6.9248183383
 21
9.9036146708
  0
LINE
  5
248
100
AcDbEntity
  8
0
100
AcDbLine
 62
7
  6
CONTINUOUS
 10
6.9248183383
 20
9.8848435553
 11
6.9248183383
 21
9.8620724398
  0
LINE
  5
249
100
AcDbEntity
  8
0
100
AcDbLine
 62
7
  6
CONTINUOUS
 10
6.9578183383
 20
9.8620724398
 11
6.9578183383
 21
9.9236146708
  0
LINE
  5
24A
100
AcDbEntity
  8
0
100
AcDbLine
 62
7
  6
CONTINUOUS
 10
6.9723183383
 20
9.8228435553
 11
6.9723183383
 21
9.8428435553
  0
LINE
  5
24B
100
AcDbEntity
  8
0
100
AcDbLine
 62
7
  6
CONTINUOUS
 10
6.9723183383
 20
9.9478435553
 11
6.9723183383
 21
9.9628435553
  0
LINE
  5
24C
100
AcDbEntity
  8
0
100
AcDbLine
 62
7
  6
CONTINUOUS
 10
6.9773183383
 20
9.8428435553
 11
6.9773183383
 21
9.8228435553
  0
LINE
  5
24D
100
AcDbEntity
  8
0
100
AcDbLine
 62
7
  6
CONTINUOUS
 10
7.0173183383
 20
9.5418435553
 11
7.0173183383
 21
9.5328435553
  0
LINE
  5
24E
100
AcDbEntity
  8
0
100
AcDbLine
 62
7
  6
CONTINUOUS
 10
7.0223183383
 20
9.8228435553
 11
7.0223183383
 21
9.8428435553
  0
LINE
  5
24F
100
AcDbEntity
  8
0
100
AcDbLine
 62
7
  6
CONTINUOUS
 10
7.0363183383
 20
9.5328435553
 11
7.0363183383
 21
9.5418435553
  0
LINE
  5
250
100
AcDbEntity
  8
0
100
AcDbLine
 62
7
  6
CONTINUOUS
 10
7.0528690939
 20
9.5328435553
 11
7.0528690939
 21
9.5418435553
  0
LINE
  5
251
100
AcDbEntity
  8
0
100
AcDbLine
 62
7
  6
CONTINUOUS
 10
7.0613556717
 20
9.8428435553
 11
7.0613556717
 21
9.8228435553
  0
LINE
  5
252
100
AcDbEntity
  8
0
100
AcDbLine
 62
7
  6
CONTINUOUS
 10
7.0793183383
 20
9.5328435553
 11
7.0793183383
 21
9.5418435553
  0
LINE
  5
253
100
AcDbEntity
  8
0
100
AcDbLine
 62
7
  6
CONTINUOUS
 10
7.1123183383
 20
9.9628435553
 11
7.1123183383
 21
9.9478435553
  0
LINE
  5
254
100
AcDbEntity
  8
0
100
AcDbLine
 62
7
  6
CONTINUOUS
 10
7.1223183383
 20
9.8228435553
 11
7.1223183383
 21
9.8428435553
  0
LINE
  5
255
100
AcDbEntity
  8
0
100
AcDbLine
 62
7
  6
CONTINUOUS
 10
7.1283183383
 20
9.9318435553
 11
7.1283183383
 21
9.8778435553
  0
LINE
  5
256
100
AcDbEntity
  8
0
100
AcDbLine
 62
7
  6
CONTINUOUS
 10
7.1583183383
 20
9.8778435553
 11
7.1583183383
 21
9.9318435553
  0
LINE
  5
257
100
AcDbEntity
  8
0
100
AcDbLine
 62
7
  6
CONTINUOUS
 10
7.1743183383
 20
9.9478435553
 11
7.1743183383
 21
9.9628435553
  0
LINE
  5
258
100
AcDbEntity
  8
0
100
AcDbLine
 62
7
  6
CONTINUOUS
 10
7.2023183383
 20
9.9628435553
 11
7.2023183383
 21
9.9478435553
  0
LINE
  5
259
100
AcDbEntity
  8
0
100
AcDbLine
 62
7
  6
CONTINUOUS
 10
7.0429967339
 20
10.2523742546
 11
7.0427350176
 21
10.2463799653
  0
LINE
  5
25A
100
AcDbEntity
  8
0
100
AcDbLine
 62
7
  6
CONTINUOUS
 10
7.0407721452
 20
10.2014227953
 11
7.0403795707
 21
10.1924313613
  0
LINE
  5
25B
100
AcDbEntity
  8
0
100
AcDbLine
 62
7
  6
CONTINUOUS
 10
7.0455055093
 20
10.2410579003
 11
7.0439959428
 21
10.206483144
  0
LINE
  5
25C
100
AcDbEntity
  8
0
100
AcDbLine
 62
7
  6
CONTINUOUS
 10
7.0596617904
 20
10.2443318462
 11
7.0589034965
 21
10.2269640608
  0
LINE
  5
25D
100
AcDbEntity
  8
0
100
AcDbLine
 62
7
  6
CONTINUOUS
 10
7.0579826179
 20
10.2058724725
 11
7.0585411139
 21
10.2186641337
  0
LINE
  5
25E
100
AcDbEntity
  8
0
100
AcDbLine
 62
7
  6
CONTINUOUS
 10
7.0607531096
 20
10.2005504075
 11
7.0603605351
 21
10.1915589736
  0
LINE
  5
25F
100
AcDbEntity
  8
0
100
AcDbLine
 62
7
  6
CONTINUOUS
 10
6.9249099239
 20
10.2305813182
 11
6.8868734233
 21
10.2152135745
  0
LINE
  5
260
100
AcDbEntity
  8
0
100
AcDbLine
 62
7
  6
CONTINUOUS
 10
6.9080234223
 20
10.2140519161
 11
6.9292844101
 21
10.2226419127
  0
LINE
  5
261
100
AcDbEntity
  8
0
100
AcDbLine
 62
7
  6
CONTINUOUS
 10
6.9308844078
 20
10.2081888674
 11
6.9123407307
 21
10.2006967355
  0
LINE
  5
262
100
AcDbEntity
  8
0
100
AcDbLine
 62
7
  6
CONTINUOUS
 10
6.9166393739
 20
10.1927266874
 11
6.9314743156
 21
10.1987203929
  0
LINE
  5
263
100
AcDbEntity
  8
0
100
AcDbLine
 62
7
  6
CONTINUOUS
 10
6.9406241793
 20
10.1840820871
 11
6.923007686
 21
10.1769645619
  0
LINE
  5
264
100
AcDbEntity
  8
0
100
AcDbLine
 62
7
  6
CONTINUOUS
 10
6.9093498189
 20
10.1595825432
 11
6.9575633794
 21
10.1790620861
  0
LINE
  5
265
100
AcDbEntity
  8
0
100
AcDbLine
 62
7
  6
CONTINUOUS
 10
7.141516759
 20
9.5826807359
 11
7.1407317197
 21
9.5976601789
  0
LINE
  5
266
100
AcDbEntity
  8
0
100
AcDbLine
 62
7
  6
CONTINUOUS
 10
7.2183183383
 20
9.8778435553
 11
7.2183183383
 21
9.9318435553
  0
LINE
  5
267
100
AcDbEntity
  8
0
100
AcDbLine
 62
7
  6
CONTINUOUS
 10
7.2383183383
 20
9.8778435553
 11
7.2383183383
 21
9.9318435553
  0
LINE
  5
268
100
AcDbEntity
  8
0
100
AcDbLine
 62
7
  6
CONTINUOUS
 10
7.2523183383
 20
9.9458435553
 11
7.2523183383
 21
9.9628435553
  0
LINE
  5
269
100
AcDbEntity
  8
0
100
AcDbLine
 62
7
  6
CONTINUOUS
 10
7.2573183383
 20
9.9628435553
 11
7.2573183383
 21
9.9478435553
  0
LINE
  5
26A
100
AcDbEntity
  8
0
100
AcDbLine
 62
7
  6
CONTINUOUS
 10
7.2573183383
 20
9.8428435553
 11
7.2573183383
 21
9.8228435553
  0
LINE
  5
26B
100
AcDbEntity
  8
0
100
AcDbLine
 62
7
  6
CONTINUOUS
 10
7.2653183383
 20
9.9345770561
 11
7.2653183383
 21
9.8561100545
  0
LINE
  5
26C
100
AcDbEntity
  8
0
100
AcDbLine
 62
7
  6
CONTINUOUS
 10
7.3023183383
 20
9.9428435553
 11
7.3023183383
 21
9.8478435553
  0
LINE
  5
26D
100
AcDbEntity
  8
0
100
AcDbLine
 62
9
  6
CONTINUOUS
 10
7.436932076
 20
9.2910977833
 11
7.6490641103
 21
9.5032298176
  0
LINE
  5
26E
100
AcDbEntity
  8
0
100
AcDbLine
 62
9
  6
CONTINUOUS
 10
7.5590527118
 20
9.0916035389
 11
7.8485583547
 21
9.3811091817
  0
LINE
  5
26F
100
AcDbEntity
  8
0
100
AcDbLine
 62
9
  6
CONTINUOUS
 10
7.6027954016
 20
9.0023497524
 11
7.9378121412
 21
9.337366492
  0
LINE
  5
270
100
AcDbEntity
  8
0
100
AcDbLine
 62
7
  6
CONTINUOUS
 10
6.9532887987
 20
10.2404132543
 11
6.9542274055
 21
10.2344871243
  0
LINE
  5
271
100
AcDbEntity
  8
0
100
AcDbLine
 62
7
  6
CONTINUOUS
 10
6.9799073023
 20
10.2385544204
 11
6.9789686955
 21
10.2444805504
  0
LINE
  5
272
100
AcDbEntity
  8
0
100
AcDbLine
 62
7
  6
CONTINUOUS
 10
7.0111287795
 20
10.2495742073
 11
7.0120673862
 21
10.2436480773
  0
LINE
  5
273
100
AcDbEntity
  8
0
100
AcDbLine
 62
7
  6
CONTINUOUS
 10
7.0302794077
 20
10.2465325781
 11
7.0293408009
 21
10.2524587081
  0
LINE
  5
274
100
AcDbEntity
  8
0
100
AcDbLine
 62
7
  6
CONTINUOUS
 10
7.2396695627
 20
10.1877699728
 11
7.2401570401
 21
10.1837997882
  0
LINE
  5
275
100
AcDbEntity
  8
0
100
AcDbLine
 62
9
  6
CONTINUOUS
 10
7.8002253063
 20
8.8049198476
 11
8.135242046
 21
9.1399365873
  0
LINE
  5
276
100
AcDbEntity
  8
0
100
AcDbLine
 62
9
  6
CONTINUOUS
 10
8.1931674115
 20
8.8983020522
 11
8.0418598414
 21
8.7469944821
  0
LINE
  5
277
100
AcDbEntity
  8
0
100
AcDbLine
 62
7
  6
CONTINUOUS
 10
7.2031063427
 20
9.6101663988
 11
7.2088739128
 21
9.6118202229
  0
LINE
  5
278
100
AcDbEntity
  8
0
100
AcDbLine
 62
7
  6
CONTINUOUS
 10
7.1708636025
 20
9.5764885842
 11
7.1650960323
 21
9.5748347601
  0
LINE
  5
279
100
AcDbEntity
  8
0
100
AcDbLine
 62
7
  6
CONTINUOUS
 10
7.0445937161
 20
9.5829260167
 11
7.0526310747
 21
9.5608435553
  0
LINE
  5
27A
100
AcDbEntity
  8
0
100
AcDbLine
 62
7
  6
CONTINUOUS
 10
7.0559068068
 20
9.5518435553
 11
7.0567154313
 21
9.549621878
  0
LINE
  5
27B
100
AcDbEntity
  8
0
100
AcDbLine
 62
7
  6
CONTINUOUS
 10
7.0700830624
 20
9.5509040705
 11
7.0548183383
 21
9.5928435553
  0
LINE
  5
27C
100
AcDbEntity
  8
0
100
AcDbLine
 62
7
  6
CONTINUOUS
 10
7.1650960323
 20
9.5748347601
 11
7.1692305926
 21
9.5604158347
  0
LINE
  5
27D
100
AcDbEntity
  8
0
100
AcDbLine
 62
7
  6
CONTINUOUS
 10
7.2088739128
 20
9.6118202229
 11
7.2047393525
 21
9.6262391484
  0
LINE
  5
27E
100
AcDbEntity
  8
0
100
AcDbLine
 62
7
  6
CONTINUOUS
 10
6.8323183383
 20
9.9169300232
 11
6.8193183383
 21
9.9628435553
  0
LINE
  5
27F
100
AcDbEntity
  8
0
100
AcDbLine
 62
7
  6
CONTINUOUS
 10
7.1869280275
 20
10.1839407975
 11
7.194569604
 21
10.1536922945
  0
LINE
  5
280
100
AcDbEntity
  8
0
100
AcDbLine
 62
9
  6
CONTINUOUS
 10
6.0527768351
 20
8.7469944821
 11
5.9014692651
 21
8.8983020522
  0
LINE
  5
281
100
AcDbEntity
  8
0
100
AcDbLine
 62
7
  6
CONTINUOUS
 10
6.9743662745
 20
9.5646772488
 11
6.9890986388
 21
9.5371759203
  0
LINE
  5
282
100
AcDbEntity
  8
0
100
AcDbLine
 62
7
  6
CONTINUOUS
 10
6.8868734233
 20
10.2152135745
 11
6.8891210629
 21
10.2096504713
  0
LINE
  5
283
100
AcDbEntity
  8
0
100
AcDbLine
 62
7
  6
CONTINUOUS
 10
6.9059783596
 20
10.1679271979
 11
6.9093498189
 21
10.1595825432
  0
LINE
  5
284
100
AcDbEntity
  8
0
100
AcDbLine
 62
7
  6
CONTINUOUS
 10
6.8938491274
 20
10.2059565025
 11
6.9068133982
 21
10.1738688063
  0
LINE
  5
285
100
AcDbEntity
  8
0
100
AcDbLine
 62
7
  6
CONTINUOUS
 10
6.9191023147
 20
10.1786222937
 11
6.9149816422
 21
10.1888213161
  0
LINE
  5
286
100
AcDbEntity
  8
0
100
AcDbLine
 62
7
  6
CONTINUOUS
 10
6.9097371498
 20
10.20180189
 11
6.9063656905
 21
10.2101465447
  0
LINE
  5
287
100
AcDbEntity
  8
0
100
AcDbLine
 62
7
  6
CONTINUOUS
 10
6.9426111709
 20
10.2031893148
 11
6.9395930201
 21
10.2106595
  0
LINE
  5
288
100
AcDbEntity
  8
0
100
AcDbLine
 62
7
  6
CONTINUOUS
 10
7.041837005
 20
9.9382701176
 11
7.0601907727
 21
9.8878435553
  0
LINE
  5
289
100
AcDbEntity
  8
0
100
AcDbLine
 62
7
  6
CONTINUOUS
 10
7.0674701774
 20
9.8678435553
 11
7.0696651083
 21
9.861813032
  0
LINE
  5
28A
100
AcDbEntity
  8
0
100
AcDbLine
 62
7
  6
CONTINUOUS
 10
7.1008043695
 20
9.863972747
 11
7.0648183383
 21
9.9628435553
  0
LINE
  5
28B
100
AcDbEntity
  8
0
100
AcDbLine
 62
9
  6
CONTINUOUS
 10
5.9593946306
 20
9.1399365873
 11
6.2944113702
 21
8.8049198476
  0
LINE
  5
28C
100
AcDbEntity
  8
0
100
AcDbLine
 62
9
  6
CONTINUOUS
 10
6.1568245354
 20
9.337366492
 11
6.491841275
 21
9.0023497524
  0
LINE
  5
28D
100
AcDbEntity
  8
0
100
AcDbLine
 62
7
  6
CONTINUOUS
 10
7.208909562
 20
10.1590414234
 11
7.1984260329
 21
10.1787079357
  0
LINE
  5
28E
100
AcDbEntity
  8
0
100
AcDbLine
 62
9
  6
CONTINUOUS
 10
6.2460783219
 20
9.3811091817
 11
6.5355839647
 21
9.0916035389
  0
LINE
  5
28F
100
AcDbEntity
  8
0
100
AcDbLine
 62
9
  6
CONTINUOUS
 10
6.4455725663
 20
9.5032298176
 11
6.6577046006
 21
9.2910977833
  0
LINE
  5
290
100
AcDbEntity
  8
0
100
AcDbLine
 62
7
  6
CONTINUOUS
 10
6.8120329229
 20
10.1656470987
 11
6.8161474196
 21
10.1599839798
  0
LINE
  5
291
100
AcDbEntity
  8
0
100
AcDbLine
 62
7
  6
CONTINUOUS
 10
6.8431855413
 20
10.122769198
 11
6.847300038
 21
10.1171060791
  0
LINE
  5
292
100
AcDbEntity
  8
0
100
AcDbLine
 62
7
  6
CONTINUOUS
 10
6.82884009
 20
10.1561244307
 11
6.8434371428
 21
10.1360333111
  0
LINE
  5
293
100
AcDbEntity
  8
0
100
AcDbLine
 62
7
  6
CONTINUOUS
 10
6.8482912448
 20
10.1395600226
 11
6.833694192
 21
10.1596511422
  0
LINE
  5
294
100
AcDbEntity
  8
0
100
AcDbLine
 62
7
  6
CONTINUOUS
 10
6.8650984119
 20
10.1300373546
 11
6.8609839151
 21
10.1357004736
  0
LINE
  5
295
100
AcDbEntity
  8
0
100
AcDbLine
 62
7
  6
CONTINUOUS
 10
6.8452026196
 20
10.1897462941
 11
6.8493171164
 21
10.1840831751
  0
LINE
  5
296
100
AcDbEntity
  8
0
100
AcDbLine
 62
7
  6
CONTINUOUS
 10
6.8620097868
 20
10.180223626
 11
6.8766068396
 21
10.1601325065
  0
LINE
  5
297
100
AcDbEntity
  8
0
100
AcDbLine
 62
7
  6
CONTINUOUS
 10
6.8814609415
 20
10.163659218
 11
6.8668638887
 21
10.1837503375
  0
LINE
  5
298
100
AcDbEntity
  8
0
100
AcDbLine
 62
7
  6
CONTINUOUS
 10
6.8982681087
 20
10.1541365499
 11
6.8941536119
 21
10.1597996689
  0
LINE
  5
299
100
AcDbEntity
  8
0
100
AcDbLine
 62
7
  6
CONTINUOUS
 10
6.8671154903
 20
10.1970144506
 11
6.8630009935
 21
10.2026775696
  0
LINE
  5
29A
100
AcDbEntity
  8
0
100
AcDbLine
 62
7
  6
CONTINUOUS
 10
6.9598277453
 20
10.2318880972
 11
6.9881241101
 21
10.1851827181
  0
LINE
  5
29B
100
AcDbEntity
  8
0
100
AcDbLine
 62
7
  6
CONTINUOUS
 10
6.9879264339
 20
10.2105973489
 11
6.9760388495
 21
10.2302187433
  0
LINE
  5
29C
100
AcDbEntity
  8
0
100
AcDbLine
 62
7
  6
CONTINUOUS
 10
6.9958220238
 20
10.2179784888
 11
7.0132776253
 21
10.1891666435
  0
LINE
  5
29D
100
AcDbEntity
  8
0
100
AcDbLine
 62
7
  6
CONTINUOUS
 10
7.0130799491
 20
10.2145812743
 11
6.9956243476
 21
10.2433931196
  0
LINE
  5
29E
100
AcDbEntity
  8
0
100
AcDbLine
 62
7
  6
CONTINUOUS
 10
7.2780791501
 20
9.4499507091
 11
7.436932076
 21
9.2910977833
  0
LINE
  5
29F
100
AcDbEntity
  8
0
100
AcDbLine
 62
7
  6
CONTINUOUS
 10
6.6044132905
 20
10.1236165687
 11
6.4455725663
 21
10.282457293
  0
LINE
  5
2A0
100
AcDbEntity
  8
0
100
AcDbLine
 62
7
  6
CONTINUOUS
 10
7.0017185673
 20
9.5458353071
 11
6.9867886839
 21
9.5623814446
  0
LINE
  5
2A1
100
AcDbEntity
  8
0
100
AcDbLine
 62
7
  6
CONTINUOUS
 10
14.9249099239
 20
10.2305813182
 11
14.8868734233
 21
10.2152135745
  0
LINE
  5
2A2
100
AcDbEntity
  8
0
100
AcDbLine
 62
7
  6
CONTINUOUS
 10
14.9080234223
 20
10.2140519161
 11
14.9292844101
 21
10.2226419127
  0
LINE
  5
2A3
100
AcDbEntity
  8
0
100
AcDbLine
 62
7
  6
CONTINUOUS
 10
14.9308844078
 20
10.2081888674
 11
14.9123407307
 21
10.2006967355
  0
LINE
  5
2A4
100
AcDbEntity
  8
0
100
AcDbLine
 62
7
  6
CONTINUOUS
 10
14.9166393739
 20
10.1927266874
 11
14.9314743156
 21
10.1987203929
  0
LINE
  5
2A5
100
AcDbEntity
  8
0
100
AcDbLine
 62
7
  6
CONTINUOUS
 10
14.9406241793
 20
10.1840820871
 11
14.923007686
 21
10.1769645619
  0
LINE
  5
2A6
100
AcDbEntity
  8
0
100
AcDbLine
 62
7
  6
CONTINUOUS
 10
14.9093498189
 20
10.1595825432
 11
14.9575633794
 21
10.1790620861
  0
LINE
  5
2A7
100
AcDbEntity
  8
0
100
AcDbLine
 62
7
  6
CONTINUOUS
 10
15.2031063427
 20
9.6101663988
 11
15.2088739128
 21
9.6118202229
  0
LINE
  5
2A8
100
AcDbEntity
  8
0
100
AcDbLine
 62
7
  6
CONTINUOUS
 10
15.1708636025
 20
9.5764885842
 11
15.1650960323
 21
9.5748347601
  0
LINE
  5
2A9
100
AcDbEntity
  8
0
100
AcDbLine
 62
7
  6
CONTINUOUS
 10
7.4902233861
 20
9.6620705419
 11
7.6490641103
 21
9.5032298176
  0
LINE
  5
2AA
100
AcDbEntity
  8
0
100
AcDbLine
 62
7
  6
CONTINUOUS
 10
6.8165575264
 20
10.3357364015
 11
6.6577046006
 21
10.4945893273
  0
LWPOLYLINE
  5
2AB
100
AcDbEntity
  8
0
100
AcDbPolyline
 62
7
  6
CONTINUOUS
 90
8
 70
0
 10
10.3996870945
 20
5.8676740629
 10
10.4157451709
 20
5.6603827839
 10
10.4322029908
 20
5.4477519627
 10
10.4474922207
 20
5.2440266851
 10
10.4608744435
 20
5.0507283149
 10
10.471412466
 20
4.869645003
 10
10.4780816477
 20
4.7021550352
 10
10.4799185043
 20
4.5488541258
  0
LINE
  5
2AC
100
AcDbEntity
  8
0
100
AcDbLine
 62
9
  6
CONTINUOUS
 10
10.4198372298
 20
5.9522226114
 11
10.419687665
 21
5.9541890338
  0
LINE
  5
2AD
100
AcDbEntity
  8
0
100
AcDbLine
 62
9
  6
CONTINUOUS
 10
10.2613140894
 20
8.4213698276
 11
10.2522588823
 21
8.5414917537
  0
LINE
  5
2AE
100
AcDbEntity
  8
0
100
AcDbLine
 62
9
  6
CONTINUOUS
 10
10.4471288098
 20
5.9628356439
 11
10.4469807911
 21
5.9647966733
  0
LINE
  5
2AF
100
AcDbEntity
  8
0
100
AcDbLine
 62
9
  6
CONTINUOUS
 10
10.2358821896
 20
8.411434002
 11
10.2271281237
 21
8.5315211836
  0
LWPOLYLINE
  5
2B0
100
AcDbEntity
  8
0
100
AcDbPolyline
 62
7
  6
CONTINUOUS
 90
4
 70
0
 10
10.2138776525
 20
8.376500281
 10
10.277763607
 20
7.4457972868
 10
10.3430074703
 20
6.593028485
 10
10.3996899619
 20
5.8676368261
  0
LWPOLYLINE
  5
2B1
100
AcDbEntity
  8
0
100
AcDbPolyline
 62
7
  6
CONTINUOUS
 90
4
 70
0
 10
10.2032047293
 20
8.5416134293
 10
10.2063114853
 20
8.4946150468
 10
10.210375622
 20
8.4318424395
 10
10.2138774914
 20
8.3765028505
  0
LWPOLYLINE
  5
2B2
100
AcDbEntity
  8
0
100
AcDbPolyline
 62
7
  6
CONTINUOUS
 90
4
 70
0
 10
10.4766898447
 20
4.4184725246
 10
10.4804084462
 20
4.3608521631
 10
10.4929059053
 20
4.2863576841
 10
10.5110495269
 20
4.2192007456
  0
LINE
  5
2B3
100
AcDbEntity
  8
0
100
AcDbLine
 62
7
  6
CONTINUOUS
 10
10.4766898447
 20
4.4184725246
 11
10.4766896028
 21
4.4184883603
  0
LINE
  5
2B4
100
AcDbEntity
  8
0
100
AcDbLine
 62
7
  6
CONTINUOUS
 10
10.4799185043
 20
4.5488541258
 11
10.4786317156
 21
4.4722269917
  0
LINE
  5
2B5
100
AcDbEntity
  8
0
100
AcDbLine
 62
7
  6
CONTINUOUS
 10
10.4774306102
 20
4.4557719724
 11
10.4766896029
 21
4.4184883599
  0
LINE
  5
2B6
100
AcDbEntity
  8
0
100
AcDbLine
 62
9
  6
CONTINUOUS
 10
13.9014692651
 20
10.8873850584
 11
14.0527768351
 21
11.0386926285
  0
LINE
  5
2B7
100
AcDbEntity
  8
0
100
AcDbLine
 62
9
  6
CONTINUOUS
 10
7.6490641103
 20
10.282457293
 11
7.436932076
 21
10.4945893273
  0
LWPOLYLINE
  5
2B8
100
AcDbEntity
  8
0
100
AcDbPolyline
 62
7
  6
CONTINUOUS
 90
3
 70
0
 10
10.0663564192
 20
9.6004119073
 10
10.0870730306
 20
9.5241489145
 10
10.1055788767
 20
9.4389864854
  0
LINE
  5
2B9
100
AcDbEntity
  8
0
100
AcDbLine
 62
7
  6
CONTINUOUS
 10
10.1055788767
 20
9.4389864854
 11
10.1188693455
 21
9.3574596838
  0
LWPOLYLINE
  5
2BA
100
AcDbEntity
  8
0
100
AcDbPolyline
 62
7
  6
CONTINUOUS
 90
4
 70
0
 10
10.1188761597
 20
9.3574105372
 10
10.1536274344
 20
9.0820957653
 10
10.1832180894
 20
8.7951404898
 10
10.2032047184
 20
8.5416135929
  0
LINE
  5
2BB
100
AcDbEntity
  8
0
100
AcDbLine
 62
9
  6
CONTINUOUS
 10
11.0472687115
 20
8.8813681206
 11
11.0472755273
 21
8.8784202985
  0
LINE
  5
2BC
100
AcDbEntity
  8
0
100
AcDbLine
 62
9
  6
CONTINUOUS
 10
11.0473183384
 20
3.9243710485
 11
11.0473183387
 21
8.7654732038
  0
LINE
  5
2BD
100
AcDbEntity
  8
0
100
AcDbLine
 62
9
  6
CONTINUOUS
 10
11.0473178685
 20
10.9043115843
 11
11.0473183386
 21
10.692843654
  0
LINE
  5
2BE
100
AcDbEntity
  8
0
100
AcDbLine
 62
9
  6
CONTINUOUS
 10
11.0472939247
 20
8.8784415344
 11
11.0472982536
 21
8.7654733456
  0
LINE
  5
2BF
100
AcDbEntity
  8
0
100
AcDbLine
 62
7
  6
CONTINUOUS
 10
10.478696854
 20
4.4733301308
 11
10.4774306102
 21
4.4557719724
  0
LINE
  5
2C0
100
AcDbEntity
  8
0
100
AcDbLine
 62
9
  6
CONTINUOUS
 10
14.2944113702
 20
10.980767263
 11
13.9593946306
 21
10.6457505233
  0
LINE
  5
2C1
100
AcDbEntity
  8
0
100
AcDbLine
 62
7
  6
CONTINUOUS
 10
14.8630009935
 20
10.2026775696
 11
14.8452026196
 21
10.1897462941
  0
LINE
  5
2C2
100
AcDbEntity
  8
0
100
AcDbLine
 62
7
  6
CONTINUOUS
 10
14.8258068287
 20
10.1756544271
 11
14.8120329229
 21
10.1656470987
  0
LINE
  5
2C3
100
AcDbEntity
  8
0
100
AcDbLine
 62
7
  6
CONTINUOUS
 10
15.2470645176
 20
10.1923622757
 11
15.2396695627
 21
10.1877699728
  0
LINE
  5
2C4
100
AcDbEntity
  8
0
100
AcDbLine
 62
7
  6
CONTINUOUS
 10
7.2211569796
 20
10.1364623698
 11
7.2416452592
 21
10.1204551715
  0
LINE
  5
2C5
100
AcDbEntity
  8
0
100
AcDbLine
 62
7
  6
CONTINUOUS
 10
7.2509848173
 20
10.1807969798
 11
7.2583057954
 21
10.1750772049
  0
LINE
  5
2C6
100
AcDbEntity
  8
0
100
AcDbLine
 62
7
  6
CONTINUOUS
 10
7.2701259567
 20
10.1658422827
 11
7.2774469348
 21
10.1601225078
  0
LINE
  5
2C7
100
AcDbEntity
  8
0
100
AcDbLine
 62
7
  6
CONTINUOUS
 10
7.2896170983
 20
10.159116556
 11
7.2470645176
 21
10.1923622757
  0
LINE
  5
2C8
100
AcDbEntity
  8
0
100
AcDbLine
 62
9
  6
CONTINUOUS
 10
7.8485583547
 20
10.4045779289
 11
7.5590527118
 21
10.6940835717
  0
LINE
  5
2C9
100
AcDbEntity
  8
0
100
AcDbLine
 62
9
  6
CONTINUOUS
 10
7.9378121412
 20
10.4483206186
 11
7.6027954016
 21
10.7833373582
  0
LINE
  5
2CA
100
AcDbEntity
  8
0
100
AcDbLine
 62
7
  6
CONTINUOUS
 10
11.6170388306
 20
4.4582295743
 11
11.6160560762
 21
4.4709887206
  0
LINE
  5
2CB
100
AcDbEntity
  8
0
100
AcDbLine
 62
7
  6
CONTINUOUS
 10
12.0075525011
 20
9.5241035107
 11
12.0282573825
 21
9.6003351132
  0
LINE
  5
2CC
100
AcDbEntity
  8
0
100
AcDbLine
 62
7
  6
CONTINUOUS
 10
12.0282573825
 20
9.6003351132
 11
12.0282792095
 21
9.6004080958
  0
LINE
  5
2CD
100
AcDbEntity
  8
0
100
AcDbLine
 62
9
  6
CONTINUOUS
 10
14.491841275
 20
10.7833373582
 11
14.1568245354
 21
10.4483206186
  0
LINE
  5
2CE
100
AcDbEntity
  8
0
100
AcDbLine
 62
9
  6
CONTINUOUS
 10
14.5355839647
 20
10.6940835717
 11
14.2460783219
 21
10.4045779289
  0
LINE
  5
2CF
100
AcDbEntity
  8
0
100
AcDbLine
 62
9
  6
CONTINUOUS
 10
14.6577046006
 20
10.4945893273
 11
14.4455725663
 21
10.282457293
  0
LINE
  5
2D0
100
AcDbEntity
  8
0
100
AcDbLine
 62
7
  6
CONTINUOUS
 10
14.847300038
 20
10.1171060791
 11
14.8650984119
 21
10.1300373546
  0
LINE
  5
2D1
100
AcDbEntity
  8
0
100
AcDbLine
 62
7
  6
CONTINUOUS
 10
14.8844942028
 20
10.1441292216
 11
14.8982681087
 21
10.1541365499
  0
LINE
  5
2D2
100
AcDbEntity
  8
0
100
AcDbLine
 62
7
  6
CONTINUOUS
 10
6.8826222376
 20
9.5721019234
 11
6.9139255662
 21
9.5581647836
  0
LINE
  5
2D3
100
AcDbEntity
  8
0
100
AcDbLine
 62
7
  6
CONTINUOUS
 10
6.9106419303
 20
9.5661945702
 11
6.9024200212
 21
9.5698551999
  0
LINE
  5
2D4
100
AcDbEntity
  8
0
100
AcDbLine
 62
7
  6
CONTINUOUS
 10
6.9121817006
 20
9.5917802909
 11
6.9204036097
 21
9.5881196611
  0
LINE
  5
2D5
100
AcDbEntity
  8
0
100
AcDbLine
 62
7
  6
CONTINUOUS
 10
6.9205601659
 20
9.5946177755
 11
6.9146221205
 21
9.5972615637
  0
LINE
  5
2D6
100
AcDbEntity
  8
0
100
AcDbLine
 62
7
  6
CONTINUOUS
 10
6.9223501167
 20
9.6146189274
 11
6.9282881622
 21
9.6119751392
  0
LINE
  5
2D7
100
AcDbEntity
  8
0
100
AcDbLine
 62
7
  6
CONTINUOUS
 10
6.9367166636
 20
9.61369571
 11
6.9070264362
 21
9.6269146509
  0
LINE
  5
2D8
100
AcDbEntity
  8
0
100
AcDbLine
 62
7
  6
CONTINUOUS
 10
6.8323183383
 20
9.8663670789
 11
6.818788547
 21
9.8728435553
  0
LINE
  5
2D9
100
AcDbEntity
  8
0
100
AcDbLine
 62
9
  6
CONTINUOUS
 10
8.135242046
 20
10.6457505233
 11
7.8002253063
 21
10.980767263
  0
LINE
  5
2DA
100
AcDbEntity
  8
0
100
AcDbLine
 62
9
  6
CONTINUOUS
 10
8.0418598414
 20
11.0386926285
 11
8.1931674115
 21
10.8873850584
  0
LINE
  5
2DB
100
AcDbEntity
  8
0
100
AcDbLine
 62
7
  6
CONTINUOUS
 10
11.6179127676
 20
4.4164427042
 11
11.6170388306
 21
4.4582295743
  0
LWPOLYLINE
  5
2DC
100
AcDbEntity
  8
0
100
AcDbPolyline
 62
7
  6
CONTINUOUS
 90
9
 70
0
 10
11.6160405503
 20
4.4709875247
 10
11.6147254555
 20
4.5476417983
 10
11.616521773
 20
4.7009380804
 10
11.6231631367
 20
4.8684291446
 10
11.63368434
 20
5.0495236677
 10
11.6470584136
 20
5.242844795
 10
11.662345566
 20
5.4466026848
 10
11.6788052165
 20
5.6592727407
 10
11.6949495078
 20
5.8676730969
  0
LWPOLYLINE
  5
2DD
100
AcDbEntity
  8
0
100
AcDbPolyline
 62
7
  6
CONTINUOUS
 90
4
 70
0
 10
11.8807591838
 20
8.3765028286
 10
11.8841955943
 20
8.4308189029
 10
11.8882575242
 20
8.4935820712
 10
11.8914319833
 20
8.5416139692
  0
LINE
  5
2DE
100
AcDbEntity
  8
0
100
AcDbLine
 62
9
  6
CONTINUOUS
 10
11.8675085529
 20
8.5315211836
 11
11.8587544869
 21
8.411434002
  0
LINE
  5
2DF
100
AcDbEntity
  8
0
100
AcDbLine
 62
9
  6
CONTINUOUS
 10
11.6476558855
 20
5.9647966733
 11
11.6475078668
 21
5.9628356439
  0
LINE
  5
2E0
100
AcDbEntity
  8
0
100
AcDbLine
 62
9
  6
CONTINUOUS
 10
11.8423777943
 20
8.5414917537
 11
11.8333069865
 21
8.4213724955
  0
LINE
  5
2E1
100
AcDbEntity
  8
0
100
AcDbLine
 62
9
  6
CONTINUOUS
 10
11.6749488608
 20
5.9541893242
 11
11.6747992961
 21
5.9522229021
  0
LWPOLYLINE
  5
2E2
100
AcDbEntity
  8
0
100
AcDbPolyline
 62
7
  6
CONTINUOUS
 90
4
 70
0
 10
11.6949463703
 20
5.8676323614
 10
11.7524710644
 20
6.6037772351
 10
11.8179556167
 20
7.4604951614
 10
11.8807590601
 20
8.3765008545
  0
LWPOLYLINE
  5
2E3
100
AcDbEntity
  8
0
100
AcDbPolyline
 62
7
  6
CONTINUOUS
 90
4
 70
0
 10
11.8914320067
 20
8.5416143197
 10
11.911430205
 20
8.7952687076
 10
11.9408966507
 20
9.0811184835
 10
11.9757598115
 20
9.3574053851
  0
LWPOLYLINE
  5
2E4
100
AcDbEntity
  8
0
100
AcDbPolyline
 62
7
  6
CONTINUOUS
 90
3
 70
0
 10
11.9757660233
 20
9.357450118
 10
11.9890560495
 20
9.4389772116
 10
12.0075525011
 20
9.5241035107
  0
LINE
  5
2E5
100
AcDbEntity
  8
0
100
AcDbLine
 62
7
  6
CONTINUOUS
 10
14.8474554377
 20
9.9303317452
 11
14.8603183383
 21
9.9429232419
  0
LINE
  5
2E6
100
AcDbEntity
  8
0
100
AcDbLine
 62
7
  6
CONTINUOUS
 10
6.9395930201
 20
10.2106595
 11
6.9367475842
 21
10.2118673159
  0
LINE
  5
2E7
100
AcDbEntity
  8
0
100
AcDbLine
 62
7
  6
CONTINUOUS
 10
7.15592146
 20
10.1725422538
 11
7.1774925171
 21
10.1620213463
  0
LINE
  5
2E8
100
AcDbEntity
  8
0
100
AcDbLine
 62
7
  6
CONTINUOUS
 10
7.194569604
 20
10.1536922945
 11
7.2098491028
 21
10.146239985
  0
LINE
  5
2E9
100
AcDbEntity
  8
0
100
AcDbLine
 62
7
  6
CONTINUOUS
 10
7.1840530915
 20
10.1857377913
 11
7.1863968583
 21
10.1845946598
  0
LINE
  5
2EA
100
AcDbEntity
  8
0
100
AcDbLine
 62
7
  6
CONTINUOUS
 10
7.197482259
 20
10.1861049338
 11
7.1867784208
 21
10.1913255445
  0
LINE
  5
2EB
100
AcDbEntity
  8
0
100
AcDbLine
 62
7
  6
CONTINUOUS
 10
7.1969406433
 20
10.2121611883
 11
7.2076444815
 21
10.2069405776
  0
LINE
  5
2EC
100
AcDbEntity
  8
0
100
AcDbLine
 62
7
  6
CONTINUOUS
 10
7.2163779026
 20
10.209811793
 11
7.1822237288
 21
10.2264698966
  0
LINE
  5
2ED
100
AcDbEntity
  8
0
100
AcDbLine
 62
7
  6
CONTINUOUS
 10
14.6044326784
 20
9.6620899298
 11
14.4455725663
 21
9.5032298176
  0
LINE
  5
2EE
100
AcDbEntity
  8
0
100
AcDbLine
 62
7
  6
CONTINUOUS
 10
15.2780804818
 20
10.3357377332
 11
15.436932076
 21
10.4945893273
  0
LINE
  5
2EF
100
AcDbEntity
  8
0
100
AcDbLine
 62
7
  6
CONTINUOUS
 10
14.8165561947
 20
9.4499493774
 11
14.6577046006
 21
9.2910977833
  0
LINE
  5
2F0
100
AcDbEntity
  8
0
100
AcDbLine
 62
7
  6
CONTINUOUS
 10
15.4902039982
 20
10.1235971808
 11
15.6490641103
 21
10.282457293
  0
LINE
  5
2F1
100
AcDbEntity
  8
0
100
AcDbLine
 62
7
  6
CONTINUOUS
 10
6.947038292
 20
9.546116123
 11
6.9705138344
 21
9.5411262424
  0
LINE
  5
2F2
100
AcDbEntity
  8
0
100
AcDbLine
 62
7
  6
CONTINUOUS
 10
6.9890986388
 20
9.5371759203
 11
7.005727148
 21
9.5336414215
  0
LINE
  5
2F3
100
AcDbEntity
  8
0
100
AcDbLine
 62
7
  6
CONTINUOUS
 10
6.9711420043
 20
9.5657253542
 11
6.9736926997
 21
9.5651831872
  0
LINE
  5
2F4
100
AcDbEntity
  8
0
100
AcDbLine
 62
7
  6
CONTINUOUS
 10
6.9840834484
 20
9.5693304007
 11
6.9724345799
 21
9.5718064441
  0
LINE
  5
2F5
100
AcDbEntity
  8
0
100
AcDbLine
 62
7
  6
CONTINUOUS
 10
6.9772543425
 20
9.5944816444
 11
6.988903211
 21
9.592005601
  0
LINE
  5
2F6
100
AcDbEntity
  8
0
100
AcDbLine
 62
7
  6
CONTINUOUS
 10
6.9966826022
 20
9.5969043348
 11
6.9595129934
 21
9.604804979
  0
LINE
  5
2F7
100
AcDbEntity
  8
0
100
AcDbLine
 62
7
  6
CONTINUOUS
 10
6.833694192
 20
10.1596511422
 11
6.8844942028
 21
10.1441292216
  0
LINE
  5
2F8
100
AcDbEntity
  8
0
100
AcDbLine
 62
7
  6
CONTINUOUS
 10
6.8766068396
 20
10.1601325065
 11
6.8258068287
 21
10.1756544271
  0
LWPOLYLINE
  5
2F9
100
AcDbEntity
  8
0
100
AcDbPolyline
 62
7
  6
CONTINUOUS
 90
6
 70
0
 10
11.5836004547
 20
4.219242502
 10
11.5929002973
 20
4.2506913086
 10
11.6030302407
 20
4.2923222938
 10
11.6106375257
 20
4.333766995
 10
11.6156579396
 20
4.3750831791
 10
11.6179127676
 20
4.4164427042
  0
LINE
  5
2FA
100
AcDbEntity
  8
0
100
AcDbLine
 62
7
  6
CONTINUOUS
 10
15.2266979329
 20
10.1435544666
 11
15.2211569796
 21
10.1364623698
  0
LINE
  5
2FB
100
AcDbEntity
  8
0
100
AcDbLine
 62
7
  6
CONTINUOUS
 10
15.2584781447
 20
10.1736735326
 11
15.238751323
 21
10.1484243523
  0
LINE
  5
2FC
100
AcDbEntity
  8
0
100
AcDbLine
 62
7
  6
CONTINUOUS
 10
15.2489954628
 20
10.1404207531
 11
15.2687222845
 21
10.1656699335
  0
LINE
  5
2FD
100
AcDbEntity
  8
0
100
AcDbLine
 62
7
  6
CONTINUOUS
 10
15.2416452592
 20
10.1204551715
 11
15.2471862125
 21
10.1275472682
  0
LINE
  5
2FE
100
AcDbEntity
  8
0
100
AcDbLine
 62
7
  6
CONTINUOUS
 10
14.9415332289
 20
10.2294159694
 11
14.9385314037
 21
10.2242208712
  0
LINE
  5
2FF
100
AcDbEntity
  8
0
100
AcDbLine
 62
9
  6
CONTINUOUS
 10
15.436932076
 20
9.2910977833
 11
15.6490641103
 21
9.5032298176
  0
LINE
  5
300
100
AcDbEntity
  8
0
100
AcDbLine
 62
9
  6
CONTINUOUS
 10
15.5590527118
 20
9.0916035389
 11
15.8485583547
 21
9.3811091817
  0
LINE
  5
301
100
AcDbEntity
  8
0
100
AcDbLine
 62
9
  6
CONTINUOUS
 10
15.6027954016
 20
9.0023497524
 11
15.9378121412
 21
9.337366492
  0
LINE
  5
302
100
AcDbEntity
  8
0
100
AcDbLine
 62
7
  6
CONTINUOUS
 10
15.0293408009
 20
10.2524587081
 11
15.0111287795
 21
10.2495742073
  0
LINE
  5
303
100
AcDbEntity
  8
0
100
AcDbLine
 62
7
  6
CONTINUOUS
 10
14.9789686955
 20
10.2444805504
 11
14.9532887987
 21
10.2404132543
  0
LINE
  5
304
100
AcDbEntity
  8
0
100
AcDbLine
 62
7
  6
CONTINUOUS
 10
15.2829800233
 20
10.1503428069
 11
15.2869502079
 21
10.1508302843
  0
LINE
  5
305
100
AcDbEntity
  8
0
100
AcDbLine
 62
7
  6
CONTINUOUS
 10
15.0965327611
 20
9.5568051042
 11
15.0905409839
 21
9.5564910885
  0
LINE
  5
306
100
AcDbEntity
  8
0
100
AcDbLine
 62
7
  6
CONTINUOUS
 10
15.1355249818
 20
9.5823667202
 11
15.141516759
 21
9.5826807359
  0
LINE
  5
307
100
AcDbEntity
  8
0
100
AcDbLine
 62
7
  6
CONTINUOUS
 10
7.0173183383
 20
9.5328435553
 11
7.0363183383
 21
9.5328435553
  0
LINE
  5
308
100
AcDbEntity
  8
0
100
AcDbLine
 62
7
  6
CONTINUOUS
 10
7.0528690939
 20
9.5328435553
 11
7.0793183383
 21
9.5328435553
  0
LINE
  5
309
100
AcDbEntity
  8
0
100
AcDbLine
 62
7
  6
CONTINUOUS
 10
15.0173183383
 20
9.5328435553
 11
15.0363183383
 21
9.5328435553
  0
LINE
  5
30A
100
AcDbEntity
  8
0
100
AcDbLine
 62
7
  6
CONTINUOUS
 10
15.0528690939
 20
9.5328435553
 11
15.0793183383
 21
9.5328435553
  0
LINE
  5
30B
100
AcDbEntity
  8
0
100
AcDbLine
 62
7
  6
CONTINUOUS
 10
7.0332806253
 20
9.5518435553
 11
7.0559068068
 21
9.5518435553
  0
LINE
  5
30C
100
AcDbEntity
  8
0
100
AcDbLine
 62
7
  6
CONTINUOUS
 10
15.0332806253
 20
9.5518435553
 11
15.0559068068
 21
9.5518435553
  0
LINE
  5
30D
100
AcDbEntity
  8
0
100
AcDbLine
 62
7
  6
CONTINUOUS
 10
15.0526310747
 20
9.5608435553
 11
15.0365563574
 21
9.5608435553
  0
LINE
  5
30E
100
AcDbEntity
  8
0
100
AcDbLine
 62
7
  6
CONTINUOUS
 10
7.0526310747
 20
9.5608435553
 11
7.0365563574
 21
9.5608435553
  0
LINE
  5
30F
100
AcDbEntity
  8
0
100
AcDbLine
 62
7
  6
CONTINUOUS
 10
15.0548183383
 20
9.5928435553
 11
15.0418183383
 21
9.5928435553
  0
LINE
  5
310
100
AcDbEntity
  8
0
100
AcDbLine
 62
7
  6
CONTINUOUS
 10
7.0548183383
 20
9.5928435553
 11
7.0418183383
 21
9.5928435553
  0
LINE
  5
311
100
AcDbEntity
  8
0
100
AcDbLine
 62
7
  6
CONTINUOUS
 10
6.9597260255
 20
10.1950650864
 11
6.9537800748
 21
10.1958686224
  0
LINE
  5
312
100
AcDbEntity
  8
0
100
AcDbLine
 62
7
  6
CONTINUOUS
 10
14.941403355
 20
10.2003438789
 11
14.9426111709
 21
10.2031893148
  0
LINE
  5
313
100
AcDbEntity
  8
0
100
AcDbLine
 62
7
  6
CONTINUOUS
 10
15.1822237288
 20
10.2264698966
 11
15.1795935019
 21
10.2210771323
  0
LINE
  5
314
100
AcDbEntity
  8
0
100
AcDbLine
 62
7
  6
CONTINUOUS
 10
15.1598668003
 20
10.1806314002
 11
15.15592146
 21
10.1725422538
  0
LINE
  5
315
100
AcDbEntity
  8
0
100
AcDbLine
 62
7
  6
CONTINUOUS
 10
15.1803608232
 20
10.2101039278
 11
15.1689862136
 21
10.1867825222
  0
LINE
  5
316
100
AcDbEntity
  8
0
100
AcDbLine
 62
7
  6
CONTINUOUS
 10
15.1806705362
 20
10.1810836973
 11
15.1827159263
 21
10.1852773684
  0
LINE
  5
317
100
AcDbEntity
  8
0
100
AcDbLine
 62
7
  6
CONTINUOUS
 10
15.1863179979
 20
10.1926627097
 11
15.1956034781
 21
10.2117007654
  0
LINE
  5
318
100
AcDbEntity
  8
0
100
AcDbLine
 62
7
  6
CONTINUOUS
 10
15.1774925171
 20
10.1620213463
 11
15.1814378574
 21
10.1701104927
  0
LINE
  5
319
100
AcDbEntity
  8
0
100
AcDbLine
 62
7
  6
CONTINUOUS
 10
15.2098491028
 20
10.146239985
 11
15.2137944431
 21
10.1543291314
  0
LINE
  5
31A
100
AcDbEntity
  8
0
100
AcDbLine
 62
9
  6
CONTINUOUS
 10
15.8002253063
 20
8.8049198476
 11
16.135242046
 21
9.1399365873
  0
LINE
  5
31B
100
AcDbEntity
  8
0
100
AcDbLine
 62
9
  6
CONTINUOUS
 10
16.1931674115
 20
8.8983020522
 11
16.0418598414
 21
8.7469944821
  0
LINE
  5
31C
100
AcDbEntity
  8
0
100
AcDbLine
 62
7
  6
CONTINUOUS
 10
7.0965327611
 20
9.5568051042
 11
7.0905409839
 21
9.5564910885
  0
LINE
  5
31D
100
AcDbEntity
  8
0
100
AcDbLine
 62
7
  6
CONTINUOUS
 10
7.1355249818
 20
9.5823667202
 11
7.141516759
 21
9.5826807359
  0
LINE
  5
31E
100
AcDbEntity
  8
0
100
AcDbLine
 62
7
  6
CONTINUOUS
 10
6.8373183383
 20
9.8228435553
 11
6.8973183383
 21
9.8228435553
  0
LINE
  5
31F
100
AcDbEntity
  8
0
100
AcDbLine
 62
7
  6
CONTINUOUS
 10
6.9123183383
 20
9.8228435553
 11
6.9723183383
 21
9.8228435553
  0
LINE
  5
320
100
AcDbEntity
  8
0
100
AcDbLine
 62
7
  6
CONTINUOUS
 10
6.9773183383
 20
9.8228435553
 11
7.0223183383
 21
9.8228435553
  0
LINE
  5
321
100
AcDbEntity
  8
0
100
AcDbLine
 62
7
  6
CONTINUOUS
 10
7.0613556717
 20
9.8228435553
 11
7.1223183383
 21
9.8228435553
  0
LINE
  5
322
100
AcDbEntity
  8
0
100
AcDbLine
 62
7
  6
CONTINUOUS
 10
7.2573183383
 20
9.8228435553
 11
7.3273183383
 21
9.8228435553
  0
LINE
  5
323
100
AcDbEntity
  8
0
100
AcDbLine
 62
7
  6
CONTINUOUS
 10
14.7303183383
 20
9.8228435553
 11
14.7953183383
 21
9.8228435553
  0
LINE
  5
324
100
AcDbEntity
  8
0
100
AcDbLine
 62
7
  6
CONTINUOUS
 10
14.8733183383
 20
9.8228435553
 11
14.9283183383
 21
9.8228435553
  0
LINE
  5
325
100
AcDbEntity
  8
0
100
AcDbLine
 62
7
  6
CONTINUOUS
 10
14.9733183383
 20
9.8228435553
 11
15.0133183383
 21
9.8228435553
  0
LINE
  5
326
100
AcDbEntity
  8
0
100
AcDbLine
 62
7
  6
CONTINUOUS
 10
15.1623183383
 20
9.8228435553
 11
15.2273183383
 21
9.8228435553
  0
LINE
  5
327
100
AcDbEntity
  8
0
100
AcDbLine
 62
7
  6
CONTINUOUS
 10
15.2373183383
 20
9.8228435553
 11
15.3073183383
 21
9.8228435553
  0
LINE
  5
328
100
AcDbEntity
  8
0
100
AcDbLine
 62
7
  6
CONTINUOUS
 10
15.3073183383
 20
9.8428435553
 11
15.2873183383
 21
9.8428435553
  0
LINE
  5
329
100
AcDbEntity
  8
0
100
AcDbLine
 62
7
  6
CONTINUOUS
 10
7.3273183383
 20
9.8428435553
 11
7.3073183383
 21
9.8428435553
  0
LINE
  5
32A
100
AcDbEntity
  8
0
100
AcDbLine
 62
7
  6
CONTINUOUS
 10
7.0162038326
 20
9.8678435553
 11
7.0674701774
 21
9.8678435553
  0
LINE
  5
32B
100
AcDbEntity
  8
0
100
AcDbLine
 62
7
  6
CONTINUOUS
 10
14.8053183383
 20
9.8678435553
 11
14.8183183383
 21
9.8678435553
  0
LINE
  5
32C
100
AcDbEntity
  8
0
100
AcDbLine
 62
7
  6
CONTINUOUS
 10
14.9188183383
 20
9.8778435553
 11
14.925308228
 21
9.8778435553
  0
LINE
  5
32D
100
AcDbEntity
  8
0
100
AcDbLine
 62
7
  6
CONTINUOUS
 10
14.7868183383
 20
9.8848435553
 11
14.7953183383
 21
9.8848435553
  0
LINE
  5
32E
100
AcDbEntity
  8
0
100
AcDbLine
 62
7
  6
CONTINUOUS
 10
7.0601907727
 20
9.8878435553
 11
7.0234832373
 21
9.8878435553
  0
LINE
  5
32F
100
AcDbEntity
  8
0
100
AcDbLine
 62
7
  6
CONTINUOUS
 10
6.8898183383
 20
9.8898435553
 11
6.9198183383
 21
9.8898435553
  0
LINE
  5
330
100
AcDbEntity
  8
0
100
AcDbLine
 62
7
  6
CONTINUOUS
 10
14.9463183383
 20
9.8938435553
 11
14.9188183383
 21
9.8938435553
  0
LINE
  5
331
100
AcDbEntity
  8
0
100
AcDbLine
 62
7
  6
CONTINUOUS
 10
6.9198183383
 20
9.8986146708
 11
6.8898183383
 21
9.8986146708
  0
LINE
  5
332
100
AcDbEntity
  8
0
100
AcDbLine
 62
7
  6
CONTINUOUS
 10
14.7953183383
 20
9.9008435553
 11
14.7868183383
 21
9.9008435553
  0
LINE
  5
333
100
AcDbEntity
  8
0
100
AcDbLine
 62
7
  6
CONTINUOUS
 10
14.8183183383
 20
9.9178435553
 11
14.8053183383
 21
9.9178435553
  0
LINE
  5
334
100
AcDbEntity
  8
0
100
AcDbLine
 62
7
  6
CONTINUOUS
 10
14.7818183383
 20
9.9378435553
 11
14.8295902981
 21
9.9378435553
  0
LINE
  5
335
100
AcDbEntity
  8
0
100
AcDbLine
 62
7
  6
CONTINUOUS
 10
7.3073183383
 20
9.9478435553
 11
7.3273183383
 21
9.9478435553
  0
LINE
  5
336
100
AcDbEntity
  8
0
100
AcDbLine
 62
7
  6
CONTINUOUS
 10
14.9188183383
 20
9.9478435553
 11
14.9463183383
 21
9.9478435553
  0
LINE
  5
337
100
AcDbEntity
  8
0
100
AcDbLine
 62
7
  6
CONTINUOUS
 10
15.2873183383
 20
9.9478435553
 11
15.3073183383
 21
9.9478435553
  0
LINE
  5
338
100
AcDbEntity
  8
0
100
AcDbLine
 62
7
  6
CONTINUOUS
 10
15.3073183383
 20
9.9628435553
 11
15.2373183383
 21
9.9628435553
  0
LINE
  5
339
100
AcDbEntity
  8
0
100
AcDbLine
 62
7
  6
CONTINUOUS
 10
15.2273183383
 20
9.9628435553
 11
15.1623183383
 21
9.9628435553
  0
LINE
  5
33A
100
AcDbEntity
  8
0
100
AcDbLine
 62
7
  6
CONTINUOUS
 10
14.9613183383
 20
9.9628435553
 11
14.8733183383
 21
9.9628435553
  0
LINE
  5
33B
100
AcDbEntity
  8
0
100
AcDbLine
 62
7
  6
CONTINUOUS
 10
14.8408183383
 20
9.9628435553
 11
14.7338183383
 21
9.9628435553
  0
LINE
  5
33C
100
AcDbEntity
  8
0
100
AcDbLine
 62
7
  6
CONTINUOUS
 10
7.3273183383
 20
9.9628435553
 11
7.2573183383
 21
9.9628435553
  0
LINE
  5
33D
100
AcDbEntity
  8
0
100
AcDbLine
 62
7
  6
CONTINUOUS
 10
7.2523183383
 20
9.9628435553
 11
7.2023183383
 21
9.9628435553
  0
LINE
  5
33E
100
AcDbEntity
  8
0
100
AcDbLine
 62
7
  6
CONTINUOUS
 10
7.1743183383
 20
9.9628435553
 11
7.1123183383
 21
9.9628435553
  0
LINE
  5
33F
100
AcDbEntity
  8
0
100
AcDbLine
 62
7
  6
CONTINUOUS
 10
7.0648183383
 20
9.9628435553
 11
7.0348183383
 21
9.9628435553
  0
LINE
  5
340
100
AcDbEntity
  8
0
100
AcDbLine
 62
7
  6
CONTINUOUS
 10
6.9723183383
 20
9.9628435553
 11
6.9123183383
 21
9.9628435553
  0
LINE
  5
341
100
AcDbEntity
  8
0
100
AcDbLine
 62
7
  6
CONTINUOUS
 10
6.8973183383
 20
9.9628435553
 11
6.8373183383
 21
9.9628435553
  0
LINE
  5
342
100
AcDbEntity
  8
0
100
AcDbLine
 62
7
  6
CONTINUOUS
 10
6.8193183383
 20
9.9628435553
 11
6.8043183383
 21
9.9628435553
  0
LINE
  5
343
100
AcDbEntity
  8
0
100
AcDbLine
 62
7
  6
CONTINUOUS
 10
7.0403795707
 20
10.1924313613
 11
7.0603605351
 21
10.1915589736
  0
LINE
  5
344
100
AcDbEntity
  8
0
100
AcDbLine
 62
7
  6
CONTINUOUS
 10
7.0595837815
 20
10.2196195625
 11
7.0815628424
 21
10.218659936
  0
LINE
  5
345
100
AcDbEntity
  8
0
100
AcDbLine
 62
7
  6
CONTINUOUS
 10
7.07515219
 20
10.2252536748
 11
7.0598589254
 21
10.2259213932
  0
LINE
  5
346
100
AcDbEntity
  8
0
100
AcDbLine
 62
7
  6
CONTINUOUS
 10
7.060704458
 20
10.245287275
 11
7.0759977227
 21
10.2446195566
  0
LINE
  5
347
100
AcDbEntity
  8
0
100
AcDbLine
 62
7
  6
CONTINUOUS
 10
7.0829586628
 20
10.2506294791
 11
7.0429967339
 21
10.2523742546
  0
LINE
  5
348
100
AcDbEntity
  8
0
100
AcDbLine
 62
7
  6
CONTINUOUS
 10
15.0418183383
 20
9.5928435553
 11
15.0265536142
 21
9.5509040705
  0
LINE
  5
349
100
AcDbEntity
  8
0
100
AcDbLine
 62
7
  6
CONTINUOUS
 10
15.0324720009
 20
9.549621878
 11
15.0332806253
 21
9.5518435553
  0
LINE
  5
34A
100
AcDbEntity
  8
0
100
AcDbLine
 62
7
  6
CONTINUOUS
 10
15.0365563574
 20
9.5608435553
 11
15.0445937161
 21
9.5829260167
  0
LINE
  5
34B
100
AcDbEntity
  8
0
100
AcDbLine
 62
7
  6
CONTINUOUS
 10
14.9070264362
 20
9.6269146509
 11
14.9045860163
 21
9.6214333781
  0
LINE
  5
34C
100
AcDbEntity
  8
0
100
AcDbLine
 62
7
  6
CONTINUOUS
 10
14.8862828674
 20
9.5803238325
 11
14.8826222376
 21
9.5721019234
  0
LINE
  5
34D
100
AcDbEntity
  8
0
100
AcDbLine
 62
7
  6
CONTINUOUS
 10
14.9064252713
 20
9.6132714457
 11
14.893579067
 21
9.5844183985
  0
LINE
  5
34E
100
AcDbEntity
  8
0
100
AcDbLine
 62
7
  6
CONTINUOUS
 10
14.9197095525
 20
9.6136053097
 11
14.9136085028
 21
9.5999021279
  0
LINE
  5
34F
100
AcDbEntity
  8
0
100
AcDbLine
 62
7
  6
CONTINUOUS
 10
14.9095411364
 20
9.5907666733
 11
14.9014064035
 21
9.5724957641
  0
LINE
  5
350
100
AcDbEntity
  8
0
100
AcDbLine
 62
7
  6
CONTINUOUS
 10
15.0403795707
 20
10.1924313613
 11
15.0603605351
 21
10.1915589736
  0
LINE
  5
351
100
AcDbEntity
  8
0
100
AcDbLine
 62
7
  6
CONTINUOUS
 10
15.0595837815
 20
10.2196195625
 11
15.0815628424
 21
10.218659936
  0
LINE
  5
352
100
AcDbEntity
  8
0
100
AcDbLine
 62
7
  6
CONTINUOUS
 10
15.07515219
 20
10.2252536748
 11
15.0598589254
 21
10.2259213932
  0
LINE
  5
353
100
AcDbEntity
  8
0
100
AcDbLine
 62
7
  6
CONTINUOUS
 10
15.060704458
 20
10.245287275
 11
15.0759977227
 21
10.2446195566
  0
LINE
  5
354
100
AcDbEntity
  8
0
100
AcDbLine
 62
7
  6
CONTINUOUS
 10
15.0829586628
 20
10.2506294791
 11
15.0429967339
 21
10.2523742546
  0
LINE
  5
355
100
AcDbEntity
  8
0
100
AcDbLine
 62
7
  6
CONTINUOUS
 10
14.947038292
 20
9.546116123
 11
14.9705138344
 21
9.5411262424
  0
LINE
  5
356
100
AcDbEntity
  8
0
100
AcDbLine
 62
7
  6
CONTINUOUS
 10
14.9890986388
 20
9.5371759203
 11
15.005727148
 21
9.5336414215
  0
LINE
  5
357
100
AcDbEntity
  8
0
100
AcDbLine
 62
7
  6
CONTINUOUS
 10
14.9711420043
 20
9.5657253542
 11
14.9736926997
 21
9.5651831872
  0
LINE
  5
358
100
AcDbEntity
  8
0
100
AcDbLine
 62
7
  6
CONTINUOUS
 10
14.9840834484
 20
9.5693304007
 11
14.9724345799
 21
9.5718064441
  0
LINE
  5
359
100
AcDbEntity
  8
0
100
AcDbLine
 62
7
  6
CONTINUOUS
 10
14.9772543425
 20
9.5944816444
 11
14.988903211
 21
9.592005601
  0
LINE
  5
35A
100
AcDbEntity
  8
0
100
AcDbLine
 62
7
  6
CONTINUOUS
 10
14.9966826022
 20
9.5969043348
 11
14.9595129934
 21
9.604804979
  0
LINE
  5
35B
100
AcDbEntity
  8
0
100
AcDbLine
 62
9
  6
CONTINUOUS
 10
14.0527768351
 20
8.7469944821
 11
13.9014692651
 21
8.8983020522
  0
LINE
  5
35C
100
AcDbEntity
  8
0
100
AcDbLine
 62
7
  6
CONTINUOUS
 10
14.9575633794
 20
10.1790620861
 11
14.9597260255
 21
10.1950650864
  0
LINE
  5
35D
100
AcDbEntity
  8
0
100
AcDbLine
 62
7
  6
CONTINUOUS
 10
14.9595129934
 20
9.604804979
 11
14.9582655233
 21
9.5989360934
  0
LINE
  5
35E
100
AcDbEntity
  8
0
100
AcDbLine
 62
7
  6
CONTINUOUS
 10
14.9489094972
 20
9.5549194514
 11
14.947038292
 21
9.546116123
  0
LINE
  5
35F
100
AcDbEntity
  8
0
100
AcDbLine
 62
7
  6
CONTINUOUS
 10
14.9616647102
 20
9.5884744718
 11
14.9562699339
 21
9.5630940445
  0
LINE
  5
360
100
AcDbEntity
  8
0
100
AcDbLine
 62
7
  6
CONTINUOUS
 10
14.9689858527
 20
9.5603911925
 11
14.969955945
 21
9.5649551183
  0
LINE
  5
361
100
AcDbEntity
  8
0
100
AcDbLine
 62
7
  6
CONTINUOUS
 10
14.971664344
 20
9.5729925034
 11
14.9760682832
 21
9.5937114085
  0
LINE
  5
362
100
AcDbEntity
  8
0
100
AcDbLine
 62
7
  6
CONTINUOUS
 10
14.9705138344
 20
9.5411262424
 11
14.9723850396
 21
9.5499295708
  0
LINE
  5
363
100
AcDbEntity
  8
0
100
AcDbLine
 62
7
  6
CONTINUOUS
 10
15.005727148
 20
9.5336414215
 11
15.0075983532
 21
9.54244475
  0
LINE
  5
364
100
AcDbEntity
  8
0
100
AcDbLine
 62
7
  6
CONTINUOUS
 10
14.9956243476
 20
10.2433931196
 11
14.9879264339
 21
10.2105973489
  0
LINE
  5
365
100
AcDbEntity
  8
0
100
AcDbLine
 62
7
  6
CONTINUOUS
 10
14.9881241101
 20
10.1851827181
 11
14.9958220238
 21
10.2179784888
  0
LINE
  5
366
100
AcDbEntity
  8
0
100
AcDbLine
 62
7
  6
CONTINUOUS
 10
15.0183223694
 20
10.236915795
 11
15.0130799491
 21
10.2145812743
  0
LINE
  5
367
100
AcDbEntity
  8
0
100
AcDbLine
 62
7
  6
CONTINUOUS
 10
15.0132776253
 20
10.1891666435
 11
15.0257563116
 21
10.2423301563
  0
LINE
  5
368
100
AcDbEntity
  8
0
100
AcDbLine
 62
7
  6
CONTINUOUS
 10
15.2869502079
 20
10.1508302843
 11
15.2896170983
 21
10.159116556
  0
LINE
  5
369
100
AcDbEntity
  8
0
100
AcDbLine
 62
7
  6
CONTINUOUS
 10
6.8178857093
 20
9.9128435553
 11
6.8323183383
 21
9.9169300232
  0
LINE
  5
36A
100
AcDbEntity
  8
0
100
AcDbLine
 62
7
  6
CONTINUOUS
 10
7.0293408009
 20
10.2524587081
 11
7.0111287795
 21
10.2495742073
  0
LINE
  5
36B
100
AcDbEntity
  8
0
100
AcDbLine
 62
7
  6
CONTINUOUS
 10
6.9789686955
 20
10.2444805504
 11
6.9532887987
 21
10.2404132543
  0
LINE
  5
36C
100
AcDbEntity
  8
0
100
AcDbLine
 62
7
  6
CONTINUOUS
 10
7.2829800233
 20
10.1503428069
 11
7.2869502079
 21
10.1508302843
  0
LINE
  5
36D
100
AcDbEntity
  8
0
100
AcDbLine
 62
7
  6
CONTINUOUS
 10
14.9597260255
 20
10.1950650864
 11
14.9537800748
 21
10.1958686224
  0
LINE
  5
36E
100
AcDbEntity
  8
0
100
AcDbLine
 62
7
  6
CONTINUOUS
 10
14.8826222376
 20
9.5721019234
 11
14.9139255662
 21
9.5581647836
  0
LINE
  5
36F
100
AcDbEntity
  8
0
100
AcDbLine
 62
7
  6
CONTINUOUS
 10
14.9106419303
 20
9.5661945702
 11
14.9024200212
 21
9.5698551999
  0
LINE
  5
370
100
AcDbEntity
  8
0
100
AcDbLine
 62
7
  6
CONTINUOUS
 10
14.9121817006
 20
9.5917802909
 11
14.9204036097
 21
9.5881196611
  0
LINE
  5
371
100
AcDbEntity
  8
0
100
AcDbLine
 62
7
  6
CONTINUOUS
 10
14.9205601659
 20
9.5946177755
 11
14.9146221205
 21
9.5972615637
  0
LINE
  5
372
100
AcDbEntity
  8
0
100
AcDbLine
 62
9
  6
CONTINUOUS
 10
13.9593946306
 20
9.1399365873
 11
14.2944113702
 21
8.8049198476
  0
LINE
  5
373
100
AcDbEntity
  8
0
100
AcDbLine
 62
9
  6
CONTINUOUS
 10
14.1568245354
 20
9.337366492
 11
14.491841275
 21
9.0023497524
  0
LINE
  5
374
100
AcDbEntity
  8
0
100
AcDbLine
 62
7
  6
CONTINUOUS
 10
14.7303183383
 20
9.8428435553
 11
14.7303183383
 21
9.8228435553
  0
LINE
  5
375
100
AcDbEntity
  8
0
100
AcDbLine
 62
7
  6
CONTINUOUS
 10
14.7338183383
 20
9.9628435553
 11
14.7338183383
 21
9.9478435553
  0
LINE
  5
376
100
AcDbEntity
  8
0
100
AcDbLine
 62
7
  6
CONTINUOUS
 10
14.7488183383
 20
9.8636942148
 11
14.7488183383
 21
9.9277189435
  0
LINE
  5
377
100
AcDbEntity
  8
0
100
AcDbLine
 62
7
  6
CONTINUOUS
 10
14.7768183383
 20
9.8636942148
 11
14.7768183383
 21
9.8748435553
  0
LINE
  5
378
100
AcDbEntity
  8
0
100
AcDbLine
 62
7
  6
CONTINUOUS
 10
14.7768183383
 20
9.9108435553
 11
14.7768183383
 21
9.9328435553
  0
LINE
  5
379
100
AcDbEntity
  8
0
100
AcDbLine
 62
7
  6
CONTINUOUS
 10
14.7953183383
 20
9.8228435553
 11
14.7953183383
 21
9.8428435553
  0
LINE
  5
37A
100
AcDbEntity
  8
0
100
AcDbLine
 62
7
  6
CONTINUOUS
 10
14.8053183383
 20
9.9178435553
 11
14.8053183383
 21
9.9108435553
  0
LINE
  5
37B
100
AcDbEntity
  8
0
100
AcDbLine
 62
7
  6
CONTINUOUS
 10
14.8053183383
 20
9.8748435553
 11
14.8053183383
 21
9.8678435553
  0
LINE
  5
37C
100
AcDbEntity
  8
0
100
AcDbLine
 62
7
  6
CONTINUOUS
 10
14.8183183383
 20
9.8678435553
 11
14.8183183383
 21
9.9178435553
  0
LINE
  5
37D
100
AcDbEntity
  8
0
100
AcDbLine
 62
7
  6
CONTINUOUS
 10
14.8733183383
 20
9.9628435553
 11
14.8733183383
 21
9.9478435553
  0
LINE
  5
37E
100
AcDbEntity
  8
0
100
AcDbLine
 62
7
  6
CONTINUOUS
 10
14.8733183383
 20
9.8428435553
 11
14.8733183383
 21
9.8228435553
  0
LINE
  5
37F
100
AcDbEntity
  8
0
100
AcDbLine
 62
7
  6
CONTINUOUS
 10
14.8858183383
 20
9.8644941904
 11
14.8858183383
 21
9.9261929202
  0
LINE
  5
380
100
AcDbEntity
  8
0
100
AcDbLine
 62
7
  6
CONTINUOUS
 10
14.9158183383
 20
9.8644941904
 11
14.9158183383
 21
9.8748435553
  0
LINE
  5
381
100
AcDbEntity
  8
0
100
AcDbLine
 62
7
  6
CONTINUOUS
 10
14.9158183383
 20
9.8968435553
 11
14.9158183383
 21
9.9448435553
  0
LINE
  5
382
100
AcDbEntity
  8
0
100
AcDbLine
 62
7
  6
CONTINUOUS
 10
14.9283183383
 20
9.8228435553
 11
14.9283183383
 21
9.8428435553
  0
LINE
  5
383
100
AcDbEntity
  8
0
100
AcDbLine
 62
7
  6
CONTINUOUS
 10
15.0429967339
 20
10.2523742546
 11
15.0427350176
 21
10.2463799653
  0
LINE
  5
384
100
AcDbEntity
  8
0
100
AcDbLine
 62
7
  6
CONTINUOUS
 10
15.0407721452
 20
10.2014227953
 11
15.0403795707
 21
10.1924313613
  0
LINE
  5
385
100
AcDbEntity
  8
0
100
AcDbLine
 62
7
  6
CONTINUOUS
 10
15.0455055093
 20
10.2410579003
 11
15.0439959428
 21
10.206483144
  0
LINE
  5
386
100
AcDbEntity
  8
0
100
AcDbLine
 62
7
  6
CONTINUOUS
 10
15.0596617904
 20
10.2443318462
 11
15.0589034965
 21
10.2269640608
  0
LINE
  5
387
100
AcDbEntity
  8
0
100
AcDbLine
 62
7
  6
CONTINUOUS
 10
15.0579826179
 20
10.2058724725
 11
15.0585411139
 21
10.2186641337
  0
LINE
  5
388
100
AcDbEntity
  8
0
100
AcDbLine
 62
7
  6
CONTINUOUS
 10
15.0607531096
 20
10.2005504075
 11
15.0603605351
 21
10.1915589736
  0
LINE
  5
389
100
AcDbEntity
  8
0
100
AcDbLine
 62
7
  6
CONTINUOUS
 10
14.833694192
 20
10.1596511422
 11
14.8844942028
 21
10.1441292216
  0
LINE
  5
38A
100
AcDbEntity
  8
0
100
AcDbLine
 62
7
  6
CONTINUOUS
 10
14.8766068396
 20
10.1601325065
 11
14.8258068287
 21
10.1756544271
  0
LINE
  5
38B
100
AcDbEntity
  8
0
100
AcDbLine
 62
7
  6
CONTINUOUS
 10
14.9223501167
 20
9.6146189274
 11
14.9282881622
 21
9.6119751392
  0
LINE
  5
38C
100
AcDbEntity
  8
0
100
AcDbLine
 62
7
  6
CONTINUOUS
 10
14.9367166636
 20
9.61369571
 11
14.9070264362
 21
9.6269146509
  0
LINE
  5
38D
100
AcDbEntity
  8
0
100
AcDbLine
 62
9
  6
CONTINUOUS
 10
14.2460783219
 20
9.3811091817
 11
14.5355839647
 21
9.0916035389
  0
LINE
  5
38E
100
AcDbEntity
  8
0
100
AcDbLine
 62
9
  6
CONTINUOUS
 10
14.4455725663
 20
9.5032298176
 11
14.6577046006
 21
9.2910977833
  0
LINE
  5
38F
100
AcDbEntity
  8
0
100
AcDbLine
 62
7
  6
CONTINUOUS
 10
15.0905409839
 20
9.5564910885
 11
15.0913260232
 21
9.5415116454
  0
LINE
  5
390
100
AcDbEntity
  8
0
100
AcDbLine
 62
7
  6
CONTINUOUS
 10
15.141516759
 20
9.5826807359
 11
15.1407317197
 21
9.5976601789
  0
LINE
  5
391
100
AcDbEntity
  8
0
100
AcDbLine
 62
7
  6
CONTINUOUS
 10
15.0133183383
 20
9.8228435553
 11
15.0133183383
 21
9.8428435553
  0
LINE
  5
392
100
AcDbEntity
  8
0
100
AcDbLine
 62
7
  6
CONTINUOUS
 10
15.0173183383
 20
9.5418435553
 11
15.0173183383
 21
9.5328435553
  0
LINE
  5
393
100
AcDbEntity
  8
0
100
AcDbLine
 62
7
  6
CONTINUOUS
 10
15.0363183383
 20
9.5328435553
 11
15.0363183383
 21
9.5418435553
  0
LINE
  5
394
100
AcDbEntity
  8
0
100
AcDbLine
 62
7
  6
CONTINUOUS
 10
15.0528690939
 20
9.5418435553
 11
15.0528690939
 21
9.5328435553
  0
LINE
  5
395
100
AcDbEntity
  8
0
100
AcDbLine
 62
7
  6
CONTINUOUS
 10
15.0793183383
 20
9.5328435553
 11
15.0793183383
 21
9.5418435553
  0
LINE
  5
396
100
AcDbEntity
  8
0
100
AcDbLine
 62
7
  6
CONTINUOUS
 10
15.1623183383
 20
9.9628435553
 11
15.1623183383
 21
9.9478435553
  0
LINE
  5
397
100
AcDbEntity
  8
0
100
AcDbLine
 62
7
  6
CONTINUOUS
 10
15.1623183383
 20
9.8428435553
 11
15.1623183383
 21
9.8228435553
  0
LINE
  5
398
100
AcDbEntity
  8
0
100
AcDbLine
 62
7
  6
CONTINUOUS
 10
15.1798183383
 20
9.9239950753
 11
15.1798183383
 21
9.8666920353
  0
LINE
  5
399
100
AcDbEntity
  8
0
100
AcDbLine
 62
7
  6
CONTINUOUS
 10
15.2098183383
 20
9.8666920353
 11
15.2098183383
 21
9.9239950753
  0
LINE
  5
39A
100
AcDbEntity
  8
0
100
AcDbLine
 62
7
  6
CONTINUOUS
 10
15.2273183383
 20
9.8228435553
 11
15.2273183383
 21
9.8428435553
  0
LINE
  5
39B
100
AcDbEntity
  8
0
100
AcDbLine
 62
7
  6
CONTINUOUS
 10
15.2273183383
 20
9.9478435553
 11
15.2273183383
 21
9.9628435553
  0
LINE
  5
39C
100
AcDbEntity
  8
0
100
AcDbLine
 62
7
  6
CONTINUOUS
 10
15.2373183383
 20
9.9628435553
 11
15.2373183383
 21
9.9478435553
  0
LINE
  5
39D
100
AcDbEntity
  8
0
100
AcDbLine
 62
7
  6
CONTINUOUS
 10
15.2373183383
 20
9.8428435553
 11
15.2373183383
 21
9.8228435553
  0
LINE
  5
39E
100
AcDbEntity
  8
0
100
AcDbLine
 62
7
  6
CONTINUOUS
 10
15.2453183383
 20
9.9345770561
 11
15.2453183383
 21
9.8561100545
  0
LINE
  5
39F
100
AcDbEntity
  8
0
100
AcDbLine
 62
7
  6
CONTINUOUS
 10
15.2823183383
 20
9.9428435553
 11
15.2823183383
 21
9.8478435553
  0
LINE
  5
3A0
100
AcDbEntity
  8
0
100
AcDbLine
 62
7
  6
CONTINUOUS
 10
14.9395930201
 20
10.2106595
 11
14.9367475842
 21
10.2118673159
  0
LINE
  5
3A1
100
AcDbEntity
  8
0
100
AcDbLine
 62
7
  6
CONTINUOUS
 10
15.15592146
 20
10.1725422538
 11
15.1774925171
 21
10.1620213463
  0
LINE
  5
3A2
100
AcDbEntity
  8
0
100
AcDbLine
 62
7
  6
CONTINUOUS
 10
15.194569604
 20
10.1536922945
 11
15.2098491028
 21
10.146239985
  0
LINE
  5
3A3
100
AcDbEntity
  8
0
100
AcDbLine
 62
7
  6
CONTINUOUS
 10
15.1840530915
 20
10.1857377913
 11
15.1863968583
 21
10.1845946598
  0
LINE
  5
3A4
100
AcDbEntity
  8
0
100
AcDbLine
 62
7
  6
CONTINUOUS
 10
15.197482259
 20
10.1861049338
 11
15.1867784208
 21
10.1913255445
  0
LINE
  5
3A5
100
AcDbEntity
  8
0
100
AcDbLine
 62
7
  6
CONTINUOUS
 10
15.1969406433
 20
10.2121611883
 11
15.2076444815
 21
10.2069405776
  0
LINE
  5
3A6
100
AcDbEntity
  8
0
100
AcDbLine
 62
7
  6
CONTINUOUS
 10
15.2163779026
 20
10.209811793
 11
15.1822237288
 21
10.2264698966
  0
LINE
  5
3A7
100
AcDbEntity
  8
0
100
AcDbLine
 62
7
  6
CONTINUOUS
 10
14.9984740028
 20
9.847727748
 11
14.9558183383
 21
9.8792052316
  0
LINE
  5
3A8
100
AcDbEntity
  8
0
100
AcDbLine
 62
7
  6
CONTINUOUS
 10
15.0017185673
 20
9.5458353071
 11
14.9867886839
 21
9.5623814446
  0
LINE
  5
3A9
100
AcDbEntity
  8
0
100
AcDbLine
 62
7
  6
CONTINUOUS
 10
14.9532887987
 20
10.2404132543
 11
14.9542274055
 21
10.2344871243
  0
LINE
  5
3AA
100
AcDbEntity
  8
0
100
AcDbLine
 62
7
  6
CONTINUOUS
 10
14.9799073023
 20
10.2385544204
 11
14.9789686955
 21
10.2444805504
  0
LINE
  5
3AB
100
AcDbEntity
  8
0
100
AcDbLine
 62
7
  6
CONTINUOUS
 10
15.0111287795
 20
10.2495742073
 11
15.0120673862
 21
10.2436480773
  0
LINE
  5
3AC
100
AcDbEntity
  8
0
100
AcDbLine
 62
7
  6
CONTINUOUS
 10
15.0302794077
 20
10.2465325781
 11
15.0293408009
 21
10.2524587081
  0
LINE
  5
3AD
100
AcDbEntity
  8
0
100
AcDbLine
 62
7
  6
CONTINUOUS
 10
15.2211569796
 20
10.1364623698
 11
15.2416452592
 21
10.1204551715
  0
LINE
  5
3AE
100
AcDbEntity
  8
0
100
AcDbLine
 62
7
  6
CONTINUOUS
 10
15.2509848173
 20
10.1807969798
 11
15.2583057954
 21
10.1750772049
  0
LINE
  5
3AF
100
AcDbEntity
  8
0
100
AcDbLine
 62
7
  6
CONTINUOUS
 10
15.2701259567
 20
10.1658422827
 11
15.2774469348
 21
10.1601225078
  0
LINE
  5
3B0
100
AcDbEntity
  8
0
100
AcDbLine
 62
7
  6
CONTINUOUS
 10
15.2896170983
 20
10.159116556
 11
15.2470645176
 21
10.1923622757
  0
LINE
  5
3B1
100
AcDbEntity
  8
0
100
AcDbLine
 62
7
  6
CONTINUOUS
 10
14.6044132905
 20
10.1236165687
 11
14.4455725663
 21
10.282457293
  0
LINE
  5
3B2
100
AcDbEntity
  8
0
100
AcDbLine
 62
7
  6
CONTINUOUS
 10
15.2780791501
 20
9.4499507091
 11
15.436932076
 21
9.2910977833
  0
LINE
  5
3B3
100
AcDbEntity
  8
0
100
AcDbLine
 62
7
  6
CONTINUOUS
 10
14.8165575264
 20
10.3357364015
 11
14.6577046006
 21
10.4945893273
  0
LINE
  5
3B4
100
AcDbEntity
  8
0
100
AcDbLine
 62
7
  6
CONTINUOUS
 10
15.4902233861
 20
9.6620705419
 11
15.6490641103
 21
9.5032298176
  0
LINE
  5
3B5
100
AcDbEntity
  8
0
100
AcDbLine
 62
7
  6
CONTINUOUS
 10
14.8603183383
 20
9.9429232419
 11
14.8408183383
 21
9.9628435553
  0
LINE
  5
3B6
100
AcDbEntity
  8
0
100
AcDbLine
 62
7
  6
CONTINUOUS
 10
14.927596707
 20
9.8767833655
 11
14.9733183383
 21
9.8228435553
  0
LINE
  5
3B7
100
AcDbEntity
  8
0
100
AcDbLine
 62
7
  6
CONTINUOUS
 10
14.8120329229
 20
10.1656470987
 11
14.8161474196
 21
10.1599839798
  0
LINE
  5
3B8
100
AcDbEntity
  8
0
100
AcDbLine
 62
7
  6
CONTINUOUS
 10
14.8431855413
 20
10.122769198
 11
14.847300038
 21
10.1171060791
  0
LINE
  5
3B9
100
AcDbEntity
  8
0
100
AcDbLine
 62
7
  6
CONTINUOUS
 10
14.82884009
 20
10.1561244307
 11
14.8434371428
 21
10.1360333111
  0
LINE
  5
3BA
100
AcDbEntity
  8
0
100
AcDbLine
 62
7
  6
CONTINUOUS
 10
14.8482912448
 20
10.1395600226
 11
14.833694192
 21
10.1596511422
  0
LINE
  5
3BB
100
AcDbEntity
  8
0
100
AcDbLine
 62
7
  6
CONTINUOUS
 10
14.8650984119
 20
10.1300373546
 11
14.8609839151
 21
10.1357004736
  0
LINE
  5
3BC
100
AcDbEntity
  8
0
100
AcDbLine
 62
7
  6
CONTINUOUS
 10
14.8452026196
 20
10.1897462941
 11
14.8493171164
 21
10.1840831751
  0
LINE
  5
3BD
100
AcDbEntity
  8
0
100
AcDbLine
 62
7
  6
CONTINUOUS
 10
14.8620097868
 20
10.180223626
 11
14.8766068396
 21
10.1601325065
  0
LINE
  5
3BE
100
AcDbEntity
  8
0
100
AcDbLine
 62
7
  6
CONTINUOUS
 10
14.8814609415
 20
10.163659218
 11
14.8668638887
 21
10.1837503375
  0
LINE
  5
3BF
100
AcDbEntity
  8
0
100
AcDbLine
 62
7
  6
CONTINUOUS
 10
14.8982681087
 20
10.1541365499
 11
14.8941536119
 21
10.1597996689
  0
LINE
  5
3C0
100
AcDbEntity
  8
0
100
AcDbLine
 62
7
  6
CONTINUOUS
 10
14.8671154903
 20
10.1970144506
 11
14.8630009935
 21
10.2026775696
  0
LINE
  5
3C1
100
AcDbEntity
  8
0
100
AcDbLine
 62
7
  6
CONTINUOUS
 10
14.9598277453
 20
10.2318880972
 11
14.9881241101
 21
10.1851827181
  0
LINE
  5
3C2
100
AcDbEntity
  8
0
100
AcDbLine
 62
7
  6
CONTINUOUS
 10
14.9879264339
 20
10.2105973489
 11
14.9760388495
 21
10.2302187433
  0
LINE
  5
3C3
100
AcDbEntity
  8
0
100
AcDbLine
 62
7
  6
CONTINUOUS
 10
14.9958220238
 20
10.2179784888
 11
15.0132776253
 21
10.1891666435
  0
LINE
  5
3C4
100
AcDbEntity
  8
0
100
AcDbLine
 62
7
  6
CONTINUOUS
 10
15.0130799491
 20
10.2145812743
 11
14.9956243476
 21
10.2433931196
  0
LINE
  5
3C5
100
AcDbEntity
  8
0
100
AcDbLine
 62
7
  6
CONTINUOUS
 10
14.9743662745
 20
9.5646772488
 11
14.9890986388
 21
9.5371759203
  0
LINE
  5
3C6
100
AcDbEntity
  8
0
100
AcDbLine
 62
7
  6
CONTINUOUS
 10
14.8868734233
 20
10.2152135745
 11
14.8891210629
 21
10.2096504713
  0
LINE
  5
3C7
100
AcDbEntity
  8
0
100
AcDbLine
 62
7
  6
CONTINUOUS
 10
14.9059783596
 20
10.1679271979
 11
14.9093498189
 21
10.1595825432
  0
LINE
  5
3C8
100
AcDbEntity
  8
0
100
AcDbLine
 62
7
  6
CONTINUOUS
 10
14.8938491274
 20
10.2059565025
 11
14.9068133982
 21
10.1738688063
  0
LINE
  5
3C9
100
AcDbEntity
  8
0
100
AcDbLine
 62
7
  6
CONTINUOUS
 10
14.9191023147
 20
10.1786222937
 11
14.9149816422
 21
10.1888213161
  0
LINE
  5
3CA
100
AcDbEntity
  8
0
100
AcDbLine
 62
7
  6
CONTINUOUS
 10
14.9097371498
 20
10.20180189
 11
14.9063656905
 21
10.2101465447
  0
LINE
  5
3CB
100
AcDbEntity
  8
0
100
AcDbLine
 62
7
  6
CONTINUOUS
 10
14.9426111709
 20
10.2031893148
 11
14.9395930201
 21
10.2106595
  0
LINE
  5
3CC
100
AcDbEntity
  8
0
100
AcDbLine
 62
7
  6
CONTINUOUS
 10
15.0445937161
 20
9.5829260167
 11
15.0526310747
 21
9.5608435553
  0
LINE
  5
3CD
100
AcDbEntity
  8
0
100
AcDbLine
 62
7
  6
CONTINUOUS
 10
15.0559068068
 20
9.5518435553
 11
15.0567154313
 21
9.549621878
  0
LINE
  5
3CE
100
AcDbEntity
  8
0
100
AcDbLine
 62
7
  6
CONTINUOUS
 10
15.0700830624
 20
9.5509040705
 11
15.0548183383
 21
9.5928435553
  0
LINE
  5
3CF
100
AcDbEntity
  8
0
100
AcDbLine
 62
7
  6
CONTINUOUS
 10
15.1650960323
 20
9.5748347601
 11
15.1692305926
 21
9.5604158347
  0
LINE
  5
3D0
100
AcDbEntity
  8
0
100
AcDbLine
 62
7
  6
CONTINUOUS
 10
15.2088739128
 20
9.6118202229
 11
15.2047393525
 21
9.6262391484
  0
LINE
  5
3D1
100
AcDbEntity
  8
0
100
AcDbLine
 62
7
  6
CONTINUOUS
 10
15.1869280275
 20
10.1839407975
 11
15.194569604
 21
10.1536922945
  0
LINE
  5
3D2
100
AcDbEntity
  8
0
100
AcDbLine
 62
7
  6
CONTINUOUS
 10
15.2396695627
 20
10.1877699728
 11
15.2401570401
 21
10.1837997882
  0
LINE
  5
3D3
100
AcDbEntity
  8
0
100
AcDbLine
 62
9
  6
CONTINUOUS
 10
15.6490641103
 20
10.282457293
 11
15.436932076
 21
10.4945893273
  0
LINE
  5
3D4
100
AcDbEntity
  8
0
100
AcDbLine
 62
7
  6
CONTINUOUS
 10
15.208909562
 20
10.1590414234
 11
15.1984260329
 21
10.1787079357
  0
LINE
  5
3D5
100
AcDbEntity
  8
0
100
AcDbLine
 62
9
  6
CONTINUOUS
 10
15.8485583547
 20
10.4045779289
 11
15.5590527118
 21
10.6940835717
  0
LINE
  5
3D6
100
AcDbEntity
  8
0
100
AcDbLine
 62
9
  6
CONTINUOUS
 10
15.9378121412
 20
10.4483206186
 11
15.6027954016
 21
10.7833373582
  0
LINE
  5
3D7
100
AcDbEntity
  8
0
100
AcDbLine
 62
9
  6
CONTINUOUS
 10
16.135242046
 20
10.6457505233
 11
15.8002253063
 21
10.980767263
  0
LINE
  5
3D8
100
AcDbEntity
  8
0
100
AcDbLine
 62
9
  6
CONTINUOUS
 10
16.0418598414
 20
11.0386926285
 11
16.1931674115
 21
10.8873850584
  0
ARC
  5
3D9
100
AcDbEntity
  8
0
100
AcDbCircle
 62
9
  6
CONTINUOUS
 10
0.9686133011
 20
9.3266593887
 40
10.92786171
100
AcDbArc
 50
355.8273304562
 51
356.0393819506
  0
ARC
  5
3DA
100
AcDbEntity
  8
0
100
AcDbCircle
 62
9
  6
CONTINUOUS
 10
-0.1779915355
 20
7.5368870647
 40
10.4635223797
100
AcDbArc
 50
9.7706449183
 51
10.1478964551
  0
ARC
  5
3DB
100
AcDbEntity
  8
0
100
AcDbCircle
 62
9
  6
CONTINUOUS
 10
4.3249332041
 20
9.3332513486
 40
7.5590249085
100
AcDbArc
 50
353.9876024129
 51
354.2882197323
  0
ARC
  5
3DC
100
AcDbEntity
  8
0
100
AcDbCircle
 62
9
  6
CONTINUOUS
 10
-0.1777681172
 20
12.3952830329
 40
12.511645573
100
AcDbArc
 50
345.7356168277
 51
346.0457621646
  0
ARC
  5
3DD
100
AcDbEntity
  8
0
100
AcDbCircle
 62
7
  6
CONTINUOUS
 10
7.5154653332
 20
8.7175897792
 40
0.75
100
AcDbArc
 50
34.2724717156
 51
55.7275282844
  0
ARC
  5
3DE
100
AcDbEntity
  8
0
100
AcDbCircle
 62
7
  6
CONTINUOUS
 10
6.5791713434
 20
8.7175897792
 40
0.75
100
AcDbArc
 50
124.2724717156
 51
145.7275282844
  0
ARC
  5
3DF
100
AcDbEntity
  8
0
100
AcDbCircle
 62
7
  6
CONTINUOUS
 10
7.0833786854
 20
8.9375443927
 40
0.5
100
AcDbArc
 50
17.9458665856
 51
45.0
  0
ARC
  5
3E0
100
AcDbEntity
  8
0
100
AcDbCircle
 62
7
  6
CONTINUOUS
 10
7.0112579912
 20
8.9375443927
 40
0.5
100
AcDbArc
 50
135.0
 51
162.0541334144
  0
ARC
  5
3E1
100
AcDbEntity
  8
0
100
AcDbCircle
 62
7
  6
CONTINUOUS
 10
7.9973204834
 20
9.0941489802
 40
0.35
100
AcDbArc
 50
235.7275282844
 51
277.3110157293
  0
ARC
  5
3E2
100
AcDbEntity
  8
0
100
AcDbCircle
 62
7
  6
CONTINUOUS
 10
7.8460129133
 20
8.9428414102
 40
0.35
100
AcDbArc
 50
352.6889842707
 51
34.2724717156
  0
ARC
  5
3E3
100
AcDbEntity
  8
0
100
AcDbCircle
 62
7
  6
CONTINUOUS
 10
7.8920245342
 20
9.1994449295
 40
0.35
100
AcDbArc
 50
197.9458645644
 51
214.2724717156
  0
ARC
  5
3E4
100
AcDbEntity
  8
0
100
AcDbCircle
 62
7
  6
CONTINUOUS
 10
7.7407169641
 20
9.0481373594
 40
0.35
100
AcDbArc
 50
55.7275282844
 51
72.0541354356
  0
ARC
  5
3E5
100
AcDbEntity
  8
0
100
AcDbCircle
 62
7
  6
CONTINUOUS
 10
6.2486237632
 20
8.9428414102
 40
0.35
100
AcDbArc
 50
145.7275282844
 51
187.3110157293
  0
ARC
  5
3E6
100
AcDbEntity
  8
0
100
AcDbCircle
 62
7
  6
CONTINUOUS
 10
6.0973161932
 20
9.0941489802
 40
0.35
100
AcDbArc
 50
262.6889842707
 51
304.2724717156
  0
ARC
  5
3E7
100
AcDbEntity
  8
0
100
AcDbCircle
 62
7
  6
CONTINUOUS
 10
6.3539197124
 20
9.0481373594
 40
0.35
100
AcDbArc
 50
107.9458645644
 51
124.2724717156
  0
ARC
  5
3E8
100
AcDbEntity
  8
0
100
AcDbCircle
 62
7
  6
CONTINUOUS
 10
6.2026121424
 20
9.1994449295
 40
0.35
100
AcDbArc
 50
325.7275282844
 51
342.0541354356
  0
ARC
  5
3E9
100
AcDbEntity
  8
0
100
AcDbCircle
 62
7
  6
CONTINUOUS
 10
8.0195901624
 20
8.9205717312
 40
0.175
100
AcDbArc
 50
277.3110157293
 51
352.6889842707
  0
ARC
  5
3EA
100
AcDbEntity
  8
0
100
AcDbCircle
 62
7
  6
CONTINUOUS
 10
6.0750465142
 20
8.9205717312
 40
0.175
100
AcDbArc
 50
187.3110157293
 51
262.6889842707
  0
ARC
  5
3EB
100
AcDbEntity
  8
0
100
AcDbCircle
 62
7
  6
CONTINUOUS
 10
5.8720645622
 20
9.4246965604
 40
0.75
100
AcDbArc
 50
304.2724717156
 51
325.7275282844
  0
ARC
  5
3EC
100
AcDbEntity
  8
0
100
AcDbCircle
 62
7
  6
CONTINUOUS
 10
6.9211387318
 20
9.5743658188
 40
0.0177342409
100
AcDbArc
 50
246.0000000002
 51
42.5194112807
  0
ARC
  5
3ED
100
AcDbEntity
  8
0
100
AcDbCircle
 62
7
  6
CONTINUOUS
 10
6.9308189823
 20
9.6004493008
 40
0.0145
100
AcDbArc
 50
283.5235132019
 51
66.0
  0
ARC
  5
3EE
100
AcDbEntity
  8
0
100
AcDbCircle
 62
7
  6
CONTINUOUS
 10
6.91552277
 20
9.5771571156
 40
0.012
100
AcDbArc
 50
246.0
 51
66.0
  0
ARC
  5
3EF
100
AcDbEntity
  8
0
100
AcDbCircle
 62
7
  6
CONTINUOUS
 10
6.9244241641
 20
9.6032964573
 40
0.0095
100
AcDbArc
 50
246.0000000001
 51
66.0000000001
  0
ARC
  5
3F0
100
AcDbEntity
  8
0
100
AcDbCircle
 62
7
  6
CONTINUOUS
 10
6.9000304531
 20
9.6161186022
 40
0.007
100
AcDbArc
 50
336.0
 51
49.3984504006
  0
ARC
  5
3F1
100
AcDbEntity
  8
0
100
AcDbCircle
 62
7
  6
CONTINUOUS
 10
6.8871842488
 20
9.587265555
 40
0.007
100
AcDbArc
 50
262.6015495989
 51
336.0
  0
ARC
  5
3F2
100
AcDbEntity
  8
0
100
AcDbCircle
 62
7
  6
CONTINUOUS
 10
6.9215366434
 20
9.6127918364
 40
0.002
100
AcDbArc
 50
66.0000000015
 51
156.0000000014
  0
ARC
  5
3F3
100
AcDbEntity
  8
0
100
AcDbCircle
 62
7
  6
CONTINUOUS
 10
6.9154355938
 20
9.5990886546
 40
0.002
100
AcDbArc
 50
156.0000000002
 51
246.0000000015
  0
ARC
  5
3F4
100
AcDbEntity
  8
0
100
AcDbCircle
 62
7
  6
CONTINUOUS
 10
6.9113682273
 20
9.5899532
 40
0.002
100
AcDbArc
 50
66.0000000015
 51
155.9999999988
  0
ARC
  5
3F5
100
AcDbEntity
  8
0
100
AcDbCircle
 62
7
  6
CONTINUOUS
 10
6.9032334945
 20
9.5716822909
 40
0.002
100
AcDbArc
 50
156.0000000014
 51
245.9999999989
  0
ARC
  5
3F6
100
AcDbEntity
  8
0
100
AcDbCircle
 62
7
  6
CONTINUOUS
 10
6.0920191757
 20
9.9289039024
 40
0.5
100
AcDbArc
 50
45.0
 51
72.0541334144
  0
ARC
  5
3F7
100
AcDbEntity
  8
0
100
AcDbCircle
 62
7
  6
CONTINUOUS
 10
6.0920191757
 20
9.8567832082
 40
0.5
100
AcDbArc
 50
287.9458665856
 51
315.0
  0
ARC
  5
3F8
100
AcDbEntity
  8
0
100
AcDbCircle
 62
7
  6
CONTINUOUS
 10
6.7673027171
 20
9.8628435553
 40
0.1
100
AcDbArc
 50
72.2472098381
 51
100.0172899057
  0
ARC
  5
3F9
100
AcDbEntity
  8
0
100
AcDbCircle
 62
7
  6
CONTINUOUS
 10
6.7632313948
 20
9.8994378003
 40
0.076594245
100
AcDbArc
 50
259.9827100943
 51
334.4203702628
  0
ARC
  5
3FA
100
AcDbEntity
  8
0
100
AcDbCircle
 62
7
  6
CONTINUOUS
 10
6.7973183383
 20
9.8941654499
 40
0.07
100
AcDbArc
 50
157.8274919952
 51
202.1725080048
  0
ARC
  5
3FB
100
AcDbEntity
  8
0
100
AcDbCircle
 62
7
  6
CONTINUOUS
 10
6.7620350862
 20
9.8926651485
 40
0.0697167479
100
AcDbArc
 50
100.0172899057
 51
179.8547254978
  0
ARC
  5
3FC
100
AcDbEntity
  8
0
100
AcDbCircle
 62
7
  6
CONTINUOUS
 10
6.7620350862
 20
9.8926651485
 40
0.0697167479
100
AcDbArc
 50
180.0014564939
 51
259.9827100943
  0
ARC
  5
3FD
100
AcDbEntity
  8
0
100
AcDbCircle
 62
7
  6
CONTINUOUS
 10
6.7710308379
 20
9.8957043423
 40
0.0529472791
100
AcDbArc
 50
263.3735843888
 51
334.4203702629
  0
ARC
  5
3FE
100
AcDbEntity
  8
0
100
AcDbCircle
 62
7
  6
CONTINUOUS
 10
6.7710308379
 20
9.8995770236
 40
0.0486968155
100
AcDbArc
 50
15.8089885518
 51
65.8402771873
  0
ARC
  5
3FF
100
AcDbEntity
  8
0
100
AcDbCircle
 62
7
  6
CONTINUOUS
 10
6.7730413801
 20
9.904059107
 40
0.0437844483
100
AcDbArc
 50
65.8402771873
 51
157.8274919952
  0
ARC
  5
400
100
AcDbEntity
  8
0
100
AcDbCircle
 62
7
  6
CONTINUOUS
 10
6.769536785
 20
9.8828435553
 40
0.04
100
AcDbArc
 50
202.1725080048
 51
263.3735843888
  0
ARC
  5
401
100
AcDbEntity
  8
0
100
AcDbCircle
 62
7
  6
CONTINUOUS
 10
6.8243256195
 20
9.9236146708
 40
0.0274927188
100
AcDbArc
 50
0.0
 51
61.7976033231
  0
ARC
  5
402
100
AcDbEntity
  8
0
100
AcDbCircle
 62
7
  6
CONTINUOUS
 10
6.9048183383
 20
9.9236146708
 40
0.02
100
AcDbArc
 50
0.0
 51
67.975687163
  0
ARC
  5
403
100
AcDbEntity
  8
0
100
AcDbCircle
 62
7
  6
CONTINUOUS
 10
6.9048183383
 20
9.9236146708
 40
0.02
100
AcDbArc
 50
112.024312837
 51
180.0
  0
ARC
  5
404
100
AcDbEntity
  8
0
100
AcDbCircle
 62
7
  6
CONTINUOUS
 10
6.8318183383
 20
9.8620724398
 40
0.02
100
AcDbArc
 50
285.9620141629
 51
360.0
  0
ARC
  5
405
100
AcDbEntity
  8
0
100
AcDbCircle
 62
7
  6
CONTINUOUS
 10
6.9048183383
 20
9.8620724398
 40
0.02
100
AcDbArc
 50
180.0
 51
247.975687163
  0
ARC
  5
406
100
AcDbEntity
  8
0
100
AcDbCircle
 62
7
  6
CONTINUOUS
 10
6.9048183383
 20
9.8620724398
 40
0.02
100
AcDbArc
 50
292.0243128371
 51
360.0
  0
ARC
  5
407
100
AcDbEntity
  8
0
100
AcDbCircle
 62
7
  6
CONTINUOUS
 10
6.9198183383
 20
9.9036146708
 40
0.005
100
AcDbArc
 50
270.0
 51
360.0
  0
ARC
  5
408
100
AcDbEntity
  8
0
100
AcDbCircle
 62
7
  6
CONTINUOUS
 10
6.8898183383
 20
9.9036146708
 40
0.005
100
AcDbArc
 50
180.0
 51
270.0
  0
ARC
  5
409
100
AcDbEntity
  8
0
100
AcDbCircle
 62
7
  6
CONTINUOUS
 10
6.7993183383
 20
9.9628435553
 40
0.005
100
AcDbArc
 50
252.2472098377
 51
360.0
  0
ARC
  5
40A
100
AcDbEntity
  8
0
100
AcDbCircle
 62
7
  6
CONTINUOUS
 10
6.8898183383
 20
9.8848435553
 40
0.005
100
AcDbArc
 50
90.0
 51
180.0
  0
ARC
  5
40B
100
AcDbEntity
  8
0
100
AcDbCircle
 62
7
  6
CONTINUOUS
 10
6.9198183383
 20
9.8848435553
 40
0.005
100
AcDbArc
 50
0.0
 51
90.0
  0
ARC
  5
40C
100
AcDbEntity
  8
0
100
AcDbCircle
 62
7
  6
CONTINUOUS
 10
7.1096918455
 20
9.5993992751
 40
0.06
100
AcDbArc
 50
256.214635172
 51
301.4712206345
  0
ARC
  5
40D
100
AcDbEntity
  8
0
100
AcDbCircle
 62
7
  6
CONTINUOUS
 10
7.1741038168
 20
9.6209512192
 40
0.06
100
AcDbArc
 50
269.214635172
 51
314.4712206346
  0
ARC
  5
40E
100
AcDbEntity
  8
0
100
AcDbCircle
 62
7
  6
CONTINUOUS
 10
7.1207474314
 20
9.5516545233
 40
0.049
100
AcDbArc
 50
72.2068956493
 51
131.7931043508
  0
ARC
  5
40F
100
AcDbEntity
  8
0
100
AcDbCircle
 62
7
  6
CONTINUOUS
 10
7.195616281
 20
9.576917128
 40
0.049
100
AcDbArc
 50
85.2068956493
 51
144.7931043508
  0
ARC
  5
410
100
AcDbEntity
  8
0
100
AcDbCircle
 62
7
  6
CONTINUOUS
 10
7.1152142482
 20
9.5734184133
 40
0.025
100
AcDbArc
 50
221.6464596401
 51
305.5781784781
  0
ARC
  5
411
100
AcDbEntity
  8
0
100
AcDbCircle
 62
7
  6
CONTINUOUS
 10
7.1145637255
 20
9.5687422667
 40
0.025
100
AcDbArc
 50
33.0231697077
 51
118.2602047083
  0
ARC
  5
412
100
AcDbEntity
  8
0
100
AcDbCircle
 62
7
  6
CONTINUOUS
 10
7.1853291029
 20
9.5968785155
 40
0.025
100
AcDbArc
 50
234.6464596399
 51
318.5781784781
  0
ARC
  5
413
100
AcDbEntity
  8
0
100
AcDbCircle
 62
7
  6
CONTINUOUS
 10
7.1857471571
 20
9.5921758825
 40
0.025
100
AcDbArc
 50
46.0231697076
 51
131.2602047082
  0
ARC
  5
414
100
AcDbEntity
  8
0
100
AcDbCircle
 62
7
  6
CONTINUOUS
 10
6.9929401918
 20
9.579297678
 40
0.018
100
AcDbArc
 50
250.0164438545
 51
78.0
  0
ARC
  5
415
100
AcDbEntity
  8
0
100
AcDbCircle
 62
7
  6
CONTINUOUS
 10
7.0841784517
 20
9.5560343727
 40
0.015
100
AcDbArc
 50
200.0
 51
251.094540793
  0
ARC
  5
416
100
AcDbEntity
  8
0
100
AcDbCircle
 62
7
  6
CONTINUOUS
 10
7.0124582249
 20
9.5560343727
 40
0.015
100
AcDbArc
 50
288.905459207
 51
340.0
  0
ARC
  5
417
100
AcDbEntity
  8
0
100
AcDbCircle
 62
7
  6
CONTINUOUS
 10
7.1331850055
 20
9.5610186624
 40
0.015
100
AcDbArc
 50
301.4712206345
 51
61.6196427435
  0
ARC
  5
418
100
AcDbEntity
  8
0
100
AcDbCircle
 62
7
  6
CONTINUOUS
 10
7.2056286079
 20
9.5888391102
 40
0.015
100
AcDbArc
 50
314.4712206346
 51
74.6196427433
  0
ARC
  5
419
100
AcDbEntity
  8
0
100
AcDbCircle
 62
7
  6
CONTINUOUS
 10
7.0920587266
 20
9.527530832
 40
0.014
100
AcDbArc
 50
76.2146351719
 51
93.0
  0
ARC
  5
41A
100
AcDbEntity
  8
0
100
AcDbCircle
 62
7
  6
CONTINUOUS
 10
7.1399990163
 20
9.6116409924
 40
0.014
100
AcDbArc
 50
252.2068956492
 51
273.0
  0
ARC
  5
41B
100
AcDbEntity
  8
0
100
AcDbCircle
 62
7
  6
CONTINUOUS
 10
7.1730895156
 20
9.5469581709
 40
0.014
100
AcDbArc
 50
89.2146351722
 51
106.0000000002
  0
ARC
  5
41C
100
AcDbEntity
  8
0
100
AcDbCircle
 62
7
  6
CONTINUOUS
 10
7.2008804295
 20
9.6396968121
 40
0.014
100
AcDbArc
 50
265.2068956491
 51
285.9999999999
  0
ARC
  5
41D
100
AcDbEntity
  8
0
100
AcDbCircle
 62
7
  6
CONTINUOUS
 10
7.0967554926
 20
9.5784945469
 40
0.013
100
AcDbArc
 50
131.7931043508
 51
243.9826041728
  0
ARC
  5
41E
100
AcDbEntity
  8
0
100
AcDbCircle
 62
7
  6
CONTINUOUS
 10
7.1662015624
 20
9.5976722316
 40
0.013
100
AcDbArc
 50
144.7931043505
 51
256.9826041731
  0
ARC
  5
41F
100
AcDbEntity
  8
0
100
AcDbCircle
 62
7
  6
CONTINUOUS
 10
6.9864933297
 20
9.5806680008
 40
0.0115908889
100
AcDbArc
 50
258.0
 51
78.0
  0
ARC
  5
420
100
AcDbEntity
  8
0
100
AcDbCircle
 62
7
  6
CONTINUOUS
 10
6.9455103102
 20
9.5653810731
 40
0.011
100
AcDbArc
 50
287.9999999999
 51
348.0
  0
ARC
  5
421
100
AcDbEntity
  8
0
100
AcDbCircle
 62
7
  6
CONTINUOUS
 10
6.9797454763
 20
9.5581041639
 40
0.011
100
AcDbArc
 50
168.0
 51
227.9999999998
  0
ARC
  5
422
100
AcDbEntity
  8
0
100
AcDbCircle
 62
7
  6
CONTINUOUS
 10
7.0098853818
 20
9.5532043736
 40
0.011
100
AcDbArc
 50
222.0605153622
 51
258.0000000001
  0
ARC
  5
423
100
AcDbEntity
  8
0
100
AcDbCircle
 62
7
  6
CONTINUOUS
 10
6.9509050866
 20
9.5907615004
 40
0.011
100
AcDbArc
 50
348.0
 51
47.9999999998
  0
ARC
  5
424
100
AcDbEntity
  8
0
100
AcDbCircle
 62
7
  6
CONTINUOUS
 10
7.0381101566
 20
9.5475697571
 40
0.006
100
AcDbArc
 50
159.9999999996
 51
252.6242801222
  0
ARC
  5
425
100
AcDbEntity
  8
0
100
AcDbCircle
 62
7
  6
CONTINUOUS
 10
7.0510772755
 20
9.5475697571
 40
0.006
100
AcDbArc
 50
287.3757198778
 51
20.0000000004
  0
ARC
  5
426
100
AcDbEntity
  8
0
100
AcDbCircle
 62
7
  6
CONTINUOUS
 10
6.9709340926
 20
9.5647472066
 40
0.001
100
AcDbArc
 50
78.0
 51
168.0000000008
  0
ARC
  5
427
100
AcDbEntity
  8
0
100
AcDbCircle
 62
7
  6
CONTINUOUS
 10
6.973484788
 20
9.5642050396
 40
0.001
100
AcDbArc
 50
28.1777964216
 51
78.0000000006
  0
ARC
  5
428
100
AcDbEntity
  8
0
100
AcDbCircle
 62
7
  6
CONTINUOUS
 10
6.9726424916
 20
9.5727845917
 40
0.001
100
AcDbArc
 50
168.0000000008
 51
258.0000000012
  0
ARC
  5
429
100
AcDbEntity
  8
0
100
AcDbCircle
 62
7
  6
CONTINUOUS
 10
6.9770464308
 20
9.5935034968
 40
0.001
100
AcDbArc
 50
77.9999999993
 51
168.0000000007
  0
ARC
  5
42A
100
AcDbEntity
  8
0
100
AcDbCircle
 62
7
  6
CONTINUOUS
 10
6.9778183383
 20
9.8620724398
 40
0.02
100
AcDbArc
 50
180.0
 51
254.0379858372
  0
ARC
  5
42B
100
AcDbEntity
  8
0
100
AcDbCircle
 62
7
  6
CONTINUOUS
 10
7.0281042909
 20
9.8566827298
 40
0.015
100
AcDbArc
 50
160.0
 51
247.3109219557
  0
ARC
  5
42C
100
AcDbEntity
  8
0
100
AcDbCircle
 62
7
  6
CONTINUOUS
 10
7.055569719
 20
9.8566827298
 40
0.015
100
AcDbArc
 50
292.6890780443
 51
20.0
  0
ARC
  5
42D
100
AcDbEntity
  8
0
100
AcDbCircle
 62
7
  6
CONTINUOUS
 10
6.9659430653
 20
9.8759434521
 40
0.035
100
AcDbArc
 50
288.9660475067
 51
340.0
  0
ARC
  5
42E
100
AcDbEntity
  8
0
100
AcDbCircle
 62
7
  6
CONTINUOUS
 10
7.0473183383
 20
9.8928435553
 40
1.3125
100
AcDbArc
 50
235.4746245003
 51
304.5253754997
  0
ARC
  5
42F
100
AcDbEntity
  8
0
100
AcDbCircle
 62
7
  6
CONTINUOUS
 10
7.0473183383
 20
9.8928435553
 40
1.3125
100
AcDbArc
 50
325.4993243467
 51
34.5006756533
  0
ARC
  5
430
100
AcDbEntity
  8
0
100
AcDbCircle
 62
7
  6
CONTINUOUS
 10
7.0473183383
 20
9.8928435553
 40
1.3125
100
AcDbArc
 50
55.4746245003
 51
124.5253754997
  0
ARC
  5
431
100
AcDbEntity
  8
0
100
AcDbCircle
 62
7
  6
CONTINUOUS
 10
7.0473183383
 20
9.8928435553
 40
1.3125
100
AcDbArc
 50
145.4993243467
 51
214.5006756533
  0
ARC
  5
432
100
AcDbEntity
  8
0
100
AcDbCircle
 62
7
  6
CONTINUOUS
 10
7.0473183383
 20
9.8928435553
 40
1.2625
100
AcDbArc
 50
236.2095910039
 51
303.7904089961
  0
ARC
  5
433
100
AcDbEntity
  8
0
100
AcDbCircle
 62
7
  6
CONTINUOUS
 10
7.0473183383
 20
9.8928435553
 40
1.2625
100
AcDbArc
 50
146.2173111262
 51
213.7826888738
  0
ARC
  5
434
100
AcDbEntity
  8
0
100
AcDbCircle
 62
7
  6
CONTINUOUS
 10
7.0473183383
 20
9.8928435553
 40
1.2625
100
AcDbArc
 50
56.2095910039
 51
123.7904089961
  0
ARC
  5
435
100
AcDbEntity
  8
0
100
AcDbCircle
 62
7
  6
CONTINUOUS
 10
7.0473183383
 20
9.8928435553
 40
1.2625
100
AcDbArc
 50
326.2173111262
 51
33.7826888738
  0
ARC
  5
436
100
AcDbEntity
  8
0
100
AcDbCircle
 62
9
  6
CONTINUOUS
 10
7.0473183383
 20
9.8928435553
 40
1.1354891084
100
AcDbArc
 50
57.610836652
 51
122.389163348
  0
ARC
  5
437
100
AcDbEntity
  8
0
100
AcDbCircle
 62
9
  6
CONTINUOUS
 10
7.0473183383
 20
9.8928435553
 40
1.1354891084
100
AcDbArc
 50
147.6015209619
 51
212.3984790381
  0
ARC
  5
438
100
AcDbEntity
  8
0
100
AcDbCircle
 62
9
  6
CONTINUOUS
 10
7.0473183383
 20
9.8928435553
 40
1.1354891084
100
AcDbArc
 50
237.610836652
 51
302.389163348
  0
ARC
  5
439
100
AcDbEntity
  8
0
100
AcDbCircle
 62
9
  6
CONTINUOUS
 10
7.0473183383
 20
9.8928435553
 40
1.1354891084
100
AcDbArc
 50
327.6015209619
 51
32.3984790381
  0
ARC
  5
43A
100
AcDbEntity
  8
0
100
AcDbCircle
 62
7
  6
CONTINUOUS
 10
7.0473183383
 20
9.8928435553
 40
1.125
100
AcDbArc
 50
57.6507096183
 51
122.3490269131
  0
ARC
  5
43B
100
AcDbEntity
  8
0
100
AcDbCircle
 62
7
  6
CONTINUOUS
 10
7.0473183383
 20
9.8928435553
 40
1.125
100
AcDbArc
 50
327.6513904943
 51
32.3484889866
  0
ARC
  5
43C
100
AcDbEntity
  8
0
100
AcDbCircle
 62
7
  6
CONTINUOUS
 10
7.0473183383
 20
9.8928435553
 40
1.125
100
AcDbArc
 50
237.6507096183
 51
302.3490269131
  0
ARC
  5
43D
100
AcDbEntity
  8
0
100
AcDbCircle
 62
7
  6
CONTINUOUS
 10
7.0473183383
 20
9.8928435553
 40
1.125
100
AcDbArc
 50
147.6513904943
 51
212.3484889866
  0
ARC
  5
43E
100
AcDbEntity
  8
0
100
AcDbCircle
 62
7
  6
CONTINUOUS
 10
7.0473183383
 20
9.8928435553
 40
1.05
100
AcDbArc
 50
238.0444791671
 51
301.9555208329
  0
ARC
  5
43F
100
AcDbEntity
  8
0
100
AcDbCircle
 62
7
  6
CONTINUOUS
 10
7.0473183383
 20
9.8928435553
 40
1.05
100
AcDbArc
 50
148.0440300646
 51
211.9559699354
  0
ARC
  5
440
100
AcDbEntity
  8
0
100
AcDbCircle
 62
7
  6
CONTINUOUS
 10
7.0473183383
 20
9.8928435553
 40
1.05
100
AcDbArc
 50
58.0444791671
 51
121.9555208329
  0
ARC
  5
441
100
AcDbEntity
  8
0
100
AcDbCircle
 62
7
  6
CONTINUOUS
 10
7.0473183383
 20
9.8928435553
 40
1.05
100
AcDbArc
 50
328.0440300646
 51
31.9559699354
  0
ARC
  5
442
100
AcDbEntity
  8
0
100
AcDbCircle
 62
7
  6
CONTINUOUS
 10
7.0473183383
 20
9.8928435553
 40
0.6375
100
AcDbArc
 50
238.6527160524
 51
301.3456278882
  0
ARC
  5
443
100
AcDbEntity
  8
0
100
AcDbCircle
 62
7
  6
CONTINUOUS
 10
7.0473183383
 20
9.8928435553
 40
0.6375
100
AcDbArc
 50
148.6555916158
 51
211.3476455595
  0
ARC
  5
444
100
AcDbEntity
  8
0
100
AcDbCircle
 62
7
  6
CONTINUOUS
 10
7.0473183383
 20
9.8928435553
 40
0.6375
100
AcDbArc
 50
58.6527160524
 51
121.3456278882
  0
ARC
  5
445
100
AcDbEntity
  8
0
100
AcDbCircle
 62
7
  6
CONTINUOUS
 10
7.0473183383
 20
9.8928435553
 40
0.6375
100
AcDbArc
 50
328.6555916158
 51
31.3476455595
  0
ARC
  5
446
100
AcDbEntity
  8
0
100
AcDbCircle
 62
7
  6
CONTINUOUS
 10
7.0473183383
 20
9.8928435553
 40
0.5375
100
AcDbArc
 50
241.2369128452
 51
298.7601268206
  0
ARC
  5
447
100
AcDbEntity
  8
0
100
AcDbCircle
 62
7
  6
CONTINUOUS
 10
7.0473183383
 20
9.8928435553
 40
0.5375
100
AcDbArc
 50
151.2358144572
 51
208.767173185
  0
ARC
  5
448
100
AcDbEntity
  8
0
100
AcDbCircle
 62
7
  6
CONTINUOUS
 10
7.0473183383
 20
9.8928435553
 40
0.5375
100
AcDbArc
 50
61.2369128452
 51
118.7601268206
  0
ARC
  5
449
100
AcDbEntity
  8
0
100
AcDbCircle
 62
7
  6
CONTINUOUS
 10
7.0473183383
 20
9.8928435553
 40
0.5375
100
AcDbArc
 50
331.2358144572
 51
28.767173185
  0
CIRCLE
  5
44A
100
AcDbEntity
  8
0
100
AcDbCircle
 62
7
  6
CONTINUOUS
 10
7.0473183383
 20
9.8928435553
 40
0.5
  0
CIRCLE
  5
44B
100
AcDbEntity
  8
0
100
AcDbCircle
 62
7
  6
CONTINUOUS
 10
7.0473183383
 20
9.8928435553
 40
0.425
  0
CIRCLE
  5
44C
100
AcDbEntity
  8
0
100
AcDbCircle
 62
7
  6
CONTINUOUS
 10
7.0473183383
 20
9.8928435553
 40
0.4175
  0
CIRCLE
  5
44D
100
AcDbEntity
  8
0
100
AcDbCircle
 62
9
  6
CONTINUOUS
 10
7.0473183383
 20
9.8928435553
 40
0.3951446566
  0
ARC
  5
44E
100
AcDbEntity
  8
0
100
AcDbCircle
 62
7
  6
CONTINUOUS
 10
7.1336936113
 20
9.8759434521
 40
0.035
100
AcDbArc
 50
200.0
 51
251.0339524934
  0
ARC
  5
44F
100
AcDbEntity
  8
0
100
AcDbCircle
 62
7
  6
CONTINUOUS
 10
7.2503183383
 20
9.8561100545
 40
0.015
100
AcDbArc
 50
297.8181392847
 51
360.0
  0
ARC
  5
450
100
AcDbEntity
  8
0
100
AcDbCircle
 62
7
  6
CONTINUOUS
 10
7.3073183383
 20
9.8478435553
 40
0.005
100
AcDbArc
 50
180.0
 51
270.0
  0
ARC
  5
451
100
AcDbEntity
  8
0
100
AcDbCircle
 62
7
  6
CONTINUOUS
 10
7.3273183383
 20
9.8928435553
 40
0.07
100
AcDbArc
 50
270.0
 51
90.0
  0
ARC
  5
452
100
AcDbEntity
  8
0
100
AcDbCircle
 62
7
  6
CONTINUOUS
 10
7.1833183383
 20
9.8778435553
 40
0.055
100
AcDbArc
 50
180.0
 51
360.0
  0
ARC
  5
453
100
AcDbEntity
  8
0
100
AcDbCircle
 62
7
  6
CONTINUOUS
 10
7.3273183383
 20
9.8828435553
 40
0.04
100
AcDbArc
 50
270.0
 51
341.7900431357
  0
ARC
  5
454
100
AcDbEntity
  8
0
100
AcDbCircle
 62
7
  6
CONTINUOUS
 10
7.1883183383
 20
9.8778435553
 40
0.03
100
AcDbArc
 50
180.0
 51
360.0
  0
ARC
  5
455
100
AcDbEntity
  8
0
100
AcDbCircle
 62
7
  6
CONTINUOUS
 10
7.2893216279
 20
9.8953435553
 40
0.08
100
AcDbArc
 50
341.7900431357
 51
18.2099568643
  0
ARC
  5
456
100
AcDbEntity
  8
0
100
AcDbCircle
 62
7
  6
CONTINUOUS
 10
7.3273183383
 20
9.9078435553
 40
0.04
100
AcDbArc
 50
18.2099568643
 51
90.0
  0
ARC
  5
457
100
AcDbEntity
  8
0
100
AcDbCircle
 62
7
  6
CONTINUOUS
 10
6.9853110571
 20
9.9236146708
 40
0.0274927188
100
AcDbArc
 50
118.2023966769
 51
180.0
  0
ARC
  5
458
100
AcDbEntity
  8
0
100
AcDbCircle
 62
7
  6
CONTINUOUS
 10
7.2023183383
 20
9.9318435553
 40
0.016
100
AcDbArc
 50
0.0
 51
90.0
  0
ARC
  5
459
100
AcDbEntity
  8
0
100
AcDbCircle
 62
7
  6
CONTINUOUS
 10
7.1743183383
 20
9.9318435553
 40
0.016
100
AcDbArc
 50
90.0
 51
180.0
  0
ARC
  5
45A
100
AcDbEntity
  8
0
100
AcDbCircle
 62
7
  6
CONTINUOUS
 10
7.1123183383
 20
9.9318435553
 40
0.016
100
AcDbArc
 50
0.0
 51
90.0
  0
ARC
  5
45B
100
AcDbEntity
  8
0
100
AcDbCircle
 62
7
  6
CONTINUOUS
 10
7.2503183383
 20
9.9345770561
 40
0.015
100
AcDbArc
 50
0.0
 51
62.1818607153
  0
ARC
  5
45C
100
AcDbEntity
  8
0
100
AcDbCircle
 62
7
  6
CONTINUOUS
 10
7.2523183383
 20
9.9318435553
 40
0.014
100
AcDbArc
 50
90.0
 51
180.0
  0
ARC
  5
45D
100
AcDbEntity
  8
0
100
AcDbCircle
 62
7
  6
CONTINUOUS
 10
7.3073183383
 20
9.9428435553
 40
0.005
100
AcDbArc
 50
90.0
 51
180.0
  0
ARC
  5
45E
100
AcDbEntity
  8
0
100
AcDbCircle
 62
7
  6
CONTINUOUS
 10
8.0026175009
 20
9.8567832082
 40
0.5
100
AcDbArc
 50
225.0
 51
252.0541334144
  0
ARC
  5
45F
100
AcDbEntity
  8
0
100
AcDbCircle
 62
7
  6
CONTINUOUS
 10
8.0026175009
 20
9.9289039024
 40
0.5
100
AcDbArc
 50
107.9458665856
 51
135.0
  0
ARC
  5
460
100
AcDbEntity
  8
0
100
AcDbCircle
 62
7
  6
CONTINUOUS
 10
8.4306383853
 20
9.0805329196
 40
1.7162433328
100
AcDbArc
 50
16.9646620512
 51
17.2463433291
  0
ARC
  5
461
100
AcDbEntity
  8
0
100
AcDbCircle
 62
7
  6
CONTINUOUS
 10
8.5819677815
 20
9.1068392022
 40
1.563993051
100
AcDbArc
 50
10.075359335
 51
17.6599147114
  0
ARC
  5
462
100
AcDbEntity
  8
0
100
AcDbCircle
 62
9
  6
CONTINUOUS
 10
10.5409473396
 20
9.8406429803
 40
1.5030468853
100
AcDbArc
 50
338.0654387884
 51
339.4263613049
  0
ARC
  5
463
100
AcDbEntity
  8
0
100
AcDbCircle
 62
7
  6
CONTINUOUS
 10
8.2225721144
 20
9.4246965604
 40
0.75
100
AcDbArc
 50
214.2724717156
 51
235.7275282844
  0
ARC
  5
464
100
AcDbEntity
  8
0
100
AcDbCircle
 62
7
  6
CONTINUOUS
 10
5.8720645622
 20
10.3609905502
 40
0.75
100
AcDbArc
 50
34.2724717156
 51
55.7275282844
  0
ARC
  5
465
100
AcDbEntity
  8
0
100
AcDbCircle
 62
7
  6
CONTINUOUS
 10
6.2026121424
 20
10.5862421811
 40
0.35
100
AcDbArc
 50
17.9458645644
 51
34.2724717156
  0
ARC
  5
466
100
AcDbEntity
  8
0
100
AcDbCircle
 62
7
  6
CONTINUOUS
 10
6.8531105998
 20
10.1737579882
 40
0.011
100
AcDbArc
 50
36.0
 51
110.1733798683
  0
ARC
  5
467
100
AcDbEntity
  8
0
100
AcDbCircle
 62
7
  6
CONTINUOUS
 10
6.8199409031
 20
10.1496587929
 40
0.011
100
AcDbArc
 50
36.0
 51
110.1733798683
  0
ARC
  5
468
100
AcDbEntity
  8
0
100
AcDbCircle
 62
7
  6
CONTINUOUS
 10
6.8345379559
 20
10.1295676733
 40
0.011
100
AcDbArc
 50
321.8266201325
 51
36.0
  0
ARC
  5
469
100
AcDbEntity
  8
0
100
AcDbCircle
 62
7
  6
CONTINUOUS
 10
6.8571904317
 20
10.1460256604
 40
0.011
100
AcDbArc
 50
216.0
 51
290.1733798683
  0
ARC
  5
46A
100
AcDbEntity
  8
0
100
AcDbCircle
 62
7
  6
CONTINUOUS
 10
6.8903601285
 20
10.1701248558
 40
0.011
100
AcDbArc
 50
216.0
 51
290.1733798683
  0
ARC
  5
46B
100
AcDbEntity
  8
0
100
AcDbCircle
 62
7
  6
CONTINUOUS
 10
6.9012502951
 20
10.1716211667
 40
0.006
100
AcDbArc
 50
321.9999999995
 51
22.0
  0
ARC
  5
46C
100
AcDbEntity
  8
0
100
AcDbCircle
 62
7
  6
CONTINUOUS
 10
6.9218838662
 20
10.1797461134
 40
0.003
100
AcDbArc
 50
201.9999999991
 51
291.9999999992
  0
ARC
  5
46D
100
AcDbEntity
  8
0
100
AcDbCircle
 62
7
  6
CONTINUOUS
 10
6.9308844078
 20
10.2081888674
 40
0.026
100
AcDbArc
 50
291.9999999999
 51
331.7151372318
  0
ARC
  5
46E
100
AcDbEntity
  8
0
100
AcDbCircle
 62
7
  6
CONTINUOUS
 10
6.9375257552
 20
10.2022438679
 40
0.022
100
AcDbArc
 50
87.3800226713
 51
111.9999999998
  0
ARC
  5
46F
100
AcDbEntity
  8
0
100
AcDbCircle
 62
7
  6
CONTINUOUS
 10
6.9320274492
 20
10.212964825
 40
0.019
100
AcDbArc
 50
59.9798724449
 51
112.0
  0
ARC
  5
470
100
AcDbEntity
  8
0
100
AcDbCircle
 62
7
  6
CONTINUOUS
 10
6.9359695947
 20
10.1875941866
 40
0.012
100
AcDbArc
 50
75.1301023541
 51
112.0
  0
ARC
  5
471
100
AcDbEntity
  8
0
100
AcDbCircle
 62
7
  6
CONTINUOUS
 10
6.8757630757
 20
10.1902159753
 40
0.011
100
AcDbArc
 50
141.826620132
 51
215.9999999997
  0
ARC
  5
472
100
AcDbEntity
  8
0
100
AcDbCircle
 62
7
  6
CONTINUOUS
 10
6.9282621617
 20
10.2146791543
 40
0.007
100
AcDbArc
 50
292.0000000009
 51
328.8698976465
  0
ARC
  5
473
100
AcDbEntity
  8
0
100
AcDbCircle
 62
7
  6
CONTINUOUS
 10
6.8882860243
 20
10.2037088629
 40
0.006
100
AcDbArc
 50
22.0
 51
82.0000000005
  0
ARC
  5
474
100
AcDbEntity
  8
0
100
AcDbCircle
 62
7
  6
CONTINUOUS
 10
7.0380016535
 20
10.2067448603
 40
0.006
100
AcDbArc
 50
297.4999999999
 51
357.5
  0
ARC
  5
475
100
AcDbEntity
  8
0
100
AcDbCircle
 62
7
  6
CONTINUOUS
 10
6.955093349
 20
10.2290197722
 40
0.0055355033
100
AcDbArc
 50
31.2094967085
 51
99.0
  0
ARC
  5
476
100
AcDbEntity
  8
0
100
AcDbCircle
 62
7
  6
CONTINUOUS
 10
6.9807732458
 20
10.2330870683
 40
0.0055355033
100
AcDbArc
 50
98.9999999999
 51
211.2094967084
  0
ARC
  5
477
100
AcDbEntity
  8
0
100
AcDbCircle
 62
7
  6
CONTINUOUS
 10
7.0129333297
 20
10.2381807252
 40
0.0055355033
100
AcDbArc
 50
346.7905032913
 51
99.0000000001
  0
ARC
  5
478
100
AcDbEntity
  8
0
100
AcDbCircle
 62
7
  6
CONTINUOUS
 10
7.0311453512
 20
10.241065226
 40
0.0055355033
100
AcDbArc
 50
99.0000000001
 51
166.7905032912
  0
ARC
  5
479
100
AcDbEntity
  8
0
100
AcDbCircle
 62
7
  6
CONTINUOUS
 10
6.9091472421
 20
10.2112703645
 40
0.003
100
AcDbArc
 50
111.9999999991
 51
202.0000000009
  0
ARC
  5
47A
100
AcDbEntity
  8
0
100
AcDbCircle
 62
7
  6
CONTINUOUS
 10
6.9177631937
 20
10.1899451358
 40
0.003
100
AcDbArc
 50
112.0000000009
 51
201.9999999991
  0
ARC
  5
47B
100
AcDbEntity
  8
0
100
AcDbCircle
 62
7
  6
CONTINUOUS
 10
6.9115915176
 20
10.2025511032
 40
0.002
100
AcDbArc
 50
202.0000000021
 51
291.9999999985
  0
ARC
  5
47C
100
AcDbEntity
  8
0
100
AcDbCircle
 62
7
  6
CONTINUOUS
 10
6.935966122
 20
10.2100263062
 40
0.002
100
AcDbArc
 50
66.9999999994
 51
148.8698976453
  0
ARC
  5
47D
100
AcDbEntity
  8
0
100
AcDbCircle
 62
7
  6
CONTINUOUS
 10
6.9395623453
 20
10.2011253412
 40
0.002
100
AcDbArc
 50
255.1301023545
 51
337.0000000021
  0
ARC
  5
47E
100
AcDbEntity
  8
0
100
AcDbCircle
 62
7
  6
CONTINUOUS
 10
7.2419462183
 20
10.1692281007
 40
0.0146811183
100
AcDbArc
 50
52.0
 51
97.0
  0
ARC
  5
47F
100
AcDbEntity
  8
0
100
AcDbCircle
 62
7
  6
CONTINUOUS
 10
7.2285071832
 20
10.1564279515
 40
0.013
100
AcDbArc
 50
261.9999999999
 51
322.0
  0
ARC
  5
480
100
AcDbEntity
  8
0
100
AcDbCircle
 62
7
  6
CONTINUOUS
 10
7.1905572707
 20
10.1762616146
 40
0.011
100
AcDbArc
 50
153.9999999997
 51
214.0000000001
  0
ARC
  5
481
100
AcDbEntity
  8
0
100
AcDbCircle
 62
7
  6
CONTINUOUS
 10
7.2186165257
 20
10.1642158659
 40
0.011
100
AcDbArc
 50
208.0605153621
 51
243.9999999999
  0
ARC
  5
482
100
AcDbEntity
  8
0
100
AcDbCircle
 62
7
  6
CONTINUOUS
 10
7.1836147204
 20
10.1848389972
 40
0.001
100
AcDbArc
 50
63.9999999995
 51
153.9999999992
  0
ARC
  5
483
100
AcDbEntity
  8
0
100
AcDbCircle
 62
7
  6
CONTINUOUS
 10
7.1859584871
 20
10.1836958658
 40
0.001
100
AcDbArc
 50
14.1777964199
 51
63.9999999995
  0
ARC
  5
484
100
AcDbEntity
  8
0
100
AcDbCircle
 62
7
  6
CONTINUOUS
 10
7.2576901339
 20
10.1742891941
 40
0.001
100
AcDbArc
 50
322.0000000003
 51
52.000000001
  0
ARC
  5
485
100
AcDbEntity
  8
0
100
AcDbCircle
 62
7
  6
CONTINUOUS
 10
7.2084872219
 20
10.1936335002
 40
0.018
100
AcDbArc
 50
236.0164438543
 51
63.9999999999
  0
ARC
  5
486
100
AcDbEntity
  8
0
100
AcDbCircle
 62
7
  6
CONTINUOUS
 10
7.0822607526
 20
10.2346447076
 40
0.016
100
AcDbArc
 50
267.5
 51
87.5
  0
ARC
  5
487
100
AcDbEntity
  8
0
100
AcDbCircle
 62
7
  6
CONTINUOUS
 10
7.2025633703
 20
10.1965227557
 40
0.0115908889
100
AcDbArc
 50
243.9999999995
 51
64.0000000002
  0
ARC
  5
488
100
AcDbEntity
  8
0
100
AcDbCircle
 62
7
  6
CONTINUOUS
 10
7.1590994791
 20
10.1916046048
 40
0.011
100
AcDbArc
 50
274.0000000001
 51
334.0
  0
ARC
  5
489
100
AcDbEntity
  8
0
100
AcDbCircle
 62
7
  6
CONTINUOUS
 10
7.1704740886
 20
10.2149260104
 40
0.011
100
AcDbArc
 50
334.0
 51
33.9999999997
  0
ARC
  5
48A
100
AcDbEntity
  8
0
100
AcDbCircle
 62
7
  6
CONTINUOUS
 10
7.0755749563
 20
10.2349366157
 40
0.0096921657
100
AcDbArc
 50
267.5
 51
87.5
  0
ARC
  5
48B
100
AcDbEntity
  8
0
100
AcDbCircle
 62
7
  6
CONTINUOUS
 10
7.0395112199
 20
10.2413196166
 40
0.006
100
AcDbArc
 50
357.5
 51
57.5000000001
  0
ARC
  5
48C
100
AcDbEntity
  8
0
100
AcDbCircle
 62
7
  6
CONTINUOUS
 10
7.0639769072
 20
10.2056107562
 40
0.006
100
AcDbArc
 50
177.4999999999
 51
237.5000000001
  0
ARC
  5
48D
100
AcDbEntity
  8
0
100
AcDbCircle
 62
7
  6
CONTINUOUS
 10
7.0599025448
 20
10.2269204414
 40
0.001
100
AcDbArc
 50
177.4999999978
 51
267.5000000004
  0
ARC
  5
48E
100
AcDbEntity
  8
0
100
AcDbCircle
 62
7
  6
CONTINUOUS
 10
7.0606608386
 20
10.2442882268
 40
0.001
100
AcDbArc
 50
87.5000000002
 51
177.4999999978
  0
ARC
  5
48F
100
AcDbEntity
  8
0
100
AcDbCircle
 62
7
  6
CONTINUOUS
 10
7.187216792
 20
10.1922243385
 40
0.001
100
AcDbArc
 50
153.9999999993
 51
243.9999999995
  0
ARC
  5
490
100
AcDbEntity
  8
0
100
AcDbCircle
 62
7
  6
CONTINUOUS
 10
7.1965022722
 20
10.2112623943
 40
0.001
100
AcDbArc
 50
63.9999999994
 51
153.9999999993
  0
ARC
  5
491
100
AcDbEntity
  8
0
100
AcDbCircle
 62
7
  6
CONTINUOUS
 10
7.0595401621
 20
10.2186205143
 40
0.001
100
AcDbArc
 50
87.5000000002
 51
177.4999999978
  0
ARC
  5
492
100
AcDbEntity
  8
0
100
AcDbCircle
 62
7
  6
CONTINUOUS
 10
6.5791713434
 20
11.0680973314
 40
0.75
100
AcDbArc
 50
214.2724717156
 51
235.7275282844
  0
ARC
  5
493
100
AcDbEntity
  8
0
100
AcDbCircle
 62
7
  6
CONTINUOUS
 10
7.0833786854
 20
10.8481427179
 40
0.5
100
AcDbArc
 50
315.0
 51
342.0541334144
  0
ARC
  5
494
100
AcDbEntity
  8
0
100
AcDbCircle
 62
7
  6
CONTINUOUS
 10
7.0112579912
 20
10.8481427179
 40
0.5
100
AcDbArc
 50
197.9458665856
 51
225.0
  0
ARC
  5
495
100
AcDbEntity
  8
0
100
AcDbCircle
 62
7
  6
CONTINUOUS
 10
6.0973161932
 20
10.6915381304
 40
0.35
100
AcDbArc
 50
55.7275282844
 51
97.3110157293
  0
ARC
  5
496
100
AcDbEntity
  8
0
100
AcDbCircle
 62
7
  6
CONTINUOUS
 10
6.2486237632
 20
10.8428457004
 40
0.35
100
AcDbArc
 50
172.6889842707
 51
214.2724717156
  0
ARC
  5
497
100
AcDbEntity
  8
0
100
AcDbCircle
 62
7
  6
CONTINUOUS
 10
6.3539197124
 20
10.7375497512
 40
0.35
100
AcDbArc
 50
235.7275282844
 51
252.0541354356
  0
ARC
  5
498
100
AcDbEntity
  8
0
100
AcDbCircle
 62
7
  6
CONTINUOUS
 10
6.0750465142
 20
10.8651153794
 40
0.175
100
AcDbArc
 50
97.3110157293
 51
172.6889842707
  0
ARC
  5
499
100
AcDbEntity
  8
0
100
AcDbCircle
 62
7
  6
CONTINUOUS
 10
8.2225721144
 20
10.3609905502
 40
0.75
100
AcDbArc
 50
124.2724717156
 51
145.7275282844
  0
ARC
  5
49A
100
AcDbEntity
  8
0
100
AcDbCircle
 62
7
  6
CONTINUOUS
 10
7.8920245342
 20
10.5862421811
 40
0.35
100
AcDbArc
 50
145.7275282844
 51
162.0541354356
  0
ARC
  5
49B
100
AcDbEntity
  8
0
100
AcDbCircle
 62
7
  6
CONTINUOUS
 10
7.2684083358
 20
10.1485536287
 40
0.0146811183
100
AcDbArc
 50
7.0000000001
 51
52.0000000002
  0
ARC
  5
49C
100
AcDbEntity
  8
0
100
AcDbCircle
 62
7
  6
CONTINUOUS
 10
7.2592396026
 20
10.1324171539
 40
0.013
100
AcDbArc
 50
141.9999999998
 51
201.9999999999
  0
ARC
  5
49D
100
AcDbEntity
  8
0
100
AcDbCircle
 62
7
  6
CONTINUOUS
 10
7.2695102952
 20
10.165054272
 40
0.001
100
AcDbArc
 50
52.0000000011
 51
142.0000000042
  0
ARC
  5
49E
100
AcDbEntity
  8
0
100
AcDbCircle
 62
9
  6
CONTINUOUS
 10
8.6441400683
 20
10.9139237761
 40
2.4031970213
100
AcDbArc
 50
359.7708430787
 51
359.9237560771
  0
ARC
  5
49F
100
AcDbEntity
  8
0
100
AcDbCircle
 62
7
  6
CONTINUOUS
 10
7.5154653332
 20
11.0680973314
 40
0.75
100
AcDbArc
 50
304.2724717156
 51
325.7275282844
  0
ARC
  5
4A0
100
AcDbEntity
  8
0
100
AcDbCircle
 62
7
  6
CONTINUOUS
 10
7.8460129133
 20
10.8428457004
 40
0.35
100
AcDbArc
 50
325.7275282844
 51
7.3110157293
  0
ARC
  5
4A1
100
AcDbEntity
  8
0
100
AcDbCircle
 62
7
  6
CONTINUOUS
 10
7.9973204834
 20
10.6915381304
 40
0.35
100
AcDbArc
 50
82.6889842707
 51
124.2724717156
  0
ARC
  5
4A2
100
AcDbEntity
  8
0
100
AcDbCircle
 62
7
  6
CONTINUOUS
 10
7.7407169641
 20
10.7375497512
 40
0.35
100
AcDbArc
 50
287.9458645644
 51
304.2724717156
  0
ARC
  5
4A3
100
AcDbEntity
  8
0
100
AcDbCircle
 62
7
  6
CONTINUOUS
 10
8.0195901624
 20
10.8651153794
 40
0.175
100
AcDbArc
 50
7.3110157293
 51
82.6889842707
  0
ARC
  5
4A4
100
AcDbEntity
  8
0
100
AcDbCircle
 62
9
  6
CONTINUOUS
 10
11.0494764258
 20
-8.1862748091
 40
12.7136851783
100
AcDbArc
 50
87.8938767234
 51
90.0097256856
  0
ARC
  5
4A5
100
AcDbEntity
  8
0
100
AcDbCircle
 62
9
  6
CONTINUOUS
 10
11.0451602508
 20
-8.1862747846
 40
12.7136851536
100
AcDbArc
 50
89.9902743143
 51
92.1061232808
  0
ARC
  5
4A6
100
AcDbEntity
  8
0
100
AcDbCircle
 62
7
  6
CONTINUOUS
 10
11.0577315001
 20
4.3874319259
 40
0.6145859747
100
AcDbArc
 50
359.200920191
 51
359.9999911388
  0
ARC
  5
4A7
100
AcDbEntity
  8
0
100
AcDbCircle
 62
7
  6
CONTINUOUS
 10
11.036903222
 20
4.3874317092
 40
0.6145840203
100
AcDbArc
 50
179.999988685
 51
180.799071411
  0
ARC
  5
4A8
100
AcDbEntity
  8
0
100
AcDbCircle
 62
9
  6
CONTINUOUS
 10
10.9732295375
 20
4.5595561612
 40
0.3974104044
100
AcDbArc
 50
185.8832621269
 51
186.5033437208
  0
ARC
  5
4A9
100
AcDbEntity
  8
0
100
AcDbCircle
 62
9
  6
CONTINUOUS
 10
11.1214071805
 20
4.5595561612
 40
0.3974103975
100
AcDbArc
 50
353.4966557152
 51
354.1167373893
  0
ARC
  5
4AA
100
AcDbEntity
  8
0
100
AcDbCircle
 62
7
  6
CONTINUOUS
 10
13.5126844652
 20
9.1068355216
 40
1.5640089793
100
AcDbArc
 50
162.3401257843
 51
169.9246262495
  0
ARC
  5
4AB
100
AcDbEntity
  8
0
100
AcDbCircle
 62
9
  6
CONTINUOUS
 10
11.5780423887
 20
9.8501153282
 40
1.5291754583
100
AcDbArc
 50
200.585263762
 51
201.9229392277
  0
ARC
  5
4AC
100
AcDbEntity
  8
0
100
AcDbCircle
 62
9
  6
CONTINUOUS
 10
11.094125472
 20
9.1802608445
 40
1.0567711703
100
AcDbArc
 50
217.1895266778
 51
226.380302701
  0
ARC
  5
4AD
100
AcDbEntity
  8
0
100
AcDbCircle
 62
7
  6
CONTINUOUS
 10
11.0473182076
 20
9.8928435476
 40
1.0236207606
100
AcDbArc
 50
90.112964368
 51
213.1288359848
  0
ARC
  5
4AE
100
AcDbEntity
  8
0
100
AcDbCircle
 62
9
  6
CONTINUOUS
 10
11.0473182836
 20
9.8928435482
 40
1.0114617541
100
AcDbArc
 50
90.116810495
 51
269.8831356083
  0
ARC
  5
4AF
100
AcDbEntity
  8
0
100
AcDbCircle
 62
7
  6
CONTINUOUS
 10
11.0473183383
 20
9.8928435553
 40
1.3125
100
AcDbArc
 50
312.040817223
 51
227.9587815006
  0
ARC
  5
4B0
100
AcDbEntity
  8
0
100
AcDbCircle
 62
7
  6
CONTINUOUS
 10
11.0473183383
 20
9.8928435553
 40
1.2625
100
AcDbArc
 50
314.6008767356
 51
225.3985205686
  0
ARC
  5
4B1
100
AcDbEntity
  8
0
100
AcDbCircle
 62
9
  6
CONTINUOUS
 10
11.0473183383
 20
9.8928435553
 40
1.1354891084
100
AcDbArc
 50
323.4299657431
 51
216.5705488922
  0
ARC
  5
4B2
100
AcDbEntity
  8
0
100
AcDbCircle
 62
7
  6
CONTINUOUS
 10
11.0473183383
 20
9.8928435553
 40
1.125
100
AcDbArc
 50
324.4986958247
 51
215.5023327069
  0
ARC
  5
4B3
100
AcDbEntity
  8
0
100
AcDbCircle
 62
7
  6
CONTINUOUS
 10
11.0473183383
 20
9.8928435553
 40
1.05
100
AcDbArc
 50
333.7538152627
 51
206.8407690716
  0
ARC
  5
4B4
100
AcDbEntity
  8
0
100
AcDbCircle
 62
7
  6
CONTINUOUS
 10
11.0473183383
 20
9.8928435553
 40
1.0236220472
100
AcDbArc
 50
196.599066247
 51
213.1472436202
  0
ARC
  5
4B5
100
AcDbEntity
  8
0
100
AcDbCircle
 62
7
  6
CONTINUOUS
 10
11.0473189004
 20
9.8928435655
 40
1.0236202618
100
AcDbArc
 50
326.8538074564
 51
90.1129716841
  0
ARC
  5
4B6
100
AcDbEntity
  8
0
100
AcDbCircle
 62
9
  6
CONTINUOUS
 10
11.0473213174
 20
9.8933351588
 40
1.0149017374
100
AcDbArc
 50
269.8823567375
 51
269.9974033698
  0
ARC
  5
4B7
100
AcDbEntity
  8
0
100
AcDbCircle
 62
9
  6
CONTINUOUS
 10
11.0473218805
 20
9.8934221138
 40
1.0120447844
100
AcDbArc
 50
269.881891329
 51
269.9969774925
  0
ARC
  5
4B8
100
AcDbEntity
  8
0
100
AcDbCircle
 62
7
  6
CONTINUOUS
 10
11.0473181958
 20
9.8928435714
 40
1.0114680358
100
AcDbArc
 50
269.9971968751
 51
90.0000185434
  0
CIRCLE
  5
4B9
100
AcDbEntity
  8
0
100
AcDbCircle
 62
9
  6
CONTINUOUS
 10
11.0473183383
 20
9.8928435553
 40
0.74499995
  0
CIRCLE
  5
4BA
100
AcDbEntity
  8
0
100
AcDbCircle
 62
7
  6
CONTINUOUS
 10
11.0473183383
 20
9.8928435553
 40
0.725
  0
CIRCLE
  5
4BB
100
AcDbEntity
  8
0
100
AcDbCircle
 62
9
  6
CONTINUOUS
 10
11.0473183383
 20
9.8928435553
 40
0.4699997695
  0
CIRCLE
  5
4BC
100
AcDbEntity
  8
0
100
AcDbCircle
 62
7
  6
CONTINUOUS
 10
11.0473183383
 20
9.8928435553
 40
0.45
  0
CIRCLE
  5
4BD
100
AcDbEntity
  8
0
100
AcDbCircle
 62
7
  6
CONTINUOUS
 10
11.0473183383
 20
9.8928435553
 40
0.4
  0
CIRCLE
  5
4BE
100
AcDbEntity
  8
0
100
AcDbCircle
 62
9
  6
CONTINUOUS
 10
11.0473183383
 20
9.8928435553
 40
0.3875
  0
CIRCLE
  5
4BF
100
AcDbEntity
  8
0
100
AcDbCircle
 62
7
  6
CONTINUOUS
 10
11.0473183383
 20
9.8928435553
 40
0.3125
  0
CIRCLE
  5
4C0
100
AcDbEntity
  8
0
100
AcDbCircle
 62
7
  6
CONTINUOUS
 10
11.0473183383
 20
9.8928435553
 40
0.2625
  0
ARC
  5
4C1
100
AcDbEntity
  8
0
100
AcDbCircle
 62
7
  6
CONTINUOUS
 10
14.5791713434
 20
8.7175897792
 40
0.75
100
AcDbArc
 50
124.2724717156
 51
145.7275282844
  0
ARC
  5
4C2
100
AcDbEntity
  8
0
100
AcDbCircle
 62
7
  6
CONTINUOUS
 10
15.0112579912
 20
8.9375443927
 40
0.5
100
AcDbArc
 50
135.0
 51
162.0541334144
  0
ARC
  5
4C3
100
AcDbEntity
  8
0
100
AcDbCircle
 62
7
  6
CONTINUOUS
 10
14.2486237632
 20
8.9428414102
 40
0.35
100
AcDbArc
 50
145.7275282844
 51
187.3110157293
  0
ARC
  5
4C4
100
AcDbEntity
  8
0
100
AcDbCircle
 62
7
  6
CONTINUOUS
 10
14.0973161932
 20
9.0941489802
 40
0.35
100
AcDbArc
 50
262.6889842707
 51
304.2724717156
  0
ARC
  5
4C5
100
AcDbEntity
  8
0
100
AcDbCircle
 62
7
  6
CONTINUOUS
 10
14.3539197124
 20
9.0481373594
 40
0.35
100
AcDbArc
 50
107.9458645644
 51
124.2724717156
  0
ARC
  5
4C6
100
AcDbEntity
  8
0
100
AcDbCircle
 62
7
  6
CONTINUOUS
 10
14.2026121424
 20
9.1994449295
 40
0.35
100
AcDbArc
 50
325.7275282844
 51
342.0541354356
  0
ARC
  5
4C7
100
AcDbEntity
  8
0
100
AcDbCircle
 62
7
  6
CONTINUOUS
 10
14.0750465142
 20
8.9205717312
 40
0.175
100
AcDbArc
 50
187.3110157293
 51
262.6889842707
  0
ARC
  5
4C8
100
AcDbEntity
  8
0
100
AcDbCircle
 62
7
  6
CONTINUOUS
 10
13.8720645622
 20
9.4246965604
 40
0.75
100
AcDbArc
 50
304.2724717156
 51
325.7275282844
  0
ARC
  5
4C9
100
AcDbEntity
  8
0
100
AcDbCircle
 62
7
  6
CONTINUOUS
 10
14.0920191757
 20
9.8567832082
 40
0.5
100
AcDbArc
 50
287.9458665856
 51
315.0
  0
ARC
  5
4CA
100
AcDbEntity
  8
0
100
AcDbCircle
 62
7
  6
CONTINUOUS
 10
14.9929401918
 20
9.579297678
 40
0.018
100
AcDbArc
 50
250.0164438545
 51
78.0
  0
ARC
  5
4CB
100
AcDbEntity
  8
0
100
AcDbCircle
 62
7
  6
CONTINUOUS
 10
14.9211387318
 20
9.5743658188
 40
0.0177342409
100
AcDbArc
 50
246.0000000002
 51
42.5194112807
  0
ARC
  5
4CC
100
AcDbEntity
  8
0
100
AcDbCircle
 62
7
  6
CONTINUOUS
 10
15.0124582249
 20
9.5560343727
 40
0.015
100
AcDbArc
 50
288.905459207
 51
340.0
  0
ARC
  5
4CD
100
AcDbEntity
  8
0
100
AcDbCircle
 62
7
  6
CONTINUOUS
 10
14.9308189823
 20
9.6004493008
 40
0.0145
100
AcDbArc
 50
283.5235132019
 51
66.0
  0
ARC
  5
4CE
100
AcDbEntity
  8
0
100
AcDbCircle
 62
7
  6
CONTINUOUS
 10
14.91552277
 20
9.5771571156
 40
0.012
100
AcDbArc
 50
246.0
 51
66.0
  0
ARC
  5
4CF
100
AcDbEntity
  8
0
100
AcDbCircle
 62
7
  6
CONTINUOUS
 10
14.9864933297
 20
9.5806680008
 40
0.0115908889
100
AcDbArc
 50
258.0
 51
77.9999999999
  0
ARC
  5
4D0
100
AcDbEntity
  8
0
100
AcDbCircle
 62
7
  6
CONTINUOUS
 10
14.9455103102
 20
9.5653810731
 40
0.011
100
AcDbArc
 50
287.9999999999
 51
348.0
  0
ARC
  5
4D1
100
AcDbEntity
  8
0
100
AcDbCircle
 62
7
  6
CONTINUOUS
 10
14.9797454763
 20
9.5581041639
 40
0.011
100
AcDbArc
 50
168.0
 51
227.9999999998
  0
ARC
  5
4D2
100
AcDbEntity
  8
0
100
AcDbCircle
 62
7
  6
CONTINUOUS
 10
15.0098853818
 20
9.5532043736
 40
0.011
100
AcDbArc
 50
222.0605153622
 51
258.0000000001
  0
ARC
  5
4D3
100
AcDbEntity
  8
0
100
AcDbCircle
 62
7
  6
CONTINUOUS
 10
14.9509050866
 20
9.5907615004
 40
0.011
100
AcDbArc
 50
348.0
 51
47.9999999998
  0
ARC
  5
4D4
100
AcDbEntity
  8
0
100
AcDbCircle
 62
7
  6
CONTINUOUS
 10
14.9244241641
 20
9.6032964573
 40
0.0095
100
AcDbArc
 50
246.0000000001
 51
66.0000000001
  0
ARC
  5
4D5
100
AcDbEntity
  8
0
100
AcDbCircle
 62
7
  6
CONTINUOUS
 10
14.9000304531
 20
9.6161186022
 40
0.007
100
AcDbArc
 50
336.0
 51
49.3984504006
  0
ARC
  5
4D6
100
AcDbEntity
  8
0
100
AcDbCircle
 62
7
  6
CONTINUOUS
 10
14.8871842488
 20
9.587265555
 40
0.007
100
AcDbArc
 50
262.6015495989
 51
336.0
  0
ARC
  5
4D7
100
AcDbEntity
  8
0
100
AcDbCircle
 62
7
  6
CONTINUOUS
 10
15.0381101566
 20
9.5475697571
 40
0.006
100
AcDbArc
 50
159.9999999995
 51
252.6242801222
  0
ARC
  5
4D8
100
AcDbEntity
  8
0
100
AcDbCircle
 62
7
  6
CONTINUOUS
 10
14.9215366434
 20
9.6127918364
 40
0.002
100
AcDbArc
 50
66.0000000015
 51
156.0000000014
  0
ARC
  5
4D9
100
AcDbEntity
  8
0
100
AcDbCircle
 62
7
  6
CONTINUOUS
 10
14.9154355938
 20
9.5990886546
 40
0.002
100
AcDbArc
 50
156.0000000002
 51
246.0000000016
  0
ARC
  5
4DA
100
AcDbEntity
  8
0
100
AcDbCircle
 62
7
  6
CONTINUOUS
 10
14.9113682273
 20
9.5899532
 40
0.002
100
AcDbArc
 50
66.0000000014
 51
155.9999999988
  0
ARC
  5
4DB
100
AcDbEntity
  8
0
100
AcDbCircle
 62
7
  6
CONTINUOUS
 10
14.9032334945
 20
9.5716822909
 40
0.002
100
AcDbArc
 50
156.0000000013
 51
245.9999999989
  0
ARC
  5
4DC
100
AcDbEntity
  8
0
100
AcDbCircle
 62
7
  6
CONTINUOUS
 10
14.9709340926
 20
9.5647472066
 40
0.001
100
AcDbArc
 50
77.9999999997
 51
168.0000000008
  0
ARC
  5
4DD
100
AcDbEntity
  8
0
100
AcDbCircle
 62
7
  6
CONTINUOUS
 10
14.973484788
 20
9.5642050396
 40
0.001
100
AcDbArc
 50
28.1777964216
 51
78.0000000006
  0
ARC
  5
4DE
100
AcDbEntity
  8
0
100
AcDbCircle
 62
7
  6
CONTINUOUS
 10
14.9726424916
 20
9.5727845917
 40
0.001
100
AcDbArc
 50
168.0000000007
 51
258.0000000014
  0
ARC
  5
4DF
100
AcDbEntity
  8
0
100
AcDbCircle
 62
7
  6
CONTINUOUS
 10
14.9770464308
 20
9.5935034968
 40
0.001
100
AcDbArc
 50
77.9999999993
 51
168.0000000007
  0
ARC
  5
4E0
100
AcDbEntity
  8
0
100
AcDbCircle
 62
7
  6
CONTINUOUS
 10
14.8608183383
 20
9.8644941904
 40
0.025
100
AcDbArc
 50
300.0
 51
360.0
  0
ARC
  5
4E1
100
AcDbEntity
  8
0
100
AcDbCircle
 62
7
  6
CONTINUOUS
 10
14.9408183383
 20
9.8644941904
 40
0.025
100
AcDbArc
 50
180.0
 51
240.0
  0
ARC
  5
4E2
100
AcDbEntity
  8
0
100
AcDbCircle
 62
7
  6
CONTINUOUS
 10
15.0133183383
 20
9.8678435553
 40
0.025
100
AcDbArc
 50
233.574758698
 51
270.0
  0
ARC
  5
4E3
100
AcDbEntity
  8
0
100
AcDbCircle
 62
7
  6
CONTINUOUS
 10
14.7278183383
 20
9.8636942148
 40
0.021
100
AcDbArc
 50
276.8371411681
 51
360.0
  0
ARC
  5
4E4
100
AcDbEntity
  8
0
100
AcDbCircle
 62
7
  6
CONTINUOUS
 10
14.7978183383
 20
9.8636942148
 40
0.021
100
AcDbArc
 50
180.0
 51
263.1628588319
  0
ARC
  5
4E5
100
AcDbEntity
  8
0
100
AcDbCircle
 62
7
  6
CONTINUOUS
 10
14.7868183383
 20
9.8748435553
 40
0.01
100
AcDbArc
 50
90.0
 51
180.0
  0
ARC
  5
4E6
100
AcDbEntity
  8
0
100
AcDbCircle
 62
7
  6
CONTINUOUS
 10
14.7953183383
 20
9.8748435553
 40
0.01
100
AcDbArc
 50
0.0
 51
90.0
  0
ARC
  5
4E7
100
AcDbEntity
  8
0
100
AcDbCircle
 62
7
  6
CONTINUOUS
 10
14.9188183383
 20
9.8748435553
 40
0.003
100
AcDbArc
 50
90.0
 51
179.9999999999
  0
ARC
  5
4E8
100
AcDbEntity
  8
0
100
AcDbCircle
 62
7
  6
CONTINUOUS
 10
14.925308228
 20
9.8748435553
 40
0.003
100
AcDbArc
 50
40.2859999995
 51
89.9999999999
  0
ARC
  5
4E9
100
AcDbEntity
  8
0
100
AcDbCircle
 62
7
  6
CONTINUOUS
 10
15.5154653332
 20
8.7175897792
 40
0.75
100
AcDbArc
 50
34.2724717156
 51
55.7275282844
  0
ARC
  5
4EA
100
AcDbEntity
  8
0
100
AcDbCircle
 62
7
  6
CONTINUOUS
 10
15.0833786854
 20
8.9375443927
 40
0.5
100
AcDbArc
 50
17.9458665856
 51
45.0
  0
ARC
  5
4EB
100
AcDbEntity
  8
0
100
AcDbCircle
 62
7
  6
CONTINUOUS
 10
15.9973204834
 20
9.0941489802
 40
0.35
100
AcDbArc
 50
235.7275282844
 51
277.3110157293
  0
ARC
  5
4EC
100
AcDbEntity
  8
0
100
AcDbCircle
 62
7
  6
CONTINUOUS
 10
15.8460129133
 20
8.9428414102
 40
0.35
100
AcDbArc
 50
352.6889842707
 51
34.2724717156
  0
ARC
  5
4ED
100
AcDbEntity
  8
0
100
AcDbCircle
 62
7
  6
CONTINUOUS
 10
15.8920245342
 20
9.1994449295
 40
0.35
100
AcDbArc
 50
197.9458645644
 51
214.2724717156
  0
ARC
  5
4EE
100
AcDbEntity
  8
0
100
AcDbCircle
 62
7
  6
CONTINUOUS
 10
15.7407169641
 20
9.0481373594
 40
0.35
100
AcDbArc
 50
55.7275282844
 51
72.0541354356
  0
ARC
  5
4EF
100
AcDbEntity
  8
0
100
AcDbCircle
 62
7
  6
CONTINUOUS
 10
16.0195901624
 20
8.9205717312
 40
0.175
100
AcDbArc
 50
277.3110157293
 51
352.6889842707
  0
ARC
  5
4F0
100
AcDbEntity
  8
0
100
AcDbCircle
 62
7
  6
CONTINUOUS
 10
16.2225721144
 20
9.4246965604
 40
0.75
100
AcDbArc
 50
214.2724717156
 51
235.7275282844
  0
ARC
  5
4F1
100
AcDbEntity
  8
0
100
AcDbCircle
 62
7
  6
CONTINUOUS
 10
16.0026175009
 20
9.8567832082
 40
0.5
100
AcDbArc
 50
225.0
 51
252.0541334144
  0
ARC
  5
4F2
100
AcDbEntity
  8
0
100
AcDbCircle
 62
7
  6
CONTINUOUS
 10
15.1096918455
 20
9.5993992751
 40
0.06
100
AcDbArc
 50
256.214635172
 51
301.4712206345
  0
ARC
  5
4F3
100
AcDbEntity
  8
0
100
AcDbCircle
 62
7
  6
CONTINUOUS
 10
15.1741038168
 20
9.6209512192
 40
0.06
100
AcDbArc
 50
269.214635172
 51
314.4712206346
  0
ARC
  5
4F4
100
AcDbEntity
  8
0
100
AcDbCircle
 62
7
  6
CONTINUOUS
 10
15.1207474314
 20
9.5516545233
 40
0.049
100
AcDbArc
 50
72.2068956493
 51
131.7931043508
  0
ARC
  5
4F5
100
AcDbEntity
  8
0
100
AcDbCircle
 62
7
  6
CONTINUOUS
 10
15.195616281
 20
9.576917128
 40
0.049
100
AcDbArc
 50
85.2068956493
 51
144.7931043508
  0
ARC
  5
4F6
100
AcDbEntity
  8
0
100
AcDbCircle
 62
7
  6
CONTINUOUS
 10
15.3073183383
 20
9.8828435553
 40
0.04
100
AcDbArc
 50
270.0
 51
341.7900431357
  0
ARC
  5
4F7
100
AcDbEntity
  8
0
100
AcDbCircle
 62
7
  6
CONTINUOUS
 10
15.1548183383
 20
9.8666920353
 40
0.025
100
AcDbArc
 50
287.4576031237
 51
360.0
  0
ARC
  5
4F8
100
AcDbEntity
  8
0
100
AcDbCircle
 62
7
  6
CONTINUOUS
 10
15.2348183383
 20
9.8666920353
 40
0.025
100
AcDbArc
 50
180.0
 51
252.5423968763
  0
ARC
  5
4F9
100
AcDbEntity
  8
0
100
AcDbCircle
 62
7
  6
CONTINUOUS
 10
15.1152142482
 20
9.5734184133
 40
0.025
100
AcDbArc
 50
221.6464596401
 51
305.5781784781
  0
ARC
  5
4FA
100
AcDbEntity
  8
0
100
AcDbCircle
 62
7
  6
CONTINUOUS
 10
15.1145637255
 20
9.5687422667
 40
0.025
100
AcDbArc
 50
33.0231697077
 51
118.2602047083
  0
ARC
  5
4FB
100
AcDbEntity
  8
0
100
AcDbCircle
 62
7
  6
CONTINUOUS
 10
15.1853291029
 20
9.5968785155
 40
0.025
100
AcDbArc
 50
234.6464596399
 51
318.5781784782
  0
ARC
  5
4FC
100
AcDbEntity
  8
0
100
AcDbCircle
 62
7
  6
CONTINUOUS
 10
15.1857471571
 20
9.5921758825
 40
0.025
100
AcDbArc
 50
46.0231697076
 51
131.2602047082
  0
ARC
  5
4FD
100
AcDbEntity
  8
0
100
AcDbCircle
 62
7
  6
CONTINUOUS
 10
15.2303183383
 20
9.8561100545
 40
0.015
100
AcDbArc
 50
297.8181392847
 51
360.0
  0
ARC
  5
4FE
100
AcDbEntity
  8
0
100
AcDbCircle
 62
7
  6
CONTINUOUS
 10
15.1331850055
 20
9.5610186624
 40
0.015
100
AcDbArc
 50
301.4712206345
 51
61.6196427435
  0
ARC
  5
4FF
100
AcDbEntity
  8
0
100
AcDbCircle
 62
7
  6
CONTINUOUS
 10
15.2056286079
 20
9.5888391102
 40
0.015
100
AcDbArc
 50
314.4712206346
 51
74.6196427433
  0
ARC
  5
500
100
AcDbEntity
  8
0
100
AcDbCircle
 62
7
  6
CONTINUOUS
 10
15.0841784517
 20
9.5560343727
 40
0.015
100
AcDbArc
 50
200.0
 51
251.094540793
  0
ARC
  5
501
100
AcDbEntity
  8
0
100
AcDbCircle
 62
7
  6
CONTINUOUS
 10
15.0920587266
 20
9.527530832
 40
0.014
100
AcDbArc
 50
76.214635172
 51
93.0
  0
ARC
  5
502
100
AcDbEntity
  8
0
100
AcDbCircle
 62
7
  6
CONTINUOUS
 10
15.1399990163
 20
9.6116409924
 40
0.014
100
AcDbArc
 50
252.2068956492
 51
273.0
  0
ARC
  5
503
100
AcDbEntity
  8
0
100
AcDbCircle
 62
7
  6
CONTINUOUS
 10
15.1730895156
 20
9.5469581709
 40
0.014
100
AcDbArc
 50
89.2146351722
 51
106.0000000002
  0
ARC
  5
504
100
AcDbEntity
  8
0
100
AcDbCircle
 62
7
  6
CONTINUOUS
 10
15.2008804295
 20
9.6396968121
 40
0.014
100
AcDbArc
 50
265.2068956491
 51
285.9999999999
  0
ARC
  5
505
100
AcDbEntity
  8
0
100
AcDbCircle
 62
7
  6
CONTINUOUS
 10
15.0967554926
 20
9.5784945469
 40
0.013
100
AcDbArc
 50
131.7931043508
 51
243.9826041728
  0
ARC
  5
506
100
AcDbEntity
  8
0
100
AcDbCircle
 62
7
  6
CONTINUOUS
 10
15.1662015624
 20
9.5976722316
 40
0.013
100
AcDbArc
 50
144.7931043505
 51
256.9826041731
  0
ARC
  5
507
100
AcDbEntity
  8
0
100
AcDbCircle
 62
7
  6
CONTINUOUS
 10
15.0510772755
 20
9.5475697571
 40
0.006
100
AcDbArc
 50
287.3757198778
 51
20.0000000004
  0
ARC
  5
508
100
AcDbEntity
  8
0
100
AcDbCircle
 62
7
  6
CONTINUOUS
 10
15.2873183383
 20
9.8478435553
 40
0.005
100
AcDbArc
 50
180.0
 51
270.0
  0
ARC
  5
509
100
AcDbEntity
  8
0
100
AcDbCircle
 62
7
  6
CONTINUOUS
 10
14.0920191757
 20
9.9289039024
 40
0.5
100
AcDbArc
 50
45.0
 51
72.0541334144
  0
ARC
  5
50A
100
AcDbEntity
  8
0
100
AcDbCircle
 62
7
  6
CONTINUOUS
 10
13.8720645622
 20
10.3609905502
 40
0.75
100
AcDbArc
 50
34.2724717156
 51
55.7275282844
  0
ARC
  5
50B
100
AcDbEntity
  8
0
100
AcDbCircle
 62
7
  6
CONTINUOUS
 10
14.9613183383
 20
9.9208435553
 40
0.042
100
AcDbArc
 50
262.4753697776
 51
90.0
  0
ARC
  5
50C
100
AcDbEntity
  8
0
100
AcDbCircle
 62
7
  6
CONTINUOUS
 10
14.9463183383
 20
9.9208435553
 40
0.027
100
AcDbArc
 50
270.0
 51
90.0
  0
ARC
  5
50D
100
AcDbEntity
  8
0
100
AcDbCircle
 62
7
  6
CONTINUOUS
 10
14.8295902981
 20
9.9128435553
 40
0.025
100
AcDbArc
 50
44.3891151241
 51
90.0
  0
ARC
  5
50E
100
AcDbEntity
  8
0
100
AcDbCircle
 62
7
  6
CONTINUOUS
 10
14.8608183383
 20
9.9261929202
 40
0.025
100
AcDbArc
 50
0.0
 51
60.0
  0
ARC
  5
50F
100
AcDbEntity
  8
0
100
AcDbCircle
 62
7
  6
CONTINUOUS
 10
14.7278183383
 20
9.9277189435
 40
0.021
100
AcDbArc
 50
0.0
 51
73.398450401
  0
ARC
  5
510
100
AcDbEntity
  8
0
100
AcDbCircle
 62
7
  6
CONTINUOUS
 10
14.7953183383
 20
9.9108435553
 40
0.01
100
AcDbArc
 50
270.0
 51
360.0
  0
ARC
  5
511
100
AcDbEntity
  8
0
100
AcDbCircle
 62
7
  6
CONTINUOUS
 10
14.7868183383
 20
9.9108435553
 40
0.01
100
AcDbArc
 50
180.0
 51
270.0
  0
ARC
  5
512
100
AcDbEntity
  8
0
100
AcDbCircle
 62
7
  6
CONTINUOUS
 10
14.7818183383
 20
9.9328435553
 40
0.005
100
AcDbArc
 50
90.0
 51
180.0
  0
ARC
  5
513
100
AcDbEntity
  8
0
100
AcDbCircle
 62
7
  6
CONTINUOUS
 10
14.9188183383
 20
9.8968435553
 40
0.003
100
AcDbArc
 50
179.9999999999
 51
270.0
  0
ARC
  5
514
100
AcDbEntity
  8
0
100
AcDbCircle
 62
7
  6
CONTINUOUS
 10
14.9188183383
 20
9.9448435553
 40
0.003
100
AcDbArc
 50
90.0
 51
179.9999999999
  0
ARC
  5
515
100
AcDbEntity
  8
0
100
AcDbCircle
 62
7
  6
CONTINUOUS
 10
14.9308844078
 20
10.2081888674
 40
0.026
100
AcDbArc
 50
291.9999999999
 51
331.7151372318
  0
ARC
  5
516
100
AcDbEntity
  8
0
100
AcDbCircle
 62
7
  6
CONTINUOUS
 10
14.9375257552
 20
10.2022438679
 40
0.022
100
AcDbArc
 50
87.3800226713
 51
111.9999999998
  0
ARC
  5
517
100
AcDbEntity
  8
0
100
AcDbCircle
 62
7
  6
CONTINUOUS
 10
14.9320274492
 20
10.212964825
 40
0.019
100
AcDbArc
 50
59.9798724449
 51
111.9999999999
  0
ARC
  5
518
100
AcDbEntity
  8
0
100
AcDbCircle
 62
7
  6
CONTINUOUS
 10
14.9359695947
 20
10.1875941866
 40
0.012
100
AcDbArc
 50
75.130102354
 51
112.0
  0
ARC
  5
519
100
AcDbEntity
  8
0
100
AcDbCircle
 62
7
  6
CONTINUOUS
 10
14.8345379559
 20
10.1295676733
 40
0.011
100
AcDbArc
 50
321.8266201325
 51
36.0
  0
ARC
  5
51A
100
AcDbEntity
  8
0
100
AcDbCircle
 62
7
  6
CONTINUOUS
 10
14.8571904317
 20
10.1460256604
 40
0.011
100
AcDbArc
 50
216.0
 51
290.1733798683
  0
ARC
  5
51B
100
AcDbEntity
  8
0
100
AcDbCircle
 62
7
  6
CONTINUOUS
 10
14.8903601285
 20
10.1701248558
 40
0.011
100
AcDbArc
 50
216.0
 51
290.1733798683
  0
ARC
  5
51C
100
AcDbEntity
  8
0
100
AcDbCircle
 62
7
  6
CONTINUOUS
 10
14.8757630757
 20
10.1902159753
 40
0.011
100
AcDbArc
 50
141.826620132
 51
215.9999999997
  0
ARC
  5
51D
100
AcDbEntity
  8
0
100
AcDbCircle
 62
7
  6
CONTINUOUS
 10
14.8531105998
 20
10.1737579882
 40
0.011
100
AcDbArc
 50
36.0
 51
110.1733798683
  0
ARC
  5
51E
100
AcDbEntity
  8
0
100
AcDbCircle
 62
7
  6
CONTINUOUS
 10
14.8199409031
 20
10.1496587929
 40
0.011
100
AcDbArc
 50
36.0
 51
110.1733798683
  0
ARC
  5
51F
100
AcDbEntity
  8
0
100
AcDbCircle
 62
7
  6
CONTINUOUS
 10
14.9282621617
 20
10.2146791543
 40
0.007
100
AcDbArc
 50
292.0000000009
 51
328.8698976465
  0
ARC
  5
520
100
AcDbEntity
  8
0
100
AcDbCircle
 62
7
  6
CONTINUOUS
 10
14.9012502951
 20
10.1716211667
 40
0.006
100
AcDbArc
 50
321.9999999995
 51
22.0
  0
ARC
  5
521
100
AcDbEntity
  8
0
100
AcDbCircle
 62
7
  6
CONTINUOUS
 10
14.8882860243
 20
10.2037088629
 40
0.006
100
AcDbArc
 50
22.0
 51
82.0000000005
  0
ARC
  5
522
100
AcDbEntity
  8
0
100
AcDbCircle
 62
7
  6
CONTINUOUS
 10
15.0380016535
 20
10.2067448603
 40
0.006
100
AcDbArc
 50
297.4999999999
 51
357.5
  0
ARC
  5
523
100
AcDbEntity
  8
0
100
AcDbCircle
 62
7
  6
CONTINUOUS
 10
15.0395112199
 20
10.2413196166
 40
0.006
100
AcDbArc
 50
357.5
 51
57.5000000001
  0
ARC
  5
524
100
AcDbEntity
  8
0
100
AcDbCircle
 62
7
  6
CONTINUOUS
 10
15.0311453512
 20
10.241065226
 40
0.0055355033
100
AcDbArc
 50
99.0000000001
 51
166.7905032912
  0
ARC
  5
525
100
AcDbEntity
  8
0
100
AcDbCircle
 62
7
  6
CONTINUOUS
 10
15.0129333297
 20
10.2381807252
 40
0.0055355033
100
AcDbArc
 50
346.7905032913
 51
99.0
  0
ARC
  5
526
100
AcDbEntity
  8
0
100
AcDbCircle
 62
7
  6
CONTINUOUS
 10
14.9807732458
 20
10.2330870683
 40
0.0055355033
100
AcDbArc
 50
98.9999999999
 51
211.2094967085
  0
ARC
  5
527
100
AcDbEntity
  8
0
100
AcDbCircle
 62
7
  6
CONTINUOUS
 10
14.955093349
 20
10.2290197722
 40
0.0055355033
100
AcDbArc
 50
31.2094967085
 51
99.0
  0
ARC
  5
528
100
AcDbEntity
  8
0
100
AcDbCircle
 62
7
  6
CONTINUOUS
 10
14.9218838662
 20
10.1797461134
 40
0.003
100
AcDbArc
 50
201.9999999991
 51
291.9999999992
  0
ARC
  5
529
100
AcDbEntity
  8
0
100
AcDbCircle
 62
7
  6
CONTINUOUS
 10
14.9177631937
 20
10.1899451358
 40
0.003
100
AcDbArc
 50
112.0000000009
 51
201.9999999992
  0
ARC
  5
52A
100
AcDbEntity
  8
0
100
AcDbCircle
 62
7
  6
CONTINUOUS
 10
14.9091472421
 20
10.2112703645
 40
0.003
100
AcDbArc
 50
111.9999999991
 51
202.0000000009
  0
ARC
  5
52B
100
AcDbEntity
  8
0
100
AcDbCircle
 62
7
  6
CONTINUOUS
 10
14.9395623453
 20
10.2011253412
 40
0.002
100
AcDbArc
 50
255.1301023546
 51
337.0000000021
  0
ARC
  5
52C
100
AcDbEntity
  8
0
100
AcDbCircle
 62
7
  6
CONTINUOUS
 10
14.935966122
 20
10.2100263062
 40
0.002
100
AcDbArc
 50
66.9999999993
 51
148.8698976452
  0
ARC
  5
52D
100
AcDbEntity
  8
0
100
AcDbCircle
 62
7
  6
CONTINUOUS
 10
14.9115915176
 20
10.2025511032
 40
0.002
100
AcDbArc
 50
202.0000000021
 51
291.9999999986
  0
ARC
  5
52E
100
AcDbEntity
  8
0
100
AcDbCircle
 62
7
  6
CONTINUOUS
 10
14.5791713434
 20
11.0680973314
 40
0.75
100
AcDbArc
 50
214.2724717156
 51
235.7275282844
  0
ARC
  5
52F
100
AcDbEntity
  8
0
100
AcDbCircle
 62
7
  6
CONTINUOUS
 10
15.0112579912
 20
10.8481427179
 40
0.5
100
AcDbArc
 50
197.9458665856
 51
225.0
  0
ARC
  5
530
100
AcDbEntity
  8
0
100
AcDbCircle
 62
7
  6
CONTINUOUS
 10
14.0973161932
 20
10.6915381304
 40
0.35
100
AcDbArc
 50
55.7275282844
 51
97.3110157293
  0
ARC
  5
531
100
AcDbEntity
  8
0
100
AcDbCircle
 62
7
  6
CONTINUOUS
 10
14.2486237632
 20
10.8428457004
 40
0.35
100
AcDbArc
 50
172.6889842707
 51
214.2724717156
  0
ARC
  5
532
100
AcDbEntity
  8
0
100
AcDbCircle
 62
7
  6
CONTINUOUS
 10
14.2026121424
 20
10.5862421811
 40
0.35
100
AcDbArc
 50
17.9458645644
 51
34.2724717156
  0
ARC
  5
533
100
AcDbEntity
  8
0
100
AcDbCircle
 62
7
  6
CONTINUOUS
 10
14.3539197124
 20
10.7375497512
 40
0.35
100
AcDbArc
 50
235.7275282844
 51
252.0541354356
  0
ARC
  5
534
100
AcDbEntity
  8
0
100
AcDbCircle
 62
7
  6
CONTINUOUS
 10
14.0750465142
 20
10.8651153794
 40
0.175
100
AcDbArc
 50
97.3110157293
 51
172.6889842707
  0
ARC
  5
535
100
AcDbEntity
  8
0
100
AcDbCircle
 62
7
  6
CONTINUOUS
 10
15.0473183383
 20
9.8928435553
 40
1.3125
100
AcDbArc
 50
235.4746245003
 51
304.5253754997
  0
ARC
  5
536
100
AcDbEntity
  8
0
100
AcDbCircle
 62
7
  6
CONTINUOUS
 10
15.0473183383
 20
9.8928435553
 40
1.3125
100
AcDbArc
 50
325.4993243467
 51
34.5006756533
  0
ARC
  5
537
100
AcDbEntity
  8
0
100
AcDbCircle
 62
7
  6
CONTINUOUS
 10
15.0473183383
 20
9.8928435553
 40
1.3125
100
AcDbArc
 50
55.4746245003
 51
124.5253754997
  0
ARC
  5
538
100
AcDbEntity
  8
0
100
AcDbCircle
 62
7
  6
CONTINUOUS
 10
15.0473183383
 20
9.8928435553
 40
1.3125
100
AcDbArc
 50
145.4993243467
 51
214.5006756533
  0
ARC
  5
539
100
AcDbEntity
  8
0
100
AcDbCircle
 62
7
  6
CONTINUOUS
 10
15.0473183383
 20
9.8928435553
 40
1.2625
100
AcDbArc
 50
236.2095910039
 51
303.7904089961
  0
ARC
  5
53A
100
AcDbEntity
  8
0
100
AcDbCircle
 62
7
  6
CONTINUOUS
 10
15.0473183383
 20
9.8928435553
 40
1.2625
100
AcDbArc
 50
146.2173111262
 51
213.7826888738
  0
ARC
  5
53B
100
AcDbEntity
  8
0
100
AcDbCircle
 62
7
  6
CONTINUOUS
 10
15.0473183383
 20
9.8928435553
 40
1.2625
100
AcDbArc
 50
56.2095910039
 51
123.7904089961
  0
ARC
  5
53C
100
AcDbEntity
  8
0
100
AcDbCircle
 62
7
  6
CONTINUOUS
 10
15.0473183383
 20
9.8928435553
 40
1.2625
100
AcDbArc
 50
326.2173111262
 51
33.7826888738
  0
ARC
  5
53D
100
AcDbEntity
  8
0
100
AcDbCircle
 62
9
  6
CONTINUOUS
 10
15.0473183383
 20
9.8928435553
 40
1.1354891084
100
AcDbArc
 50
57.610836652
 51
122.389163348
  0
ARC
  5
53E
100
AcDbEntity
  8
0
100
AcDbCircle
 62
9
  6
CONTINUOUS
 10
15.0473183383
 20
9.8928435553
 40
1.1354891084
100
AcDbArc
 50
147.6015209619
 51
212.3984790381
  0
ARC
  5
53F
100
AcDbEntity
  8
0
100
AcDbCircle
 62
9
  6
CONTINUOUS
 10
15.0473183383
 20
9.8928435553
 40
1.1354891084
100
AcDbArc
 50
237.610836652
 51
302.389163348
  0
ARC
  5
540
100
AcDbEntity
  8
0
100
AcDbCircle
 62
9
  6
CONTINUOUS
 10
15.0473183383
 20
9.8928435553
 40
1.1354891084
100
AcDbArc
 50
327.6015209619
 51
32.3984790381
  0
ARC
  5
541
100
AcDbEntity
  8
0
100
AcDbCircle
 62
7
  6
CONTINUOUS
 10
15.0473183383
 20
9.8928435553
 40
1.125
100
AcDbArc
 50
57.6507096183
 51
122.3490269131
  0
ARC
  5
542
100
AcDbEntity
  8
0
100
AcDbCircle
 62
7
  6
CONTINUOUS
 10
15.0473183383
 20
9.8928435553
 40
1.125
100
AcDbArc
 50
327.6513904943
 51
32.3484889866
  0
ARC
  5
543
100
AcDbEntity
  8
0
100
AcDbCircle
 62
7
  6
CONTINUOUS
 10
15.0473183383
 20
9.8928435553
 40
1.125
100
AcDbArc
 50
237.6507096183
 51
302.3490269131
  0
ARC
  5
544
100
AcDbEntity
  8
0
100
AcDbCircle
 62
7
  6
CONTINUOUS
 10
15.0473183383
 20
9.8928435553
 40
1.125
100
AcDbArc
 50
147.6513904943
 51
212.3484889866
  0
ARC
  5
545
100
AcDbEntity
  8
0
100
AcDbCircle
 62
7
  6
CONTINUOUS
 10
15.0473183383
 20
9.8928435553
 40
1.05
100
AcDbArc
 50
238.0444791671
 51
301.9555208329
  0
ARC
  5
546
100
AcDbEntity
  8
0
100
AcDbCircle
 62
7
  6
CONTINUOUS
 10
15.0473183383
 20
9.8928435553
 40
1.05
100
AcDbArc
 50
148.0440300646
 51
211.9559699354
  0
ARC
  5
547
100
AcDbEntity
  8
0
100
AcDbCircle
 62
7
  6
CONTINUOUS
 10
15.0473183383
 20
9.8928435553
 40
1.05
100
AcDbArc
 50
58.0444791671
 51
121.9555208329
  0
ARC
  5
548
100
AcDbEntity
  8
0
100
AcDbCircle
 62
7
  6
CONTINUOUS
 10
15.0473183383
 20
9.8928435553
 40
1.05
100
AcDbArc
 50
328.0440300646
 51
31.9559699354
  0
ARC
  5
549
100
AcDbEntity
  8
0
100
AcDbCircle
 62
7
  6
CONTINUOUS
 10
15.0473183383
 20
9.8928435553
 40
0.6375
100
AcDbArc
 50
238.6527160524
 51
301.3456278882
  0
ARC
  5
54A
100
AcDbEntity
  8
0
100
AcDbCircle
 62
7
  6
CONTINUOUS
 10
15.0473183383
 20
9.8928435553
 40
0.6375
100
AcDbArc
 50
148.6555916158
 51
211.3476455595
  0
ARC
  5
54B
100
AcDbEntity
  8
0
100
AcDbCircle
 62
7
  6
CONTINUOUS
 10
15.0473183383
 20
9.8928435553
 40
0.6375
100
AcDbArc
 50
58.6527160524
 51
121.3456278882
  0
ARC
  5
54C
100
AcDbEntity
  8
0
100
AcDbCircle
 62
7
  6
CONTINUOUS
 10
15.0473183383
 20
9.8928435553
 40
0.6375
100
AcDbArc
 50
328.6555916158
 51
31.3476455595
  0
ARC
  5
54D
100
AcDbEntity
  8
0
100
AcDbCircle
 62
7
  6
CONTINUOUS
 10
15.0473183383
 20
9.8928435553
 40
0.5375
100
AcDbArc
 50
241.2369128452
 51
298.7601268206
  0
ARC
  5
54E
100
AcDbEntity
  8
0
100
AcDbCircle
 62
7
  6
CONTINUOUS
 10
15.0473183383
 20
9.8928435553
 40
0.5375
100
AcDbArc
 50
151.2358144572
 51
208.767173185
  0
ARC
  5
54F
100
AcDbEntity
  8
0
100
AcDbCircle
 62
7
  6
CONTINUOUS
 10
15.0473183383
 20
9.8928435553
 40
0.5375
100
AcDbArc
 50
61.2369128452
 51
118.7601268206
  0
ARC
  5
550
100
AcDbEntity
  8
0
100
AcDbCircle
 62
7
  6
CONTINUOUS
 10
15.0473183383
 20
9.8928435553
 40
0.5375
100
AcDbArc
 50
331.2358144572
 51
28.767173185
  0
CIRCLE
  5
551
100
AcDbEntity
  8
0
100
AcDbCircle
 62
7
  6
CONTINUOUS
 10
15.0473183383
 20
9.8928435553
 40
0.5
  0
CIRCLE
  5
552
100
AcDbEntity
  8
0
100
AcDbCircle
 62
7
  6
CONTINUOUS
 10
15.0473183383
 20
9.8928435553
 40
0.425
  0
CIRCLE
  5
553
100
AcDbEntity
  8
0
100
AcDbCircle
 62
7
  6
CONTINUOUS
 10
15.0473183383
 20
9.8928435553
 40
0.4175
  0
CIRCLE
  5
554
100
AcDbEntity
  8
0
100
AcDbCircle
 62
9
  6
CONTINUOUS
 10
15.0473183383
 20
9.8928435553
 40
0.3951446566
  0
ARC
  5
555
100
AcDbEntity
  8
0
100
AcDbCircle
 62
7
  6
CONTINUOUS
 10
15.1548183383
 20
9.9239950753
 40
0.025
100
AcDbArc
 50
0.0
 51
72.5423968763
  0
ARC
  5
556
100
AcDbEntity
  8
0
100
AcDbCircle
 62
7
  6
CONTINUOUS
 10
15.2693216279
 20
9.8953435553
 40
0.08
100
AcDbArc
 50
341.7900431357
 51
18.2099568643
  0
ARC
  5
557
100
AcDbEntity
  8
0
100
AcDbCircle
 62
7
  6
CONTINUOUS
 10
15.3073183383
 20
9.8928435553
 40
0.07
100
AcDbArc
 50
270.0
 51
90.0
  0
ARC
  5
558
100
AcDbEntity
  8
0
100
AcDbCircle
 62
7
  6
CONTINUOUS
 10
15.3073183383
 20
9.9078435553
 40
0.04
100
AcDbArc
 50
18.2099568643
 51
90.0
  0
ARC
  5
559
100
AcDbEntity
  8
0
100
AcDbCircle
 62
7
  6
CONTINUOUS
 10
15.2348183383
 20
9.9239950753
 40
0.025
100
AcDbArc
 50
107.4576031237
 51
180.0
  0
ARC
  5
55A
100
AcDbEntity
  8
0
100
AcDbCircle
 62
7
  6
CONTINUOUS
 10
15.2303183383
 20
9.9345770561
 40
0.015
100
AcDbArc
 50
0.0
 51
62.1818607153
  0
ARC
  5
55B
100
AcDbEntity
  8
0
100
AcDbCircle
 62
7
  6
CONTINUOUS
 10
15.2873183383
 20
9.9428435553
 40
0.005
100
AcDbArc
 50
90.0
 51
180.0
  0
ARC
  5
55C
100
AcDbEntity
  8
0
100
AcDbCircle
 62
7
  6
CONTINUOUS
 10
15.2084872219
 20
10.1936335002
 40
0.018
100
AcDbArc
 50
236.0164438543
 51
63.9999999999
  0
ARC
  5
55D
100
AcDbEntity
  8
0
100
AcDbCircle
 62
7
  6
CONTINUOUS
 10
15.0822607526
 20
10.2346447076
 40
0.016
100
AcDbArc
 50
267.5
 51
87.5
  0
ARC
  5
55E
100
AcDbEntity
  8
0
100
AcDbCircle
 62
7
  6
CONTINUOUS
 10
15.2684083358
 20
10.1485536287
 40
0.0146811183
100
AcDbArc
 50
7.0000000001
 51
52.0000000003
  0
ARC
  5
55F
100
AcDbEntity
  8
0
100
AcDbCircle
 62
7
  6
CONTINUOUS
 10
15.2419462183
 20
10.1692281007
 40
0.0146811183
100
AcDbArc
 50
52.0
 51
97.0
  0
ARC
  5
560
100
AcDbEntity
  8
0
100
AcDbCircle
 62
7
  6
CONTINUOUS
 10
15.2285071832
 20
10.1564279515
 40
0.013
100
AcDbArc
 50
261.9999999999
 51
322.0
  0
ARC
  5
561
100
AcDbEntity
  8
0
100
AcDbCircle
 62
7
  6
CONTINUOUS
 10
15.2592396026
 20
10.1324171539
 40
0.013
100
AcDbArc
 50
141.9999999998
 51
201.9999999999
  0
ARC
  5
562
100
AcDbEntity
  8
0
100
AcDbCircle
 62
7
  6
CONTINUOUS
 10
15.2025633703
 20
10.1965227557
 40
0.0115908889
100
AcDbArc
 50
243.9999999995
 51
64.0000000002
  0
ARC
  5
563
100
AcDbEntity
  8
0
100
AcDbCircle
 62
7
  6
CONTINUOUS
 10
15.1590994791
 20
10.1916046048
 40
0.011
100
AcDbArc
 50
274.0000000001
 51
334.0
  0
ARC
  5
564
100
AcDbEntity
  8
0
100
AcDbCircle
 62
7
  6
CONTINUOUS
 10
15.1905572707
 20
10.1762616146
 40
0.011
100
AcDbArc
 50
153.9999999997
 51
214.0000000001
  0
ARC
  5
565
100
AcDbEntity
  8
0
100
AcDbCircle
 62
7
  6
CONTINUOUS
 10
15.2186165257
 20
10.1642158659
 40
0.011
100
AcDbArc
 50
208.0605153621
 51
243.9999999999
  0
ARC
  5
566
100
AcDbEntity
  8
0
100
AcDbCircle
 62
7
  6
CONTINUOUS
 10
15.1704740886
 20
10.2149260104
 40
0.011
100
AcDbArc
 50
334.0
 51
33.9999999997
  0
ARC
  5
567
100
AcDbEntity
  8
0
100
AcDbCircle
 62
7
  6
CONTINUOUS
 10
15.0755749563
 20
10.2349366157
 40
0.0096921657
100
AcDbArc
 50
267.5
 51
87.5
  0
ARC
  5
568
100
AcDbEntity
  8
0
100
AcDbCircle
 62
7
  6
CONTINUOUS
 10
15.0639769072
 20
10.2056107562
 40
0.006
100
AcDbArc
 50
177.4999999999
 51
237.5000000001
  0
ARC
  5
569
100
AcDbEntity
  8
0
100
AcDbCircle
 62
7
  6
CONTINUOUS
 10
15.1836147204
 20
10.1848389972
 40
0.001
100
AcDbArc
 50
63.9999999993
 51
153.9999999991
  0
ARC
  5
56A
100
AcDbEntity
  8
0
100
AcDbCircle
 62
7
  6
CONTINUOUS
 10
15.1859584871
 20
10.1836958658
 40
0.001
100
AcDbArc
 50
14.1777964199
 51
63.9999999994
  0
ARC
  5
56B
100
AcDbEntity
  8
0
100
AcDbCircle
 62
7
  6
CONTINUOUS
 10
15.2695102952
 20
10.165054272
 40
0.001
100
AcDbArc
 50
52.0000000008
 51
142.0000000041
  0
ARC
  5
56C
100
AcDbEntity
  8
0
100
AcDbCircle
 62
7
  6
CONTINUOUS
 10
15.2576901339
 20
10.1742891941
 40
0.001
100
AcDbArc
 50
322.0000000004
 51
52.0000000008
  0
ARC
  5
56D
100
AcDbEntity
  8
0
100
AcDbCircle
 62
7
  6
CONTINUOUS
 10
15.0595401621
 20
10.2186205143
 40
0.001
100
AcDbArc
 50
87.5000000002
 51
177.4999999978
  0
ARC
  5
56E
100
AcDbEntity
  8
0
100
AcDbCircle
 62
7
  6
CONTINUOUS
 10
15.0599025448
 20
10.2269204414
 40
0.001
100
AcDbArc
 50
177.4999999978
 51
267.5000000005
  0
ARC
  5
56F
100
AcDbEntity
  8
0
100
AcDbCircle
 62
7
  6
CONTINUOUS
 10
15.0606608386
 20
10.2442882268
 40
0.001
100
AcDbArc
 50
87.5000000002
 51
177.4999999978
  0
ARC
  5
570
100
AcDbEntity
  8
0
100
AcDbCircle
 62
7
  6
CONTINUOUS
 10
15.187216792
 20
10.1922243385
 40
0.001
100
AcDbArc
 50
153.9999999993
 51
243.9999999995
  0
ARC
  5
571
100
AcDbEntity
  8
0
100
AcDbCircle
 62
7
  6
CONTINUOUS
 10
15.1965022722
 20
10.2112623943
 40
0.001
100
AcDbArc
 50
63.9999999993
 51
153.9999999992
  0
ARC
  5
572
100
AcDbEntity
  8
0
100
AcDbCircle
 62
7
  6
CONTINUOUS
 10
16.0026175009
 20
9.9289039024
 40
0.5
100
AcDbArc
 50
107.9458665856
 51
135.0
  0
ARC
  5
573
100
AcDbEntity
  8
0
100
AcDbCircle
 62
7
  6
CONTINUOUS
 10
16.2225721144
 20
10.3609905502
 40
0.75
100
AcDbArc
 50
124.2724717156
 51
145.7275282844
  0
ARC
  5
574
100
AcDbEntity
  8
0
100
AcDbCircle
 62
7
  6
CONTINUOUS
 10
15.5154653332
 20
11.0680973314
 40
0.75
100
AcDbArc
 50
304.2724717156
 51
325.7275282844
  0
ARC
  5
575
100
AcDbEntity
  8
0
100
AcDbCircle
 62
7
  6
CONTINUOUS
 10
15.0833786854
 20
10.8481427179
 40
0.5
100
AcDbArc
 50
315.0
 51
342.0541334144
  0
ARC
  5
576
100
AcDbEntity
  8
0
100
AcDbCircle
 62
7
  6
CONTINUOUS
 10
15.8460129133
 20
10.8428457004
 40
0.35
100
AcDbArc
 50
325.7275282844
 51
7.3110157293
  0
ARC
  5
577
100
AcDbEntity
  8
0
100
AcDbCircle
 62
7
  6
CONTINUOUS
 10
15.9973204834
 20
10.6915381304
 40
0.35
100
AcDbArc
 50
82.6889842707
 51
124.2724717156
  0
ARC
  5
578
100
AcDbEntity
  8
0
100
AcDbCircle
 62
7
  6
CONTINUOUS
 10
15.7407169641
 20
10.7375497512
 40
0.35
100
AcDbArc
 50
287.9458645644
 51
304.2724717156
  0
ARC
  5
579
100
AcDbEntity
  8
0
100
AcDbCircle
 62
7
  6
CONTINUOUS
 10
15.8920245342
 20
10.5862421811
 40
0.35
100
AcDbArc
 50
145.7275282844
 51
162.0541354356
  0
ARC
  5
57A
100
AcDbEntity
  8
0
100
AcDbCircle
 62
7
  6
CONTINUOUS
 10
16.0195901624
 20
10.8651153794
 40
0.175
100
AcDbArc
 50
7.3110157293
 51
82.6889842707
  0
ARC
  5
57B
100
AcDbEntity
  8
0
100
AcDbCircle
 62
9
  6
CONTINUOUS
 10
21.8411574832
 20
7.6126398583
 40
10.0254546538
100
AcDbArc
 50
169.8438029377
 51
170.2375355514
  0
ARC
  5
57C
100
AcDbEntity
  8
0
100
AcDbCircle
 62
9
  6
CONTINUOUS
 10
22.0888471741
 20
12.3491478154
 40
12.3223796587
100
AcDbArc
 50
193.9518672972
 51
194.2667789121
  0
ARC
  5
57D
100
AcDbEntity
  8
0
100
AcDbCircle
 62
9
  6
CONTINUOUS
 10
21.0990896368
 20
9.3247442238
 40
10.9008600654
100
AcDbArc
 50
183.9603542726
 51
184.1729310755
  0
ARC
  5
57E
100
AcDbEntity
  8
0
100
AcDbCircle
 62
9
  6
CONTINUOUS
 10
17.8531943281
 20
9.3418242639
 40
7.6429543078
100
AcDbArc
 50
185.7138024674
 51
186.0107503071
  0
SPLINE
  5
57F
100
AcDbEntity
  8
0
100
AcDbSpline
 62
7
  6
CONTINUOUS
 70
0
 71
3
 72
11
 73
7
 74
0
 42
0.0000001
 43
0.0000001
 44
0.0000000001
 40
0.0
 40
0.0
 40
0.0
 40
0.0
 40
0.2734606541
 40
0.500005319
 40
0.7265393459
 40
1.0
 40
1.0
 40
1.0
 40
1.0
 10
15.0223183383
 20
9.8928435553
 30
0.0
 10
15.0223189491
 20
9.8732040304
 30
0.0
 10
15.0335599481
 20
9.8372943934
 30
0.0
 10
15.0873169369
 20
9.8162960058
 30
0.0
 10
15.1410778656
 20
9.8372951999
 30
0.0
 10
15.1523190005
 20
9.8732040092
 30
0.0
 10
15.1523183383
 20
9.8928435553
 30
0.0
  0
SPLINE
  5
580
100
AcDbEntity
  8
0
100
AcDbSpline
 62
7
  6
CONTINUOUS
 70
0
 71
3
 72
11
 73
7
 74
0
 42
0.0000001
 43
0.0000001
 44
0.0000000001
 40
0.0
 40
0.0
 40
0.0
 40
0.0
 40
0.2462014344
 40
0.5246240876
 40
0.8727706547
 40
1.0
 40
1.0
 40
1.0
 40
1.0
 10
15.0910531204
 20
9.5668119551
 30
0.0
 10
15.0958122923
 20
9.5644889629
 30
0.0
 10
15.1032090217
 20
9.562239329
 30
0.0
 10
15.1172040853
 20
9.56549338
 30
0.0
 10
15.1359363034
 20
9.5619219214
 30
0.0
 10
15.132269488
 20
9.5548808256
 30
0.0
 10
15.1297595795
 20
9.5530853531
 30
0.0
  0
SPLINE
  5
581
100
AcDbEntity
  8
0
100
AcDbSpline
 62
7
  6
CONTINUOUS
 70
0
 71
3
 72
12
 73
8
 74
0
 42
0.0000001
 43
0.0000001
 44
0.0000000001
 40
0.0
 40
0.0
 40
0.0
 40
0.0
 40
0.1800775951
 40
0.4881071916
 40
0.7093228278
 40
0.8048887743
 40
1.0
 40
1.0
 40
1.0
 40
1.0
 10
15.1403148447
 20
9.5742158361
 30
0.0
 10
15.135828855
 20
9.5766394144
 30
0.0
 10
15.1269748297
 20
9.5802996928
 30
0.0
 10
15.1160833338
 20
9.5793158822
 30
0.0
 10
15.104076613
 20
9.5772737535
 30
0.0
 10
15.0935490841
 20
9.5819679403
 30
0.0
 10
15.0977065652
 20
9.5880637991
 30
0.0
 10
15.1027268117
 20
9.5907624273
 30
0.0
  0
SPLINE
  5
582
100
AcDbEntity
  8
0
100
AcDbSpline
 62
7
  6
CONTINUOUS
 70
0
 71
3
 72
11
 73
7
 74
0
 42
0.0000001
 43
0.0000001
 44
0.0000000001
 40
0.0
 40
0.0
 40
0.0
 40
0.0
 40
0.2462014344
 40
0.5246240876
 40
0.8727706547
 40
1.0
 40
1.0
 40
1.0
 40
1.0
 10
15.163273353
 20
9.5850063092
 30
0.0
 10
15.1684331071
 20
9.5838134359
 30
0.0
 10
15.1761463163
 20
9.583285362
 30
0.0
 10
15.1890506852
 20
9.5896042162
 30
0.0
 10
15.2081062012
 20
9.5903381261
 30
0.0
 10
15.2061172679
 20
9.5826526392
 30
0.0
 10
15.2040755816
 20
9.580338578
 30
0.0
  0
SPLINE
  5
583
100
AcDbEntity
  8
0
100
AcDbSpline
 62
7
  6
CONTINUOUS
 70
0
 71
3
 72
12
 73
8
 74
0
 42
0.0000001
 43
0.0000001
 44
0.0000000001
 40
0.0
 40
0.0
 40
0.0
 40
0.0
 40
0.1800775951
 40
0.4881071916
 40
0.7093228278
 40
0.8048887743
 40
1.0
 40
1.0
 40
1.0
 40
1.0
 10
15.2096069916
 20
9.603301906
 30
0.0
 10
15.2046907911
 20
9.6046542401
 30
0.0
 10
15.1952403104
 20
9.6062289834
 30
0.0
 10
15.184849272
 20
9.6028203344
 30
0.0
 10
15.1736096617
 20
9.5981296208
 30
0.0
 10
15.1622959904
 20
9.6003353172
 30
0.0
 10
15.1649756457
 20
9.6072101693
 30
0.0
 10
15.1692601643
 20
9.6109689415
 30
0.0
  0
SPLINE
  5
584
100
AcDbEntity
  8
0
100
AcDbSpline
 62
7
  6
CONTINUOUS
 70
0
 71
3
 72
11
 73
7
 74
0
 42
0.0000001
 43
0.0000001
 44
0.0000000001
 40
0.0
 40
0.0
 40
0.0
 40
0.0
 40
0.2734597226
 40
0.5000256251
 40
0.7265402774
 40
1.0
 40
1.0
 40
1.0
 40
1.0
 10
15.1523183383
 20
9.8928435553
 30
0.0
 10
15.152317676
 20
9.9124831014
 30
0.0
 10
15.1410733852
 20
9.948394417
 30
0.0
 10
15.0873255456
 20
9.9693910498
 30
0.0
 10
15.0335558002
 20
9.9483905742
 30
0.0
 10
15.0223177275
 20
9.9124830803
 30
0.0
 10
15.0223183383
 20
9.8928435553
 30
0.0
  0
SPLINE
  5
585
100
AcDbEntity
  8
0
100
AcDbSpline
 62
7
  6
CONTINUOUS
 70
0
 71
3
 72
11
 73
7
 74
0
 42
0.0000001
 43
0.0000001
 44
0.0000000001
 40
0.0
 40
0.0
 40
0.0
 40
0.0
 40
0.271807482
 40
0.4996953051
 40
0.7275315791
 40
1.0
 40
1.0
 40
1.0
 40
1.0
 10
15.159435689
 20
10.2034076651
 30
0.0
 10
15.161616944
 20
10.2115493133
 30
0.0
 10
15.1611304259
 20
10.2277219378
 30
0.0
 10
15.1409412954
 20
10.2422935353
 30
0.0
 10
15.1162256935
 20
10.2397297039
 30
0.0
 10
15.1075247411
 20
10.2260416369
 30
0.0
 10
15.1053438838
 20
10.2179016851
 30
0.0
  0
SPLINE
  5
586
100
AcDbEntity
  8
0
100
AcDbSpline
 62
7
  6
CONTINUOUS
 70
0
 71
3
 72
11
 73
7
 74
0
 42
0.0000001
 43
0.0000001
 44
0.0000000001
 40
0.0
 40
0.0
 40
0.0
 40
0.0
 40
0.272471847
 40
0.5003375325
 40
0.728192518
 40
1.0
 40
1.0
 40
1.0
 40
1.0
 10
15.1053438838
 20
10.2179016851
 30
0.0
 10
15.1031629991
 20
10.2097616311
 30
0.0
 10
15.1038551049
 20
10.1935555687
 30
0.0
 10
15.1239725245
 20
10.1789796544
 30
0.0
 10
15.1487483655
 20
10.1815040681
 30
0.0
 10
15.157254434
 20
10.1952660168
 30
0.0
 10
15.159435689
 20
10.2034076651
 30
0.0
  0
SPLINE
  5
587
100
AcDbEntity
  8
0
100
AcDbSpline
 62
7
  6
CONTINUOUS
 70
0
 71
3
 72
11
 73
7
 74
0
 42
0.0000001
 43
0.0000001
 44
0.0000000001
 40
0.0
 40
0.0
 40
0.0
 40
0.0
 40
0.2871955376
 40
0.5007701497
 40
0.7143447617
 40
1.0
 40
1.0
 40
1.0
 40
1.0
 10
15.1178042859
 20
10.2145627659
 30
0.0
 10
15.1193206667
 20
10.2202219763
 30
0.0
 10
15.1230969769
 20
10.2297863016
 30
0.0
 10
15.1386045915
 20
10.2336392307
 30
0.0
 10
15.1502728346
 20
10.2225407246
 30
0.0
 10
15.1482995197
 20
10.2124614287
 30
0.0
 10
15.1467820607
 20
10.2067981946
 30
0.0
  0
SPLINE
  5
588
100
AcDbEntity
  8
0
100
AcDbSpline
 62
7
  6
CONTINUOUS
 70
0
 71
3
 72
11
 73
7
 74
0
 42
0.0000001
 43
0.0000001
 44
0.0000000001
 40
0.0
 40
0.0
 40
0.0
 40
0.0
 40
0.2856552383
 40
0.4992298503
 40
0.7128044624
 40
1.0
 40
1.0
 40
1.0
 40
1.0
 10
15.1467820607
 20
10.2067981946
 30
0.0
 10
15.1452646016
 20
10.2011349604
 30
0.0
 10
15.1419338946
 20
10.1914193767
 30
0.0
 10
15.1262796466
 20
10.18764191
 30
0.0
 10
15.1147761229
 20
10.1987324518
 30
0.0
 10
15.116287905
 20
10.2089035556
 30
0.0
 10
15.1178042859
 20
10.2145627659
 30
0.0
  0
SPLINE
  5
589
100
AcDbEntity
  8
0
100
AcDbSpline
 62
7
  6
CONTINUOUS
 70
0
 71
3
 72
11
 73
7
 74
0
 42
0.0000001
 43
0.0000001
 44
0.0000000001
 40
0.0
 40
0.0
 40
0.0
 40
0.0
 40
0.2906657346
 40
0.5
 40
0.7093342654
 40
1.0
 40
1.0
 40
1.0
 40
1.0
 10
15.0523183383
 20
9.8928435553
 30
0.0
 10
15.0523183383
 20
9.9065842601
 30
0.0
 10
15.0551529711
 20
9.9302208694
 30
0.0
 10
15.0873183383
 20
9.9481282767
 30
0.0
 10
15.1194837054
 20
9.9302208694
 30
0.0
 10
15.1223183383
 20
9.9065842601
 30
0.0
 10
15.1223183383
 20
9.8928435553
 30
0.0
  0
SPLINE
  5
58A
100
AcDbEntity
  8
0
100
AcDbSpline
 62
7
  6
CONTINUOUS
 70
0
 71
3
 72
11
 73
7
 74
0
 42
0.0000001
 43
0.0000001
 44
0.0000000001
 40
0.0
 40
0.0
 40
0.0
 40
0.0
 40
0.2906657346
 40
0.5
 40
0.7093342654
 40
1.0
 40
1.0
 40
1.0
 40
1.0
 10
15.1223183383
 20
9.8928435553
 30
0.0
 10
15.1223183383
 20
9.8791028505
 30
0.0
 10
15.1194837054
 20
9.8554662412
 30
0.0
 10
15.0873183383
 20
9.8375588339
 30
0.0
 10
15.0551529711
 20
9.8554662412
 30
0.0
 10
15.0523183383
 20
9.8791028505
 30
0.0
 10
15.0523183383
 20
9.8928435553
 30
0.0
  0
SPLINE
  5
58B
100
AcDbEntity
  8
0
100
AcDbSpline
 62
7
  6
CONTINUOUS
 70
0
 71
3
 72
10
 73
6
 74
0
 42
0.0000001
 43
0.0000001
 44
0.0000000001
 40
0.0
 40
0.0
 40
0.0
 40
0.0
 40
0.356550045
 40
0.7858290494
 40
1.0
 40
1.0
 40
1.0
 40
1.0
 10
7.1098515532
 20
10.1910926168
 30
0.0
 10
7.1135371335
 20
10.1866326161
 30
0.0
 10
7.1252875229
 20
10.1791136398
 30
0.0
 10
7.1433633213
 20
10.1809553853
 30
0.0
 10
7.1510182912
 20
10.1877601717
 30
0.0
 10
7.1531310407
 20
10.1904352824
 30
0.0
  0
SPLINE
  5
58C
100
AcDbEntity
  8
0
100
AcDbSpline
 62
7
  6
CONTINUOUS
 70
0
 71
3
 72
11
 73
7
 74
0
 42
0.0000001
 43
0.0000001
 44
0.0000000001
 40
0.0
 40
0.0
 40
0.0
 40
0.0
 40
0.2871955376
 40
0.5007701497
 40
0.7143447617
 40
1.0
 40
1.0
 40
1.0
 40
1.0
 10
7.1178042859
 20
10.2145627659
 30
0.0
 10
7.1193206667
 20
10.2202219763
 30
0.0
 10
7.1230969769
 20
10.2297863016
 30
0.0
 10
7.1386045915
 20
10.2336392307
 30
0.0
 10
7.1502728346
 20
10.2225407246
 30
0.0
 10
7.1482995197
 20
10.2124614287
 30
0.0
 10
7.1467820607
 20
10.2067981946
 30
0.0
  0
SPLINE
  5
58D
100
AcDbEntity
  8
0
100
AcDbSpline
 62
7
  6
CONTINUOUS
 70
0
 71
3
 72
11
 73
7
 74
0
 42
0.0000001
 43
0.0000001
 44
0.0000000001
 40
0.0
 40
0.0
 40
0.0
 40
0.0
 40
0.2856552383
 40
0.4992298503
 40
0.7128044624
 40
1.0
 40
1.0
 40
1.0
 40
1.0
 10
7.1467820607
 20
10.2067981946
 30
0.0
 10
7.1452646016
 20
10.2011349604
 30
0.0
 10
7.1419338946
 20
10.1914193767
 30
0.0
 10
7.1262796466
 20
10.18764191
 30
0.0
 10
7.1147761229
 20
10.1987324518
 30
0.0
 10
7.116287905
 20
10.2089035556
 30
0.0
 10
7.1178042859
 20
10.2145627659
 30
0.0
  0
SPLINE
  5
58E
100
AcDbEntity
  8
0
100
AcDbSpline
 62
7
  6
CONTINUOUS
 70
0
 71
3
 72
11
 73
7
 74
0
 42
0.0000001
 43
0.0000001
 44
0.0000000001
 40
0.0
 40
0.0
 40
0.0
 40
0.0
 40
0.2462014344
 40
0.5246240876
 40
0.8727706547
 40
1.0
 40
1.0
 40
1.0
 40
1.0
 10
7.0910531204
 20
9.5668119551
 30
0.0
 10
7.0958122923
 20
9.5644889629
 30
0.0
 10
7.1032090217
 20
9.562239329
 30
0.0
 10
7.1172040853
 20
9.56549338
 30
0.0
 10
7.1359363034
 20
9.5619219214
 30
0.0
 10
7.132269488
 20
9.5548808256
 30
0.0
 10
7.1297595795
 20
9.5530853531
 30
0.0
  0
SPLINE
  5
58F
100
AcDbEntity
  8
0
100
AcDbSpline
 62
7
  6
CONTINUOUS
 70
0
 71
3
 72
12
 73
8
 74
0
 42
0.0000001
 43
0.0000001
 44
0.0000000001
 40
0.0
 40
0.0
 40
0.0
 40
0.0
 40
0.1800775951
 40
0.4881071916
 40
0.7093228278
 40
0.8048887743
 40
1.0
 40
1.0
 40
1.0
 40
1.0
 10
7.1403148447
 20
9.5742158361
 30
0.0
 10
7.135828855
 20
9.5766394144
 30
0.0
 10
7.1269748297
 20
9.5802996928
 30
0.0
 10
7.1160833338
 20
9.5793158822
 30
0.0
 10
7.104076613
 20
9.5772737535
 30
0.0
 10
7.0935490841
 20
9.5819679403
 30
0.0
 10
7.0977065652
 20
9.5880637991
 30
0.0
 10
7.1027268117
 20
9.5907624273
 30
0.0
  0
SPLINE
  5
590
100
AcDbEntity
  8
0
100
AcDbSpline
 62
7
  6
CONTINUOUS
 70
0
 71
3
 72
11
 73
7
 74
0
 42
0.0000001
 43
0.0000001
 44
0.0000000001
 40
0.0
 40
0.0
 40
0.0
 40
0.0
 40
0.2462014344
 40
0.5246240876
 40
0.8727706547
 40
1.0
 40
1.0
 40
1.0
 40
1.0
 10
7.163273353
 20
9.5850063092
 30
0.0
 10
7.1684331071
 20
9.5838134359
 30
0.0
 10
7.1761463163
 20
9.583285362
 30
0.0
 10
7.1890506852
 20
9.5896042162
 30
0.0
 10
7.2081062012
 20
9.5903381261
 30
0.0
 10
7.2061172679
 20
9.5826526392
 30
0.0
 10
7.2040755816
 20
9.580338578
 30
0.0
  0
SPLINE
  5
591
100
AcDbEntity
  8
0
100
AcDbSpline
 62
7
  6
CONTINUOUS
 70
0
 71
3
 72
12
 73
8
 74
0
 42
0.0000001
 43
0.0000001
 44
0.0000000001
 40
0.0
 40
0.0
 40
0.0
 40
0.0
 40
0.1800775951
 40
0.4881071916
 40
0.7093228278
 40
0.8048887743
 40
1.0
 40
1.0
 40
1.0
 40
1.0
 10
7.2096069916
 20
9.603301906
 30
0.0
 10
7.2046907911
 20
9.6046542401
 30
0.0
 10
7.1952403104
 20
9.6062289834
 30
0.0
 10
7.184849272
 20
9.6028203344
 30
0.0
 10
7.1736096617
 20
9.5981296208
 30
0.0
 10
7.1622959904
 20
9.6003353172
 30
0.0
 10
7.1649756457
 20
9.6072101693
 30
0.0
 10
7.1692601643
 20
9.6109689415
 30
0.0
  0
SPLINE
  5
592
100
AcDbEntity
  8
0
100
AcDbSpline
 62
7
  6
CONTINUOUS
 70
0
 71
3
 72
9
 73
5
 74
0
 42
0.0000001
 43
0.0000001
 44
0.0000000001
 40
0.0
 40
0.0
 40
0.0
 40
0.0
 40
0.8758730339
 40
1.0
 40
1.0
 40
1.0
 40
1.0
 10
7.1053438838
 20
10.2179016851
 30
0.0
 10
7.1031629991
 20
10.2097616311
 30
0.0
 10
7.1035933175
 20
10.1996854746
 30
0.0
 10
7.1090995613
 20
10.1920026184
 30
0.0
 10
7.1098515532
 20
10.1910926168
 30
0.0
  0
SPLINE
  5
593
100
AcDbEntity
  8
0
100
AcDbSpline
 62
7
  6
CONTINUOUS
 70
0
 71
3
 72
11
 73
7
 74
0
 42
0.0000001
 43
0.0000001
 44
0.0000000001
 40
0.0
 40
0.0
 40
0.0
 40
0.0
 40
0.271807482
 40
0.4996953051
 40
0.7275315791
 40
1.0
 40
1.0
 40
1.0
 40
1.0
 10
7.159435689
 20
10.2034076651
 30
0.0
 10
7.161616944
 20
10.2115493133
 30
0.0
 10
7.1611304259
 20
10.2277219378
 30
0.0
 10
7.1409412954
 20
10.2422935353
 30
0.0
 10
7.1162256935
 20
10.2397297039
 30
0.0
 10
7.1075247411
 20
10.2260416369
 30
0.0
 10
7.1053438838
 20
10.2179016851
 30
0.0
  0
SPLINE
  5
594
100
AcDbEntity
  8
0
100
AcDbSpline
 62
7
  6
CONTINUOUS
 70
0
 71
3
 72
8
 73
4
 74
0
 42
0.0000001
 43
0.0000001
 44
0.0000000001
 40
0.0
 40
0.0
 40
0.0
 40
0.0
 40
1.0
 40
1.0
 40
1.0
 40
1.0
 10
7.1531310407
 20
10.1904352824
 30
0.0
 10
7.1560699029
 20
10.1941563965
 30
0.0
 10
7.1581667063
 20
10.1986711208
 30
0.0
 10
7.159435689
 20
10.2034076651
 30
0.0
  0
SPLINE
  5
595
100
AcDbEntity
  8
0
100
AcDbSpline
 62
7
  6
CONTINUOUS
 70
0
 71
3
 72
34
 73
30
 74
0
 42
0.0000001
 43
0.0000001
 44
0.0000000001
 40
0.0
 40
0.0
 40
0.0
 40
0.0
 40
0.0627534092
 40
0.0941470058
 40
0.1255308765
 40
0.1569061028
 40
0.1882749724
 40
0.2509745296
 40
0.2823198827
 40
0.3136545037
 40
0.3449778111
 40
0.3762893809
 40
0.4388564357
 40
0.5013707108
 40
0.532616998
 40
0.563849912
 40
0.595069613
 40
0.6262763224
 40
0.6886340813
 40
0.7198052144
 40
0.7509660057
 40
0.7821172312
 40
0.8132599025
 40
0.8443951385
 40
0.8755239331
 40
0.9066475625
 40
0.9377672837
 40
0.9688842828
 40
1.0
 40
1.0
 40
1.0
 40
1.0
 10
11.0473183383
 20
3.7593201655
 30
0.0
 10
11.0677606569
 20
3.7593201655
 30
0.0
 10
11.0984570997
 20
3.760816952
 30
0.0
 10
11.1390583805
 20
3.7657785093
 30
0.0
 10
11.1692980833
 20
3.7709802362
 30
0.0
 10
11.199240723
 20
3.7776450716
 30
0.0
 10
11.2386606533
 20
3.7884587115
 30
0.0
 10
11.2772385603
 20
3.8021397486
 30
0.0
 10
11.3146423932
 20
3.8185749375
 30
0.0
 10
11.3420545126
 20
3.8322525786
 30
0.0
 10
11.3687568947
 20
3.8472456575
 30
0.0
 10
11.4033119294
 20
3.8689367299
 30
0.0
 10
11.444431888
 20
3.8991606449
 30
0.0
 10
11.4823782513
 20
3.9332528542
 30
0.0
 10
11.5105939123
 20
3.9626280783
 30
0.0
 10
11.5306387894
 20
3.9856634154
 30
0.0
 10
11.5495208503
 20
4.0096452314
 30
0.0
 10
11.5730720855
 20
4.0427918699
 30
0.0
 10
11.5941396006
 20
4.0776294779
 30
0.0
 10
11.612535277
 20
4.1138573999
 30
0.0
 10
11.6249721787
 20
4.1416691729
 30
0.0
 10
11.6360182387
 20
4.1700510358
 30
0.0
 10
11.6456442221
 20
4.1989369669
 30
0.0
 10
11.6538298021
 20
4.2282559162
 30
0.0
 10
11.6605548358
 20
4.2579376738
 30
0.0
 10
11.6658005826
 20
4.2879110426
 30
0.0
 10
11.6695579987
 20
4.3181034237
 30
0.0
 10
11.6718160058
 20
4.3484415039
 30
0.0
 10
11.6723174765
 20
4.3687178037
 30
0.0
 10
11.6723174748
 20
4.3788539447
 30
0.0
  0
SPLINE
  5
596
100
AcDbEntity
  8
0
100
AcDbSpline
 62
7
  6
CONTINUOUS
 70
0
 71
3
 72
15
 73
11
 74
0
 42
0.0000001
 43
0.0000001
 44
0.0000000001
 40
0.0
 40
0.0
 40
0.0
 40
0.0
 40
0.1251018093
 40
0.2501639702
 40
0.3751917677
 40
0.5001899332
 40
0.6251638706
 40
0.750119696
 40
0.8750628735
 40
1.0
 40
1.0
 40
1.0
 40
1.0
 10
11.6171017023
 20
4.6420335539
 30
0.0
 10
11.6216326364
 20
4.6320699109
 30
0.0
 10
11.6301650331
 20
4.6119007247
 30
0.0
 10
11.6413307447
 20
4.581015792
 30
0.0
 10
11.6508315214
 20
4.5495872738
 30
0.0
 10
11.6586433363
 20
4.5177051139
 30
0.0
 10
11.6647400557
 20
4.4854573994
 30
0.0
 10
11.6691080388
 20
4.4529350618
 30
0.0
 10
11.6717342523
 20
4.4202300974
 30
0.0
 10
11.6723174767
 20
4.3983629029
 30
0.0
 10
11.6723174748
 20
4.3874318308
 30
0.0
  0
SPLINE
  5
597
100
AcDbEntity
  8
0
100
AcDbSpline
 62
7
  6
CONTINUOUS
 70
0
 71
3
 72
34
 73
30
 74
0
 42
0.0000001
 43
0.0000001
 44
0.0000000001
 40
0.0
 40
0.0
 40
0.0
 40
0.0
 40
0.0311157181
 40
0.0622326908
 40
0.0933523619
 40
0.1244759251
 40
0.1556046414
 40
0.1867397929
 40
0.2178823801
 40
0.2490335262
 40
0.2801942436
 40
0.3113653105
 40
0.3737229539
 40
0.4049296069
 40
0.4361492488
 40
0.4673820992
 40
0.4986283221
 40
0.5611424791
 40
0.623709481
 40
0.6550210557
 40
0.6863444028
 40
0.7176790918
 40
0.7490245384
 40
0.8117242928
 40
0.843093262
 40
0.8744686274
 40
0.9058526718
 40
0.9372464412
 40
1.0
 40
1.0
 40
1.0
 40
1.0
 10
10.4223192018
 20
4.378853945
 30
0.0
 10
10.4223192035
 20
4.3687178037
 30
0.0
 10
10.4228206814
 20
4.348441513
 30
0.0
 10
10.4250786612
 20
4.3181034556
 30
0.0
 10
10.4288360813
 20
4.2879111217
 30
0.0
 10
10.434081817
 20
4.257937816
 30
0.0
 10
10.4408068134
 20
4.2282561267
 30
0.0
 10
10.4489923639
 20
4.1989372528
 30
0.0
 10
10.4586183115
 20
4.1700513953
 30
0.0
 10
10.4696643214
 20
4.1416695965
 30
0.0
 10
10.4821011654
 20
4.1138578759
 30
0.0
 10
10.5004967916
 20
4.0776300227
 30
0.0
 10
10.5215642021
 20
4.0427924425
 30
0.0
 10
10.5451153826
 20
4.0096458576
 30
0.0
 10
10.5639973612
 20
3.9856640521
 30
0.0
 10
10.5840421645
 20
3.9626287309
 30
0.0
 10
10.6122577488
 20
3.9332535451
 30
0.0
 10
10.6502039854
 20
3.8991613138
 30
0.0
 10
10.6913238366
 20
3.8689373417
 30
0.0
 10
10.7258788468
 20
3.8472462353
 30
0.0
 10
10.7525812371
 20
3.8322530984
 30
0.0
 10
10.7799933757
 20
3.8185753475
 30
0.0
 10
10.817397316
 20
3.8021401137
 30
0.0
 10
10.8559753007
 20
3.7884589177
 30
0.0
 10
10.8953953654
 20
3.7776452281
 30
0.0
 10
10.9253381274
 20
3.7709803266
 30
0.0
 10
10.9555779833
 20
3.7657785527
 30
0.0
 10
10.9961794248
 20
3.7608169836
 30
0.0
 10
11.026875971
 20
3.7593201655
 30
0.0
 10
11.0473183383
 20
3.7593201655
 30
0.0
  0
SPLINE
  5
598
100
AcDbEntity
  8
0
100
AcDbSpline
 62
7
  6
CONTINUOUS
 70
0
 71
3
 72
15
 73
11
 74
0
 42
0.0000001
 43
0.0000001
 44
0.0000000001
 40
0.0
 40
0.0
 40
0.0
 40
0.0
 40
0.124937362
 40
0.2498806569
 40
0.374836504
 40
0.4998103993
 40
0.6248084781
 40
0.7498361759
 40
0.8748982512
 40
1.0
 40
1.0
 40
1.0
 40
1.0
 10
10.4223192018
 20
4.3874318306
 30
0.0
 10
10.4223192037
 20
4.3983632344
 30
0.0
 10
10.4229024694
 20
4.4202310818
 30
0.0
 10
10.425528814
 20
4.4529370066
 30
0.0
 10
10.4298970691
 20
4.48546026
 30
0.0
 10
10.4359941317
 20
4.5177088512
 30
0.0
 10
10.4438063806
 20
4.5495918473
 30
0.0
 10
10.4533076926
 20
4.5810211562
 30
0.0
 10
10.4644740241
 20
4.6119068366
 30
0.0
 10
10.4730068836
 20
4.6320764907
 30
0.0
 10
10.4775380646
 20
4.6420403578
 30
0.0
  0
SPLINE
  5
599
100
AcDbEntity
  8
0
100
AcDbSpline
 62
7
  6
CONTINUOUS
 70
0
 71
3
 72
33
 73
29
 74
0
 42
0.0000001
 43
0.0000001
 44
0.0000000001
 40
0.0
 40
0.0
 40
0.0
 40
0.0
 40
0.0627521699
 40
0.0941452377
 40
0.1255287183
 40
0.1569035495
 40
0.1882719921
 40
0.2509714659
 40
0.282316908
 40
0.3136517581
 40
0.3449754441
 40
0.3762875278
 40
0.4388564822
 40
0.5013732436
 40
0.5326208095
 40
0.563855081
 40
0.5950762402
 40
0.6262844583
 40
0.6886455975
 40
0.7198181993
 40
0.7509803798
 40
0.7821329126
 40
0.8132767126
 40
0.8755237877
 40
0.9066478976
 40
0.9377678405
 40
0.9688847527
 40
1.0
 40
1.0
 40
1.0
 40
1.0
 10
11.0473183383
 20
3.7678980514
 30
0.0
 10
11.0270559885
 20
3.7678980514
 30
0.0
 10
10.99663024
 20
3.7693686087
 30
0.0
 10
10.9563812345
 20
3.7742432859
 30
0.0
 10
10.9264000932
 20
3.7793541982
 30
0.0
 10
10.8967083896
 20
3.7859031101
 30
0.0
 10
10.8576099941
 20
3.7965292665
 30
0.0
 10
10.8193318876
 20
3.809974925
 30
0.0
 10
10.7821973675
 20
3.826129883
 30
0.0
 10
10.7549709403
 20
3.8395763918
 30
0.0
 10
10.7284361092
 20
3.8543180813
 30
0.0
 10
10.6940779022
 20
3.8756489351
 30
0.0
 10
10.6531518783
 20
3.905378574
 30
0.0
 10
10.6153206423
 20
3.93892728
 30
0.0
 10
10.5871445565
 20
3.9678449388
 30
0.0
 10
10.5671026675
 20
3.9905276312
 30
0.0
 10
10.5481960624
 20
4.0141491091
 30
0.0
 10
10.5245732154
 20
4.0468072
 30
0.0
 10
10.5033771423
 20
4.0811479165
 30
0.0
 10
10.4847913729
 20
4.116878952
 30
0.0
 10
10.4721825989
 20
4.1443199787
 30
0.0
 10
10.4609336964
 20
4.1723359467
 30
0.0
 10
10.447792382
 20
4.2103553746
 30
0.0
 10
10.4374625959
 20
4.2492909848
 30
0.0
 10
10.4300393127
 20
4.2888093972
 30
0.0
 10
10.4259306044
 20
4.3186870186
 30
0.0
 10
10.4232921431
 20
4.3487255853
 30
0.0
 10
10.4225190865
 20
4.3688147611
 30
0.0
 10
10.42237897
 20
4.3788607358
 30
0.0
  0
SPLINE
  5
59A
100
AcDbEntity
  8
0
100
AcDbSpline
 62
7
  6
CONTINUOUS
 70
0
 71
3
 72
33
 73
29
 74
0
 42
0.0000001
 43
0.0000001
 44
0.0000000001
 40
0.0
 40
0.0
 40
0.0
 40
0.0
 40
0.0311152411
 40
0.0622321198
 40
0.093352008
 40
0.1244760484
 40
0.1867229583
 40
0.2178666751
 40
0.2490191297
 40
0.2801812377
 40
0.3113537753
 40
0.3737147998
 40
0.4049229615
 40
0.436144061
 40
0.4673782684
 40
0.4986257704
 40
0.5611424162
 40
0.6237113218
 40
0.6550234138
 40
0.6863471426
 40
0.7176820629
 40
0.7490276002
 40
0.8117272707
 40
0.8430958143
 40
0.8744707863
 40
0.9058544417
 40
0.9372476814
 40
1.0
 40
1.0
 40
1.0
 40
1.0
 10
11.6722577052
 20
4.3788608352
 30
0.0
 10
11.6721175873
 20
4.3688148616
 30
0.0
 10
11.671344536
 20
4.3487256968
 30
0.0
 10
11.6687061005
 20
4.3186871554
 30
0.0
 10
11.6645973905
 20
4.2888095827
 30
0.0
 10
11.6571741439
 20
4.2492912551
 30
0.0
 10
11.6468444059
 20
4.2103557342
 30
0.0
 10
11.6337031437
 20
4.1723363961
 30
0.0
 10
11.6224542967
 20
4.1443204844
 30
0.0
 10
11.6098455796
 20
4.1168795044
 30
0.0
 10
11.591259864
 20
4.0811485289
 30
0.0
 10
11.5700638951
 20
4.0468078327
 30
0.0
 10
11.5464411053
 20
4.0141497878
 30
0.0
 10
11.5275345866
 20
3.990528312
 30
0.0
 10
11.5074927631
 20
3.9678456382
 30
0.0
 10
11.4793167628
 20
3.9389280007
 30
0.0
 10
11.441485636
 20
3.9053792794
 30
0.0
 10
11.4005597258
 20
3.8756495588
 30
0.0
 10
11.3662015304
 20
3.8543186768
 30
0.0
 10
11.3396666918
 20
3.8395769164
 30
0.0
 10
11.3124402386
 20
3.8261302996
 30
0.0
 10
11.2753056073
 20
3.8099752955
 30
0.0
 10
11.2370274198
 20
3.7965294743
 30
0.0
 10
11.1979288859
 20
3.7859032684
 30
0.0
 10
11.1682370571
 20
3.7793542887
 30
0.0
 10
11.1382557602
 20
3.7742433304
 30
0.0
 10
11.0980065915
 20
3.76936864
 30
0.0
 10
11.067580738
 20
3.7678980514
 30
0.0
 10
11.0473183383
 20
3.7678980514
 30
0.0
  0
SPLINE
  5
59B
100
AcDbEntity
  8
0
100
AcDbSpline
 62
7
  6
CONTINUOUS
 70
0
 71
3
 72
33
 73
29
 74
0
 42
0.0000001
 43
0.0000001
 44
0.0000000001
 40
0.0
 40
0.0
 40
0.0
 40
0.0
 40
0.0309853241
 40
0.0620274992
 40
0.0931267381
 40
0.1242771298
 40
0.1866561794
 40
0.2491916228
 40
0.280529966
 40
0.3118835212
 40
0.3432413594
 40
0.3745991844
 40
0.405960149
 40
0.4373238214
 40
0.5000002003
 40
0.5626765836
 40
0.5940402546
 40
0.6254012156
 40
0.656759039
 40
0.6881168769
 40
0.7194704229
 40
0.7508087447
 40
0.8133441137
 40
0.8757230847
 40
0.906873429
 40
0.9379726134
 40
0.96901473
 40
1.0
 40
1.0
 40
1.0
 40
1.0
 10
10.5110495284
 20
4.219200741
 30
0.0
 10
10.5154925379
 20
4.2052587795
 30
0.0
 10
10.5254969841
 20
4.1776884058
 30
0.0
 10
10.5437848848
 20
4.1376435869
 30
0.0
 10
10.5652275467
 20
4.0991013871
 30
0.0
 10
10.5978220624
 20
4.0500359348
 30
0.0
 10
10.6457555856
 20
3.9936143782
 30
0.0
 10
10.7021504862
 20
3.94551483
 30
0.0
 10
10.7513679882
 20
3.9126391134
 30
0.0
 10
10.7901564461
 20
3.8909051681
 30
0.0
 10
10.8305396366
 20
3.8722824967
 30
0.0
 10
10.8722799577
 20
3.8569310049
 30
0.0
 10
10.9151011285
 20
3.8449053558
 30
0.0
 10
10.9732384433
 20
3.8333747903
 30
0.0
 10
11.0473406191
 20
3.8275012213
 30
0.0
 10
11.12144233
 20
3.8333806055
 30
0.0
 10
11.179578748
 20
3.8449156878
 30
0.0
 10
11.2223989782
 20
3.8569446792
 30
0.0
 10
11.2641380809
 20
3.8722994783
 30
0.0
 10
11.3045197914
 20
3.890925344
 30
0.0
 10
11.3433065368
 20
3.9126623134
 30
0.0
 10
11.3925214354
 20
3.9455418395
 30
0.0
 10
11.4489124597
 20
3.9936458129
 30
0.0
 10
11.4968414377
 20
4.0500711003
 30
0.0
 10
11.5294320596
 20
4.0991390358
 30
0.0
 10
11.5508716515
 20
4.1376828581
 30
0.0
 10
11.5691563189
 20
4.1777290675
 30
0.0
 10
11.5791585474
 20
4.2053001883
 30
0.0
 10
11.5836004467
 20
4.2192424768
 30
0.0
  0
SPLINE
  5
59C
100
AcDbEntity
  8
0
100
AcDbSpline
 62
9
  6
CONTINUOUS
 70
0
 71
3
 72
11
 73
7
 74
0
 42
0.0000001
 43
0.0000001
 44
0.0000000001
 40
0.0
 40
0.0
 40
0.0
 40
0.0
 40
0.2410767058
 40
0.4847786027
 40
0.7362008442
 40
1.0
 40
1.0
 40
1.0
 40
1.0
 10
10.3996870945
 20
5.8676740629
 30
0.0
 10
10.3991328605
 20
5.8748838326
 30
0.0
 10
10.3991313099
 20
5.8894926836
 30
0.0
 10
10.4025352751
 20
5.911393312
 30
0.0
 10
10.4093263178
 20
5.9331994552
 30
0.0
 10
10.4159086966
 20
5.9472369566
 30
0.0
 10
10.4196877789
 20
5.95418877
 30
0.0
  0
SPLINE
  5
59D
100
AcDbEntity
  8
0
100
AcDbSpline
 62
9
  6
CONTINUOUS
 70
0
 71
3
 72
29
 73
25
 74
0
 42
0.0000001
 43
0.0000001
 44
0.0000000001
 40
0.0
 40
0.0
 40
0.0
 40
0.0
 40
0.0312282072
 40
0.0623835933
 40
0.0934745316
 40
0.1245044276
 40
0.1554881013
 40
0.1864538333
 40
0.2174174591
 40
0.248388836
 40
0.279378834
 40
0.3104036753
 40
0.3414739707
 40
0.3725915127
 40
0.4349531134
 40
0.4974668439
 40
0.560118422
 40
0.5914867529
 40
0.622867961
 40
0.6856597037
 40
0.7484933032
 40
0.8113601955
 40
0.8742537458
 40
1.0
 40
1.0
 40
1.0
 40
1.0
 10
10.1594470436
 20
9.2791838711
 30
0.0
 10
10.1636175118
 20
9.2686311587
 30
0.0
 10
10.1723960285
 20
9.2477240607
 30
0.0
 10
10.1868281016
 20
9.2169689879
 30
0.0
 10
10.2024227132
 20
9.1868672032
 30
0.0
 10
10.2192355657
 20
9.1574982425
 30
0.0
 10
10.2373816119
 20
9.1289842644
 30
0.0
 10
10.256952167
 20
9.1014565363
 30
0.0
 10
10.2779048345
 20
9.0749718944
 30
0.0
 10
10.3001896526
 20
9.0495858456
 30
0.0
 10
10.3237651589
 20
9.0253631618
 30
0.0
 10
10.3485348286
 20
9.0023125457
 30
0.0
 10
10.3743930619
 20
8.9804194675
 30
0.0
 10
10.4102106493
 20
8.9527378515
 30
0.0
 10
10.4572554085
 20
8.9209932196
 30
0.0
 10
10.5166709875
 20
8.8875055746
 30
0.0
 10
10.568172082
 20
8.8632522489
 30
0.0
 10
10.6103011156
 20
8.8458778703
 30
0.0
 10
10.6529998192
 20
8.8298081465
 30
0.0
 10
10.7073034458
 20
8.8121972872
 30
0.0
 10
10.7736457111
 20
8.7950259988
 30
0.0
 10
10.84092264
 20
8.7817829983
 30
0.0
 10
10.9314861302
 20
8.7692856571
 30
0.0
 10
11.0001036058
 20
8.7656071595
 30
0.0
 10
11.0457939514
 20
8.7654882401
 30
0.0
  0
SPLINE
  5
59E
100
AcDbEntity
  8
0
100
AcDbSpline
 62
9
  6
CONTINUOUS
 70
0
 71
3
 72
16
 73
12
 74
0
 42
0.0000001
 43
0.0000001
 44
0.0000000001
 40
0.0
 40
0.0
 40
0.0
 40
0.0
 40
0.1246475126
 40
0.2493677385
 40
0.3117794355
 40
0.3742177929
 40
0.4991523782
 40
0.6242127584
 40
0.7493885069
 40
0.8746678826
 40
1.0
 40
1.0
 40
1.0
 40
1.0
 10
11.0473183386
 20
8.1388302094
 30
0.0
 10
11.0159917601
 20
8.1388302094
 30
0.0
 10
10.9532811026
 20
8.1418916161
 30
0.0
 10
10.8756278717
 20
8.1532739063
 30
0.0
 10
10.8143691187
 20
8.1668466923
 30
0.0
 10
10.753790145
 20
8.183390663
 30
0.0
 10
10.6796118651
 20
8.2095377631
 30
0.0
 10
10.5939436212
 20
8.2492554065
 30
0.0
 10
10.5123616916
 20
8.296984505
 30
0.0
 10
10.435542295
 20
8.352144588
 30
0.0
 10
10.3879059163
 20
8.3935086861
 30
0.0
 10
10.3650923714
 20
8.4152274828
 30
0.0
  0
SPLINE
  5
59F
100
AcDbEntity
  8
0
100
AcDbSpline
 62
9
  6
CONTINUOUS
 70
0
 71
3
 72
14
 73
10
 74
0
 42
0.0000001
 43
0.0000001
 44
0.0000000001
 40
0.0
 40
0.0
 40
0.0
 40
0.0
 40
0.0629521781
 40
0.1446021618
 40
0.2459819069
 40
0.3670513079
 40
0.5068020763
 40
0.6617560088
 40
1.0
 40
1.0
 40
1.0
 40
1.0
 10
10.2242599605
 20
8.5718633059
 30
0.0
 10
10.224539004
 20
8.5723336235
 30
0.0
 10
10.2253989835
 20
8.5732782973
 30
0.0
 10
10.2271335807
 20
8.5745348692
 30
0.0
 10
10.2294652509
 20
8.5757910158
 30
0.0
 10
10.2323704493
 20
8.577007955
 30
0.0
 10
10.2358002806
 20
8.5781487163
 30
0.0
 10
10.2411064278
 20
8.5795962544
 30
0.0
 10
10.2453114576
 20
8.5804482844
 30
0.0
 10
10.2482093181
 20
8.5809343091
 30
0.0
  0
SPLINE
  5
5A0
100
AcDbEntity
  8
0
100
AcDbSpline
 62
9
  6
CONTINUOUS
 70
0
 71
3
 72
17
 73
13
 74
0
 42
0.0000001
 43
0.0000001
 44
0.0000000001
 40
0.0
 40
0.0
 40
0.0
 40
0.0
 40
0.0607418952
 40
0.1217513178
 40
0.18316787
 40
0.244983674
 40
0.3694973962
 40
0.4947549339
 40
0.6205131464
 40
0.7466986386
 40
0.873256412
 40
1.0
 40
1.0
 40
1.0
 40
1.0
 10
11.9045422451
 20
9.3334121715
 30
0.0
 10
11.893361845
 20
9.3162794407
 30
0.0
 10
11.8698346196
 20
9.2826526552
 30
0.0
 10
11.8312419514
 20
9.2344709339
 30
0.0
 10
11.7893676356
 20
9.1886155435
 30
0.0
 10
11.7292755743
 20
9.1306578941
 30
0.0
 10
11.6470114203
 20
9.065028927
 30
0.0
 10
11.5389920911
 20
8.9986464171
 30
0.0
 10
11.4231635579
 20
8.9456939564
 30
0.0
 10
11.3013308311
 20
8.9070834213
 30
0.0
 10
11.1753651076
 20
8.8836956476
 30
0.0
 10
11.0899631424
 20
8.8784294824
 30
0.0
 10
11.047275527
 20
8.8784273082
 30
0.0
  0
SPLINE
  5
5A1
100
AcDbEntity
  8
0
100
AcDbSpline
 62
9
  6
CONTINUOUS
 70
0
 71
3
 72
14
 73
10
 74
0
 42
0.0000001
 43
0.0000001
 44
0.0000000001
 40
0.0
 40
0.0
 40
0.0
 40
0.0
 40
0.0662157962
 40
0.1493505994
 40
0.2506636013
 40
0.3701035015
 40
0.5068517326
 40
0.658990449
 40
1.0
 40
1.0
 40
1.0
 40
1.0
 10
10.2271281237
 20
8.5315211836
 30
0.0
 10
10.2274218304
 20
8.5320541218
 30
0.0
 10
10.2283230415
 20
8.5331204803
 30
0.0
 10
10.2301591929
 20
8.534523403
 30
0.0
 10
10.2325982385
 20
8.5358985999
 30
0.0
 10
10.2356105334
 20
8.5372191685
 30
0.0
 10
10.2391547047
 20
8.5384609204
 30
0.0
 10
10.2447230179
 20
8.5400506793
 30
0.0
 10
10.2491689889
 20
8.5409688916
 30
0.0
 10
10.2522588823
 20
8.5414917537
 30
0.0
  0
SPLINE
  5
5A2
100
AcDbEntity
  8
0
100
AcDbSpline
 62
9
  6
CONTINUOUS
 70
0
 71
3
 72
26
 73
22
 74
0
 42
0.0000001
 43
0.0000001
 44
0.0000000001
 40
0.0
 40
0.0
 40
0.0
 40
0.0
 40
0.0623829076
 40
0.0934865006
 40
0.1245351982
 40
0.1555401175
 40
0.1865118154
 40
0.2174680846
 40
0.2484334063
 40
0.2794272366
 40
0.3104591205
 40
0.3726320195
 40
0.4349863926
 40
0.4974965309
 40
0.5601448872
 40
0.6228737241
 40
0.6856664024
 40
0.748496913
 40
0.811360509
 40
0.8742570965
 40
1.0
 40
1.0
 40
1.0
 40
1.0
 10
11.9351906162
 20
9.2791830938
 30
0.0
 10
11.9267499562
 20
9.2581126436
 30
0.0
 10
11.913010333
 20
9.2269486058
 30
0.0
 10
11.8922011754
 20
9.1866843827
 30
0.0
 10
11.8752955751
 20
9.1572909805
 30
0.0
 10
11.8570420853
 20
9.1287718023
 30
0.0
 10
11.8374354223
 20
9.1012055353
 30
0.0
 10
11.8164667592
 20
9.0746772239
 30
0.0
 10
11.7941280083
 20
9.049281187
 30
0.0
 10
11.7705075167
 20
9.0250352879
 30
0.0
 10
11.7374171822
 20
8.9942371752
 30
0.0
 10
11.6932898618
 20
8.958654393
 30
0.0
 10
11.6367479775
 20
8.9206455202
 30
0.0
 10
11.5772224052
 20
8.8871690976
 30
0.0
 10
11.5153275481
 20
8.8580171374
 30
0.0
 10
11.4515644429
 20
8.8329520011
 30
0.0
 10
11.3862931243
 20
8.8119212248
 30
0.0
 10
11.3198344786
 20
8.7948330323
 30
0.0
 10
11.2524559018
 20
8.7816300515
 30
0.0
 10
11.1617721029
 20
8.7691248028
 30
0.0
 10
11.0930501382
 20
8.7654107276
 30
0.0
 10
11.0472982501
 20
8.7654733899
 30
0.0
  0
SPLINE
  5
5A3
100
AcDbEntity
  8
0
100
AcDbSpline
 62
9
  6
CONTINUOUS
 70
0
 71
3
 72
15
 73
11
 74
0
 42
0.0000001
 43
0.0000001
 44
0.0000000001
 40
0.0
 40
0.0
 40
0.0
 40
0.0
 40
0.0855438937
 40
0.1786283632
 40
0.2818310654
 40
0.3970442026
 40
0.5256237893
 40
0.6685399314
 40
0.8264937744
 40
1.0
 40
1.0
 40
1.0
 40
1.0
 10
10.2138774782
 20
8.3765030616
 30
0.0
 10
10.2138017884
 20
8.3777121391
 30
0.0
 10
10.2139249051
 20
8.3802593931
 30
0.0
 10
10.2148613996
 20
8.3841574436
 30
0.0
 10
10.2165407628
 20
8.3882520413
 30
0.0
 10
10.2189579674
 20
8.3925418002
 30
0.0
 10
10.2221122316
 20
8.39702756
 30
0.0
 10
10.226005047
 20
8.4017072247
 30
0.0
 10
10.2306382426
 20
8.4065773218
 30
0.0
 10
10.2340592366
 20
8.4097949093
 30
0.0
 10
10.2358863925
 20
8.411437781
 30
0.0
  0
SPLINE
  5
5A4
100
AcDbEntity
  8
0
100
AcDbSpline
 62
9
  6
CONTINUOUS
 70
0
 71
3
 72
18
 73
14
 74
0
 42
0.0000001
 43
0.0000001
 44
0.0000000001
 40
0.0
 40
0.0
 40
0.0
 40
0.0
 40
0.0308139507
 40
0.063428585
 40
0.0989812775
 40
0.1383550021
 40
0.1822037968
 40
0.2310049162
 40
0.3446995699
 40
0.480868906
 40
0.6376108219
 40
0.8118005582
 40
1.0
 40
1.0
 40
1.0
 40
1.0
 10
11.9045414324
 20
9.3334109261
 30
0.0
 10
11.9041743931
 20
9.3328484633
 30
0.0
 10
11.9035527002
 20
9.3315983465
 30
0.0
 10
11.9030232412
 20
9.3294928361
 30
0.0
 10
11.9028789521
 20
9.3271419348
 30
0.0
 10
11.9031194905
 20
9.3245560028
 30
0.0
 10
11.9037462422
 20
9.321741016
 30
0.0
 10
11.905178311
 20
9.3174706818
 30
0.0
 10
11.9080708667
 20
9.3116082263
 30
0.0
 10
11.9129297513
 20
9.304181769
 30
0.0
 10
11.9191952691
 20
9.2961455308
 30
0.0
 10
11.9267069526
 20
9.2876759192
 30
0.0
 10
11.9322501923
 20
9.2820439115
 30
0.0
 10
11.9351919071
 20
9.2791850723
 30
0.0
  0
LINE
  5
5A5
100
AcDbEntity
  8
0
100
AcDbLine
 62
9
  6
CONTINUOUS
 10
11.0472982536
 20
8.7654733456
 11
11.0459253755
 21
8.7654871306
  0
SPLINE
  5
5A6
100
AcDbEntity
  8
0
100
AcDbSpline
 62
9
  6
CONTINUOUS
 70
0
 71
3
 72
15
 73
11
 74
0
 42
0.0000001
 43
0.0000001
 44
0.0000000001
 40
0.0
 40
0.0
 40
0.0
 40
0.0
 40
0.0804163892
 40
0.1694892445
 40
0.2701575099
 40
0.3844584933
 40
0.5137778566
 40
0.6590646945
 40
0.8209812539
 40
1.0
 40
1.0
 40
1.0
 40
1.0
 10
10.2032047272
 20
8.5416134607
 30
0.0
 10
10.2031370556
 20
8.542628612
 30
0.0
 10
10.203268937
 20
8.5447911145
 30
0.0
 10
10.2041816975
 20
8.5481033751
 30
0.0
 10
10.2057979632
 20
8.5516088836
 30
0.0
 10
10.2081134632
 20
8.5553087881
 30
0.0
 10
10.2111286164
 20
8.55920509
 30
0.0
 10
10.2148458492
 20
8.5632957729
 30
0.0
 10
10.2192675006
 20
8.5675772515
 30
0.0
 10
10.2225213284
 20
8.5704118185
 30
0.0
 10
10.2242599583
 20
8.5718633358
 30
0.0
  0
SPLINE
  5
5A7
100
AcDbEntity
  8
0
100
AcDbSpline
 62
9
  6
CONTINUOUS
 70
0
 71
3
 72
17
 73
13
 74
0
 42
0.0000001
 43
0.0000001
 44
0.0000000001
 40
0.0
 40
0.0
 40
0.0
 40
0.0
 40
0.1267159323
 40
0.2532666665
 40
0.3794559666
 40
0.5052220992
 40
0.6304876619
 40
0.7550032616
 40
0.8168201124
 40
0.8782391601
 40
0.9392528918
 40
1.0
 40
1.0
 40
1.0
 40
1.0
 10
11.0452373509
 20
8.8784335991
 30
0.0
 10
11.0026486764
 20
8.8785161005
 30
0.0
 10
10.9174479758
 20
8.8839294973
 30
0.0
 10
10.7917973276
 20
8.9074755484
 30
0.0
 10
10.6702718791
 20
8.9461674257
 30
0.0
 10
10.5547385976
 20
8.9991365549
 30
0.0
 10
10.4470020848
 20
9.0654803998
 30
0.0
 10
10.3649496317
 20
9.1310243721
 30
0.0
 10
10.3050074491
 20
9.1888874701
 30
0.0
 10
10.2632337462
 20
9.2346616573
 30
0.0
 10
10.2247297278
 20
9.2827534267
 30
0.0
 10
10.2012525188
 20
9.3163138216
 30
0.0
 10
10.1900944024
 20
9.3334119304
 30
0.0
  0
LINE
  5
5A8
100
AcDbEntity
  8
0
100
AcDbLine
 62
9
  6
CONTINUOUS
 10
11.0452552534
 20
8.8813765371
 11
11.0452374421
 21
8.8784329804
  0
LINE
  5
5A9
100
AcDbEntity
  8
0
100
AcDbLine
 62
9
  6
CONTINUOUS
 10
11.0452372837
 20
8.8784329756
 11
11.0459253619
 21
8.7654890933
  0
SPLINE
  5
5AA
100
AcDbEntity
  8
0
100
AcDbSpline
 62
9
  6
CONTINUOUS
 70
0
 71
3
 72
19
 73
15
 74
0
 42
0.0000001
 43
0.0000001
 44
0.0000000001
 40
0.0
 40
0.0
 40
0.0
 40
0.0
 40
0.0019743042
 40
0.0056091043
 40
0.0110180864
 40
0.0182454145
 40
0.0273402186
 40
0.0513296606
 40
0.0833846611
 40
0.1239072913
 40
0.231979943
 40
0.3780923882
 40
0.5589135335
 40
1.0
 40
1.0
 40
1.0
 40
1.0
 10
11.9757541965
 20
9.3573694619
 30
0.0
 10
11.9757525594
 20
9.357354226
 30
0.0
 10
11.9757203457
 20
9.3574459074
 30
0.0
 10
11.9757106627
 20
9.3574931843
 30
0.0
 10
11.9756726806
 20
9.3576322853
 30
0.0
 10
11.9756354025
 20
9.3577892804
 30
0.0
 10
11.9755637169
 20
9.358097622
 30
0.0
 10
11.9754591603
 20
9.3585897469
 30
0.0
 10
11.9753150231
 20
9.3593264537
 30
0.0
 10
11.9750681164
 20
9.3607061331
 30
0.0
 10
11.9747173488
 20
9.3629671987
 30
0.0
 10
11.9742829734
 20
9.3663154853
 30
0.0
 10
11.9736022589
 20
9.3722376947
 30
0.0
 10
11.9731207849
 20
9.377040788
 30
0.0
 10
11.9727944241
 20
9.3804487027
 30
0.0
  0
SPLINE
  5
5AB
100
AcDbEntity
  8
0
100
AcDbSpline
 62
9
  6
CONTINUOUS
 70
0
 71
3
 72
13
 73
9
 74
0
 42
0.0000001
 43
0.0000001
 44
0.0000000001
 40
0.0
 40
0.0
 40
0.0
 40
0.0
 40
0.2509427721
 40
0.376156617
 40
0.501209404
 40
0.6261000847
 40
0.7508276475
 40
1.0
 40
1.0
 40
1.0
 40
1.0
 10
10.1299945817
 20
9.3781395737
 30
0.0
 10
10.1256933719
 20
9.3952781457
 30
0.0
 10
10.1191011622
 20
9.420932828
 30
0.0
 10
10.1098953306
 20
9.4550039745
 30
0.0
 10
10.1027707747
 20
9.4804420586
 30
0.0
 10
10.095439428
 20
9.5057856236
 30
0.0
 10
10.0854106084
 20
9.5394458046
 30
0.0
 10
10.0775972161
 20
9.5645892555
 30
0.0
 10
10.0722572438
 20
9.5813022942
 30
0.0
  0
SPLINE
  5
5AC
100
AcDbEntity
  8
0
100
AcDbSpline
 62
9
  6
CONTINUOUS
 70
0
 71
3
 72
9
 73
5
 74
0
 42
0.0000001
 43
0.0000001
 44
0.0000000001
 40
0.0
 40
0.0
 40
0.0
 40
0.0
 40
0.4999213781
 40
1.0
 40
1.0
 40
1.0
 40
1.0
 10
10.4469965446
 20
5.9647990632
 30
0.0
 10
10.4161262346
 20
6.3741691505
 30
0.0
 10
10.3539304093
 20
7.1930044208
 30
0.0
 10
10.2921649266
 20
8.0118722445
 30
0.0
 10
10.2613510164
 20
8.4213760739
 30
0.0
  0
SPLINE
  5
5AD
100
AcDbEntity
  8
0
100
AcDbSpline
 62
9
  6
CONTINUOUS
 70
0
 71
3
 72
18
 73
14
 74
0
 42
0.0000001
 43
0.0000001
 44
0.0000000001
 40
0.0
 40
0.0
 40
0.0
 40
0.0
 40
0.0309765975
 40
0.0637551907
 40
0.099483394
 40
0.1390441326
 40
0.1830843481
 40
0.232070023
 40
0.3460579553
 40
0.4823295471
 40
0.6389171678
 40
0.8126397237
 40
1.0
 40
1.0
 40
1.0
 40
1.0
 10
10.190091638
 20
9.3334112085
 30
0.0
 10
10.1904606399
 20
9.3328458038
 30
0.0
 10
10.1910848013
 20
9.3315887365
 30
0.0
 10
10.1916134956
 20
9.3294716127
 30
0.0
 10
10.1917535923
 20
9.3271089095
 30
0.0
 10
10.1915064544
 20
9.3245114794
 30
0.0
 10
10.1908715859
 20
9.3216857712
 30
0.0
 10
10.189427766
 20
9.3174040821
 30
0.0
 10
10.186522758
 20
9.311533913
 30
0.0
 10
10.1816550494
 20
9.3041071563
 30
0.0
 10
10.1753920497
 20
9.2960835657
 30
0.0
 10
10.1678989533
 20
9.2876403097
 30
0.0
 10
10.1623754873
 20
9.2820290098
 30
0.0
 10
10.1594470866
 20
9.279182791
 30
0.0
  0
SPLINE
  5
5AE
100
AcDbEntity
  8
0
100
AcDbSpline
 62
9
  6
CONTINUOUS
 70
0
 71
3
 72
13
 73
9
 74
0
 42
0.0000001
 43
0.0000001
 44
0.0000000001
 40
0.0
 40
0.0
 40
0.0
 40
0.0
 40
0.1376419616
 40
0.232756683
 40
0.3475182139
 40
0.4821212794
 40
0.6362046043
 40
1.0
 40
1.0
 40
1.0
 40
1.0
 10
10.121841984
 20
9.3804515633
 30
0.0
 10
10.121993009
 20
9.3800814933
 30
0.0
 10
10.1225634583
 20
9.3796148664
 30
0.0
 10
10.1234684587
 20
9.3791933925
 30
0.0
 10
10.1244250305
 20
9.3788813806
 30
0.0
 10
10.1255665304
 20
9.3786187209
 30
0.0
 10
10.1274382484
 20
9.3783147353
 30
0.0
 10
10.1289395857
 20
9.3781929792
 30
0.0
 10
10.1299946851
 20
9.3781399683
 30
0.0
  0
SPLINE
  5
5AF
100
AcDbEntity
  8
0
100
AcDbSpline
 62
9
  6
CONTINUOUS
 70
0
 71
3
 72
15
 73
11
 74
0
 42
0.0000001
 43
0.0000001
 44
0.0000000001
 40
0.0
 40
0.0
 40
0.0
 40
0.0
 40
0.0170394222
 40
0.0396636704
 40
0.1038483346
 40
0.1943075718
 40
0.3109082347
 40
0.4527004434
 40
0.6169645633
 40
1.0
 40
1.0
 40
1.0
 40
1.0
 10
10.1337571654
 20
9.3125950662
 30
0.0
 10
10.1338055222
 20
9.3125402954
 30
0.0
 10
10.1339470011
 20
9.3124396186
 30
0.0
 10
10.1343588853
 20
9.3122678297
 30
0.0
 10
10.135109962
 20
9.3121189499
 30
0.0
 10
10.1362674104
 20
9.3120099893
 30
0.0
 10
10.1377640173
 20
9.3119682179
 30
0.0
 10
10.1395762428
 20
9.3119949499
 30
0.0
 10
10.1425284864
 20
9.3121253844
 30
0.0
 10
10.1448688316
 20
9.3123074975
 30
0.0
 10
10.1465045294
 20
9.3124558585
 30
0.0
  0
SPLINE
  5
5B0
100
AcDbEntity
  8
0
100
AcDbSpline
 62
9
  6
CONTINUOUS
 70
0
 71
3
 72
11
 73
7
 74
0
 42
0.0000001
 43
0.0000001
 44
0.0000000001
 40
0.0
 40
0.0
 40
0.0
 40
0.0
 40
0.251769333
 40
0.5034796019
 40
0.7534460295
 40
1.0
 40
1.0
 40
1.0
 40
1.0
 10
10.1337571894
 20
9.3125951031
 30
0.0
 10
10.1443959921
 20
9.25085299
 30
0.0
 10
10.1642496388
 20
9.1271329444
 30
0.0
 10
10.1894630651
 20
8.941324291
 30
0.0
 10
10.2097838219
 20
8.7562212028
 30
0.0
 10
10.2200083929
 20
8.6330700514
 30
0.0
 10
10.2242599974
 20
8.5718633684
 30
0.0
  0
SPLINE
  5
5B1
100
AcDbEntity
  8
0
100
AcDbSpline
 62
9
  6
CONTINUOUS
 70
0
 71
3
 72
11
 73
7
 74
0
 42
0.0000001
 43
0.0000001
 44
0.0000000001
 40
0.0
 40
0.0
 40
0.0
 40
0.0
 40
0.2535060053
 40
0.5056005191
 40
0.7548938671
 40
1.0
 40
1.0
 40
1.0
 40
1.0
 10
11.0473183383
 20
5.987884023
 30
0.0
 10
10.9965425296
 20
5.987884023
 30
0.0
 10
10.8952705328
 20
5.9868298165
 30
0.0
 10
10.7441323784
 20
5.9821202256
 30
0.0
 10
10.5948065026
 20
5.9743235327
 30
0.0
 10
10.4960412158
 20
5.9670188919
 30
0.0
 10
10.4471264246
 20
5.9628354245
 30
0.0
  0
SPLINE
  5
5B2
100
AcDbEntity
  8
0
100
AcDbSpline
 62
9
  6
CONTINUOUS
 70
0
 71
3
 72
14
 73
10
 74
0
 42
0.0000001
 43
0.0000001
 44
0.0000000001
 40
0.0
 40
0.0
 40
0.0
 40
0.0
 40
0.0630790172
 40
0.1449943758
 40
0.2469008059
 40
0.36878107
 40
0.5095095747
 40
0.665010189
 40
1.0
 40
1.0
 40
1.0
 40
1.0
 10
10.4196876703
 20
5.954189034
 30
0.0
 10
10.4199772437
 20
5.9547467213
 30
0.0
 10
10.4209189368
 20
5.9558781987
 30
0.0
 10
10.422871679
 20
5.9573849167
 30
0.0
 10
10.4255298754
 20
5.9588892532
 30
0.0
 10
10.4288655953
 20
5.9603359416
 30
0.0
 10
10.432814434
 20
5.9616725087
 30
0.0
 10
10.4388819537
 20
5.963331419
 30
0.0
 10
10.4436840602
 20
5.9642790121
 30
0.0
 10
10.4469807912
 20
5.9647966733
 30
0.0
  0
SPLINE
  5
5B3
100
AcDbEntity
  8
0
100
AcDbSpline
 62
9
  6
CONTINUOUS
 70
0
 71
3
 72
11
 73
7
 74
0
 42
0.0000001
 43
0.0000001
 44
0.0000000001
 40
0.0
 40
0.0
 40
0.0
 40
0.0
 40
0.2500279641
 40
0.5000396832
 40
0.7500312634
 40
1.0
 40
1.0
 40
1.0
 40
1.0
 10
10.4196781074
 20
5.9541705012
 30
0.0
 10
10.4041516229
 20
6.1589502854
 30
0.0
 10
10.3730998709
 20
6.5684965663
 30
0.0
 10
10.3267795823
 20
7.1828122004
 30
0.0
 10
10.2809203477
 20
7.7971136721
 30
0.0
 10
10.2507917085
 20
8.2066636741
 30
0.0
 10
10.2358861668
 20
8.411440815
 30
0.0
  0
SPLINE
  5
5B4
100
AcDbEntity
  8
0
100
AcDbSpline
 62
9
  6
CONTINUOUS
 70
0
 71
3
 72
14
 73
10
 74
0
 42
0.0000001
 43
0.0000001
 44
0.0000000001
 40
0.0
 40
0.0
 40
0.0
 40
0.0
 40
0.0653875963
 40
0.1491564546
 40
0.2521296688
 40
0.374082486
 40
0.5138351047
 40
0.6677441482
 40
1.0
 40
1.0
 40
1.0
 40
1.0
 10
10.2358861668
 20
8.411440815
 30
0.0
 10
10.2361925904
 20
8.4119647429
 30
0.0
 10
10.2371253803
 20
8.4130179157
 30
0.0
 10
10.2390043273
 20
8.4144233094
 30
0.0
 10
10.2415145654
 20
8.4158205623
 30
0.0
 10
10.2446258016
 20
8.4171644328
 30
0.0
 10
10.2482801317
 20
8.4184110028
 30
0.0
 10
10.2538796364
 20
8.4199678635
 30
0.0
 10
10.2583084658
 20
8.4208712549
 30
0.0
 10
10.261351018
 20
8.4213760515
 30
0.0
  0
SPLINE
  5
5B5
100
AcDbEntity
  8
0
100
AcDbSpline
 62
7
  6
CONTINUOUS
 70
0
 71
3
 72
11
 73
7
 74
0
 42
0.0000001
 43
0.0000001
 44
0.0000000001
 40
0.0
 40
0.0
 40
0.0
 40
0.0
 40
0.2767900671
 40
0.5262503256
 40
0.7620865059
 40
1.0
 40
1.0
 40
1.0
 40
1.0
 10
10.4876417524
 20
4.4565918004
 30
0.0
 10
10.4861912128
 20
4.4575522364
 30
0.0
 10
10.4835839435
 20
4.4596337276
 30
0.0
 10
10.4806117074
 20
4.4634562052
 30
0.0
 10
10.4788821361
 20
4.467724794
 30
0.0
 10
10.478588718
 20
4.4707321568
 30
0.0
 10
10.4786317642
 20
4.4722268742
 30
0.0
  0
SPLINE
  5
5B6
100
AcDbEntity
  8
0
100
AcDbSpline
 62
9
  6
CONTINUOUS
 70
0
 71
3
 72
14
 73
10
 74
0
 42
0.0000001
 43
0.0000001
 44
0.0000000001
 40
0.0
 40
0.0
 40
0.0
 40
0.0
 40
0.0630545983
 40
0.1449554943
 40
0.2468542721
 40
0.3687271392
 40
0.5094515864
 40
0.6649597974
 40
1.0
 40
1.0
 40
1.0
 40
1.0
 10
10.4198372257
 20
5.9522226119
 30
0.0
 10
10.4201262898
 20
5.9527803094
 30
0.0
 10
10.4210673671
 20
5.9539119314
 30
0.0
 10
10.4230194311
 20
5.9554188617
 30
0.0
 10
10.4256771168
 20
5.956923687
 30
0.0
 10
10.4290123907
 20
5.9583711735
 30
0.0
 10
10.4329609993
 20
5.9597086843
 30
0.0
 10
10.4390288964
 20
5.9613689386
 30
0.0
 10
10.4438315661
 20
5.9623174218
 30
0.0
 10
10.4471288134
 20
5.9628356409
 30
0.0
  0
SPLINE
  5
5B7
100
AcDbEntity
  8
0
100
AcDbSpline
 62
9
  6
CONTINUOUS
 70
0
 71
3
 72
16
 73
12
 74
0
 42
0.0000001
 43
0.0000001
 44
0.0000000001
 40
0.0
 40
0.0
 40
0.0
 40
0.0
 40
0.125897574
 40
0.2520373235
 40
0.3781822873
 40
0.5040761699
 40
0.6294746906
 40
0.7541067889
 40
0.816047505
 40
0.877694782
 40
1.0
 40
1.0
 40
1.0
 40
1.0
 10
10.5779258612
 20
4.5188219176
 30
0.0
 10
10.5716786288
 20
4.579349892
 30
0.0
 10
10.5593066304
 20
4.7005361858
 30
0.0
 10
10.5411337981
 20
4.882415883
 30
0.0
 10
10.5234284192
 20
5.0643399475
 30
0.0
 10
10.50640156
 20
5.2459694261
 30
0.0
 10
10.4904155536
 20
5.4269594622
 30
0.0
 10
10.4777274858
 20
5.57720868
 30
0.0
 10
10.4679217799
 20
5.6967784426
 30
0.0
 10
10.4584043917
 20
5.8152432682
 30
0.0
 10
10.4515598003
 20
5.9038886922
 30
0.0
 10
10.4471288109
 20
5.9628356286
 30
0.0
  0
SPLINE
  5
5B8
100
AcDbEntity
  8
0
100
AcDbSpline
 62
9
  6
CONTINUOUS
 70
0
 71
3
 72
11
 73
7
 74
0
 42
0.0000001
 43
0.0000001
 44
0.0000000001
 40
0.0
 40
0.0
 40
0.0
 40
0.0
 40
0.2459122442
 40
0.4958989733
 40
0.7478919904
 40
1.0
 40
1.0
 40
1.0
 40
1.0
 10
10.4198372065
 20
5.9522225718
 30
0.0
 10
10.4287841816
 20
5.8345653096
 30
0.0
 10
10.4478418157
 20
5.5973783996
 30
0.0
 10
10.47882684
 20
5.2398520285
 30
0.0
 10
10.5128015662
 20
4.879611488
 30
0.0
 10
10.5365476651
 20
4.6388948611
 30
0.0
 10
10.5486392028
 20
4.5185307986
 30
0.0
  0
LINE
  5
5B9
100
AcDbEntity
  8
0
100
AcDbLine
 62
9
  6
CONTINUOUS
 10
10.5490581255
 20
4.5143484864
 11
10.5486389956
 21
4.5185308409
  0
SPLINE
  5
5BA
100
AcDbEntity
  8
0
100
AcDbSpline
 62
9
  6
CONTINUOUS
 70
0
 71
3
 72
15
 73
11
 74
0
 42
0.0000001
 43
0.0000001
 44
0.0000000001
 40
0.0
 40
0.0
 40
0.0
 40
0.0
 40
0.0257631889
 40
0.0574949788
 40
0.1383420253
 40
0.241324334
 40
0.3650616718
 40
0.5075249386
 40
0.6642412273
 40
1.0
 40
1.0
 40
1.0
 40
1.0
 10
10.5486392407
 20
4.5185307922
 30
0.0
 10
10.5488841549
 20
4.5184714403
 30
0.0
 10
10.549437061
 20
4.5183654252
 30
0.0
 10
10.5507782157
 20
4.5181829907
 30
0.0
 10
10.5528822331
 20
4.5180233616
 30
0.0
 10
10.5558893927
 20
4.5179231789
 30
0.0
 10
10.5595011306
 20
4.5179176587
 30
0.0
 10
10.5636370757
 20
4.518013456
 30
0.0
 10
10.5698426746
 20
4.5182694381
 30
0.0
 10
10.5746509653
 20
4.5185743277
 30
0.0
 10
10.577925825
 20
4.5188222658
 30
0.0
  0
SPLINE
  5
5BB
100
AcDbEntity
  8
0
100
AcDbSpline
 62
9
  6
CONTINUOUS
 70
0
 71
3
 72
21
 73
17
 74
0
 42
0.0000001
 43
0.0000001
 44
0.0000000001
 40
0.0
 40
0.0
 40
0.0
 40
0.0
 40
0.0620069685
 40
0.1239863512
 40
0.1862587043
 40
0.2487884381
 40
0.3113643737
 40
0.3739958999
 40
0.4366886895
 40
0.499441648
 40
0.624905318
 40
0.7502433279
 40
0.8128849092
 40
0.8754148178
 40
0.9378121609
 40
1.0
 40
1.0
 40
1.0
 40
1.0
 10
11.0473183383
 20
4.0426777961
 30
0.0
 10
11.0325136213
 20
4.0426776634
 30
0.0
 10
11.0028709045
 20
4.044970988
 30
0.0
 10
10.9593239794
 20
4.0545540728
 30
0.0
 10
10.9171696892
 20
4.0694070063
 30
0.0
 10
10.8767295262
 20
4.0887107563
 30
0.0
 10
10.8382104715
 20
4.1117505282
 30
0.0
 10
10.8017846079
 20
4.1380236837
 30
0.0
 10
10.7674932364
 20
4.167084874
 30
0.0
 10
10.7247197146
 20
4.2090874031
 30
0.0
 10
10.6768220079
 20
4.2669533971
 30
0.0
 10
10.6375409086
 20
4.3309793902
 30
0.0
 10
10.6120705702
 20
4.3851529648
 30
0.0
 10
10.596394484
 20
4.4271663811
 30
0.0
 10
10.5846495017
 20
4.470337699
 30
0.0
 10
10.5798671489
 20
4.4997722375
 30
0.0
 10
10.5783628248
 20
4.5145437366
 30
0.0
  0
SPLINE
  5
5BC
100
AcDbEntity
  8
0
100
AcDbSpline
 62
9
  6
CONTINUOUS
 70
0
 71
3
 72
22
 73
18
 74
0
 42
0.0000001
 43
0.0000001
 44
0.0000000001
 40
0.0
 40
0.0
 40
0.0
 40
0.0
 40
0.0313002154
 40
0.0626110749
 40
0.0939248781
 40
0.1252281343
 40
0.1877817771
 40
0.2503257779
 40
0.312848269
 40
0.3753616046
 40
0.4378585337
 40
0.5003363737
 40
0.5628116062
 40
0.6252909482
 40
0.7501823408
 40
0.8750874121
 40
1.0
 40
1.0
 40
1.0
 40
1.0
 10
11.0473183286
 20
4.0164741322
 30
0.0
 10
11.039402878
 20
4.0164751724
 30
0.0
 10
11.0235633958
 20
4.0170535746
 30
0.0
 10
10.9999315418
 20
4.0196226677
 30
0.0
 10
10.976531898
 20
4.0238121117
 30
0.0
 10
10.9457821409
 20
4.0314014764
 30
0.0
 10
10.9083220268
 20
4.0443927442
 30
0.0
 10
10.8653493684
 20
4.0646860943
 30
0.0
 10
10.8245111856
 20
4.0889478497
 30
0.0
 10
10.785926067
 20
4.1166126903
 30
0.0
 10
10.749658501
 20
4.1472240405
 30
0.0
 10
10.7157496864
 20
4.1804064871
 30
0.0
 10
10.6842464552
 20
4.215875486
 30
0.0
 10
10.6456238305
 20
4.2659287381
 30
0.0
 10
10.6039738818
 20
4.3333679741
 30
0.0
 10
10.5664807914
 20
4.4207803808
 30
0.0
 10
10.5523675149
 20
4.4829333589
 30
0.0
 10
10.5490584064
 20
4.5143484588
 30
0.0
  0
SPLINE
  5
5BD
100
AcDbEntity
  8
0
100
AcDbSpline
 62
9
  6
CONTINUOUS
 70
0
 71
3
 72
15
 73
11
 74
0
 42
0.0000001
 43
0.0000001
 44
0.0000000001
 40
0.0
 40
0.0
 40
0.0
 40
0.0
 40
0.0259025867
 40
0.0577486315
 40
0.1387585829
 40
0.2418252491
 40
0.3655725893
 40
0.5079761272
 40
0.6645772319
 40
1.0
 40
1.0
 40
1.0
 40
1.0
 10
10.5490584064
 20
4.5143484588
 30
0.0
 10
10.5493042536
 20
4.5142864576
 30
0.0
 10
10.549859087
 20
4.5141751819
 30
0.0
 10
10.5512038772
 20
4.5139822911
 30
0.0
 10
10.5533120198
 20
4.513810044
 30
0.0
 10
10.5563233449
 20
4.5136959031
 30
0.0
 10
10.5599379492
 20
4.5136771962
 30
0.0
 10
10.5640754658
 20
4.513761087
 30
0.0
 10
10.5702810187
 20
4.5140026846
 30
0.0
 10
10.5750888159
 20
4.5142998
 30
0.0
 10
10.5783629933
 20
4.5145437308
 30
0.0
  0
SPLINE
  5
5BE
100
AcDbEntity
  8
0
100
AcDbSpline
 62
9
  6
CONTINUOUS
 70
0
 71
3
 72
21
 73
17
 74
0
 42
0.0000001
 43
0.0000001
 44
0.0000000001
 40
0.0
 40
0.0
 40
0.0
 40
0.0
 40
0.0621917856
 40
0.124594556
 40
0.1871292241
 40
0.2497734793
 40
0.375108195
 40
0.5005645108
 40
0.563315346
 40
0.626006934
 40
0.6886374805
 40
0.7512124017
 40
0.813741019
 40
0.8760125076
 40
0.937991797
 40
1.0
 40
1.0
 40
1.0
 40
1.0
 10
11.5162726937
 20
4.5145438288
 30
0.0
 10
11.5147682679
 20
4.4997714294
 30
0.0
 10
11.5099854764
 20
4.4703347615
 30
0.0
 10
11.4982393109
 20
4.427160353
 30
0.0
 10
11.4825609476
 20
4.385144599
 30
0.0
 10
11.4570887046
 20
4.3309710185
 30
0.0
 10
11.4178085759
 20
4.2669469536
 30
0.0
 10
11.3699123555
 20
4.2090838972
 30
0.0
 10
11.3271403822
 20
4.1670836528
 30
0.0
 10
11.2928497246
 20
4.1380233853
 30
0.0
 10
11.2564244805
 20
4.1117508692
 30
0.0
 10
11.2179061583
 20
4.0887115466
 30
0.0
 10
11.1774668123
 20
4.0694080083
 30
0.0
 10
11.135313127
 20
4.0545551683
 30
0.0
 10
11.0917662318
 20
4.0449721172
 30
0.0
 10
11.0621233138
 20
4.0426788363
 30
0.0
 10
11.0473183383
 20
4.0426789435
 30
0.0
  0
LINE
  5
5BF
100
AcDbEntity
  8
0
100
AcDbLine
 62
9
  6
CONTINUOUS
 10
11.5459976819
 20
4.518530841
 11
11.5455785438
 21
4.5143484004
  0
SPLINE
  5
5C0
100
AcDbEntity
  8
0
100
AcDbSpline
 62
9
  6
CONTINUOUS
 70
0
 71
3
 72
15
 73
11
 74
0
 42
0.0000001
 43
0.0000001
 44
0.0000000001
 40
0.0
 40
0.0
 40
0.0
 40
0.0
 40
0.0259000123
 40
0.0577428501
 40
0.1387454225
 40
0.2418050562
 40
0.3655477121
 40
0.507950614
 40
0.6645555687
 40
1.0
 40
1.0
 40
1.0
 40
1.0
 10
11.5455782962
 20
4.5143483488
 30
0.0
 10
11.5453324728
 20
4.5142863556
 30
0.0
 10
11.5447776943
 20
4.5141750921
 30
0.0
 10
11.5434330308
 20
4.5139822184
 30
0.0
 10
11.5413250589
 20
4.5138099811
 30
0.0
 10
11.5383139183
 20
4.5136958447
 30
0.0
 10
11.534699432
 20
4.5136771395
 30
0.0
 10
11.5305619266
 20
4.513761034
 30
0.0
 10
11.5243561258
 20
4.514002649
 30
0.0
 10
11.5195480762
 20
4.5142997917
 30
0.0
 10
11.5162736855
 20
4.5145437491
 30
0.0
  0
SPLINE
  5
5C1
100
AcDbEntity
  8
0
100
AcDbSpline
 62
9
  6
CONTINUOUS
 70
0
 71
3
 72
11
 73
7
 74
0
 42
0.0000001
 43
0.0000001
 44
0.0000000001
 40
0.0
 40
0.0
 40
0.0
 40
0.0
 40
0.209912469
 40
0.444462767
 40
0.7070475985
 40
1.0
 40
1.0
 40
1.0
 40
1.0
 10
11.6069949241
 20
4.4565918004
 30
0.0
 10
11.6039675057
 20
4.4617094753
 30
0.0
 10
11.596564523
 20
4.4719695614
 30
0.0
 10
11.5826748505
 20
4.4864620378
 30
0.0
 10
11.5654773622
 20
4.5008411687
 30
0.0
 10
11.5525458682
 20
4.5098411256
 30
0.0
 10
11.5455782934
 20
4.5143483205
 30
0.0
  0
SPLINE
  5
5C2
100
AcDbEntity
  8
0
100
AcDbSpline
 62
9
  6
CONTINUOUS
 70
0
 71
3
 72
11
 73
7
 74
0
 42
0.0000001
 43
0.0000001
 44
0.0000000001
 40
0.0
 40
0.0
 40
0.0
 40
0.0
 40
0.2521081515
 40
0.5041006643
 40
0.754087055
 40
1.0
 40
1.0
 40
1.0
 40
1.0
 10
11.5459974788
 20
4.5185307997
 30
0.0
 10
11.5580890067
 20
4.6388949312
 30
0.0
 10
11.5818349676
 20
4.8796113951
 30
0.0
 10
11.615810281
 20
5.2398515423
 30
0.0
 10
11.6467947214
 20
5.5973778954
 30
0.0
 10
11.6658524705
 20
5.8345649686
 30
0.0
 10
11.6747994739
 20
5.9522225654
 30
0.0
  0
SPLINE
  5
5C3
100
AcDbEntity
  8
0
100
AcDbSpline
 62
9
  6
CONTINUOUS
 70
0
 71
3
 72
19
 73
15
 74
0
 42
0.0000001
 43
0.0000001
 44
0.0000000001
 40
0.0
 40
0.0
 40
0.0
 40
0.0
 40
0.1258964919
 40
0.2520370013
 40
0.3151256219
 40
0.3781835363
 40
0.4411785412
 40
0.5040789925
 40
0.5668554415
 40
0.6294770748
 40
0.6919074324
 40
0.7541101817
 40
0.8776974834
 40
1.0
 40
1.0
 40
1.0
 40
1.0
 10
11.5167108516
 20
4.518822264
 30
0.0
 10
11.522957687
 20
4.5793497518
 30
0.0
 10
11.5353301699
 20
4.7005358304
 30
0.0
 10
11.5504736786
 20
4.8520895421
 30
0.0
 10
11.5623599696
 20
4.9734456361
 30
0.0
 10
11.5711396142
 20
5.064440041
 30
0.0
 10
11.5797423855
 20
5.155360014
 30
0.0
 10
11.5881224969
 20
5.2461641835
 30
0.0
 10
11.5962640364
 20
5.3368088783
 30
0.0
 10
11.6041612892
 20
5.4272470911
 30
0.0
 10
11.6118578238
 20
5.5174242904
 30
0.0
 10
11.6218589745
 20
5.6369780069
 30
0.0
 10
11.6339197369
 20
5.7853980824
 30
0.0
 10
11.643085142
 20
5.9038893948
 30
0.0
 10
11.647507863
 20
5.962835641
 30
0.0
  0
SPLINE
  5
5C4
100
AcDbEntity
  8
0
100
AcDbSpline
 62
9
  6
CONTINUOUS
 70
0
 71
3
 72
11
 73
7
 74
0
 42
0.0000001
 43
0.0000001
 44
0.0000000001
 40
0.0
 40
0.0
 40
0.0
 40
0.0
 40
0.2499667055
 40
0.4999576581
 40
0.7499700739
 40
1.0
 40
1.0
 40
1.0
 40
1.0
 10
11.8587517037
 20
8.4114387689
 30
0.0
 10
11.8438440567
 20
8.2066647631
 30
0.0
 10
11.8137108004
 20
7.7971199096
 30
0.0
 10
11.7678474402
 20
7.1828242916
 30
0.0
 10
11.7215266094
 20
6.5685109551
 30
0.0
 10
11.6904765413
 20
6.1589649761
 30
0.0
 10
11.6749512048
 20
5.9541847984
 30
0.0
  0
SPLINE
  5
5C5
100
AcDbEntity
  8
0
100
AcDbSpline
 62
9
  6
CONTINUOUS
 70
0
 71
3
 72
14
 73
10
 74
0
 42
0.0000001
 43
0.0000001
 44
0.0000000001
 40
0.0
 40
0.0
 40
0.0
 40
0.0
 40
0.0630708879
 40
0.1449875503
 40
0.2469014197
 40
0.3687894247
 40
0.5095211763
 40
0.6650206766
 40
1.0
 40
1.0
 40
1.0
 40
1.0
 10
11.6749488599
 20
5.9541893242
 30
0.0
 10
11.6746594701
 20
5.9547470102
 30
0.0
 10
11.6737178287
 20
5.9558784864
 30
0.0
 10
11.6717650227
 20
5.9573850825
 30
0.0
 10
11.6691066315
 20
5.9588893669
 30
0.0
 10
11.6657707461
 20
5.9603360547
 30
0.0
 10
11.6618218542
 20
5.9616726727
 30
0.0
 10
11.6557544741
 20
5.9633315998
 30
0.0
 10
11.6509525057
 20
5.9642791408
 30
0.0
 10
11.6476558854
 20
5.9647966733
 30
0.0
  0
SPLINE
  5
5C6
100
AcDbEntity
  8
0
100
AcDbSpline
 62
9
  6
CONTINUOUS
 70
0
 71
3
 72
15
 73
11
 74
0
 42
0.0000001
 43
0.0000001
 44
0.0000000001
 40
0.0
 40
0.0
 40
0.0
 40
0.0
 40
0.0256222655
 40
0.0571760641
 40
0.1376094286
 40
0.2401942642
 40
0.3636641354
 40
0.5060868699
 40
0.66301632
 40
1.0
 40
1.0
 40
1.0
 40
1.0
 10
11.5459974789
 20
4.5185308007
 30
0.0
 10
11.5457539042
 20
4.5184717721
 30
0.0
 10
11.5452040993
 20
4.5183661887
 30
0.0
 10
11.5438701187
 20
4.5181841665
 30
0.0
 10
11.5417758195
 20
4.5180243755
 30
0.0
 10
11.5387792276
 20
4.5179235708
 30
0.0
 10
11.5351743834
 20
4.5179172202
 30
0.0
 10
11.5310393391
 20
4.5180122612
 30
0.0
 10
11.5248200313
 20
4.5182679155
 30
0.0
 10
11.5199976651
 20
4.518573421
 30
0.0
 10
11.5167108516
 20
4.518822264
 30
0.0
  0
SPLINE
  5
5C7
100
AcDbEntity
  8
0
100
AcDbSpline
 62
9
  6
CONTINUOUS
 70
0
 71
3
 72
14
 73
10
 74
0
 42
0.0000001
 43
0.0000001
 44
0.0000000001
 40
0.0
 40
0.0
 40
0.0
 40
0.0
 40
0.0630569523
 40
0.1449598512
 40
0.2468599094
 40
0.3687332556
 40
0.5094572336
 40
0.6649640589
 40
1.0
 40
1.0
 40
1.0
 40
1.0
 10
11.6747993004
 20
5.9522229023
 30
0.0
 10
11.6745101839
 20
5.9527805914
 30
0.0
 10
11.6735690357
 20
5.9539121821
 30
0.0
 10
11.6716169093
 20
5.9554190788
 30
0.0
 10
11.6689591969
 20
5.9569238633
 30
0.0
 10
11.665623933
 20
5.9583713055
 30
0.0
 10
11.6616753728
 20
5.9597087743
 30
0.0
 10
11.6556075954
 20
5.9613689761
 30
0.0
 10
11.6508050327
 20
5.9623174341
 30
0.0
 10
11.647507863
 20
5.962835641
 30
0.0
  0
SPLINE
  5
5C8
100
AcDbEntity
  8
0
100
AcDbSpline
 62
9
  6
CONTINUOUS
 70
0
 71
3
 72
9
 73
5
 74
0
 42
0.0000001
 43
0.0000001
 44
0.0000000001
 40
0.0
 40
0.0
 40
0.0
 40
0.0
 40
0.5000785619
 40
1.0
 40
1.0
 40
1.0
 40
1.0
 10
11.8333304453
 20
8.4213685223
 30
0.0
 10
11.8025164186
 20
8.0118648332
 30
0.0
 10
11.7407510952
 20
7.1929971619
 30
0.0
 10
11.6785560152
 20
6.3741619994
 30
0.0
 10
11.6476856476
 20
5.964791949
 30
0.0
  0
SPLINE
  5
5C9
100
AcDbEntity
  8
0
100
AcDbSpline
 62
9
  6
CONTINUOUS
 70
0
 71
3
 72
11
 73
7
 74
0
 42
0.0000001
 43
0.0000001
 44
0.0000000001
 40
0.0
 40
0.0
 40
0.0
 40
0.0
 40
0.2451061329
 40
0.4943994809
 40
0.7464939947
 40
1.0
 40
1.0
 40
1.0
 40
1.0
 10
11.6475102518
 20
5.9628354245
 30
0.0
 10
11.5985954607
 20
5.967018892
 30
0.0
 10
11.4998301739
 20
5.9743235327
 30
0.0
 10
11.3505042981
 20
5.9821202256
 30
0.0
 10
11.1993661437
 20
5.9868298165
 30
0.0
 10
11.0980941469
 20
5.987884023
 30
0.0
 10
11.0473183383
 20
5.987884023
 30
0.0
  0
SPLINE
  5
5CA
100
AcDbEntity
  8
0
100
AcDbSpline
 62
9
  6
CONTINUOUS
 70
0
 71
3
 72
14
 73
10
 74
0
 42
0.0000001
 43
0.0000001
 44
0.0000000001
 40
0.0
 40
0.0
 40
0.0
 40
0.0
 40
0.0667181333
 40
0.1503924446
 40
0.2521278367
 40
0.3717933424
 40
0.5085243635
 40
0.6603817775
 40
1.0
 40
1.0
 40
1.0
 40
1.0
 10
11.8587544869
 20
8.411434002
 30
0.0
 10
11.8584427676
 20
8.4119690353
 30
0.0
 10
11.8575076491
 20
8.4130356336
 30
0.0
 10
11.8556266311
 20
8.4144391151
 30
0.0
 10
11.8531428861
 20
8.4158133199
 30
0.0
 10
11.8500875497
 20
8.417131165
 30
0.0
 10
11.8465030368
 20
8.4183681357
 30
0.0
 10
11.8408882977
 20
8.4199472303
 30
0.0
 10
11.8364106169
 20
8.4208571933
 30
0.0
 10
11.83330116
 20
8.4213734792
 30
0.0
  0
SPLINE
  5
5CB
100
AcDbEntity
  8
0
100
AcDbSpline
 62
9
  6
CONTINUOUS
 70
0
 71
3
 72
14
 73
10
 74
0
 42
0.0000001
 43
0.0000001
 44
0.0000000001
 40
0.0
 40
0.0
 40
0.0
 40
0.0
 40
0.0643180201
 40
0.1468635127
 40
0.2487561864
 40
0.3700384191
 40
0.5097471923
 40
0.6643029474
 40
1.0
 40
1.0
 40
1.0
 40
1.0
 10
11.8675085156
 20
8.5315212512
 30
0.0
 10
11.8672232575
 20
8.5320388379
 30
0.0
 10
11.8663351459
 20
8.5330850867
 30
0.0
 10
11.8645195167
 20
8.5344841158
 30
0.0
 10
11.8620725483
 20
8.5358794052
 30
0.0
 10
11.8590178116
 20
8.5372262772
 30
0.0
 10
11.855408201
 20
8.5384811954
 30
0.0
 10
11.8498370563
 20
8.5400593622
 30
0.0
 10
11.8454192011
 20
8.5409770944
 30
0.0
 10
11.8423778691
 20
8.5414917409
 30
0.0
  0
SPLINE
  5
5CC
100
AcDbEntity
  8
0
100
AcDbSpline
 62
9
  6
CONTINUOUS
 70
0
 71
3
 72
11
 73
7
 74
0
 42
0.0000001
 43
0.0000001
 44
0.0000000001
 40
0.0
 40
0.0
 40
0.0
 40
0.0
 40
0.252053495
 40
0.5039168055
 40
0.7537776311
 40
1.0
 40
1.0
 40
1.0
 40
1.0
 10
11.9481321174
 20
9.3124558212
 30
0.0
 10
11.9374254475
 20
9.2513216571
 30
0.0
 10
11.9169658904
 20
9.1289312344
 30
0.0
 10
11.8895189782
 20
8.9453541072
 30
0.0
 10
11.8658270049
 20
8.7627016037
 30
0.0
 10
11.8524617662
 20
8.6412722971
 30
0.0
 10
11.8464284626
 20
8.5809444365
 30
0.0
  0
SPLINE
  5
5CD
100
AcDbEntity
  8
0
100
AcDbSpline
 62
9
  6
CONTINUOUS
 70
0
 71
3
 72
20
 73
16
 74
0
 42
0.0000001
 43
0.0000001
 44
0.0000000001
 40
0.0
 40
0.0
 40
0.0
 40
0.0
 40
0.12520119
 40
0.1878517427
 40
0.2505032264
 40
0.313145863
 40
0.3757669269
 40
0.4383569895
 40
0.5009122741
 40
0.5634326445
 40
0.6259154728
 40
0.6883589183
 40
0.7507644676
 40
0.8754294463
 40
1.0
 40
1.0
 40
1.0
 40
1.0
 10
11.8423776057
 20
8.5414915053
 30
0.0
 10
11.8190708817
 20
8.5107978814
 30
0.0
 10
11.78156957
 20
8.4665838357
 30
0.0
 10
11.726996748
 20
8.4120679813
 30
0.0
 10
11.6838202784
 20
8.3735110582
 30
0.0
 10
11.6385465829
 20
8.3374590622
 30
0.0
 10
11.5913207891
 20
8.3040357704
 30
0.0
 10
11.5422882328
 20
8.2733739618
 30
0.0
 10
11.49159296
 20
8.2456099617
 30
0.0
 10
11.4393954787
 20
8.2208614845
 30
0.0
 10
11.3858785063
 20
8.1992058073
 30
0.0
 10
11.331218582
 20
8.1807263606
 30
0.0
 10
11.2570983605
 20
8.1604477337
 30
0.0
 10
11.1624549572
 20
8.143419413
 30
0.0
 10
11.0856638303
 20
8.1388302094
 30
0.0
 10
11.0473183386
 20
8.1388302094
 30
0.0
  0
SPLINE
  5
5CE
100
AcDbEntity
  8
0
100
AcDbSpline
 62
9
  6
CONTINUOUS
 70
0
 71
3
 72
18
 73
14
 74
0
 42
0.0000001
 43
0.0000001
 44
0.0000000001
 40
0.0
 40
0.0
 40
0.0
 40
0.0
 40
0.2348897415
 40
0.4446631431
 40
0.6241112281
 40
0.7681160822
 40
0.8749349425
 40
0.9152360894
 40
0.9472994102
 40
0.9714962596
 40
0.9881935284
 40
0.9976992364
 40
1.0
 40
1.0
 40
1.0
 40
1.0
 10
10.1218421651
 20
9.3804492396
 30
0.0
 10
10.1216790048
 20
9.3786326265
 30
0.0
 10
10.1213544724
 20
9.3751949519
 30
0.0
 10
10.1208489221
 20
9.3703753335
 30
0.0
 10
10.120366604
 20
9.3662620689
 30
0.0
 10
10.1199215617
 20
9.3629526889
 30
0.0
 10
10.1195642177
 20
9.3607154927
 30
0.0
 10
10.1193174341
 20
9.3593530667
 30
0.0
 10
10.1191699521
 20
9.358604086
 30
0.0
 10
10.1190616743
 20
9.3580821876
 30
0.0
 10
10.1189575741
 20
9.3576303185
 30
0.0
 10
10.1189354797
 20
9.357528434
 30
0.0
 10
10.1188866198
 20
9.3573402207
 30
0.0
 10
10.1188849201
 20
9.3573580052
 30
0.0
  0
SPLINE
  5
5CF
100
AcDbEntity
  8
0
100
AcDbSpline
 62
9
  6
CONTINUOUS
 70
0
 71
3
 72
11
 73
7
 74
0
 42
0.0000001
 43
0.0000001
 44
0.0000000001
 40
0.0
 40
0.0
 40
0.0
 40
0.0
 40
0.2517713487
 40
0.503483202
 40
0.7534483916
 40
1.0
 40
1.0
 40
1.0
 40
1.0
 10
11.9608795089
 20
9.3125950672
 30
0.0
 10
11.9502403869
 20
9.2508525026
 30
0.0
 10
11.9303869793
 20
9.1271315094
 30
0.0
 10
11.905173538
 20
8.9413222846
 30
0.0
 10
11.8848523657
 20
8.7562197409
 30
0.0
 10
11.8746286361
 20
8.6330694307
 30
0.0
 10
11.8703766874
 20
8.5718633632
 30
0.0
  0
SPLINE
  5
5D0
100
AcDbEntity
  8
0
100
AcDbSpline
 62
9
  6
CONTINUOUS
 70
0
 71
3
 72
11
 73
7
 74
0
 42
0.0000001
 43
0.0000001
 44
0.0000000001
 40
0.0
 40
0.0
 40
0.0
 40
0.0
 40
0.238108702
 40
0.4809342242
 40
0.7334275982
 40
1.0
 40
1.0
 40
1.0
 40
1.0
 10
10.4766896028
 20
4.4184883603
 30
0.0
 10
10.4766413749
 20
4.4216729868
 30
0.0
 10
10.4770351883
 20
4.4281230319
 30
0.0
 10
10.4790950194
 20
4.4377489114
 30
0.0
 10
10.4826146361
 20
4.4473452053
 30
0.0
 10
10.4858262689
 20
4.4535228338
 30
0.0
 10
10.4876417418
 20
4.4565917872
 30
0.0
  0
SPLINE
  5
5D1
100
AcDbEntity
  8
0
100
AcDbSpline
 62
9
  6
CONTINUOUS
 70
0
 71
3
 72
14
 73
10
 74
0
 42
0.0000001
 43
0.0000001
 44
0.0000000001
 40
0.0
 40
0.0
 40
0.0
 40
0.0
 40
0.0626975106
 40
0.1440403291
 40
0.2451230579
 40
0.3659864777
 40
0.5056968376
 40
0.6608035415
 40
1.0
 40
1.0
 40
1.0
 40
1.0
 10
11.8703766874
 20
8.5718633632
 30
0.0
 10
11.8700987656
 20
8.5723317733
 30
0.0
 10
11.8692430144
 20
8.5732733975
 30
0.0
 10
11.8675156488
 20
8.5745273008
 30
0.0
 10
11.8651911752
 20
8.5757819318
 30
0.0
 10
11.8622910143
 20
8.5769987108
 30
0.0
 10
11.8588624428
 20
8.5781406885
 30
0.0
 10
11.853547856
 20
8.579592447
 30
0.0
 10
11.8493334655
 20
8.5804469028
 30
0.0
 10
11.8464274486
 20
8.5809342974
 30
0.0
  0
SPLINE
  5
5D2
100
AcDbEntity
  8
0
100
AcDbSpline
 62
9
  6
CONTINUOUS
 70
0
 71
3
 72
21
 73
17
 74
0
 42
0.0000001
 43
0.0000001
 44
0.0000000001
 40
0.0
 40
0.0
 40
0.0
 40
0.0
 40
0.0626053673
 40
0.1251963415
 40
0.187752247
 40
0.2503043157
 40
0.3128500107
 40
0.3753678461
 40
0.4378524332
 40
0.5003267389
 40
0.5628005763
 40
0.6252666471
 40
0.687725266
 40
0.7501878605
 40
0.8750822393
 40
1.0
 40
1.0
 40
1.0
 40
1.0
 10
11.0473183384
 20
4.0164741322
 30
0.0
 10
11.0631505823
 20
4.0164619462
 30
0.0
 10
11.0948545381
 20
4.0188216188
 30
0.0
 10
11.1414003366
 20
4.0288124851
 30
0.0
 10
11.1863449011
 20
4.0444070387
 30
0.0
 10
11.2293287786
 20
4.0647036151
 30
0.0
 10
11.2701698347
 20
4.0889777528
 30
0.0
 10
11.3087562161
 20
4.1166482585
 30
0.0
 10
11.345017773
 20
4.1472622602
 30
0.0
 10
11.3789250566
 20
4.1804413708
 30
0.0
 10
11.4104170037
 20
4.2159118725
 30
0.0
 10
11.439391442
 20
4.2534606154
 30
0.0
 10
11.4656867677
 20
4.2929335285
 30
0.0
 10
11.4968988614
 20
4.3479120189
 30
0.0
 10
11.5281549042
 20
4.4207877313
 30
0.0
 10
11.5422724346
 20
4.4829313648
 30
0.0
 10
11.5455782932
 20
4.5143483207
 30
0.0
  0
SPLINE
  5
5D3
100
AcDbEntity
  8
0
100
AcDbSpline
 62
9
  6
CONTINUOUS
 70
0
 71
3
 72
24
 73
20
 74
0
 42
0.0000001
 43
0.0000001
 44
0.0000000001
 40
0.0
 40
0.0
 40
0.0
 40
0.0
 40
0.0540666338
 40
0.1101214477
 40
0.1389270464
 40
0.1682430053
 40
0.2283543615
 40
0.2903398883
 40
0.3539093235
 40
0.4187048236
 40
0.4843515047
 40
0.550470355
 40
0.6166617509
 40
0.6825482628
 40
0.7478095886
 40
0.8122178509
 40
0.8756747755
 40
0.9382083895
 40
1.0
 40
1.0
 40
1.0
 40
1.0
 10
11.6069949551
 20
4.4565917205
 30
0.0
 10
11.6064538788
 20
4.4414881325
 30
0.0
 10
11.6033522686
 20
4.4107729171
 30
0.0
 10
11.5950189624
 20
4.3727637316
 30
0.0
 10
11.5857774554
 20
4.342202987
 30
0.0
 10
11.5746291711
 20
4.3110773145
 30
0.0
 10
11.5574611031
 20
4.2723168865
 30
0.0
 10
11.5322230143
 20
4.2268947794
 30
0.0
 10
11.5025299086
 20
4.1826692637
 30
0.0
 10
11.468741915
 20
4.1401760339
 30
0.0
 10
11.4312226514
 20
4.099957606
 30
0.0
 10
11.3903496763
 20
4.0625701468
 30
0.0
 10
11.3465621928
 20
4.028529028
 30
0.0
 10
11.3003020061
 20
3.9983593867
 30
0.0
 10
11.2520080576
 20
3.9725889743
 30
0.0
 10
11.2021142197
 20
3.9517509516
 30
0.0
 10
11.1510831721
 20
3.9362874755
 30
0.0
 10
11.0993774024
 20
3.9266386179
 30
0.0
 10
11.0645909824
 20
3.9243751479
 30
0.0
 10
11.0473183384
 20
3.9243751479
 30
0.0
  0
SPLINE
  5
5D4
100
AcDbEntity
  8
0
100
AcDbSpline
 62
9
  6
CONTINUOUS
 70
0
 71
3
 72
24
 73
20
 74
0
 42
0.0000001
 43
0.0000001
 44
0.0000000001
 40
0.0
 40
0.0
 40
0.0
 40
0.0
 40
0.0617916109
 40
0.1243252252
 40
0.1877821502
 40
0.2521904128
 40
0.3174517389
 40
0.3833382511
 40
0.4495296472
 40
0.5156484976
 40
0.5812951787
 40
0.6460906787
 40
0.7096601138
 40
0.7716456403
 40
0.8317569962
 40
0.8610729549
 40
0.8898785533
 40
0.9459333667
 40
1.0
 40
1.0
 40
1.0
 40
1.0
 10
11.0473183384
 20
3.9243751378
 30
0.0
 10
11.0300456944
 20
3.9243751378
 30
0.0
 10
10.995259274
 20
3.9266386077
 30
0.0
 10
10.943553504
 20
3.9362874653
 30
0.0
 10
10.8925224559
 20
3.9517509412
 30
0.0
 10
10.8426286175
 20
3.9725889638
 30
0.0
 10
10.7943346685
 20
3.9983593761
 30
0.0
 10
10.7480744813
 20
4.0285290173
 30
0.0
 10
10.7042869974
 20
4.062570136
 30
0.0
 10
10.6634140219
 20
4.0999575951
 30
0.0
 10
10.6258947581
 20
4.1401760229
 30
0.0
 10
10.5921067642
 20
4.1826692526
 30
0.0
 10
10.5624136583
 20
4.2268947682
 30
0.0
 10
10.5371755694
 20
4.272316875
 30
0.0
 10
10.5200075013
 20
4.3110773028
 30
0.0
 10
10.5088592171
 20
4.3422029752
 30
0.0
 10
10.49961771
 20
4.3727637196
 30
0.0
 10
10.4912844038
 20
4.4107729048
 30
0.0
 10
10.4881827937
 20
4.44148812
 30
0.0
 10
10.4876417173
 20
4.4565917079
 30
0.0
  0
SPLINE
  5
5D5
100
AcDbEntity
  8
0
100
AcDbSpline
 62
9
  6
CONTINUOUS
 70
0
 71
3
 72
11
 73
7
 74
0
 42
0.0000001
 43
0.0000001
 44
0.0000000001
 40
0.0
 40
0.0
 40
0.0
 40
0.0
 40
0.209912458
 40
0.4444627504
 40
0.7070475848
 40
1.0
 40
1.0
 40
1.0
 40
1.0
 10
10.4876417419
 20
4.4565917826
 30
0.0
 10
10.4906691598
 20
4.4617094591
 30
0.0
 10
10.4980721424
 20
4.4719695486
 30
0.0
 10
10.5119618168
 20
4.4864620296
 30
0.0
 10
10.529159309
 20
4.5008411649
 30
0.0
 10
10.5420908065
 20
4.5098411245
 30
0.0
 10
10.5490583834
 20
4.5143483207
 30
0.0
  0
SPLINE
  5
5D6
100
AcDbEntity
  8
0
100
AcDbSpline
 62
9
  6
CONTINUOUS
 70
0
 71
3
 72
15
 73
11
 74
0
 42
0.0000001
 43
0.0000001
 44
0.0000000001
 40
0.0
 40
0.0
 40
0.0
 40
0.0
 40
0.0804165943
 40
0.1694898227
 40
0.2701584613
 40
0.3844597031
 40
0.5137791375
 40
0.6590658144
 40
0.8209819528
 40
1.0
 40
1.0
 40
1.0
 40
1.0
 10
11.8914320067
 20
8.5416143197
 30
0.0
 10
11.8914996529
 20
8.5426294683
 30
0.0
 10
11.8913677248
 20
8.5447919594
 30
0.0
 10
11.8904549168
 20
8.5481041939
 30
0.0
 10
11.8888386209
 20
8.5516096727
 30
0.0
 10
11.8865231071
 20
8.5553095434
 30
0.0
 10
11.8835079564
 20
8.5592058071
 30
0.0
 10
11.8797907424
 20
8.5632964472
 30
0.0
 10
11.8753691262
 20
8.5675778783
 30
0.0
 10
11.8721153293
 20
8.5704124143
 30
0.0
 10
11.8703767173
 20
8.5718639151
 30
0.0
  0
SPLINE
  5
5D7
100
AcDbEntity
  8
0
100
AcDbSpline
 62
9
  6
CONTINUOUS
 70
0
 71
3
 72
15
 73
11
 74
0
 42
0.0000001
 43
0.0000001
 44
0.0000000001
 40
0.0
 40
0.0
 40
0.0
 40
0.0
 40
0.0165863426
 40
0.0385498907
 40
0.1009466683
 40
0.1894348487
 40
0.3044606108
 40
0.4456172971
 40
0.610539367
 40
1.0
 40
1.0
 40
1.0
 40
1.0
 10
11.9608794885
 20
9.3125950817
 30
0.0
 10
11.9608324152
 20
9.3125417666
 30
0.0
 10
11.9606955748
 20
9.3124431994
 30
0.0
 10
11.9602962858
 20
9.3122734116
 30
0.0
 10
11.959564666
 20
9.3121242441
 30
0.0
 10
11.9584302823
 20
9.3120133862
 30
0.0
 10
11.9569516481
 20
9.3119686736
 30
0.0
 10
11.9551459778
 20
9.3119925249
 30
0.0
 10
11.9521658812
 20
9.3121210848
 30
0.0
 10
11.9497951022
 20
9.312305028
 30
0.0
 10
11.9481319199
 20
9.3124558833
 30
0.0
  0
SPLINE
  5
5D8
100
AcDbEntity
  8
0
100
AcDbSpline
 62
9
  6
CONTINUOUS
 70
0
 71
3
 72
20
 73
16
 74
0
 42
0.0000001
 43
0.0000001
 44
0.0000000001
 40
0.0
 40
0.0
 40
0.0
 40
0.0
 40
0.2122273522
 40
0.4072430533
 40
0.5799814149
 40
0.7262870938
 40
0.7886687982
 40
0.8434379923
 40
0.8902747886
 40
0.9289329422
 40
0.9592814593
 40
0.9812104266
 40
0.994650771
 40
0.9982359162
 40
1.0
 40
1.0
 40
1.0
 40
1.0
 10
11.0452561678
 20
10.9043140296
 30
0.0
 10
11.0452541287
 20
10.9051744255
 30
0.0
 10
11.0452511679
 20
10.9068254416
 30
0.0
 10
11.045246778
 20
10.9091767593
 30
0.0
 10
11.0452381191
 20
10.9112608169
 30
0.0
 10
11.0452265079
 20
10.9128071157
 30
0.0
 10
11.0452219243
 20
10.9138752139
 30
0.0
 10
11.0452222426
 20
10.9145400038
 30
0.0
 10
11.0452276894
 20
10.9151087676
 30
0.0
 10
11.0452389126
 20
10.9155779435
 30
0.0
 10
11.0452557458
 20
10.9159471986
 30
0.0
 10
11.0452754875
 20
10.9162107905
 30
0.0
 10
11.0452988497
 20
10.9163710734
 30
0.0
 10
11.0453183926
 20
10.9164409307
 30
0.0
 10
11.0453336547
 20
10.9164621053
 30
0.0
 10
11.0453408007
 20
10.9164623956
 30
0.0
  0
SPLINE
  5
5D9
100
AcDbEntity
  8
0
100
AcDbSpline
 62
9
  6
CONTINUOUS
 70
0
 71
3
 72
13
 73
9
 74
0
 42
0.0000001
 43
0.0000001
 44
0.0000000001
 40
0.0
 40
0.0
 40
0.0
 40
0.0
 40
0.249172269
 40
0.3739001148
 40
0.4987908685
 40
0.6238433812
 40
0.7490567884
 40
1.0
 40
1.0
 40
1.0
 40
1.0
 10
12.0223814505
 20
9.5813086082
 30
0.0
 10
12.017041319
 20
9.5645950075
 30
0.0
 10
12.0092277212
 20
9.5394506807
 30
0.0
 10
11.9991982316
 20
9.5057894482
 30
0.0
 10
11.9918664667
 20
9.4804450744
 30
0.0
 10
11.9847419748
 20
9.4550060951
 30
0.0
 10
11.9755371559
 20
9.4209334639
 30
0.0
 10
11.9689447338
 20
9.3952779347
 30
0.0
 10
11.9646419786
 20
9.3781391065
 30
0.0
  0
LINE
  5
5DA
100
AcDbEntity
  8
0
100
AcDbLine
 62
9
  6
CONTINUOUS
 10
11.0473183605
 20
10.9164638129
 11
11.0473349618
 21
10.9107258247
  0
LINE
  5
5DB
100
AcDbEntity
  8
0
100
AcDbLine
 62
9
  6
CONTINUOUS
 10
11.0452599665
 20
10.9043090333
 11
11.0473225332
 21
10.9043020681
  0
SPLINE
  5
5DC
100
AcDbEntity
  8
0
100
AcDbSpline
 62
9
  6
CONTINUOUS
 70
0
 71
3
 72
18
 73
14
 74
0
 42
0.0000001
 43
0.0000001
 44
0.0000000001
 40
0.0
 40
0.0
 40
0.0
 40
0.0
 40
0.1934879841
 40
0.377242099
 40
0.545288891
 40
0.6922114391
 40
0.8132379513
 40
0.8631471453
 40
0.9056109171
 40
0.940420439
 40
0.9676545643
 40
0.9874635559
 40
1.0
 40
1.0
 40
1.0
 40
1.0
 10
11.0452599665
 20
10.9043090164
 30
0.0
 10
11.0453058493
 20
10.8906685739
 30
0.0
 10
11.0454086218
 20
10.8640739456
 30
0.0
 10
11.0456017239
 20
10.8256326343
 30
0.0
 10
11.0458294774
 20
10.7904743385
 30
0.0
 10
11.046084752
 20
10.7597385396
 30
0.0
 10
11.0463280387
 20
10.7373314293
 30
0.0
 10
11.0465387304
 20
10.7222886609
 30
0.0
 10
11.0466880042
 20
10.713323755
 30
0.0
 10
11.0468387667
 20
10.7059577641
 30
0.0
 10
11.0469867569
 20
10.7001890324
 30
0.0
 10
11.0471344271
 20
10.6959916041
 30
0.0
 10
11.0472453455
 20
10.6937134191
 30
0.0
 10
11.0473154822
 20
10.692832412
 30
0.0
  0
SPLINE
  5
5DD
100
AcDbEntity
  8
0
100
AcDbSpline
 62
7
  6
CONTINUOUS
 70
0
 71
3
 72
46
 73
42
 74
0
 42
0.0000001
 43
0.0000001
 44
0.0000000001
 40
0.0
 40
0.0
 40
0.0
 40
0.0
 40
0.0312360131
 40
0.0624983214
 40
0.0937488599
 40
0.1249938866
 40
0.1562418474
 40
0.187490006
 40
0.2187372281
 40
0.2499844367
 40
0.2656131354
 40
0.281241926
 40
0.2968706375
 40
0.3124993503
 40
0.3437474577
 40
0.3749953115
 40
0.4062432654
 40
0.437490967
 40
0.4531195723
 40
0.4687480654
 40
0.4999956247
 40
0.5312431284
 40
0.5624906388
 40
0.5937380428
 40
0.624985588
 40
0.6562329848
 40
0.6874806273
 40
0.7031091167
 40
0.7187376251
 40
0.7499853954
 40
0.7656137145
 40
0.7812419019
 40
0.8124890977
 40
0.8281176876
 40
0.8437466611
 40
0.8749948019
 40
0.906240423
 40
0.9218691857
 40
0.9375008808
 40
0.9687635382
 40
1.0
 40
1.0
 40
1.0
 40
1.0
 10
11.0473220911
 20
10.6928462313
 30
0.0
 10
11.0211626817
 20
10.6928289226
 30
0.0
 10
10.9687882128
 20
10.6902369217
 30
0.0
 10
10.8910026784
 20
10.6787270863
 30
0.0
 10
10.8147122564
 20
10.6596122267
 30
0.0
 10
10.7406759373
 20
10.6331193891
 30
0.0
 10
10.6695956249
 20
10.5994953883
 30
0.0
 10
10.6021454823
 20
10.5590738048
 30
0.0
 10
10.5389908324
 20
10.5122310436
 30
0.0
 10
10.4904279116
 20
10.4682167269
 30
0.0
 10
10.4543238153
 20
10.430290136
 30
0.0
 10
10.428664042
 20
10.4005466063
 30
0.0
 10
10.4044946802
 20
10.3695795732
 30
0.0
 10
10.3743461066
 20
10.3267652412
 30
0.0
 10
10.3406462413
 20
10.2705506414
 30
0.0
 10
10.3070317191
 20
10.1994655046
 30
0.0
 10
10.2805358577
 20
10.1254319619
 30
0.0
 10
10.2646156073
 20
10.0618534366
 30
0.0
 10
10.2556631825
 20
10.0102600616
 30
0.0
 10
10.2492487573
 20
9.9582900139
 30
0.0
 10
10.2460382417
 20
9.892827868
 30
0.0
 10
10.2498894924
 20
9.8142917797
 30
0.0
 10
10.2614333803
 20
9.7365096484
 30
0.0
 10
10.2805331466
 20
9.6602317258
 30
0.0
 10
10.3070285056
 20
9.5861958813
 30
0.0
 10
10.3406418143
 20
9.5151120934
 30
0.0
 10
10.3743399204
 20
9.458898041
 30
0.0
 10
10.4044883728
 20
9.4160830543
 30
0.0
 10
10.4367051446
 20
9.374803829
 30
0.0
 10
10.4719249642
 20
9.3359434373
 30
0.0
 10
10.5098462711
 20
9.299834465
 30
0.0
 10
10.5494963983
 20
9.2656336851
 30
0.0
 10
10.5916187043
 20
9.2343888676
 30
0.0
 10
10.6358577797
 20
9.206374695
 30
0.0
 10
10.6814228024
 20
9.1805675731
 30
0.0
 10
10.740664232
 20
9.1525396854
 30
0.0
 10
10.8023690405
 20
9.1304553778
 30
0.0
 10
10.8528370061
 20
9.1164859935
 30
0.0
 10
10.9039454766
 20
9.1050112738
 30
0.0
 10
10.9687838341
 20
9.0954336747
 30
0.0
 10
11.0211566992
 20
9.0928527832
 30
0.0
 10
11.0473164847
 20
9.092836066
 30
0.0
  0
SPLINE
  5
5DE
100
AcDbEntity
  8
0
100
AcDbSpline
 62
7
  6
CONTINUOUS
 70
0
 71
3
 72
49
 73
45
 74
0
 42
0.0000001
 43
0.0000001
 44
0.0000000001
 40
0.0
 40
0.0
 40
0.0
 40
0.0
 40
0.0312343396
 40
0.0624950443
 40
0.0781256814
 40
0.0937533329
 40
0.1249969941
 40
0.1406249007
 40
0.1562534861
 40
0.1718821145
 40
0.1875103761
 40
0.2187569453
 40
0.2343848714
 40
0.250013027
 40
0.2812606123
 40
0.2968890469
 40
0.3125174691
 40
0.3437649497
 40
0.3750121736
 40
0.4062595036
 40
0.4375065889
 40
0.4687536698
 40
0.5000006186
 40
0.5312475118
 40
0.5624944018
 40
0.593741185
 40
0.6249880964
 40
0.6562348448
 40
0.687481833
 40
0.7031100215
 40
0.7187382449
 40
0.7499854669
 40
0.7656134797
 40
0.7812413081
 40
0.8124877973
 40
0.8281160802
 40
0.8437447568
 40
0.8593733951
 40
0.8750013537
 40
0.9062452261
 40
0.9218731038
 40
0.9375040576
 40
0.9687654156
 40
1.0
 40
1.0
 40
1.0
 40
1.0
 10
11.0473220911
 20
10.6928462313
 30
0.0
 10
11.0734808117
 20
10.6928462248
 30
0.0
 10
11.1258536359
 20
10.6902643815
 30
0.0
 10
11.1906846339
 20
10.6806587278
 30
0.0
 10
11.2417901679
 20
10.6691792167
 30
0.0
 10
11.2922549281
 20
10.6552129032
 30
0.0
 10
11.3416330149
 20
10.6375451514
 30
0.0
 10
11.3894983474
 20
10.6163214937
 30
0.0
 10
11.4245868377
 20
10.5986600414
 30
0.0
 10
11.4587680781
 20
10.5793001864
 30
0.0
 10
11.5030062707
 20
10.5512855614
 30
0.0
 10
11.5451302281
 20
10.5200418092
 30
0.0
 10
11.5847812236
 20
10.4858412596
 30
0.0
 10
11.6227033547
 20
10.4497318413
 30
0.0
 10
11.6579248432
 20
10.4108715285
 30
0.0
 10
11.6901423872
 20
10.3695914385
 30
0.0
 10
11.7202917057
 20
10.3267756562
 30
0.0
 10
11.7539913546
 20
10.2705608453
 30
0.0
 10
11.7876053254
 20
10.1994755025
 30
0.0
 10
11.8141017055
 20
10.1254384562
 30
0.0
 10
11.833201702
 20
10.0491590162
 30
0.0
 10
11.8447459071
 20
9.9713766605
 30
0.0
 10
11.848596821
 20
9.8928369162
 30
0.0
 10
11.8447451039
 20
9.8142973701
 30
0.0
 10
11.833200138
 20
9.736515594
 30
0.0
 10
11.8140996302
 20
9.6602370752
 30
0.0
 10
11.7876029791
 20
9.5862011897
 30
0.0
 10
11.7539889092
 20
9.5151171895
 30
0.0
 10
11.7202895785
 20
9.4589033672
 30
0.0
 10
11.6901404408
 20
9.4160884139
 30
0.0
 10
11.6579230565
 20
9.3748090656
 30
0.0
 10
11.6227020667
 20
9.335949114
 30
0.0
 10
11.5847800831
 20
9.2998402658
 30
0.0
 10
11.5451291678
 20
9.2656400482
 30
0.0
 10
11.5030054629
 20
9.234396162
 30
0.0
 10
11.4587670536
 20
9.2063818879
 30
0.0
 10
11.4245857058
 20
9.1870220261
 30
0.0
 10
11.3894971494
 20
9.1693604207
 30
0.0
 10
11.3416315807
 20
9.1481366299
 30
0.0
 10
11.2922530067
 20
9.1304690214
 30
0.0
 10
11.2417876342
 20
9.1165025572
 30
0.0
 10
11.1906810546
 20
9.1050231025
 30
0.0
 10
11.1258489875
 20
9.0954177727
 30
0.0
 10
11.0734754103
 20
9.0928359434
 30
0.0
 10
11.0473164847
 20
9.092836066
 30
0.0
  0
SPLINE
  5
5DF
100
AcDbEntity
  8
0
100
AcDbSpline
 62
9
  6
CONTINUOUS
 70
0
 71
3
 72
17
 73
13
 74
0
 42
0.0000001
 43
0.0000001
 44
0.0000000001
 40
0.0
 40
0.0
 40
0.0
 40
0.0
 40
0.1994154183
 40
0.3834986014
 40
0.5485696662
 40
0.6917319042
 40
0.8104023513
 40
0.9023612659
 40
0.9377933101
 40
0.9659525405
 40
0.9867238978
 40
1.0
 40
1.0
 40
1.0
 40
1.0
 10
11.047268711
 20
8.881375548
 30
0.0
 10
11.0472141247
 20
8.8954307006
 30
0.0
 10
11.0471263031
 20
8.922460433
 30
0.0
 10
11.0470507992
 20
8.9611248254
 30
0.0
 10
11.0470283176
 20
8.9958244288
 30
0.0
 10
11.0470460034
 20
9.0259135931
 30
0.0
 10
11.0470931992
 20
9.0508496024
 30
0.0
 10
11.0471514541
 20
9.0681924918
 30
0.0
 10
11.0472033131
 20
9.0791559018
 30
0.0
 10
11.0472370695
 20
9.0851018895
 30
0.0
 10
11.04727107
 20
9.0894862129
 30
0.0
 10
11.0472970159
 20
9.0918858551
 30
0.0
 10
11.047314391
 20
9.0928214241
 30
0.0
  0
SPLINE
  5
5E0
100
AcDbEntity
  8
0
100
AcDbSpline
 62
9
  6
CONTINUOUS
 70
0
 71
3
 72
18
 73
14
 74
0
 42
0.0000001
 43
0.0000001
 44
0.0000000001
 40
0.0
 40
0.0
 40
0.0
 40
0.0
 40
0.1933667837
 40
0.3770185869
 40
0.5449940666
 40
0.6918858487
 40
0.8129286871
 40
0.8628636499
 40
0.905364722
 40
0.9402224778
 40
0.9675144848
 40
0.9873898348
 40
1.0
 40
1.0
 40
1.0
 40
1.0
 10
11.045235653
 20
8.8813787198
 30
0.0
 10
11.04528256
 20
8.8950091984
 30
0.0
 10
11.0453875924
 20
8.9215853001
 30
0.0
 10
11.0455848348
 20
8.9600018153
 30
0.0
 10
11.045817389
 20
8.9951420205
 30
0.0
 10
11.0460779878
 20
9.0258685377
 30
0.0
 10
11.046326298
 20
9.0482740658
 30
0.0
 10
11.0465412981
 20
9.0633208081
 30
0.0
 10
11.046693652
 20
9.0722925783
 30
0.0
 10
11.0468475085
 20
9.0796678521
 30
0.0
 10
11.0469985984
 20
9.0854480681
 30
0.0
 10
11.0471492844
 20
9.0896589163
 30
0.0
 10
11.0472625764
 20
9.0919466431
 30
0.0
 10
11.0473339595
 20
9.0928326716
 30
0.0
  0
SPLINE
  5
5E1
100
AcDbEntity
  8
0
100
AcDbSpline
 62
9
  6
CONTINUOUS
 70
0
 71
3
 72
15
 73
11
 74
0
 42
0.0000001
 43
0.0000001
 44
0.0000000001
 40
0.0
 40
0.0
 40
0.0
 40
0.0
 40
0.0855470175
 40
0.1786338781
 40
0.2818380626
 40
0.3970517084
 40
0.5256308252
 40
0.6685455397
 40
0.8264970274
 40
1.0
 40
1.0
 40
1.0
 40
1.0
 10
11.8807591838
 20
8.3765028286
 30
0.0
 10
11.8808348838
 20
8.3777117951
 30
0.0
 10
11.880711838
 20
8.3802588031
 30
0.0
 10
11.8797755725
 20
8.3841564839
 30
0.0
 10
11.87809656
 20
8.3882506824
 30
0.0
 10
11.8756798275
 20
8.3925400117
 30
0.0
 10
11.8725261574
 20
8.397025311
 30
0.0
 10
11.8686340592
 20
8.401704485
 30
0.0
 10
11.8640017044
 20
8.4065740623
 30
0.0
 10
11.8605813186
 20
8.409791307
 30
0.0
 10
11.8587544869
 20
8.411434002
 30
0.0
  0
SPLINE
  5
5E2
100
AcDbEntity
  8
0
100
AcDbSpline
 62
9
  6
CONTINUOUS
 70
0
 71
3
 72
13
 73
9
 74
0
 42
0.0000001
 43
0.0000001
 44
0.0000000001
 40
0.0
 40
0.0
 40
0.0
 40
0.0
 40
0.1361559085
 40
0.2304660648
 40
0.3445730286
 40
0.4788666661
 40
0.6331944688
 40
1.0
 40
1.0
 40
1.0
 40
1.0
 10
11.9727953114
 20
9.3804510771
 30
0.0
 10
11.972645965
 20
9.3800849402
 30
0.0
 10
11.9720833033
 20
9.3796212381
 30
0.0
 10
11.9711870821
 20
9.3792002131
 30
0.0
 10
11.970236158
 20
9.3788873116
 30
0.0
 10
11.9690970382
 20
9.378622951
 30
0.0
 10
11.9672170302
 20
9.3783153308
 30
0.0
 10
11.965706055
 20
9.3781926076
 30
0.0
 10
11.964642119
 20
9.3781391501
 30
0.0
  0
SPLINE
  5
5E3
100
AcDbEntity
  8
0
100
AcDbSpline
 62
9
  6
CONTINUOUS
 70
0
 71
3
 72
11
 73
7
 74
0
 42
0.0000001
 43
0.0000001
 44
0.0000000001
 40
0.0
 40
0.0
 40
0.0
 40
0.0
 40
0.2462220142
 40
0.4960817527
 40
0.7479454125
 40
1.0
 40
1.0
 40
1.0
 40
1.0
 10
10.2482130635
 20
8.580895895
 30
0.0
 10
10.2421797121
 20
8.6412276886
 30
0.0
 10
10.2288142212
 20
8.7626647316
 30
0.0
 10
10.2051212622
 20
8.9453291085
 30
0.0
 10
10.1776727747
 20
9.1289184895
 30
0.0
 10
10.1572119014
 20
9.2513173642
 30
0.0
 10
10.1465045323
 20
9.3124558417
 30
0.0
  0
SPLINE
  5
5E4
100
AcDbEntity
  8
0
100
AcDbSpline
 62
9
  6
CONTINUOUS
 70
0
 71
3
 72
11
 73
7
 74
0
 42
0.0000001
 43
0.0000001
 44
0.0000000001
 40
0.0
 40
0.0
 40
0.0
 40
0.0
 40
0.2410777992
 40
0.4847802638
 40
0.7362022239
 40
1.0
 40
1.0
 40
1.0
 40
1.0
 10
11.6949494998
 20
5.8676729921
 30
0.0
 10
11.6955037646
 20
5.8748824891
 30
0.0
 10
11.6955054637
 20
5.889490774
 30
0.0
 10
11.6921019803
 20
5.9113905757
 30
0.0
 10
11.6853116735
 20
5.9331959089
 30
0.0
 10
11.6787299191
 20
5.9472329297
 30
0.0
 10
11.6749511816
 20
5.9541845067
 30
0.0
  0
SPLINE
  5
5E5
100
AcDbEntity
  8
0
100
AcDbSpline
 62
7
  6
CONTINUOUS
 70
0
 71
3
 72
9
 73
5
 74
0
 42
0.0000001
 43
0.0000001
 44
0.0000000001
 40
0.0
 40
0.0
 40
0.0
 40
0.0
 40
0.2542958583
 40
1.0
 40
1.0
 40
1.0
 40
1.0
 10
11.6160408105
 20
4.4709869493
 30
0.0
 10
11.6160499941
 20
4.4706727323
 30
0.0
 10
11.616047654
 20
4.4694363522
 30
0.0
 10
11.6158833475
 20
4.4681996516
 30
0.0
 10
11.615667768
 20
4.4673034021
 30
0.0
  0
SPLINE
  5
5E6
100
AcDbEntity
  8
0
100
AcDbSpline
 62
7
  6
CONTINUOUS
 70
0
 71
3
 72
11
 73
7
 74
0
 42
0.0000001
 43
0.0000001
 44
0.0000000001
 40
0.0
 40
0.0
 40
0.0
 40
0.0
 40
0.2244695519
 40
0.4596934556
 40
0.7155886876
 40
1.0
 40
1.0
 40
1.0
 40
1.0
 10
11.615667768
 20
4.4673034021
 30
0.0
 10
11.6154207228
 20
4.4662763369
 30
0.0
 10
11.6146596812
 20
4.4642263224
 30
0.0
 10
11.6127885394
 20
4.4613967417
 30
0.0
 10
11.6102003706
 20
4.4587956972
 30
0.0
 10
11.6081279119
 20
4.4573043852
 30
0.0
 10
11.6069949241
 20
4.4565918004
 30
0.0
  0
ENDSEC
  0
SECTION
  2
OBJECTS
  0
DICTIONARY
  5
C
100
AcDbDictionary
280
0
281
1
  3
ACAD_GROUP
350
D
  3
ACAD_MLINESTYLE
350
17
  3
ACAD_LAYOUT
350
1A
  3
ACAD_PLOTSETTINGS
350
19
  3
ACAD_PLOTSTYLENAME
350
E
  0
DICTIONARY
  5
D
102
{ACAD_REACTORS
330
C
102
}
100
AcDbDictionary
280
0
281
1
  0
ACDBDICTIONARYWDFLT
  5
E
102
{ACAD_REACTORS
330
C
102
}
100
AcDbDictionary
281
1
  3
Normal
350
F
100
AcDbDictionaryWithDefault
340
F
  0
DICTIONARY
  5
17
102
{ACAD_REACTORS
330
C
102
}
100
AcDbDictionary
280
0
281
1
  3
Standard
350
18
  0
DICTIONARY
  5
19
102
{ACAD_REACTORS
330
C
102
}
100
AcDbDictionary
281
1
  0
DICTIONARY
  5
1A
102
{ACAD_REACTORS
330
C
102
}
100
AcDbDictionary
281
1
  3
Model
350
5E7
  3
Layout1
350
5E8
  0
ACDBPLACEHOLDER
  5
F
102
{ACAD_REACTORS
330
E
102
}
  0
MLINESTYLE
  5
18
102
{ACAD_REACTORS
330
17
102
}
100
AcDbMlineStyle
  2
STANDARD
 70
0
  3

 62
256
 51
90.0
 52
90.0
 71
2
 49
0.5
 62
256
  6
BYLAYER
 49
-0.5
 62
256
  6
BYLAYER
  0
LAYOUT
  5
5E7
102
{ACAD_REACTORS
330
1A
102
}
100
AcDbPlotSettings
  1

  2
none_device
  4
ANSI_C_(22.00_x_17.00_Inches)
  6

 40
0.0
 41
0.0
 42
0.0
 43
0.0
 44
558.8
 45
431.8
 46
0.0
 47
0.0
 48
0.0
 49
0.0
140
0.0
141
0.0
142
1.0
143
1.0
 70
1024
 72
0
 73
0
 74
0
  7

 75
0
147
1.0
148
0.0
149
0.0
100
AcDbLayout
  1
Model
 70
0
 71
0
 10
0.0
 20
0.0
 11
22.0
 21
17.0
 12
0.0
 22
0.0
 32
0.0
 14
0.0
 24
0.0
 34
0.0
 15
0.0
 25
0.0
 35
0.0
146
0.0
 13
0.0
 23
0.0
 33
0.0
 16
1.0
 26
0.0
 36
0.0
 17
0.0
 27
1.0
 37
0.0
 76
0
330
202
345
0
346
0
  0
LAYOUT
  5
5E8
102
{ACAD_REACTORS
330
1A
102
}
100
AcDbPlotSettings
  1

  2
none_device
  4
ANSI_C_(22.00_x_17.00_Inches)
  6

 40
0.0
 41
0.0
 42
0.0
 43
0.0
 44
558.8
 45
431.8
 46
0.0
 47
0.0
 48
0.0
 49
0.0
140
0.0
141
0.0
142
1.0
143
1.0
 70
0
 72
0
 73
0
 74
0
  7

 75
0
147
1.0
148
0.0
149
0.0
100
AcDbLayout
  1
Layout1
 70
0
 71
1
 10
0.0
 20
0.0
 11
22.0
 21
17.0
 12
0.0
 22
0.0
 32
0.0
 14
0.0
 24
0.0
 34
0.0
 15
0.0
 25
0.0
 35
0.0
146
0.0
 13
0.0
 23
0.0
 33
0.0
 16
1.0
 26
0.0
 36
0.0
 17
0.0
 27
1.0
 37
0.0
 76
0
330
203
345
0
346
0
  0
ENDSEC
  0
EOF
