999
DXF file: E:\BT Custom\CADOUTPUT\_TOP.dxf
999
Pro/ENGINEER 2018400 by Parametric Technology Corporation
  0
SECTION
  2
HEADER
  9
$ACADVER
  1
AC1018
  9
$DWGCODEPAGE
  3
ANSI_1252
  9
$EXTMAX
 10
22.0
 20
17.0
 30
0.0
  9
$EXTMIN
 10
0.0
 20
0.0
 30
0.0
  9
$LIMMIN
 10
0.0
 20
0.0
  9
$LIMMAX
 10
22.0
 20
17.0
  9
$VIEWCTR
 10
11.0
 20
8.5
  9
$VIEWSIZE
 40
17.0
  9
$CLAYER
  8
0
  9
$LTSCALE
 40
1.21
  9
$CELTYPE
  6
BYLAYER
  9
$DIMSCALE
 40
1.0
  9
$DIMASZ
 40
0.1
  9
$DIMEXO
 40
0.0625
  9
$DIMDLI
 40
0.836
  9
$DIMEXE
 40
0.125
  9
$DIMCEN
 40
0.198
  9
$DIMLFAC
 40
1.0
  9
$DIMBLK
  1
_FILLED
  9
$DIMALT
 70
1
  9
$DIMALTD
 70
2
  9
$DIMALTTD
 70
2
  9
$DIMALTF
 40
25.4
  9
$DIMTXT
 40
0.08
  9
$DIMTOL
 70
1
  9
$DIMLIM
 70
0
  9
$DIMTFAC
 40
1.0
  9
$DIMTP
 40
0.001
  9
$DIMTM
 40
0.001
  9
$DIMGAP
 40
0.09
  9
$DIMDSEP
 70
46
  9
$AUNITS
 70
0
  9
$PDMODE
 70
3
  9
$PDSIZE
 40
0.06
  9
$HANDSEED
  5
51D
  9
$TILEMODE
 70
1
  9
$MEASUREMENT
 70
0
  9
$INSUNITS
 70
1
  0
ENDSEC
  0
SECTION
  2
CLASSES
  0
CLASS
  1
ACDBDICTIONARYWDFLT
  2
AcDbDictionaryWithDefault
  3
AutoCAD 2000
 90
0
 91
1
280
0
281
0
  0
CLASS
  1
ACDBPLACEHOLDER
  2
AcDbPlaceHolder
  3
AutoCAD 2000
 90
0
 91
1
280
0
281
0
  0
CLASS
  1
LAYOUT
  2
AcDbLayout
  3
AutoCAD 2000
 90
0
 91
0
280
0
281
0
  0
ENDSEC
  0
SECTION
  2
TABLES
  0
TABLE
  2
VPORT
  5
8
100
AcDbSymbolTable
 70
2
  0
VPORT
  5
1F4
100
AcDbSymbolTableRecord
100
AcDbViewportTableRecord
  2
*ACTIVE
 70
0
 10
0.0
 20
0.0
 11
1.0
 21
1.0
 12
11.0
 22
8.5
 13
0.0
 23
0.0
 14
1.0
 24
1.0
 15
0.0
 25
0.0
 16
0.0
 26
0.0
 36
1.0
 17
0.0
 27
0.0
 37
0.0
 40
17.0
 41
1.2941176471
 42
50.0
 43
0.0
 44
0.0
 50
0.0
 51
0.0
 71
0
 72
100
 73
1
 74
1
 75
0
 76
0
 77
0
 78
0
  0
ENDTAB
  0
TABLE
  2
LTYPE
  5
5
100
AcDbSymbolTable
 70
6
  0
LTYPE
  5
14
100
AcDbSymbolTableRecord
100
AcDbLinetypeTableRecord
  2
BYBLOCK
 70
0
  3

 72
65
 73
0
 40
0.0
  0
LTYPE
  5
15
100
AcDbSymbolTableRecord
100
AcDbLinetypeTableRecord
  2
BYLAYER
 70
0
  3

 72
65
 73
0
 40
0.0
  0
LTYPE
  5
16
100
AcDbSymbolTableRecord
100
AcDbLinetypeTableRecord
  2
CONTINUOUS
 70
64
  3
Solid line
 72
65
 73
0
 40
0.0
  0
LTYPE
  5
1F5
100
AcDbSymbolTableRecord
100
AcDbLinetypeTableRecord
  2
CENTER
 70
64
  3
____ _ ____ _ ____ _ ____ _ ____ _ ____ _ ____
 72
65
 73
4
 40
0.6
 49
0.375
 74
0
 49
-0.075
 74
0
 49
0.075
 74
0
 49
-0.075
 74
0
  0
LTYPE
  5
1F6
100
AcDbSymbolTableRecord
100
AcDbLinetypeTableRecord
  2
HIDDEN
 70
64
  3
- - - - - - - - - - - - - - - - - - - -
 72
65
 73
2
 40
0.2
 49
0.1
 74
0
 49
-0.1
 74
0
  0
LTYPE
  5
1F7
100
AcDbSymbolTableRecord
100
AcDbLinetypeTableRecord
  2
PHANTOM
 70
64
  3
_____ _ _ _____ _ _ _____ _ _ _____
 72
65
 73
6
 40
0.8
 49
0.45
 74
0
 49
-0.05
 74
0
 49
0.1
 74
0
 49
-0.05
 74
0
 49
0.1
 74
0
 49
-0.05
 74
0
  0
LTYPE
  5
1F8
100
AcDbSymbolTableRecord
100
AcDbLinetypeTableRecord
  2
DOT
 70
64
  3
. . . . . . . . . . . . . . . . . . . .
 72
65
 73
2
 40
0.2
 49
0.1
 74
0
 49
-0.1
 74
0
  0
LTYPE
  5
1F9
100
AcDbSymbolTableRecord
100
AcDbLinetypeTableRecord
  2
DASHED
 70
64
  3
- - - - - - - - - - - - - - - - - - - -
 72
65
 73
2
 40
0.2
 49
0.1
 74
0
 49
-0.1
 74
0
  0
ENDTAB
  0
TABLE
  2
LAYER
  5
2
100
AcDbSymbolTable
 70
36
  0
LAYER
  5
10
100
AcDbSymbolTableRecord
100
AcDbLayerTableRecord
  2
0
 70
0
 62
7
  6
CONTINUOUS
370
-3
390
F
  0
LAYER
  5
1FA
100
AcDbSymbolTableRecord
100
AcDbLayerTableRecord
  2
DEFAULT_1
 70
0
 62
7
  6
CENTER
370
-3
390
F
  0
LAYER
  5
1FB
100
AcDbSymbolTableRecord
100
AcDbLayerTableRecord
  2
DEFAULT_2
 70
0
 62
8
  6
HIDDEN
370
-3
390
F
  0
LAYER
  5
1FC
100
AcDbSymbolTableRecord
100
AcDbLayerTableRecord
  2
DEFAULT_3
 70
0
 62
7
  6
PHANTOM
370
-3
390
F
  0
LAYER
  5
1FD
100
AcDbSymbolTableRecord
100
AcDbLayerTableRecord
  2
ALL_FEATURES
 70
0
 62
7
  6
CONTINUOUS
370
-3
390
F
  0
LAYER
  5
1FE
100
AcDbSymbolTableRecord
100
AcDbLayerTableRecord
  2
AXES_FEATURES
 70
0
 62
7
  6
CONTINUOUS
370
-3
390
F
  0
LAYER
  5
1FF
100
AcDbSymbolTableRecord
100
AcDbLayerTableRecord
  2
DIMENSIONS
 70
0
 62
7
  6
CONTINUOUS
370
-3
390
F
  0
ENDTAB
  0
TABLE
  2
STYLE
  5
3
100
AcDbSymbolTable
 70
1
  0
STYLE
  5
11
100
AcDbSymbolTableRecord
100
AcDbTextStyleTableRecord
  2
STANDARD
 70
0
 40
0.0
 41
0.8
 50
0.0
 71
0
 42
0.2
  3
txt
  4

  0
STYLE
  5
200
100
AcDbSymbolTableRecord
100
AcDbTextStyleTableRecord
  2
TEXTSTYLE_1
 70
0
 40
0.0
 41
0.8
 50
0.0
 71
0
 42
0.2
  3
gdt
  4

  0
ENDTAB
  0
TABLE
  2
VIEW
  5
6
100
AcDbSymbolTable
 70
0
  0
ENDTAB
  0
TABLE
  2
UCS
  5
7
100
AcDbSymbolTable
 70
0
  0
ENDTAB
  0
TABLE
  2
APPID
  5
9
100
AcDbSymbolTable
 70
1
  0
APPID
  5
201
100
AcDbSymbolTableRecord
100
AcDbRegAppTableRecord
  2
ACAD
 70
0
  0
ENDTAB
  0
TABLE
  2
BLOCK_RECORD
  5
1
100
AcDbSymbolTable
 70
0
  0
BLOCK_RECORD
  5
202
100
AcDbSymbolTableRecord
100
AcDbBlockTableRecord
  2
*Model_Space
  0
BLOCK_RECORD
  5
203
100
AcDbSymbolTableRecord
100
AcDbBlockTableRecord
  2
*Paper_Space
  0
BLOCK_RECORD
  5
204
100
AcDbSymbolTableRecord
100
AcDbBlockTableRecord
  2
_FILLED
  0
ENDTAB
  0
TABLE
  2
DIMSTYLE
  5
A
100
AcDbSymbolTable
 70
1
100
AcDbDimStyleTable
 71
0
  0
DIMSTYLE
105
205
100
AcDbSymbolTableRecord
100
AcDbDimStyleTableRecord
  2
STANDARD
 70
0
  3

  4

 40
1.0
 41
0.1
 42
0.0625
 43
0.38
 44
0.125
 45
0.0
 46
0.0
 47
0.001
 48
0.001
140
0.08
141
0.09
142
0.0
143
25.4
144
1.0
145
0.0
146
1.0
147
0.09
 71
1.0
 72
0.0
 73
1
 74
1
 75
0
 76
0
 77
0
 78
4
 79
1
170
1
171
2
172
0
173
0
174
0
175
0
176
0
177
0
178
0
270
2
179
3
271
3
272
3
273
2
274
2
275
0
280
0
281
0
282
0
283
1
284
4
285
0
286
0
287
3
288
0
340
11
278
46
341
204
342
204
343
204
344
204
  0
ENDTAB
  0
ENDSEC
  0
SECTION
  2
BLOCKS
  0
BLOCK
  5
20
100
AcDbEntity
  8
0
100
AcDbBlockBegin
  2
*Model_Space
 70
0
 10
0.0
 20
0.0
 30
0.0
  3
*Model_Space
  1

  0
ENDBLK
  5
21
100
AcDbEntity
  8
0
100
AcDbBlockEnd
  0
BLOCK
  5
1C
100
AcDbEntity
  8
0
100
AcDbBlockBegin
  2
*Paper_Space
 70
0
 10
0.0
 20
0.0
 30
0.0
  3
*Paper_Space
  1

  0
ENDBLK
  5
1D
100
AcDbEntity
  8
0
100
AcDbBlockEnd
  0
BLOCK
  5
206
100
AcDbEntity
  8
0
100
AcDbBlockBegin
  2
_FILLED
 70
64
 10
0.0
 20
0.0
  3
_FILLED
  1

  0
SOLID
  5
207
100
AcDbEntity
  8
0
  6
BYBLOCK
 62
0
100
AcDbTrace
 10
0.0
 20
0.0
 11
-1.0
 21
0.2
 12
-1.0
 22
-0.2
 13
-1.0
 23
-0.2
  0
ENDBLK
  5
208
100
AcDbEntity
  8
0
  6
BYBLOCK
 62
0
100
AcDbBlockEnd
  0
ENDSEC
  0
SECTION
  2
ENTITIES
  0
LINE
  5
209
100
AcDbEntity
  8
0
100
AcDbLine
 62
7
  6
CONTINUOUS
 10
10.6767502453
 20
-3.0421229129
 11
10.705439388
 21
-3.0508940641
  0
LINE
  5
20A
100
AcDbEntity
  8
0
100
AcDbLine
 62
7
  6
CONTINUOUS
 10
11.3891972885
 20
-3.2599398329
 11
11.4178864312
 21
-3.2687109841
  0
LINE
  5
20B
100
AcDbEntity
  8
0
100
AcDbLine
 62
7
  6
CONTINUOUS
 10
10.7051761461
 20
-2.9734967179
 11
10.7316645738
 21
-2.9875808648
  0
LINE
  5
20C
100
AcDbEntity
  8
0
100
AcDbLine
 62
7
  6
CONTINUOUS
 10
11.3629721027
 20
-3.3232530322
 11
11.3894605305
 21
-3.3373371791
  0
LINE
  5
20D
100
AcDbEntity
  8
0
100
AcDbLine
 62
7
  6
CONTINUOUS
 10
4.2853183383
 20
8.9869721133
 11
4.2853183383
 21
8.9367030515
  0
LINE
  5
20E
100
AcDbEntity
  8
0
100
AcDbLine
 62
7
  6
CONTINUOUS
 10
4.2853183383
 20
8.7487030515
 11
4.2853183383
 21
8.6984339897
  0
LINE
  5
20F
100
AcDbEntity
  8
0
100
AcDbLine
 62
7
  6
CONTINUOUS
 10
4.2853183383
 20
8.5654979148
 11
4.2853183383
 21
8.5446757876
  0
LINE
  5
210
100
AcDbEntity
  8
0
100
AcDbLine
 62
7
  6
CONTINUOUS
 10
4.2853183383
 20
9.1199081882
 11
4.2853183383
 21
9.1407303154
  0
LINE
  5
211
100
AcDbEntity
  8
0
100
AcDbLine
 62
7
  6
CONTINUOUS
 10
6.941403355
 20
9.1502033751
 11
6.9426111709
 21
9.153048811
  0
LINE
  5
212
100
AcDbEntity
  8
0
100
AcDbLine
 62
7
  6
CONTINUOUS
 10
6.9385314037
 20
9.1740803674
 11
6.9415332289
 21
9.1792754656
  0
LINE
  5
213
100
AcDbEntity
  8
0
100
AcDbLine
 62
7
  6
CONTINUOUS
 10
10.8653981077
 20
-2.8132747563
 11
10.8794822546
 21
-2.8397631841
  0
LINE
  5
214
100
AcDbEntity
  8
0
100
AcDbLine
 62
7
  6
CONTINUOUS
 10
11.215154422
 20
-3.471070713
 11
11.2292385689
 21
-3.4975591407
  0
LINE
  5
215
100
AcDbEntity
  8
0
100
AcDbLine
 62
7
  6
CONTINUOUS
 10
7.0905409839
 20
8.5063505847
 11
7.0913260232
 21
8.4913711416
  0
LINE
  5
216
100
AcDbEntity
  8
0
100
AcDbLine
 62
7
  6
CONTINUOUS
 10
7.141516759
 20
8.5325402321
 11
7.1407317197
 21
8.5475196751
  0
LINE
  5
217
100
AcDbEntity
  8
0
100
AcDbLine
 62
7
  6
CONTINUOUS
 10
6.8373183383
 20
8.9127030515
 11
6.8373183383
 21
8.8977030515
  0
LINE
  5
218
100
AcDbEntity
  8
0
100
AcDbLine
 62
7
  6
CONTINUOUS
 10
6.8373183383
 20
8.7927030515
 11
6.8373183383
 21
8.7727030515
  0
LINE
  5
219
100
AcDbEntity
  8
0
100
AcDbLine
 62
7
  6
CONTINUOUS
 10
6.8518183383
 20
8.873474167
 11
6.8518183383
 21
8.811931936
  0
LINE
  5
21A
100
AcDbEntity
  8
0
100
AcDbLine
 62
7
  6
CONTINUOUS
 10
6.8848183383
 20
8.811931936
 11
6.8848183383
 21
8.8347030515
  0
LINE
  5
21B
100
AcDbEntity
  8
0
100
AcDbLine
 62
7
  6
CONTINUOUS
 10
6.8848183383
 20
8.853474167
 11
6.8848183383
 21
8.873474167
  0
LINE
  5
21C
100
AcDbEntity
  8
0
100
AcDbLine
 62
7
  6
CONTINUOUS
 10
6.8973183383
 20
8.7727030515
 11
6.8973183383
 21
8.7933914398
  0
LINE
  5
21D
100
AcDbEntity
  8
0
100
AcDbLine
 62
7
  6
CONTINUOUS
 10
6.8973183383
 20
8.8920146632
 11
6.8973183383
 21
8.9127030515
  0
LINE
  5
21E
100
AcDbEntity
  8
0
100
AcDbLine
 62
7
  6
CONTINUOUS
 10
6.9123183383
 20
8.9127030515
 11
6.9123183383
 21
8.8920146632
  0
LINE
  5
21F
100
AcDbEntity
  8
0
100
AcDbLine
 62
7
  6
CONTINUOUS
 10
6.9123183383
 20
8.7933914398
 11
6.9123183383
 21
8.7727030515
  0
LINE
  5
220
100
AcDbEntity
  8
0
100
AcDbLine
 62
7
  6
CONTINUOUS
 10
6.9248183383
 20
8.873474167
 11
6.9248183383
 21
8.853474167
  0
LINE
  5
221
100
AcDbEntity
  8
0
100
AcDbLine
 62
7
  6
CONTINUOUS
 10
6.9248183383
 20
8.8347030515
 11
6.9248183383
 21
8.811931936
  0
LINE
  5
222
100
AcDbEntity
  8
0
100
AcDbLine
 62
7
  6
CONTINUOUS
 10
6.9578183383
 20
8.811931936
 11
6.9578183383
 21
8.873474167
  0
LINE
  5
223
100
AcDbEntity
  8
0
100
AcDbLine
 62
7
  6
CONTINUOUS
 10
6.9723183383
 20
8.7727030515
 11
6.9723183383
 21
8.7927030515
  0
LINE
  5
224
100
AcDbEntity
  8
0
100
AcDbLine
 62
7
  6
CONTINUOUS
 10
6.9723183383
 20
8.8977030515
 11
6.9723183383
 21
8.9127030515
  0
LINE
  5
225
100
AcDbEntity
  8
0
100
AcDbLine
 62
7
  6
CONTINUOUS
 10
6.9773183383
 20
8.7927030515
 11
6.9773183383
 21
8.7727030515
  0
LINE
  5
226
100
AcDbEntity
  8
0
100
AcDbLine
 62
7
  6
CONTINUOUS
 10
7.0173183383
 20
8.4917030515
 11
7.0173183383
 21
8.4827030515
  0
LINE
  5
227
100
AcDbEntity
  8
0
100
AcDbLine
 62
7
  6
CONTINUOUS
 10
7.0223183383
 20
8.7727030515
 11
7.0223183383
 21
8.7927030515
  0
LINE
  5
228
100
AcDbEntity
  8
0
100
AcDbLine
 62
7
  6
CONTINUOUS
 10
7.0363183383
 20
8.4827030515
 11
7.0363183383
 21
8.4917030515
  0
LINE
  5
229
100
AcDbEntity
  8
0
100
AcDbLine
 62
7
  6
CONTINUOUS
 10
7.0528690939
 20
8.4827030515
 11
7.0528690939
 21
8.4917030515
  0
LINE
  5
22A
100
AcDbEntity
  8
0
100
AcDbLine
 62
7
  6
CONTINUOUS
 10
7.0613556717
 20
8.7927030515
 11
7.0613556717
 21
8.7727030515
  0
LINE
  5
22B
100
AcDbEntity
  8
0
100
AcDbLine
 62
7
  6
CONTINUOUS
 10
7.0793183383
 20
8.4827030515
 11
7.0793183383
 21
8.4917030515
  0
LINE
  5
22C
100
AcDbEntity
  8
0
100
AcDbLine
 62
7
  6
CONTINUOUS
 10
7.1123183383
 20
8.9127030515
 11
7.1123183383
 21
8.8977030515
  0
LINE
  5
22D
100
AcDbEntity
  8
0
100
AcDbLine
 62
7
  6
CONTINUOUS
 10
7.1223183383
 20
8.7727030515
 11
7.1223183383
 21
8.7927030515
  0
LINE
  5
22E
100
AcDbEntity
  8
0
100
AcDbLine
 62
7
  6
CONTINUOUS
 10
7.1283183383
 20
8.8817030515
 11
7.1283183383
 21
8.8277030515
  0
LINE
  5
22F
100
AcDbEntity
  8
0
100
AcDbLine
 62
7
  6
CONTINUOUS
 10
7.1583183383
 20
8.8277030515
 11
7.1583183383
 21
8.8817030515
  0
LINE
  5
230
100
AcDbEntity
  8
0
100
AcDbLine
 62
7
  6
CONTINUOUS
 10
7.1743183383
 20
8.8977030515
 11
7.1743183383
 21
8.9127030515
  0
LINE
  5
231
100
AcDbEntity
  8
0
100
AcDbLine
 62
7
  6
CONTINUOUS
 10
7.2023183383
 20
8.9127030515
 11
7.2023183383
 21
8.8977030515
  0
LINE
  5
232
100
AcDbEntity
  8
0
100
AcDbLine
 62
7
  6
CONTINUOUS
 10
7.2183183383
 20
8.8277030515
 11
7.2183183383
 21
8.8817030515
  0
LINE
  5
233
100
AcDbEntity
  8
0
100
AcDbLine
 62
7
  6
CONTINUOUS
 10
7.2383183383
 20
8.8277030515
 11
7.2383183383
 21
8.8817030515
  0
LINE
  5
234
100
AcDbEntity
  8
0
100
AcDbLine
 62
7
  6
CONTINUOUS
 10
7.2523183383
 20
8.8957030515
 11
7.2523183383
 21
8.9127030515
  0
LINE
  5
235
100
AcDbEntity
  8
0
100
AcDbLine
 62
7
  6
CONTINUOUS
 10
7.2573183383
 20
8.9127030515
 11
7.2573183383
 21
8.8977030515
  0
LINE
  5
236
100
AcDbEntity
  8
0
100
AcDbLine
 62
7
  6
CONTINUOUS
 10
7.2573183383
 20
8.7927030515
 11
7.2573183383
 21
8.7727030515
  0
LINE
  5
237
100
AcDbEntity
  8
0
100
AcDbLine
 62
7
  6
CONTINUOUS
 10
7.2653183383
 20
8.8844365523
 11
7.2653183383
 21
8.8059695507
  0
LINE
  5
238
100
AcDbEntity
  8
0
100
AcDbLine
 62
7
  6
CONTINUOUS
 10
7.3023183383
 20
8.8927030515
 11
7.3023183383
 21
8.7977030515
  0
LINE
  5
239
100
AcDbEntity
  8
0
100
AcDbLine
 62
7
  6
CONTINUOUS
 10
6.6923185623
 20
8.8427013772
 11
6.6923183383
 21
8.8425229122
  0
LINE
  5
23A
100
AcDbEntity
  8
0
100
AcDbLine
 62
7
  6
CONTINUOUS
 10
7.0429967339
 20
9.2022337508
 11
7.0427350176
 21
9.1962394615
  0
LINE
  5
23B
100
AcDbEntity
  8
0
100
AcDbLine
 62
7
  6
CONTINUOUS
 10
7.0407721452
 20
9.1512822915
 11
7.0403795707
 21
9.1422908575
  0
LINE
  5
23C
100
AcDbEntity
  8
0
100
AcDbLine
 62
7
  6
CONTINUOUS
 10
7.0455055093
 20
9.1909173965
 11
7.0439959428
 21
9.1563426402
  0
LINE
  5
23D
100
AcDbEntity
  8
0
100
AcDbLine
 62
7
  6
CONTINUOUS
 10
7.0596617904
 20
9.1941913424
 11
7.0589034965
 21
9.176823557
  0
LINE
  5
23E
100
AcDbEntity
  8
0
100
AcDbLine
 62
7
  6
CONTINUOUS
 10
7.0579826179
 20
9.1557319687
 11
7.0585411139
 21
9.1685236299
  0
LINE
  5
23F
100
AcDbEntity
  8
0
100
AcDbLine
 62
7
  6
CONTINUOUS
 10
7.0607531096
 20
9.1504099037
 11
7.0603605351
 21
9.1414184697
  0
LINE
  5
240
100
AcDbEntity
  8
0
100
AcDbLine
 62
7
  6
CONTINUOUS
 10
6.9575633794
 20
9.1289215823
 11
6.9597260255
 21
9.1449245826
  0
LINE
  5
241
100
AcDbEntity
  8
0
100
AcDbLine
 62
7
  6
CONTINUOUS
 10
6.9595129934
 20
8.5546644752
 11
6.9582655233
 21
8.5487955896
  0
LINE
  5
242
100
AcDbEntity
  8
0
100
AcDbLine
 62
7
  6
CONTINUOUS
 10
6.9489094972
 20
8.5047789476
 11
6.947038292
 21
8.4959756192
  0
LINE
  5
243
100
AcDbEntity
  8
0
100
AcDbLine
 62
7
  6
CONTINUOUS
 10
6.9616647102
 20
8.538333968
 11
6.9562699339
 21
8.5129535407
  0
LINE
  5
244
100
AcDbEntity
  8
0
100
AcDbLine
 62
7
  6
CONTINUOUS
 10
6.969955945
 20
8.5148146145
 11
6.9689858527
 21
8.5102506887
  0
LINE
  5
245
100
AcDbEntity
  8
0
100
AcDbLine
 62
7
  6
CONTINUOUS
 10
6.971664344
 20
8.5228519996
 11
6.9760682832
 21
8.5435709047
  0
LINE
  5
246
100
AcDbEntity
  8
0
100
AcDbLine
 62
7
  6
CONTINUOUS
 10
6.9723850396
 20
8.499789067
 11
6.9705138344
 21
8.4909857386
  0
LINE
  5
247
100
AcDbEntity
  8
0
100
AcDbLine
 62
7
  6
CONTINUOUS
 10
7.005727148
 20
8.4835009177
 11
7.0075983532
 21
8.4923042462
  0
LINE
  5
248
100
AcDbEntity
  8
0
100
AcDbLine
 62
7
  6
CONTINUOUS
 10
6.9956243476
 20
9.1932526158
 11
6.9879264339
 21
9.1604568451
  0
LINE
  5
249
100
AcDbEntity
  8
0
100
AcDbLine
 62
7
  6
CONTINUOUS
 10
6.9881241101
 20
9.1350422143
 11
6.9958220238
 21
9.167837985
  0
LINE
  5
24A
100
AcDbEntity
  8
0
100
AcDbLine
 62
7
  6
CONTINUOUS
 10
7.0183223694
 20
9.1867752912
 11
7.0130799491
 21
9.1644407705
  0
LINE
  5
24B
100
AcDbEntity
  8
0
100
AcDbLine
 62
7
  6
CONTINUOUS
 10
7.0132776253
 20
9.1390261397
 11
7.0257563116
 21
9.1921896525
  0
LINE
  5
24C
100
AcDbEntity
  8
0
100
AcDbLine
 62
7
  6
CONTINUOUS
 10
7.2869502079
 20
9.1006897805
 11
7.2896170983
 21
9.1089760522
  0
LINE
  5
24D
100
AcDbEntity
  8
0
100
AcDbLine
 62
7
  6
CONTINUOUS
 10
7.0348183383
 20
8.9127030515
 11
6.998832307
 21
8.8138322432
  0
LINE
  5
24E
100
AcDbEntity
  8
0
100
AcDbLine
 62
7
  6
CONTINUOUS
 10
7.0140089016
 20
8.8116725282
 11
7.0162038326
 21
8.8177030515
  0
LINE
  5
24F
100
AcDbEntity
  8
0
100
AcDbLine
 62
7
  6
CONTINUOUS
 10
7.0234832373
 20
8.8377030515
 11
7.041837005
 21
8.8881296138
  0
LINE
  5
250
100
AcDbEntity
  8
0
100
AcDbLine
 62
7
  6
CONTINUOUS
 10
7.0418183383
 20
8.5427030515
 11
7.0265536142
 21
8.5007635667
  0
LINE
  5
251
100
AcDbEntity
  8
0
100
AcDbLine
 62
7
  6
CONTINUOUS
 10
7.0324720009
 20
8.4994813742
 11
7.0332806253
 21
8.5017030515
  0
LINE
  5
252
100
AcDbEntity
  8
0
100
AcDbLine
 62
7
  6
CONTINUOUS
 10
7.0365563574
 20
8.5107030515
 11
7.0445937161
 21
8.5327855129
  0
LINE
  5
253
100
AcDbEntity
  8
0
100
AcDbLine
 62
7
  6
CONTINUOUS
 10
6.9070264362
 20
8.5767741471
 11
6.9045860163
 21
8.5712928743
  0
LINE
  5
254
100
AcDbEntity
  8
0
100
AcDbLine
 62
7
  6
CONTINUOUS
 10
6.8862828674
 20
8.5301833287
 11
6.8826222376
 21
8.5219614196
  0
LINE
  5
255
100
AcDbEntity
  8
0
100
AcDbLine
 62
7
  6
CONTINUOUS
 10
6.9064252713
 20
8.5631309419
 11
6.893579067
 21
8.5342778947
  0
LINE
  5
256
100
AcDbEntity
  8
0
100
AcDbLine
 62
7
  6
CONTINUOUS
 10
6.9197095525
 20
8.5634648059
 11
6.9136085028
 21
8.5497616241
  0
LINE
  5
257
100
AcDbEntity
  8
0
100
AcDbLine
 62
7
  6
CONTINUOUS
 10
6.9095411364
 20
8.5406261695
 11
6.9014064035
 21
8.5223552603
  0
LINE
  5
258
100
AcDbEntity
  8
0
100
AcDbLine
 62
7
  6
CONTINUOUS
 10
7.1822237288
 20
9.1763293928
 11
7.1795935019
 21
9.1709366285
  0
LINE
  5
259
100
AcDbEntity
  8
0
100
AcDbLine
 62
7
  6
CONTINUOUS
 10
7.1598668003
 20
9.1304908964
 11
7.15592146
 21
9.12240175
  0
LINE
  5
25A
100
AcDbEntity
  8
0
100
AcDbLine
 62
7
  6
CONTINUOUS
 10
7.1803608232
 20
9.159963424
 11
7.1689862136
 21
9.1366420184
  0
LINE
  5
25B
100
AcDbEntity
  8
0
100
AcDbLine
 62
7
  6
CONTINUOUS
 10
7.1806705362
 20
9.1309431935
 11
7.1827159263
 21
9.1351368646
  0
LINE
  5
25C
100
AcDbEntity
  8
0
100
AcDbLine
 62
7
  6
CONTINUOUS
 10
7.1863179979
 20
9.1425222059
 11
7.1956034781
 21
9.1615602616
  0
LINE
  5
25D
100
AcDbEntity
  8
0
100
AcDbLine
 62
7
  6
CONTINUOUS
 10
7.1774925171
 20
9.1118808425
 11
7.1814378574
 21
9.1199699889
  0
LINE
  5
25E
100
AcDbEntity
  8
0
100
AcDbLine
 62
7
  6
CONTINUOUS
 10
7.2098491028
 20
9.0960994812
 11
7.2137944431
 21
9.1041886276
  0
LINE
  5
25F
100
AcDbEntity
  8
0
100
AcDbLine
 62
7
  6
CONTINUOUS
 10
7.2266979329
 20
9.0934139628
 11
7.2211569796
 21
9.086321866
  0
LINE
  5
260
100
AcDbEntity
  8
0
100
AcDbLine
 62
7
  6
CONTINUOUS
 10
7.2584781447
 20
9.1235330288
 11
7.238751323
 21
9.0982838485
  0
LINE
  5
261
100
AcDbEntity
  8
0
100
AcDbLine
 62
7
  6
CONTINUOUS
 10
7.2489954628
 20
9.0902802493
 11
7.2687222845
 21
9.1155294296
  0
LINE
  5
262
100
AcDbEntity
  8
0
100
AcDbLine
 62
7
  6
CONTINUOUS
 10
7.2416452592
 20
9.0703146676
 11
7.2471862125
 21
9.0774067644
  0
LINE
  5
263
100
AcDbEntity
  8
0
100
AcDbLine
 62
7
  6
CONTINUOUS
 10
6.8630009935
 20
9.1525370658
 11
6.8452026196
 21
9.1396057903
  0
LINE
  5
264
100
AcDbEntity
  8
0
100
AcDbLine
 62
7
  6
CONTINUOUS
 10
6.8258068287
 20
9.1255139233
 11
6.8120329229
 21
9.1155065949
  0
LINE
  5
265
100
AcDbEntity
  8
0
100
AcDbLine
 62
7
  6
CONTINUOUS
 10
6.847300038
 20
9.0669655752
 11
6.8650984119
 21
9.0798968508
  0
LINE
  5
266
100
AcDbEntity
  8
0
100
AcDbLine
 62
7
  6
CONTINUOUS
 10
6.8844942028
 20
9.0939887178
 11
6.8982681087
 21
9.1039960461
  0
LINE
  5
267
100
AcDbEntity
  8
0
100
AcDbLine
 62
7
  6
CONTINUOUS
 10
6.8323183383
 20
8.8667895194
 11
6.8193183383
 21
8.9127030515
  0
LINE
  5
268
100
AcDbEntity
  8
0
100
AcDbLine
 62
7
  6
CONTINUOUS
 10
6.9532887987
 20
9.1902727505
 11
6.9542274055
 21
9.1843466205
  0
LINE
  5
269
100
AcDbEntity
  8
0
100
AcDbLine
 62
7
  6
CONTINUOUS
 10
6.9799073023
 20
9.1884139166
 11
6.9789686955
 21
9.1943400466
  0
LINE
  5
26A
100
AcDbEntity
  8
0
100
AcDbLine
 62
7
  6
CONTINUOUS
 10
7.0111287795
 20
9.1994337035
 11
7.0120673863
 21
9.1935075735
  0
LINE
  5
26B
100
AcDbEntity
  8
0
100
AcDbLine
 62
7
  6
CONTINUOUS
 10
7.0302794077
 20
9.1963920743
 11
7.0293408009
 21
9.2023182043
  0
LINE
  5
26C
100
AcDbEntity
  8
0
100
AcDbLine
 62
7
  6
CONTINUOUS
 10
7.2396695627
 20
9.137629469
 11
7.2401570401
 21
9.1336592844
  0
LINE
  5
26D
100
AcDbEntity
  8
0
100
AcDbLine
 62
7
  6
CONTINUOUS
 10
7.2470645176
 20
9.1422217719
 11
7.2396695627
 21
9.137629469
  0
LINE
  5
26E
100
AcDbEntity
  8
0
100
AcDbLine
 62
7
  6
CONTINUOUS
 10
6.9249099239
 20
9.1804408144
 11
6.8868734233
 21
9.1650730707
  0
LINE
  5
26F
100
AcDbEntity
  8
0
100
AcDbLine
 62
7
  6
CONTINUOUS
 10
6.9080234223
 20
9.1639114122
 11
6.9292844101
 21
9.1725014089
  0
LINE
  5
270
100
AcDbEntity
  8
0
100
AcDbLine
 62
7
  6
CONTINUOUS
 10
6.9308844078
 20
9.1580483636
 11
6.9123407307
 21
9.1505562317
  0
LINE
  5
271
100
AcDbEntity
  8
0
100
AcDbLine
 62
7
  6
CONTINUOUS
 10
6.9166393739
 20
9.1425861836
 11
6.9314743156
 21
9.1485798891
  0
LINE
  5
272
100
AcDbEntity
  8
0
100
AcDbLine
 62
7
  6
CONTINUOUS
 10
6.9406241793
 20
9.1339415833
 11
6.923007686
 21
9.1268240581
  0
LINE
  5
273
100
AcDbEntity
  8
0
100
AcDbLine
 62
7
  6
CONTINUOUS
 10
6.9093498189
 20
9.1094420394
 11
6.9575633794
 21
9.1289215823
  0
LINE
  5
274
100
AcDbEntity
  8
0
100
AcDbLine
 62
7
  6
CONTINUOUS
 10
6.9598277453
 20
9.1817475934
 11
6.9881241101
 21
9.1350422143
  0
LINE
  5
275
100
AcDbEntity
  8
0
100
AcDbLine
 62
7
  6
CONTINUOUS
 10
6.9879264339
 20
9.1604568451
 11
6.9760388495
 21
9.1800782395
  0
LINE
  5
276
100
AcDbEntity
  8
0
100
AcDbLine
 62
7
  6
CONTINUOUS
 10
6.9958220238
 20
9.167837985
 11
7.0132776253
 21
9.1390261397
  0
LINE
  5
277
100
AcDbEntity
  8
0
100
AcDbLine
 62
7
  6
CONTINUOUS
 10
7.0130799491
 20
9.1644407705
 11
6.9956243476
 21
9.1932526158
  0
LINE
  5
278
100
AcDbEntity
  8
0
100
AcDbLine
 62
7
  6
CONTINUOUS
 10
6.9743662745
 20
8.514536745
 11
6.9890986388
 21
8.4870354165
  0
LINE
  5
279
100
AcDbEntity
  8
0
100
AcDbLine
 62
7
  6
CONTINUOUS
 10
7.208909562
 20
9.1089009196
 11
7.1984260329
 21
9.1285674319
  0
LINE
  5
27A
100
AcDbEntity
  8
0
100
AcDbLine
 62
7
  6
CONTINUOUS
 10
6.8868734233
 20
9.1650730707
 11
6.8891210629
 21
9.1595099675
  0
LINE
  5
27B
100
AcDbEntity
  8
0
100
AcDbLine
 62
7
  6
CONTINUOUS
 10
6.9059783596
 20
9.1177866941
 11
6.9093498189
 21
9.1094420394
  0
LINE
  5
27C
100
AcDbEntity
  8
0
100
AcDbLine
 62
7
  6
CONTINUOUS
 10
6.8938491274
 20
9.1558159987
 11
6.9068133982
 21
9.1237283025
  0
LINE
  5
27D
100
AcDbEntity
  8
0
100
AcDbLine
 62
7
  6
CONTINUOUS
 10
6.9191023147
 20
9.1284817898
 11
6.9149816422
 21
9.1386808122
  0
LINE
  5
27E
100
AcDbEntity
  8
0
100
AcDbLine
 62
7
  6
CONTINUOUS
 10
6.9097371498
 20
9.1516613862
 11
6.9063656905
 21
9.1600060409
  0
LINE
  5
27F
100
AcDbEntity
  8
0
100
AcDbLine
 62
7
  6
CONTINUOUS
 10
6.9426111709
 20
9.153048811
 11
6.9395930201
 21
9.1605189962
  0
LINE
  5
280
100
AcDbEntity
  8
0
100
AcDbLine
 62
7
  6
CONTINUOUS
 10
7.0445937161
 20
8.5327855129
 11
7.0526310747
 21
8.5107030515
  0
LINE
  5
281
100
AcDbEntity
  8
0
100
AcDbLine
 62
7
  6
CONTINUOUS
 10
7.0559068068
 20
8.5017030515
 11
7.0567154313
 21
8.4994813742
  0
LINE
  5
282
100
AcDbEntity
  8
0
100
AcDbLine
 62
7
  6
CONTINUOUS
 10
7.0700830624
 20
8.5007635667
 11
7.0548183383
 21
8.5427030515
  0
LINE
  5
283
100
AcDbEntity
  8
0
100
AcDbLine
 62
7
  6
CONTINUOUS
 10
7.041837005
 20
8.8881296138
 11
7.0601907727
 21
8.8377030515
  0
LINE
  5
284
100
AcDbEntity
  8
0
100
AcDbLine
 62
7
  6
CONTINUOUS
 10
7.0674701774
 20
8.8177030515
 11
7.0696651083
 21
8.8116725282
  0
LINE
  5
285
100
AcDbEntity
  8
0
100
AcDbLine
 62
7
  6
CONTINUOUS
 10
7.1008043695
 20
8.8138322432
 11
7.0648183383
 21
8.9127030515
  0
LINE
  5
286
100
AcDbEntity
  8
0
100
AcDbLine
 62
7
  6
CONTINUOUS
 10
10.9340243027
 20
-2.7848488556
 11
10.9427954538
 21
-2.8135379982
  0
LINE
  5
287
100
AcDbEntity
  8
0
100
AcDbLine
 62
7
  6
CONTINUOUS
 10
11.1518412227
 20
-3.4972958988
 11
11.1606123739
 21
-3.5259850414
  0
LINE
  5
288
100
AcDbEntity
  8
0
100
AcDbLine
 62
7
  6
CONTINUOUS
 10
7.1650960323
 20
8.5246942563
 11
7.1692305926
 21
8.5102753309
  0
LINE
  5
289
100
AcDbEntity
  8
0
100
AcDbLine
 62
7
  6
CONTINUOUS
 10
7.2088739128
 20
8.5616797191
 11
7.2047393525
 21
8.5760986446
  0
LINE
  5
28A
100
AcDbEntity
  8
0
100
AcDbLine
 62
7
  6
CONTINUOUS
 10
7.1869280275
 20
9.1338002937
 11
7.194569604
 21
9.1035517907
  0
LINE
  5
28B
100
AcDbEntity
  8
0
100
AcDbLine
 62
7
  6
CONTINUOUS
 10
7.2031063427
 20
8.560025895
 11
7.2088739128
 21
8.5616797191
  0
LINE
  5
28C
100
AcDbEntity
  8
0
100
AcDbLine
 62
7
  6
CONTINUOUS
 10
7.1708636025
 20
8.5263480804
 11
7.1650960323
 21
8.5246942563
  0
LINE
  5
28D
100
AcDbEntity
  8
0
100
AcDbLine
 62
7
  6
CONTINUOUS
 10
7.0017185673
 20
8.4956948033
 11
6.9867886839
 21
8.5122409408
  0
LINE
  5
28E
100
AcDbEntity
  8
0
100
AcDbLine
 62
7
  6
CONTINUOUS
 10
6.8120329229
 20
9.1155065949
 11
6.8161474196
 21
9.1098434759
  0
LINE
  5
28F
100
AcDbEntity
  8
0
100
AcDbLine
 62
7
  6
CONTINUOUS
 10
6.8431855412
 20
9.0726286942
 11
6.847300038
 21
9.0669655752
  0
LINE
  5
290
100
AcDbEntity
  8
0
100
AcDbLine
 62
7
  6
CONTINUOUS
 10
6.82884009
 20
9.1059839269
 11
6.8434371428
 21
9.0858928073
  0
LINE
  5
291
100
AcDbEntity
  8
0
100
AcDbLine
 62
7
  6
CONTINUOUS
 10
6.8482912448
 20
9.0894195188
 11
6.833694192
 21
9.1095106384
  0
LINE
  5
292
100
AcDbEntity
  8
0
100
AcDbLine
 62
7
  6
CONTINUOUS
 10
6.8650984119
 20
9.0798968508
 11
6.8609839151
 21
9.0855599698
  0
LINE
  5
293
100
AcDbEntity
  8
0
100
AcDbLine
 62
7
  6
CONTINUOUS
 10
6.8452026196
 20
9.1396057903
 11
6.8493171164
 21
9.1339426713
  0
LINE
  5
294
100
AcDbEntity
  8
0
100
AcDbLine
 62
7
  6
CONTINUOUS
 10
6.8620097868
 20
9.1300831222
 11
6.8766068396
 21
9.1099920027
  0
LINE
  5
295
100
AcDbEntity
  8
0
100
AcDbLine
 62
7
  6
CONTINUOUS
 10
6.8814609415
 20
9.1135187142
 11
6.8668638887
 21
9.1336098337
  0
LINE
  5
296
100
AcDbEntity
  8
0
100
AcDbLine
 62
7
  6
CONTINUOUS
 10
6.8982681087
 20
9.1039960461
 11
6.8941536119
 21
9.1096591651
  0
LINE
  5
297
100
AcDbEntity
  8
0
100
AcDbLine
 62
7
  6
CONTINUOUS
 10
6.8671154903
 20
9.1468739468
 11
6.8630009935
 21
9.1525370658
  0
LINE
  5
298
100
AcDbEntity
  8
0
100
AcDbLine
 62
7
  6
CONTINUOUS
 10
7.2211569796
 20
9.086321866
 11
7.2416452592
 21
9.0703146676
  0
LINE
  5
299
100
AcDbEntity
  8
0
100
AcDbLine
 62
7
  6
CONTINUOUS
 10
7.2509848173
 20
9.130656476
 11
7.2583057954
 21
9.1249367011
  0
LINE
  5
29A
100
AcDbEntity
  8
0
100
AcDbLine
 62
7
  6
CONTINUOUS
 10
7.2701259567
 20
9.1157017789
 11
7.2774469348
 21
9.109982004
  0
LINE
  5
29B
100
AcDbEntity
  8
0
100
AcDbLine
 62
7
  6
CONTINUOUS
 10
7.2896170983
 20
9.1089760522
 11
7.2470645176
 21
9.1422217719
  0
LINE
  5
29C
100
AcDbEntity
  8
0
100
AcDbLine
 62
7
  6
CONTINUOUS
 10
14.9249099239
 20
9.1804408144
 11
14.8868734233
 21
9.1650730707
  0
LINE
  5
29D
100
AcDbEntity
  8
0
100
AcDbLine
 62
7
  6
CONTINUOUS
 10
14.9080234223
 20
9.1639114122
 11
14.9292844101
 21
9.1725014089
  0
LINE
  5
29E
100
AcDbEntity
  8
0
100
AcDbLine
 62
7
  6
CONTINUOUS
 10
14.9308844078
 20
9.1580483636
 11
14.9123407307
 21
9.1505562317
  0
LINE
  5
29F
100
AcDbEntity
  8
0
100
AcDbLine
 62
7
  6
CONTINUOUS
 10
14.9166393739
 20
9.1425861836
 11
14.9314743156
 21
9.1485798891
  0
LINE
  5
2A0
100
AcDbEntity
  8
0
100
AcDbLine
 62
7
  6
CONTINUOUS
 10
14.9406241793
 20
9.1339415833
 11
14.923007686
 21
9.1268240581
  0
LINE
  5
2A1
100
AcDbEntity
  8
0
100
AcDbLine
 62
7
  6
CONTINUOUS
 10
14.9093498189
 20
9.1094420394
 11
14.9575633794
 21
9.1289215823
  0
LINE
  5
2A2
100
AcDbEntity
  8
0
100
AcDbLine
 62
7
  6
CONTINUOUS
 10
15.2031063427
 20
8.560025895
 11
15.2088739128
 21
8.5616797191
  0
LINE
  5
2A3
100
AcDbEntity
  8
0
100
AcDbLine
 62
7
  6
CONTINUOUS
 10
6.9395930201
 20
9.1605189962
 11
6.9367475842
 21
9.1617268121
  0
LINE
  5
2A4
100
AcDbEntity
  8
0
100
AcDbLine
 62
7
  6
CONTINUOUS
 10
6.8826222376
 20
8.5219614196
 11
6.9139255662
 21
8.5080242798
  0
LINE
  5
2A5
100
AcDbEntity
  8
0
100
AcDbLine
 62
7
  6
CONTINUOUS
 10
6.9106419303
 20
8.5160540663
 11
6.9024200212
 21
8.5197146961
  0
LINE
  5
2A6
100
AcDbEntity
  8
0
100
AcDbLine
 62
7
  6
CONTINUOUS
 10
6.9121817006
 20
8.5416397871
 11
6.9204036097
 21
8.5379791573
  0
LINE
  5
2A7
100
AcDbEntity
  8
0
100
AcDbLine
 62
7
  6
CONTINUOUS
 10
6.9205601659
 20
8.5444772717
 11
6.9146221205
 21
8.5471210599
  0
LINE
  5
2A8
100
AcDbEntity
  8
0
100
AcDbLine
 62
7
  6
CONTINUOUS
 10
6.9223501167
 20
8.5644784236
 11
6.9282881622
 21
8.5618346354
  0
LINE
  5
2A9
100
AcDbEntity
  8
0
100
AcDbLine
 62
7
  6
CONTINUOUS
 10
6.9367166636
 20
8.5635552062
 11
6.9070264362
 21
8.5767741471
  0
LINE
  5
2AA
100
AcDbEntity
  8
0
100
AcDbLine
 62
7
  6
CONTINUOUS
 10
6.8323183383
 20
8.8162265751
 11
6.818788547
 21
8.8227030515
  0
LINE
  5
2AB
100
AcDbEntity
  8
0
100
AcDbLine
 62
7
  6
CONTINUOUS
 10
7.15592146
 20
9.12240175
 11
7.1774925171
 21
9.1118808425
  0
LINE
  5
2AC
100
AcDbEntity
  8
0
100
AcDbLine
 62
7
  6
CONTINUOUS
 10
7.194569604
 20
9.1035517907
 11
7.2098491028
 21
9.0960994812
  0
LINE
  5
2AD
100
AcDbEntity
  8
0
100
AcDbLine
 62
7
  6
CONTINUOUS
 10
7.1840530915
 20
9.1355972875
 11
7.1863968583
 21
9.134454156
  0
LINE
  5
2AE
100
AcDbEntity
  8
0
100
AcDbLine
 62
7
  6
CONTINUOUS
 10
7.197482259
 20
9.13596443
 11
7.1867784208
 21
9.1411850407
  0
LINE
  5
2AF
100
AcDbEntity
  8
0
100
AcDbLine
 62
7
  6
CONTINUOUS
 10
7.1969406433
 20
9.1620206845
 11
7.2076444815
 21
9.1568000738
  0
LINE
  5
2B0
100
AcDbEntity
  8
0
100
AcDbLine
 62
7
  6
CONTINUOUS
 10
7.2163779026
 20
9.1596712892
 11
7.1822237288
 21
9.1763293928
  0
LINE
  5
2B1
100
AcDbEntity
  8
0
100
AcDbLine
 62
7
  6
CONTINUOUS
 10
14.8630009935
 20
9.1525370658
 11
14.8452026196
 21
9.1396057903
  0
LINE
  5
2B2
100
AcDbEntity
  8
0
100
AcDbLine
 62
7
  6
CONTINUOUS
 10
14.8258068287
 20
9.1255139233
 11
14.8120329229
 21
9.1155065949
  0
LINE
  5
2B3
100
AcDbEntity
  8
0
100
AcDbLine
 62
7
  6
CONTINUOUS
 10
14.847300038
 20
9.0669655752
 11
14.8650984119
 21
9.0798968508
  0
LINE
  5
2B4
100
AcDbEntity
  8
0
100
AcDbLine
 62
7
  6
CONTINUOUS
 10
14.8844942028
 20
9.0939887178
 11
14.8982681087
 21
9.1039960461
  0
LINE
  5
2B5
100
AcDbEntity
  8
0
100
AcDbLine
 62
7
  6
CONTINUOUS
 10
15.2470645176
 20
9.1422217719
 11
15.2396695627
 21
9.137629469
  0
LINE
  5
2B6
100
AcDbEntity
  8
0
100
AcDbLine
 62
7
  6
CONTINUOUS
 10
15.1708636025
 20
8.5263480804
 11
15.1650960323
 21
8.5246942563
  0
LINE
  5
2B7
100
AcDbEntity
  8
0
100
AcDbLine
 62
7
  6
CONTINUOUS
 10
15.0965327611
 20
8.5066646004
 11
15.0905409839
 21
8.5063505847
  0
LINE
  5
2B8
100
AcDbEntity
  8
0
100
AcDbLine
 62
7
  6
CONTINUOUS
 10
15.1355249818
 20
8.5322262163
 11
15.141516759
 21
8.5325402321
  0
LINE
  5
2B9
100
AcDbEntity
  8
0
100
AcDbLine
 62
7
  6
CONTINUOUS
 10
7.0173183383
 20
8.4827030515
 11
7.0363183383
 21
8.4827030515
  0
LINE
  5
2BA
100
AcDbEntity
  8
0
100
AcDbLine
 62
7
  6
CONTINUOUS
 10
7.0528690939
 20
8.4827030515
 11
7.0793183383
 21
8.4827030515
  0
LINE
  5
2BB
100
AcDbEntity
  8
0
100
AcDbLine
 62
7
  6
CONTINUOUS
 10
15.0173183383
 20
8.4827030515
 11
15.0363183383
 21
8.4827030515
  0
LINE
  5
2BC
100
AcDbEntity
  8
0
100
AcDbLine
 62
7
  6
CONTINUOUS
 10
15.0528690939
 20
8.4827030515
 11
15.0793183383
 21
8.4827030515
  0
LINE
  5
2BD
100
AcDbEntity
  8
0
100
AcDbLine
 62
7
  6
CONTINUOUS
 10
6.947038292
 20
8.4959756192
 11
6.9705138344
 21
8.4909857386
  0
LINE
  5
2BE
100
AcDbEntity
  8
0
100
AcDbLine
 62
7
  6
CONTINUOUS
 10
6.9890986388
 20
8.4870354165
 11
7.005727148
 21
8.4835009177
  0
LINE
  5
2BF
100
AcDbEntity
  8
0
100
AcDbLine
 62
7
  6
CONTINUOUS
 10
6.9711420043
 20
8.5155848504
 11
6.9736926997
 21
8.5150426834
  0
LINE
  5
2C0
100
AcDbEntity
  8
0
100
AcDbLine
 62
7
  6
CONTINUOUS
 10
6.9840834484
 20
8.5191898969
 11
6.9724345799
 21
8.5216659403
  0
LINE
  5
2C1
100
AcDbEntity
  8
0
100
AcDbLine
 62
7
  6
CONTINUOUS
 10
6.9772543425
 20
8.5443411406
 11
6.988903211
 21
8.5418650972
  0
LINE
  5
2C2
100
AcDbEntity
  8
0
100
AcDbLine
 62
7
  6
CONTINUOUS
 10
6.9966826022
 20
8.546763831
 11
6.9595129934
 21
8.5546644752
  0
LINE
  5
2C3
100
AcDbEntity
  8
0
100
AcDbLine
 62
7
  6
CONTINUOUS
 10
6.833694192
 20
9.1095106384
 11
6.8844942028
 21
9.0939887178
  0
LINE
  5
2C4
100
AcDbEntity
  8
0
100
AcDbLine
 62
7
  6
CONTINUOUS
 10
6.8766068396
 20
9.1099920027
 11
6.8258068287
 21
9.1255139233
  0
LINE
  5
2C5
100
AcDbEntity
  8
0
100
AcDbLine
 62
7
  6
CONTINUOUS
 10
14.8474554377
 20
8.8801912414
 11
14.8603183383
 21
8.8927827381
  0
LINE
  5
2C6
100
AcDbEntity
  8
0
100
AcDbLine
 62
7
  6
CONTINUOUS
 10
15.0293408009
 20
9.2023182043
 11
15.0111287795
 21
9.1994337035
  0
LINE
  5
2C7
100
AcDbEntity
  8
0
100
AcDbLine
 62
7
  6
CONTINUOUS
 10
14.9789686955
 20
9.1943400466
 11
14.9532887987
 21
9.1902727505
  0
LINE
  5
2C8
100
AcDbEntity
  8
0
100
AcDbLine
 62
7
  6
CONTINUOUS
 10
15.2829800233
 20
9.1002023031
 11
15.2869502079
 21
9.1006897805
  0
LINE
  5
2C9
100
AcDbEntity
  8
0
100
AcDbLine
 62
7
  6
CONTINUOUS
 10
15.64731834
 20
8.9664467445
 11
17.8093183383
 21
9.1199081882
  0
LINE
  5
2CA
100
AcDbEntity
  8
0
100
AcDbLine
 62
7
  6
CONTINUOUS
 10
6.4473183366
 20
8.7189593585
 11
4.2853183383
 21
8.5654979148
  0
LINE
  5
2CB
100
AcDbEntity
  8
0
100
AcDbLine
 62
7
  6
CONTINUOUS
 10
15.6473183401
 20
9.0177030516
 11
17.8877715779
 21
9.1451946481
  0
LINE
  5
2CC
100
AcDbEntity
  8
0
100
AcDbLine
 62
7
  6
CONTINUOUS
 10
4.2068650986
 20
8.5402114549
 11
6.4473183365
 21
8.6677030514
  0
LINE
  5
2CD
100
AcDbEntity
  8
0
100
AcDbLine
 62
7
  6
CONTINUOUS
 10
7.0965327611
 20
8.5066646004
 11
7.0905409839
 21
8.5063505847
  0
LINE
  5
2CE
100
AcDbEntity
  8
0
100
AcDbLine
 62
7
  6
CONTINUOUS
 10
7.1355249818
 20
8.5322262163
 11
7.141516759
 21
8.5325402321
  0
LINE
  5
2CF
100
AcDbEntity
  8
0
100
AcDbLine
 62
7
  6
CONTINUOUS
 10
15.6473183401
 20
8.8427030515
 11
17.8093183383
 21
8.9367030515
  0
LINE
  5
2D0
100
AcDbEntity
  8
0
100
AcDbLine
 62
7
  6
CONTINUOUS
 10
6.4473183364
 20
8.8427030515
 11
4.2853183383
 21
8.7487030515
  0
LINE
  5
2D1
100
AcDbEntity
  8
0
100
AcDbLine
 62
7
  6
CONTINUOUS
 10
4.2853183383
 20
8.6984339897
 11
6.4473183366
 21
8.7189593585
  0
LINE
  5
2D2
100
AcDbEntity
  8
0
100
AcDbLine
 62
7
  6
CONTINUOUS
 10
17.8093183383
 20
8.9869721133
 11
15.64731834
 21
8.9664467445
  0
LINE
  5
2D3
100
AcDbEntity
  8
0
100
AcDbLine
 62
7
  6
CONTINUOUS
 10
7.0332806253
 20
8.5017030515
 11
7.0559068068
 21
8.5017030515
  0
LINE
  5
2D4
100
AcDbEntity
  8
0
100
AcDbLine
 62
7
  6
CONTINUOUS
 10
15.0332806253
 20
8.5017030515
 11
15.0559068068
 21
8.5017030515
  0
LINE
  5
2D5
100
AcDbEntity
  8
0
100
AcDbLine
 62
7
  6
CONTINUOUS
 10
15.0526310747
 20
8.5107030515
 11
15.0365563574
 21
8.5107030515
  0
LINE
  5
2D6
100
AcDbEntity
  8
0
100
AcDbLine
 62
7
  6
CONTINUOUS
 10
7.0526310747
 20
8.5107030515
 11
7.0365563574
 21
8.5107030515
  0
LINE
  5
2D7
100
AcDbEntity
  8
0
100
AcDbLine
 62
7
  6
CONTINUOUS
 10
15.0548183383
 20
8.5427030515
 11
15.0418183383
 21
8.5427030515
  0
LINE
  5
2D8
100
AcDbEntity
  8
0
100
AcDbLine
 62
7
  6
CONTINUOUS
 10
7.0548183383
 20
8.5427030515
 11
7.0418183383
 21
8.5427030515
  0
LINE
  5
2D9
100
AcDbEntity
  8
0
100
AcDbLine
 62
7
  6
CONTINUOUS
 10
6.5789434884
 20
8.6677030515
 11
6.4473183383
 21
8.6677030515
  0
LINE
  5
2DA
100
AcDbEntity
  8
0
100
AcDbLine
 62
7
  6
CONTINUOUS
 10
15.5156931882
 20
8.6677030515
 11
15.6473183383
 21
8.6677030515
  0
LINE
  5
2DB
100
AcDbEntity
  8
0
100
AcDbLine
 62
7
  6
CONTINUOUS
 10
6.8373183383
 20
8.7727030515
 11
6.8973183383
 21
8.7727030515
  0
LINE
  5
2DC
100
AcDbEntity
  8
0
100
AcDbLine
 62
7
  6
CONTINUOUS
 10
6.9123183383
 20
8.7727030515
 11
6.9723183383
 21
8.7727030515
  0
LINE
  5
2DD
100
AcDbEntity
  8
0
100
AcDbLine
 62
7
  6
CONTINUOUS
 10
6.9773183383
 20
8.7727030515
 11
7.0223183383
 21
8.7727030515
  0
LINE
  5
2DE
100
AcDbEntity
  8
0
100
AcDbLine
 62
7
  6
CONTINUOUS
 10
7.0613556717
 20
8.7727030515
 11
7.1223183383
 21
8.7727030515
  0
LINE
  5
2DF
100
AcDbEntity
  8
0
100
AcDbLine
 62
7
  6
CONTINUOUS
 10
7.2573183383
 20
8.7727030515
 11
7.3273183383
 21
8.7727030515
  0
LINE
  5
2E0
100
AcDbEntity
  8
0
100
AcDbLine
 62
7
  6
CONTINUOUS
 10
14.7303183383
 20
8.7727030515
 11
14.7953183383
 21
8.7727030515
  0
LINE
  5
2E1
100
AcDbEntity
  8
0
100
AcDbLine
 62
7
  6
CONTINUOUS
 10
14.8733183383
 20
8.7727030515
 11
14.9283183383
 21
8.7727030515
  0
LINE
  5
2E2
100
AcDbEntity
  8
0
100
AcDbLine
 62
7
  6
CONTINUOUS
 10
14.9733183383
 20
8.7727030515
 11
15.0133183383
 21
8.7727030515
  0
LINE
  5
2E3
100
AcDbEntity
  8
0
100
AcDbLine
 62
7
  6
CONTINUOUS
 10
15.1623183383
 20
8.7727030515
 11
15.2273183383
 21
8.7727030515
  0
LINE
  5
2E4
100
AcDbEntity
  8
0
100
AcDbLine
 62
7
  6
CONTINUOUS
 10
15.2373183383
 20
8.7727030515
 11
15.3073183383
 21
8.7727030515
  0
LINE
  5
2E5
100
AcDbEntity
  8
0
100
AcDbLine
 62
7
  6
CONTINUOUS
 10
15.3073183383
 20
8.7927030515
 11
15.2873183383
 21
8.7927030515
  0
LINE
  5
2E6
100
AcDbEntity
  8
0
100
AcDbLine
 62
7
  6
CONTINUOUS
 10
7.3273183383
 20
8.7927030515
 11
7.3073183383
 21
8.7927030515
  0
LINE
  5
2E7
100
AcDbEntity
  8
0
100
AcDbLine
 62
7
  6
CONTINUOUS
 10
7.0162038326
 20
8.8177030515
 11
7.0674701774
 21
8.8177030515
  0
LINE
  5
2E8
100
AcDbEntity
  8
0
100
AcDbLine
 62
7
  6
CONTINUOUS
 10
14.8053183383
 20
8.8177030515
 11
14.8183183383
 21
8.8177030515
  0
LINE
  5
2E9
100
AcDbEntity
  8
0
100
AcDbLine
 62
7
  6
CONTINUOUS
 10
14.9188183383
 20
8.8277030515
 11
14.925308228
 21
8.8277030515
  0
LINE
  5
2EA
100
AcDbEntity
  8
0
100
AcDbLine
 62
7
  6
CONTINUOUS
 10
14.7868183383
 20
8.8347030515
 11
14.7953183383
 21
8.8347030515
  0
LINE
  5
2EB
100
AcDbEntity
  8
0
100
AcDbLine
 62
7
  6
CONTINUOUS
 10
7.0601907727
 20
8.8377030515
 11
7.0234832373
 21
8.8377030515
  0
LINE
  5
2EC
100
AcDbEntity
  8
0
100
AcDbLine
 62
7
  6
CONTINUOUS
 10
6.8898183383
 20
8.8397030515
 11
6.9198183383
 21
8.8397030515
  0
LINE
  5
2ED
100
AcDbEntity
  8
0
100
AcDbLine
 62
7
  6
CONTINUOUS
 10
14.9463183383
 20
8.8437030515
 11
14.9188183383
 21
8.8437030515
  0
LINE
  5
2EE
100
AcDbEntity
  8
0
100
AcDbLine
 62
7
  6
CONTINUOUS
 10
6.9198183383
 20
8.848474167
 11
6.8898183383
 21
8.848474167
  0
LINE
  5
2EF
100
AcDbEntity
  8
0
100
AcDbLine
 62
7
  6
CONTINUOUS
 10
14.7953183383
 20
8.8507030515
 11
14.7868183383
 21
8.8507030515
  0
LINE
  5
2F0
100
AcDbEntity
  8
0
100
AcDbLine
 62
7
  6
CONTINUOUS
 10
14.8183183383
 20
8.8677030515
 11
14.8053183383
 21
8.8677030515
  0
LINE
  5
2F1
100
AcDbEntity
  8
0
100
AcDbLine
 62
7
  6
CONTINUOUS
 10
14.7818183383
 20
8.8877030515
 11
14.8295902981
 21
8.8877030515
  0
LINE
  5
2F2
100
AcDbEntity
  8
0
100
AcDbLine
 62
7
  6
CONTINUOUS
 10
7.3073183383
 20
8.8977030515
 11
7.3273183383
 21
8.8977030515
  0
LINE
  5
2F3
100
AcDbEntity
  8
0
100
AcDbLine
 62
7
  6
CONTINUOUS
 10
14.9188183383
 20
8.8977030515
 11
14.9463183383
 21
8.8977030515
  0
LINE
  5
2F4
100
AcDbEntity
  8
0
100
AcDbLine
 62
7
  6
CONTINUOUS
 10
15.2873183383
 20
8.8977030515
 11
15.3073183383
 21
8.8977030515
  0
LINE
  5
2F5
100
AcDbEntity
  8
0
100
AcDbLine
 62
7
  6
CONTINUOUS
 10
15.3073183383
 20
8.9127030515
 11
15.2373183383
 21
8.9127030515
  0
LINE
  5
2F6
100
AcDbEntity
  8
0
100
AcDbLine
 62
7
  6
CONTINUOUS
 10
15.2273183383
 20
8.9127030515
 11
15.1623183383
 21
8.9127030515
  0
LINE
  5
2F7
100
AcDbEntity
  8
0
100
AcDbLine
 62
7
  6
CONTINUOUS
 10
14.9613183383
 20
8.9127030515
 11
14.8733183383
 21
8.9127030515
  0
LINE
  5
2F8
100
AcDbEntity
  8
0
100
AcDbLine
 62
7
  6
CONTINUOUS
 10
14.8408183383
 20
8.9127030515
 11
14.7338183383
 21
8.9127030515
  0
LINE
  5
2F9
100
AcDbEntity
  8
0
100
AcDbLine
 62
7
  6
CONTINUOUS
 10
7.3273183383
 20
8.9127030515
 11
7.2573183383
 21
8.9127030515
  0
LINE
  5
2FA
100
AcDbEntity
  8
0
100
AcDbLine
 62
7
  6
CONTINUOUS
 10
7.2523183383
 20
8.9127030515
 11
7.2023183383
 21
8.9127030515
  0
LINE
  5
2FB
100
AcDbEntity
  8
0
100
AcDbLine
 62
7
  6
CONTINUOUS
 10
7.1743183383
 20
8.9127030515
 11
7.1123183383
 21
8.9127030515
  0
LINE
  5
2FC
100
AcDbEntity
  8
0
100
AcDbLine
 62
7
  6
CONTINUOUS
 10
7.0648183383
 20
8.9127030515
 11
7.0348183383
 21
8.9127030515
  0
LINE
  5
2FD
100
AcDbEntity
  8
0
100
AcDbLine
 62
7
  6
CONTINUOUS
 10
6.9723183383
 20
8.9127030515
 11
6.9123183383
 21
8.9127030515
  0
LINE
  5
2FE
100
AcDbEntity
  8
0
100
AcDbLine
 62
7
  6
CONTINUOUS
 10
6.8973183383
 20
8.9127030515
 11
6.8373183383
 21
8.9127030515
  0
LINE
  5
2FF
100
AcDbEntity
  8
0
100
AcDbLine
 62
7
  6
CONTINUOUS
 10
6.8193183383
 20
8.9127030515
 11
6.8043183383
 21
8.9127030515
  0
LINE
  5
300
100
AcDbEntity
  8
0
100
AcDbLine
 62
7
  6
CONTINUOUS
 10
6.5789434884
 20
9.0177030515
 11
6.4473183383
 21
9.0177030515
  0
LINE
  5
301
100
AcDbEntity
  8
0
100
AcDbLine
 62
7
  6
CONTINUOUS
 10
15.5156931882
 20
9.0177030515
 11
15.6473183383
 21
9.0177030515
  0
LINE
  5
302
100
AcDbEntity
  8
0
100
AcDbLine
 62
7
  6
CONTINUOUS
 10
15.6473183401
 20
8.7189593739
 11
17.8093183383
 21
8.6984339897
  0
LINE
  5
303
100
AcDbEntity
  8
0
100
AcDbLine
 62
7
  6
CONTINUOUS
 10
6.4473183365
 20
8.9664467291
 11
4.2853183383
 21
8.9869721133
  0
LINE
  5
304
100
AcDbEntity
  8
0
100
AcDbLine
 62
7
  6
CONTINUOUS
 10
4.2853183383
 20
8.9367030515
 11
6.4473183364
 21
8.8427030515
  0
LINE
  5
305
100
AcDbEntity
  8
0
100
AcDbLine
 62
7
  6
CONTINUOUS
 10
17.8093183383
 20
8.7487030515
 11
15.6473183401
 21
8.8427030515
  0
LINE
  5
306
100
AcDbEntity
  8
0
100
AcDbLine
 62
7
  6
CONTINUOUS
 10
7.0403795707
 20
9.1422908575
 11
7.0603605351
 21
9.1414184697
  0
LINE
  5
307
100
AcDbEntity
  8
0
100
AcDbLine
 62
7
  6
CONTINUOUS
 10
7.0595837815
 20
9.1694790587
 11
7.0815628424
 21
9.1685194322
  0
LINE
  5
308
100
AcDbEntity
  8
0
100
AcDbLine
 62
7
  6
CONTINUOUS
 10
7.07515219
 20
9.175113171
 11
7.0598589254
 21
9.1757808894
  0
LINE
  5
309
100
AcDbEntity
  8
0
100
AcDbLine
 62
7
  6
CONTINUOUS
 10
7.060704458
 20
9.1951467712
 11
7.0759977227
 21
9.1944790528
  0
LINE
  5
30A
100
AcDbEntity
  8
0
100
AcDbLine
 62
7
  6
CONTINUOUS
 10
7.0829586628
 20
9.2004889753
 11
7.0429967339
 21
9.2022337508
  0
LINE
  5
30B
100
AcDbEntity
  8
0
100
AcDbLine
 62
7
  6
CONTINUOUS
 10
15.0403795707
 20
9.1422908575
 11
15.0603605351
 21
9.1414184697
  0
LINE
  5
30C
100
AcDbEntity
  8
0
100
AcDbLine
 62
7
  6
CONTINUOUS
 10
15.0595837815
 20
9.1694790587
 11
15.0815628424
 21
9.1685194322
  0
LINE
  5
30D
100
AcDbEntity
  8
0
100
AcDbLine
 62
7
  6
CONTINUOUS
 10
15.07515219
 20
9.175113171
 11
15.0598589254
 21
9.1757808894
  0
LINE
  5
30E
100
AcDbEntity
  8
0
100
AcDbLine
 62
7
  6
CONTINUOUS
 10
15.060704458
 20
9.1951467712
 11
15.0759977227
 21
9.1944790528
  0
LINE
  5
30F
100
AcDbEntity
  8
0
100
AcDbLine
 62
7
  6
CONTINUOUS
 10
15.0829586628
 20
9.2004889753
 11
15.0429967339
 21
9.2022337508
  0
LINE
  5
310
100
AcDbEntity
  8
0
100
AcDbLine
 62
7
  6
CONTINUOUS
 10
4.2068650986
 20
9.1451946481
 11
6.4473183365
 21
9.0177030516
  0
LINE
  5
311
100
AcDbEntity
  8
0
100
AcDbLine
 62
7
  6
CONTINUOUS
 10
15.6473183401
 20
8.6677030514
 11
17.8877715779
 21
8.5402114549
  0
LINE
  5
312
100
AcDbEntity
  8
0
100
AcDbLine
 62
7
  6
CONTINUOUS
 10
4.2853183383
 20
9.1199081882
 11
6.4473183365
 21
8.9664467291
  0
LINE
  5
313
100
AcDbEntity
  8
0
100
AcDbLine
 62
7
  6
CONTINUOUS
 10
17.8093183383
 20
8.5654979148
 11
15.6473183401
 21
8.7189593739
  0
LINE
  5
314
100
AcDbEntity
  8
0
100
AcDbLine
 62
7
  6
CONTINUOUS
 10
6.9597260255
 20
9.1449245826
 11
6.9537800748
 21
9.1457281186
  0
LINE
  5
315
100
AcDbEntity
  8
0
100
AcDbLine
 62
7
  6
CONTINUOUS
 10
14.947038292
 20
8.4959756192
 11
14.9705138344
 21
8.4909857386
  0
LINE
  5
316
100
AcDbEntity
  8
0
100
AcDbLine
 62
7
  6
CONTINUOUS
 10
14.9890986388
 20
8.4870354165
 11
15.005727148
 21
8.4835009177
  0
LINE
  5
317
100
AcDbEntity
  8
0
100
AcDbLine
 62
7
  6
CONTINUOUS
 10
14.9711420043
 20
8.5155848504
 11
14.9736926997
 21
8.5150426834
  0
LINE
  5
318
100
AcDbEntity
  8
0
100
AcDbLine
 62
7
  6
CONTINUOUS
 10
14.9840834484
 20
8.5191898969
 11
14.9724345799
 21
8.5216659403
  0
LINE
  5
319
100
AcDbEntity
  8
0
100
AcDbLine
 62
7
  6
CONTINUOUS
 10
14.9772543425
 20
8.5443411406
 11
14.988903211
 21
8.5418650972
  0
LINE
  5
31A
100
AcDbEntity
  8
0
100
AcDbLine
 62
7
  6
CONTINUOUS
 10
14.9966826022
 20
8.546763831
 11
14.9595129934
 21
8.5546644752
  0
LINE
  5
31B
100
AcDbEntity
  8
0
100
AcDbLine
 62
7
  6
CONTINUOUS
 10
14.9415332289
 20
9.1792754656
 11
14.9385314037
 21
9.1740803674
  0
LINE
  5
31C
100
AcDbEntity
  8
0
100
AcDbLine
 62
7
  6
CONTINUOUS
 10
15.2266979329
 20
9.0934139628
 11
15.2211569796
 21
9.086321866
  0
LINE
  5
31D
100
AcDbEntity
  8
0
100
AcDbLine
 62
7
  6
CONTINUOUS
 10
15.2584781447
 20
9.1235330288
 11
15.238751323
 21
9.0982838485
  0
LINE
  5
31E
100
AcDbEntity
  8
0
100
AcDbLine
 62
7
  6
CONTINUOUS
 10
15.2489954628
 20
9.0902802493
 11
15.2687222845
 21
9.1155294296
  0
LINE
  5
31F
100
AcDbEntity
  8
0
100
AcDbLine
 62
7
  6
CONTINUOUS
 10
15.2416452592
 20
9.0703146676
 11
15.2471862125
 21
9.0774067644
  0
LINE
  5
320
100
AcDbEntity
  8
0
100
AcDbLine
 62
7
  6
CONTINUOUS
 10
6.8178857093
 20
8.8627030515
 11
6.8323183383
 21
8.8667895194
  0
LINE
  5
321
100
AcDbEntity
  8
0
100
AcDbLine
 62
7
  6
CONTINUOUS
 10
7.0293408009
 20
9.2023182043
 11
7.0111287795
 21
9.1994337035
  0
LINE
  5
322
100
AcDbEntity
  8
0
100
AcDbLine
 62
7
  6
CONTINUOUS
 10
6.9789686955
 20
9.1943400466
 11
6.9532887987
 21
9.1902727505
  0
LINE
  5
323
100
AcDbEntity
  8
0
100
AcDbLine
 62
7
  6
CONTINUOUS
 10
7.2829800233
 20
9.1002023031
 11
7.2869502079
 21
9.1006897805
  0
LINE
  5
324
100
AcDbEntity
  8
0
100
AcDbLine
 62
7
  6
CONTINUOUS
 10
14.9597260255
 20
9.1449245826
 11
14.9537800748
 21
9.1457281186
  0
LINE
  5
325
100
AcDbEntity
  8
0
100
AcDbLine
 62
7
  6
CONTINUOUS
 10
14.833694192
 20
9.1095106384
 11
14.8844942028
 21
9.0939887178
  0
LINE
  5
326
100
AcDbEntity
  8
0
100
AcDbLine
 62
7
  6
CONTINUOUS
 10
14.8766068396
 20
9.1099920027
 11
14.8258068287
 21
9.1255139233
  0
LINE
  5
327
100
AcDbEntity
  8
0
100
AcDbLine
 62
7
  6
CONTINUOUS
 10
14.8826222376
 20
8.5219614196
 11
14.9139255662
 21
8.5080242798
  0
LINE
  5
328
100
AcDbEntity
  8
0
100
AcDbLine
 62
7
  6
CONTINUOUS
 10
14.9106419303
 20
8.5160540663
 11
14.9024200212
 21
8.5197146961
  0
LINE
  5
329
100
AcDbEntity
  8
0
100
AcDbLine
 62
7
  6
CONTINUOUS
 10
14.9121817006
 20
8.5416397871
 11
14.9204036097
 21
8.5379791573
  0
LINE
  5
32A
100
AcDbEntity
  8
0
100
AcDbLine
 62
7
  6
CONTINUOUS
 10
14.9205601659
 20
8.5444772717
 11
14.9146221205
 21
8.5471210599
  0
LINE
  5
32B
100
AcDbEntity
  8
0
100
AcDbLine
 62
7
  6
CONTINUOUS
 10
14.9223501167
 20
8.5644784236
 11
14.9282881622
 21
8.5618346354
  0
LINE
  5
32C
100
AcDbEntity
  8
0
100
AcDbLine
 62
7
  6
CONTINUOUS
 10
14.9367166636
 20
8.5635552062
 11
14.9070264362
 21
8.5767741471
  0
LINE
  5
32D
100
AcDbEntity
  8
0
100
AcDbLine
 62
7
  6
CONTINUOUS
 10
14.7303183383
 20
8.7927030515
 11
14.7303183383
 21
8.7727030515
  0
LINE
  5
32E
100
AcDbEntity
  8
0
100
AcDbLine
 62
7
  6
CONTINUOUS
 10
14.7338183383
 20
8.9127030515
 11
14.7338183383
 21
8.8977030515
  0
LINE
  5
32F
100
AcDbEntity
  8
0
100
AcDbLine
 62
7
  6
CONTINUOUS
 10
14.7488183383
 20
8.813553711
 11
14.7488183383
 21
8.8775784397
  0
LINE
  5
330
100
AcDbEntity
  8
0
100
AcDbLine
 62
7
  6
CONTINUOUS
 10
14.9575633794
 20
9.1289215823
 11
14.9597260255
 21
9.1449245826
  0
LINE
  5
331
100
AcDbEntity
  8
0
100
AcDbLine
 62
7
  6
CONTINUOUS
 10
14.9595129934
 20
8.5546644752
 11
14.9582655233
 21
8.5487955896
  0
LINE
  5
332
100
AcDbEntity
  8
0
100
AcDbLine
 62
7
  6
CONTINUOUS
 10
14.9489094972
 20
8.5047789476
 11
14.947038292
 21
8.4959756192
  0
LINE
  5
333
100
AcDbEntity
  8
0
100
AcDbLine
 62
7
  6
CONTINUOUS
 10
14.9616647102
 20
8.538333968
 11
14.9562699339
 21
8.5129535407
  0
LINE
  5
334
100
AcDbEntity
  8
0
100
AcDbLine
 62
7
  6
CONTINUOUS
 10
14.9689858527
 20
8.5102506887
 11
14.969955945
 21
8.5148146145
  0
LINE
  5
335
100
AcDbEntity
  8
0
100
AcDbLine
 62
7
  6
CONTINUOUS
 10
14.971664344
 20
8.5228519996
 11
14.9760682832
 21
8.5435709047
  0
LINE
  5
336
100
AcDbEntity
  8
0
100
AcDbLine
 62
7
  6
CONTINUOUS
 10
14.9705138344
 20
8.4909857386
 11
14.9723850396
 21
8.499789067
  0
LINE
  5
337
100
AcDbEntity
  8
0
100
AcDbLine
 62
7
  6
CONTINUOUS
 10
15.005727148
 20
8.4835009177
 11
15.0075983532
 21
8.4923042462
  0
LINE
  5
338
100
AcDbEntity
  8
0
100
AcDbLine
 62
7
  6
CONTINUOUS
 10
14.9956243476
 20
9.1932526158
 11
14.9879264339
 21
9.1604568451
  0
LINE
  5
339
100
AcDbEntity
  8
0
100
AcDbLine
 62
7
  6
CONTINUOUS
 10
14.9881241101
 20
9.1350422143
 11
14.9958220238
 21
9.167837985
  0
LINE
  5
33A
100
AcDbEntity
  8
0
100
AcDbLine
 62
7
  6
CONTINUOUS
 10
15.0183223694
 20
9.1867752912
 11
15.0130799491
 21
9.1644407705
  0
LINE
  5
33B
100
AcDbEntity
  8
0
100
AcDbLine
 62
7
  6
CONTINUOUS
 10
15.0132776253
 20
9.1390261397
 11
15.0257563116
 21
9.1921896525
  0
LINE
  5
33C
100
AcDbEntity
  8
0
100
AcDbLine
 62
7
  6
CONTINUOUS
 10
10.9340243027
 20
-3.5259850414
 11
10.9427954538
 21
-3.4972958988
  0
LINE
  5
33D
100
AcDbEntity
  8
0
100
AcDbLine
 62
7
  6
CONTINUOUS
 10
11.1518412227
 20
-2.8135379982
 11
11.1606123739
 21
-2.7848488556
  0
LINE
  5
33E
100
AcDbEntity
  8
0
100
AcDbLine
 62
7
  6
CONTINUOUS
 10
15.2869502079
 20
9.1006897805
 11
15.2896170983
 21
9.1089760522
  0
LINE
  5
33F
100
AcDbEntity
  8
0
100
AcDbLine
 62
7
  6
CONTINUOUS
 10
15.0418183383
 20
8.5427030515
 11
15.0265536142
 21
8.5007635667
  0
LINE
  5
340
100
AcDbEntity
  8
0
100
AcDbLine
 62
7
  6
CONTINUOUS
 10
15.0324720009
 20
8.4994813742
 11
15.0332806253
 21
8.5017030515
  0
LINE
  5
341
100
AcDbEntity
  8
0
100
AcDbLine
 62
7
  6
CONTINUOUS
 10
15.0365563574
 20
8.5107030515
 11
15.0445937161
 21
8.5327855129
  0
LINE
  5
342
100
AcDbEntity
  8
0
100
AcDbLine
 62
7
  6
CONTINUOUS
 10
14.941403355
 20
9.1502033751
 11
14.9426111709
 21
9.153048811
  0
LINE
  5
343
100
AcDbEntity
  8
0
100
AcDbLine
 62
7
  6
CONTINUOUS
 10
14.9070264362
 20
8.5767741471
 11
14.9045860163
 21
8.5712928743
  0
LINE
  5
344
100
AcDbEntity
  8
0
100
AcDbLine
 62
7
  6
CONTINUOUS
 10
14.8862828674
 20
8.5301833287
 11
14.8826222376
 21
8.5219614196
  0
LINE
  5
345
100
AcDbEntity
  8
0
100
AcDbLine
 62
7
  6
CONTINUOUS
 10
14.9064252713
 20
8.5631309419
 11
14.893579067
 21
8.5342778947
  0
LINE
  5
346
100
AcDbEntity
  8
0
100
AcDbLine
 62
7
  6
CONTINUOUS
 10
14.9197095525
 20
8.5634648059
 11
14.9136085028
 21
8.5497616241
  0
LINE
  5
347
100
AcDbEntity
  8
0
100
AcDbLine
 62
7
  6
CONTINUOUS
 10
14.9095411364
 20
8.5406261695
 11
14.9014064035
 21
8.5223552603
  0
LINE
  5
348
100
AcDbEntity
  8
0
100
AcDbLine
 62
7
  6
CONTINUOUS
 10
15.1822237288
 20
9.1763293928
 11
15.1795935019
 21
9.1709366285
  0
LINE
  5
349
100
AcDbEntity
  8
0
100
AcDbLine
 62
7
  6
CONTINUOUS
 10
15.1598668003
 20
9.1304908964
 11
15.15592146
 21
9.12240175
  0
LINE
  5
34A
100
AcDbEntity
  8
0
100
AcDbLine
 62
7
  6
CONTINUOUS
 10
15.1803608232
 20
9.159963424
 11
15.1689862136
 21
9.1366420184
  0
LINE
  5
34B
100
AcDbEntity
  8
0
100
AcDbLine
 62
7
  6
CONTINUOUS
 10
15.1806705362
 20
9.1309431935
 11
15.1827159263
 21
9.1351368646
  0
LINE
  5
34C
100
AcDbEntity
  8
0
100
AcDbLine
 62
7
  6
CONTINUOUS
 10
15.1863179979
 20
9.1425222059
 11
15.1956034781
 21
9.1615602616
  0
LINE
  5
34D
100
AcDbEntity
  8
0
100
AcDbLine
 62
7
  6
CONTINUOUS
 10
15.1774925171
 20
9.1118808425
 11
15.1814378574
 21
9.1199699889
  0
LINE
  5
34E
100
AcDbEntity
  8
0
100
AcDbLine
 62
7
  6
CONTINUOUS
 10
15.2098491028
 20
9.0960994812
 11
15.2137944431
 21
9.1041886276
  0
LINE
  5
34F
100
AcDbEntity
  8
0
100
AcDbLine
 62
7
  6
CONTINUOUS
 10
14.9395930201
 20
9.1605189962
 11
14.9367475842
 21
9.1617268121
  0
LINE
  5
350
100
AcDbEntity
  8
0
100
AcDbLine
 62
7
  6
CONTINUOUS
 10
15.15592146
 20
9.12240175
 11
15.1774925171
 21
9.1118808425
  0
LINE
  5
351
100
AcDbEntity
  8
0
100
AcDbLine
 62
7
  6
CONTINUOUS
 10
15.194569604
 20
9.1035517907
 11
15.2098491028
 21
9.0960994812
  0
LINE
  5
352
100
AcDbEntity
  8
0
100
AcDbLine
 62
7
  6
CONTINUOUS
 10
15.1840530915
 20
9.1355972875
 11
15.1863968583
 21
9.134454156
  0
LINE
  5
353
100
AcDbEntity
  8
0
100
AcDbLine
 62
7
  6
CONTINUOUS
 10
15.197482259
 20
9.13596443
 11
15.1867784208
 21
9.1411850407
  0
LINE
  5
354
100
AcDbEntity
  8
0
100
AcDbLine
 62
7
  6
CONTINUOUS
 10
15.1969406433
 20
9.1620206845
 11
15.2076444815
 21
9.1568000738
  0
LINE
  5
355
100
AcDbEntity
  8
0
100
AcDbLine
 62
7
  6
CONTINUOUS
 10
15.2163779026
 20
9.1596712892
 11
15.1822237288
 21
9.1763293928
  0
LINE
  5
356
100
AcDbEntity
  8
0
100
AcDbLine
 62
7
  6
CONTINUOUS
 10
14.9984740028
 20
8.7975872442
 11
14.9558183383
 21
8.8290647278
  0
LINE
  5
357
100
AcDbEntity
  8
0
100
AcDbLine
 62
7
  6
CONTINUOUS
 10
15.0017185673
 20
8.4956948033
 11
14.9867886839
 21
8.5122409408
  0
LINE
  5
358
100
AcDbEntity
  8
0
100
AcDbLine
 62
7
  6
CONTINUOUS
 10
15.0905409839
 20
8.5063505847
 11
15.0913260232
 21
8.4913711416
  0
LINE
  5
359
100
AcDbEntity
  8
0
100
AcDbLine
 62
7
  6
CONTINUOUS
 10
15.141516759
 20
8.5325402321
 11
15.1407317197
 21
8.5475196751
  0
LINE
  5
35A
100
AcDbEntity
  8
0
100
AcDbLine
 62
7
  6
CONTINUOUS
 10
14.7768183383
 20
8.813553711
 11
14.7768183383
 21
8.8247030515
  0
LINE
  5
35B
100
AcDbEntity
  8
0
100
AcDbLine
 62
7
  6
CONTINUOUS
 10
14.7768183383
 20
8.8607030515
 11
14.7768183383
 21
8.8827030515
  0
LINE
  5
35C
100
AcDbEntity
  8
0
100
AcDbLine
 62
7
  6
CONTINUOUS
 10
14.7953183383
 20
8.7727030515
 11
14.7953183383
 21
8.7927030515
  0
LINE
  5
35D
100
AcDbEntity
  8
0
100
AcDbLine
 62
7
  6
CONTINUOUS
 10
14.8053183383
 20
8.8677030515
 11
14.8053183383
 21
8.8607030515
  0
LINE
  5
35E
100
AcDbEntity
  8
0
100
AcDbLine
 62
7
  6
CONTINUOUS
 10
14.8053183383
 20
8.8247030515
 11
14.8053183383
 21
8.8177030515
  0
LINE
  5
35F
100
AcDbEntity
  8
0
100
AcDbLine
 62
7
  6
CONTINUOUS
 10
14.8183183383
 20
8.8177030515
 11
14.8183183383
 21
8.8677030515
  0
LINE
  5
360
100
AcDbEntity
  8
0
100
AcDbLine
 62
7
  6
CONTINUOUS
 10
14.8733183383
 20
8.9127030515
 11
14.8733183383
 21
8.8977030515
  0
LINE
  5
361
100
AcDbEntity
  8
0
100
AcDbLine
 62
7
  6
CONTINUOUS
 10
14.8733183383
 20
8.7927030515
 11
14.8733183383
 21
8.7727030515
  0
LINE
  5
362
100
AcDbEntity
  8
0
100
AcDbLine
 62
7
  6
CONTINUOUS
 10
14.8858183383
 20
8.8143536866
 11
14.8858183383
 21
8.8760524164
  0
LINE
  5
363
100
AcDbEntity
  8
0
100
AcDbLine
 62
7
  6
CONTINUOUS
 10
14.9158183383
 20
8.8143536866
 11
14.9158183383
 21
8.8247030515
  0
LINE
  5
364
100
AcDbEntity
  8
0
100
AcDbLine
 62
7
  6
CONTINUOUS
 10
14.9158183383
 20
8.8467030515
 11
14.9158183383
 21
8.8947030515
  0
LINE
  5
365
100
AcDbEntity
  8
0
100
AcDbLine
 62
7
  6
CONTINUOUS
 10
14.9283183383
 20
8.7727030515
 11
14.9283183383
 21
8.7927030515
  0
LINE
  5
366
100
AcDbEntity
  8
0
100
AcDbLine
 62
7
  6
CONTINUOUS
 10
15.0133183383
 20
8.7727030515
 11
15.0133183383
 21
8.7927030515
  0
LINE
  5
367
100
AcDbEntity
  8
0
100
AcDbLine
 62
7
  6
CONTINUOUS
 10
15.0173183383
 20
8.4917030515
 11
15.0173183383
 21
8.4827030515
  0
LINE
  5
368
100
AcDbEntity
  8
0
100
AcDbLine
 62
7
  6
CONTINUOUS
 10
15.0363183383
 20
8.4827030515
 11
15.0363183383
 21
8.4917030515
  0
LINE
  5
369
100
AcDbEntity
  8
0
100
AcDbLine
 62
7
  6
CONTINUOUS
 10
15.0528690939
 20
8.4917030515
 11
15.0528690939
 21
8.4827030515
  0
LINE
  5
36A
100
AcDbEntity
  8
0
100
AcDbLine
 62
7
  6
CONTINUOUS
 10
15.0793183383
 20
8.4827030515
 11
15.0793183383
 21
8.4917030515
  0
LINE
  5
36B
100
AcDbEntity
  8
0
100
AcDbLine
 62
7
  6
CONTINUOUS
 10
15.1623183383
 20
8.9127030515
 11
15.1623183383
 21
8.8977030515
  0
LINE
  5
36C
100
AcDbEntity
  8
0
100
AcDbLine
 62
7
  6
CONTINUOUS
 10
15.1623183383
 20
8.7927030515
 11
15.1623183383
 21
8.7727030515
  0
LINE
  5
36D
100
AcDbEntity
  8
0
100
AcDbLine
 62
7
  6
CONTINUOUS
 10
15.1798183383
 20
8.8738545715
 11
15.1798183383
 21
8.8165515315
  0
LINE
  5
36E
100
AcDbEntity
  8
0
100
AcDbLine
 62
7
  6
CONTINUOUS
 10
15.2098183383
 20
8.8165515315
 11
15.2098183383
 21
8.8738545715
  0
LINE
  5
36F
100
AcDbEntity
  8
0
100
AcDbLine
 62
7
  6
CONTINUOUS
 10
15.2273183383
 20
8.7727030515
 11
15.2273183383
 21
8.7927030515
  0
LINE
  5
370
100
AcDbEntity
  8
0
100
AcDbLine
 62
7
  6
CONTINUOUS
 10
15.2273183383
 20
8.8977030515
 11
15.2273183383
 21
8.9127030515
  0
LINE
  5
371
100
AcDbEntity
  8
0
100
AcDbLine
 62
7
  6
CONTINUOUS
 10
15.2373183383
 20
8.9127030515
 11
15.2373183383
 21
8.8977030515
  0
LINE
  5
372
100
AcDbEntity
  8
0
100
AcDbLine
 62
7
  6
CONTINUOUS
 10
15.2373183383
 20
8.7927030515
 11
15.2373183383
 21
8.7727030515
  0
LINE
  5
373
100
AcDbEntity
  8
0
100
AcDbLine
 62
7
  6
CONTINUOUS
 10
15.2453183383
 20
8.8844365523
 11
15.2453183383
 21
8.8059695507
  0
LINE
  5
374
100
AcDbEntity
  8
0
100
AcDbLine
 62
7
  6
CONTINUOUS
 10
15.2823183383
 20
8.8927030515
 11
15.2823183383
 21
8.7977030515
  0
LINE
  5
375
100
AcDbEntity
  8
0
100
AcDbLine
 62
7
  6
CONTINUOUS
 10
15.0429967339
 20
9.2022337508
 11
15.0427350176
 21
9.1962394615
  0
LINE
  5
376
100
AcDbEntity
  8
0
100
AcDbLine
 62
7
  6
CONTINUOUS
 10
15.0407721452
 20
9.1512822915
 11
15.0403795707
 21
9.1422908575
  0
LINE
  5
377
100
AcDbEntity
  8
0
100
AcDbLine
 62
7
  6
CONTINUOUS
 10
15.0455055093
 20
9.1909173965
 11
15.0439959428
 21
9.1563426402
  0
LINE
  5
378
100
AcDbEntity
  8
0
100
AcDbLine
 62
7
  6
CONTINUOUS
 10
15.0596617904
 20
9.1941913424
 11
15.0589034965
 21
9.176823557
  0
LINE
  5
379
100
AcDbEntity
  8
0
100
AcDbLine
 62
7
  6
CONTINUOUS
 10
15.0579826179
 20
9.1557319687
 11
15.0585411139
 21
9.1685236299
  0
LINE
  5
37A
100
AcDbEntity
  8
0
100
AcDbLine
 62
7
  6
CONTINUOUS
 10
15.0607531096
 20
9.1504099037
 11
15.0603605351
 21
9.1414184697
  0
LINE
  5
37B
100
AcDbEntity
  8
0
100
AcDbLine
 62
7
  6
CONTINUOUS
 10
15.2211569796
 20
9.086321866
 11
15.2416452592
 21
9.0703146676
  0
LINE
  5
37C
100
AcDbEntity
  8
0
100
AcDbLine
 62
7
  6
CONTINUOUS
 10
15.2509848173
 20
9.130656476
 11
15.2583057954
 21
9.1249367011
  0
LINE
  5
37D
100
AcDbEntity
  8
0
100
AcDbLine
 62
7
  6
CONTINUOUS
 10
15.2701259567
 20
9.1157017789
 11
15.2774469348
 21
9.109982004
  0
LINE
  5
37E
100
AcDbEntity
  8
0
100
AcDbLine
 62
7
  6
CONTINUOUS
 10
15.2896170983
 20
9.1089760522
 11
15.2470645176
 21
9.1422217719
  0
LINE
  5
37F
100
AcDbEntity
  8
0
100
AcDbLine
 62
7
  6
CONTINUOUS
 10
14.8603183383
 20
8.8927827381
 11
14.8408183383
 21
8.9127030515
  0
LINE
  5
380
100
AcDbEntity
  8
0
100
AcDbLine
 62
7
  6
CONTINUOUS
 10
14.927596707
 20
8.8266428617
 11
14.9733183383
 21
8.7727030515
  0
LINE
  5
381
100
AcDbEntity
  8
0
100
AcDbLine
 62
7
  6
CONTINUOUS
 10
14.8120329229
 20
9.1155065949
 11
14.8161474196
 21
9.1098434759
  0
LINE
  5
382
100
AcDbEntity
  8
0
100
AcDbLine
 62
7
  6
CONTINUOUS
 10
14.8431855412
 20
9.0726286942
 11
14.847300038
 21
9.0669655752
  0
LINE
  5
383
100
AcDbEntity
  8
0
100
AcDbLine
 62
7
  6
CONTINUOUS
 10
14.82884009
 20
9.1059839269
 11
14.8434371428
 21
9.0858928073
  0
LINE
  5
384
100
AcDbEntity
  8
0
100
AcDbLine
 62
7
  6
CONTINUOUS
 10
14.8482912448
 20
9.0894195188
 11
14.833694192
 21
9.1095106384
  0
LINE
  5
385
100
AcDbEntity
  8
0
100
AcDbLine
 62
7
  6
CONTINUOUS
 10
14.8650984119
 20
9.0798968508
 11
14.8609839151
 21
9.0855599698
  0
LINE
  5
386
100
AcDbEntity
  8
0
100
AcDbLine
 62
7
  6
CONTINUOUS
 10
14.8452026196
 20
9.1396057903
 11
14.8493171164
 21
9.1339426713
  0
LINE
  5
387
100
AcDbEntity
  8
0
100
AcDbLine
 62
7
  6
CONTINUOUS
 10
14.8620097868
 20
9.1300831222
 11
14.8766068396
 21
9.1099920027
  0
LINE
  5
388
100
AcDbEntity
  8
0
100
AcDbLine
 62
7
  6
CONTINUOUS
 10
14.8814609415
 20
9.1135187142
 11
14.8668638887
 21
9.1336098337
  0
LINE
  5
389
100
AcDbEntity
  8
0
100
AcDbLine
 62
7
  6
CONTINUOUS
 10
14.8982681087
 20
9.1039960461
 11
14.8941536119
 21
9.1096591651
  0
LINE
  5
38A
100
AcDbEntity
  8
0
100
AcDbLine
 62
7
  6
CONTINUOUS
 10
14.8671154903
 20
9.1468739468
 11
14.8630009935
 21
9.1525370658
  0
LINE
  5
38B
100
AcDbEntity
  8
0
100
AcDbLine
 62
7
  6
CONTINUOUS
 10
14.9598277453
 20
9.1817475934
 11
14.9881241101
 21
9.1350422143
  0
LINE
  5
38C
100
AcDbEntity
  8
0
100
AcDbLine
 62
7
  6
CONTINUOUS
 10
14.9879264339
 20
9.1604568451
 11
14.9760388495
 21
9.1800782395
  0
LINE
  5
38D
100
AcDbEntity
  8
0
100
AcDbLine
 62
7
  6
CONTINUOUS
 10
14.9958220238
 20
9.167837985
 11
15.0132776253
 21
9.1390261397
  0
LINE
  5
38E
100
AcDbEntity
  8
0
100
AcDbLine
 62
7
  6
CONTINUOUS
 10
15.0130799491
 20
9.1644407705
 11
14.9956243476
 21
9.1932526158
  0
LINE
  5
38F
100
AcDbEntity
  8
0
100
AcDbLine
 62
7
  6
CONTINUOUS
 10
14.9743662745
 20
8.514536745
 11
14.9890986388
 21
8.4870354165
  0
LINE
  5
390
100
AcDbEntity
  8
0
100
AcDbLine
 62
7
  6
CONTINUOUS
 10
15.208909562
 20
9.1089009196
 11
15.1984260329
 21
9.1285674319
  0
LINE
  5
391
100
AcDbEntity
  8
0
100
AcDbLine
 62
7
  6
CONTINUOUS
 10
14.8868734233
 20
9.1650730707
 11
14.8891210629
 21
9.1595099675
  0
LINE
  5
392
100
AcDbEntity
  8
0
100
AcDbLine
 62
7
  6
CONTINUOUS
 10
14.9059783596
 20
9.1177866941
 11
14.9093498189
 21
9.1094420394
  0
LINE
  5
393
100
AcDbEntity
  8
0
100
AcDbLine
 62
7
  6
CONTINUOUS
 10
14.8938491274
 20
9.1558159987
 11
14.9068133982
 21
9.1237283025
  0
LINE
  5
394
100
AcDbEntity
  8
0
100
AcDbLine
 62
7
  6
CONTINUOUS
 10
14.9191023147
 20
9.1284817898
 11
14.9149816422
 21
9.1386808122
  0
LINE
  5
395
100
AcDbEntity
  8
0
100
AcDbLine
 62
7
  6
CONTINUOUS
 10
14.9097371498
 20
9.1516613862
 11
14.9063656905
 21
9.1600060409
  0
LINE
  5
396
100
AcDbEntity
  8
0
100
AcDbLine
 62
7
  6
CONTINUOUS
 10
14.9426111709
 20
9.153048811
 11
14.9395930201
 21
9.1605189962
  0
LINE
  5
397
100
AcDbEntity
  8
0
100
AcDbLine
 62
7
  6
CONTINUOUS
 10
15.0445937161
 20
8.5327855129
 11
15.0526310747
 21
8.5107030515
  0
LINE
  5
398
100
AcDbEntity
  8
0
100
AcDbLine
 62
7
  6
CONTINUOUS
 10
15.0559068068
 20
8.5017030515
 11
15.0567154313
 21
8.4994813742
  0
LINE
  5
399
100
AcDbEntity
  8
0
100
AcDbLine
 62
7
  6
CONTINUOUS
 10
15.0700830624
 20
8.5007635667
 11
15.0548183383
 21
8.5427030515
  0
LINE
  5
39A
100
AcDbEntity
  8
0
100
AcDbLine
 62
7
  6
CONTINUOUS
 10
15.1650960323
 20
8.5246942563
 11
15.1692305926
 21
8.5102753309
  0
LINE
  5
39B
100
AcDbEntity
  8
0
100
AcDbLine
 62
7
  6
CONTINUOUS
 10
15.2088739128
 20
8.5616797191
 11
15.2047393525
 21
8.5760986446
  0
LINE
  5
39C
100
AcDbEntity
  8
0
100
AcDbLine
 62
7
  6
CONTINUOUS
 10
15.1869280275
 20
9.1338002937
 11
15.194569604
 21
9.1035517907
  0
LINE
  5
39D
100
AcDbEntity
  8
0
100
AcDbLine
 62
7
  6
CONTINUOUS
 10
14.9532887987
 20
9.1902727505
 11
14.9542274055
 21
9.1843466205
  0
LINE
  5
39E
100
AcDbEntity
  8
0
100
AcDbLine
 62
7
  6
CONTINUOUS
 10
14.9799073023
 20
9.1884139166
 11
14.9789686955
 21
9.1943400466
  0
LINE
  5
39F
100
AcDbEntity
  8
0
100
AcDbLine
 62
7
  6
CONTINUOUS
 10
15.0111287795
 20
9.1994337035
 11
15.0120673863
 21
9.1935075735
  0
LINE
  5
3A0
100
AcDbEntity
  8
0
100
AcDbLine
 62
7
  6
CONTINUOUS
 10
15.0302794077
 20
9.1963920743
 11
15.0293408009
 21
9.2023182043
  0
LINE
  5
3A1
100
AcDbEntity
  8
0
100
AcDbLine
 62
7
  6
CONTINUOUS
 10
15.2396695627
 20
9.137629469
 11
15.2401570401
 21
9.1336592844
  0
LINE
  5
3A2
100
AcDbEntity
  8
0
100
AcDbLine
 62
7
  6
CONTINUOUS
 10
10.8653981077
 20
-3.4975591407
 11
10.8794822546
 21
-3.4710707129
  0
LINE
  5
3A3
100
AcDbEntity
  8
0
100
AcDbLine
 62
7
  6
CONTINUOUS
 10
11.215154422
 20
-2.8397631841
 11
11.2292385689
 21
-2.8132747563
  0
LINE
  5
3A4
100
AcDbEntity
  8
0
100
AcDbLine
 62
7
  6
CONTINUOUS
 10
17.8093183383
 20
8.5654979148
 11
17.8093183383
 21
8.5446757876
  0
LINE
  5
3A5
100
AcDbEntity
  8
0
100
AcDbLine
 62
7
  6
CONTINUOUS
 10
17.8093183383
 20
8.6984339897
 11
17.8093183383
 21
8.7487030515
  0
LINE
  5
3A6
100
AcDbEntity
  8
0
100
AcDbLine
 62
7
  6
CONTINUOUS
 10
17.8093183383
 20
8.9367030515
 11
17.8093183383
 21
8.9869721133
  0
LINE
  5
3A7
100
AcDbEntity
  8
0
100
AcDbLine
 62
7
  6
CONTINUOUS
 10
17.8093183383
 20
9.1199081882
 11
17.8093183383
 21
9.1407303154
  0
LINE
  5
3A8
100
AcDbEntity
  8
0
100
AcDbLine
 62
7
  6
CONTINUOUS
 10
10.7051761461
 20
-3.3373371791
 11
10.7316645738
 21
-3.3232530322
  0
LINE
  5
3A9
100
AcDbEntity
  8
0
100
AcDbLine
 62
7
  6
CONTINUOUS
 10
11.3629721027
 20
-2.9875808648
 11
11.3894605305
 21
-2.9734967179
  0
LINE
  5
3AA
100
AcDbEntity
  8
0
100
AcDbLine
 62
7
  6
CONTINUOUS
 10
10.6767502453
 20
-3.2687109841
 11
10.705439388
 21
-3.2599398329
  0
LINE
  5
3AB
100
AcDbEntity
  8
0
100
AcDbLine
 62
7
  6
CONTINUOUS
 10
11.3891972885
 20
-3.0508940641
 11
11.4178864312
 21
-3.0421229129
  0
ARC
  5
3AC
100
AcDbEntity
  8
0
100
AcDbCircle
 62
7
  6
CONTINUOUS
 10
4.2853183383
 20
8.8427030515
 40
0.3125
100
AcDbArc
 50
104.539847615
 51
255.460152385
  0
ARC
  5
3AD
100
AcDbEntity
  8
0
100
AcDbCircle
 62
7
  6
CONTINUOUS
 10
4.3023431427
 20
8.8426370078
 40
0.095470928
100
AcDbArc
 50
179.9603679575
 51
259.7270975921
  0
ARC
  5
3AE
100
AcDbEntity
  8
0
100
AcDbCircle
 62
7
  6
CONTINUOUS
 10
4.302343139
 20
8.8427690943
 40
0.0954709261
100
AcDbArc
 50
100.2729000862
 51
180.0396314707
  0
ARC
  5
3AF
100
AcDbEntity
  8
0
100
AcDbCircle
 62
7
  6
CONTINUOUS
 10
6.9929401918
 20
8.5291571742
 40
0.018
100
AcDbArc
 50
250.0164438527
 51
78.0000000022
  0
ARC
  5
3B0
100
AcDbEntity
  8
0
100
AcDbCircle
 62
7
  6
CONTINUOUS
 10
6.9211387318
 20
8.524225315
 40
0.0177342409
100
AcDbArc
 50
245.9999999981
 51
42.5194112818
  0
ARC
  5
3B1
100
AcDbEntity
  8
0
100
AcDbCircle
 62
7
  6
CONTINUOUS
 10
7.0124582249
 20
8.5058938689
 40
0.015
100
AcDbArc
 50
288.9054592061
 51
340.0000000002
  0
ARC
  5
3B2
100
AcDbEntity
  8
0
100
AcDbCircle
 62
7
  6
CONTINUOUS
 10
6.9308189823
 20
8.550308797
 40
0.0145
100
AcDbArc
 50
283.5235132019
 51
65.9999999985
  0
ARC
  5
3B3
100
AcDbEntity
  8
0
100
AcDbCircle
 62
7
  6
CONTINUOUS
 10
6.91552277
 20
8.5270166118
 40
0.012
100
AcDbArc
 50
245.9999999996
 51
65.9999999996
  0
ARC
  5
3B4
100
AcDbEntity
  8
0
100
AcDbCircle
 62
7
  6
CONTINUOUS
 10
6.9864933297
 20
8.530527497
 40
0.0115908889
100
AcDbArc
 50
258.0000000013
 51
77.9999999964
  0
ARC
  5
3B5
100
AcDbEntity
  8
0
100
AcDbCircle
 62
7
  6
CONTINUOUS
 10
6.9455103102
 20
8.5152405693
 40
0.011
100
AcDbArc
 50
287.9999999995
 51
348.0
  0
ARC
  5
3B6
100
AcDbEntity
  8
0
100
AcDbCircle
 62
7
  6
CONTINUOUS
 10
6.9797454763
 20
8.5079636601
 40
0.011
100
AcDbArc
 50
167.9999999999
 51
227.9999999996
  0
ARC
  5
3B7
100
AcDbEntity
  8
0
100
AcDbCircle
 62
7
  6
CONTINUOUS
 10
7.0098853818
 20
8.5030638698
 40
0.011
100
AcDbArc
 50
222.0605153603
 51
258.0
  0
ARC
  5
3B8
100
AcDbEntity
  8
0
100
AcDbCircle
 62
7
  6
CONTINUOUS
 10
6.9509050866
 20
8.5406209966
 40
0.011
100
AcDbArc
 50
348.0
 51
47.9999999996
  0
ARC
  5
3B9
100
AcDbEntity
  8
0
100
AcDbCircle
 62
7
  6
CONTINUOUS
 10
6.9244241641
 20
8.5531559535
 40
0.0095
100
AcDbArc
 50
245.9999999957
 51
66.0000000012
  0
ARC
  5
3BA
100
AcDbEntity
  8
0
100
AcDbCircle
 62
7
  6
CONTINUOUS
 10
6.9000304531
 20
8.5659780984
 40
0.007
100
AcDbArc
 50
336.0
 51
49.3984504
  0
ARC
  5
3BB
100
AcDbEntity
  8
0
100
AcDbCircle
 62
7
  6
CONTINUOUS
 10
6.8871842488
 20
8.5371250512
 40
0.007
100
AcDbArc
 50
262.6015496013
 51
336.0
  0
ARC
  5
3BC
100
AcDbEntity
  8
0
100
AcDbCircle
 62
7
  6
CONTINUOUS
 10
7.0381101566
 20
8.4974292533
 40
0.006
100
AcDbArc
 50
160.0000000005
 51
252.6242801219
  0
ARC
  5
3BD
100
AcDbEntity
  8
0
100
AcDbCircle
 62
7
  6
CONTINUOUS
 10
6.9215366434
 20
8.5626513326
 40
0.002
100
AcDbArc
 50
66.0000000041
 51
155.9999999979
  0
ARC
  5
3BE
100
AcDbEntity
  8
0
100
AcDbCircle
 62
7
  6
CONTINUOUS
 10
6.9154355938
 20
8.5489481508
 40
0.002
100
AcDbArc
 50
155.9999999979
 51
246.0000000042
  0
ARC
  5
3BF
100
AcDbEntity
  8
0
100
AcDbCircle
 62
7
  6
CONTINUOUS
 10
6.9113682273
 20
8.5398126962
 40
0.002
100
AcDbArc
 50
66.0000000042
 51
155.9999999953
  0
ARC
  5
3C0
100
AcDbEntity
  8
0
100
AcDbCircle
 62
7
  6
CONTINUOUS
 10
6.9032334945
 20
8.521541787
 40
0.002
100
AcDbArc
 50
156.0000000095
 51
246.0000000041
  0
ARC
  5
3C1
100
AcDbEntity
  8
0
100
AcDbCircle
 62
7
  6
CONTINUOUS
 10
6.9726424916
 20
8.5226440879
 40
0.001
100
AcDbArc
 50
168.000000004
 51
257.9999999906
  0
ARC
  5
3C2
100
AcDbEntity
  8
0
100
AcDbCircle
 62
7
  6
CONTINUOUS
 10
6.9770464308
 20
8.543362993
 40
0.001
100
AcDbArc
 50
78.0000000454
 51
168.000000004
  0
ARC
  5
3C3
100
AcDbEntity
  8
0
100
AcDbCircle
 62
7
  6
CONTINUOUS
 10
6.9709340926
 20
8.5146067028
 40
0.001
100
AcDbArc
 50
78.0000000454
 51
168.0000000039
  0
ARC
  5
3C4
100
AcDbEntity
  8
0
100
AcDbCircle
 62
7
  6
CONTINUOUS
 10
6.973484788
 20
8.5140645358
 40
0.001
100
AcDbArc
 50
28.1777964324
 51
77.9999999905
  0
ARC
  5
3C5
100
AcDbEntity
  8
0
100
AcDbCircle
 62
7
  6
CONTINUOUS
 10
6.7673027171
 20
8.8127030515
 40
0.1
100
AcDbArc
 50
72.2472098382
 51
100.0172899058
  0
ARC
  5
3C6
100
AcDbEntity
  8
0
100
AcDbCircle
 62
7
  6
CONTINUOUS
 10
6.769536785
 20
8.8327030515
 40
0.04
100
AcDbArc
 50
202.1725080051
 51
263.3735843893
  0
ARC
  5
3C7
100
AcDbEntity
  8
0
100
AcDbCircle
 62
7
  6
CONTINUOUS
 10
6.9659430653
 20
8.8258029482
 40
0.035
100
AcDbArc
 50
288.9660475067
 51
340.0000000003
  0
ARC
  5
3C8
100
AcDbEntity
  8
0
100
AcDbCircle
 62
7
  6
CONTINUOUS
 10
6.8318183383
 20
8.811931936
 40
0.02
100
AcDbArc
 50
285.9620141629
 51
360.0
  0
ARC
  5
3C9
100
AcDbEntity
  8
0
100
AcDbCircle
 62
7
  6
CONTINUOUS
 10
6.9048183383
 20
8.811931936
 40
0.02
100
AcDbArc
 50
180.0
 51
247.975687163
  0
ARC
  5
3CA
100
AcDbEntity
  8
0
100
AcDbCircle
 62
7
  6
CONTINUOUS
 10
6.9048183383
 20
8.811931936
 40
0.02
100
AcDbArc
 50
292.0243128371
 51
360.0
  0
ARC
  5
3CB
100
AcDbEntity
  8
0
100
AcDbCircle
 62
7
  6
CONTINUOUS
 10
6.9778183383
 20
8.811931936
 40
0.02
100
AcDbArc
 50
180.0
 51
254.0379858372
  0
ARC
  5
3CC
100
AcDbEntity
  8
0
100
AcDbCircle
 62
7
  6
CONTINUOUS
 10
7.0281042909
 20
8.806542226
 40
0.015
100
AcDbArc
 50
160.0000000003
 51
247.3109219557
  0
ARC
  5
3CD
100
AcDbEntity
  8
0
100
AcDbCircle
 62
7
  6
CONTINUOUS
 10
6.8898183383
 20
8.8347030515
 40
0.005
100
AcDbArc
 50
90.0
 51
180.0
  0
ARC
  5
3CE
100
AcDbEntity
  8
0
100
AcDbCircle
 62
7
  6
CONTINUOUS
 10
6.9198183383
 20
8.8347030515
 40
0.005
100
AcDbArc
 50
0.0
 51
90.0
  0
ARC
  5
3CF
100
AcDbEntity
  8
0
100
AcDbCircle
 62
7
  6
CONTINUOUS
 10
7.1096918455
 20
8.5492587713
 40
0.06
100
AcDbArc
 50
256.2146351723
 51
301.4712206346
  0
ARC
  5
3D0
100
AcDbEntity
  8
0
100
AcDbCircle
 62
7
  6
CONTINUOUS
 10
7.1741038168
 20
8.5708107154
 40
0.06
100
AcDbArc
 50
269.2146351718
 51
314.4712206344
  0
ARC
  5
3D1
100
AcDbEntity
  8
0
100
AcDbCircle
 62
7
  6
CONTINUOUS
 10
7.1207474314
 20
8.5015140195
 40
0.049
100
AcDbArc
 50
72.2068956489
 51
131.793104351
  0
ARC
  5
3D2
100
AcDbEntity
  8
0
100
AcDbCircle
 62
7
  6
CONTINUOUS
 10
7.195616281
 20
8.5267766242
 40
0.049
100
AcDbArc
 50
85.2068956488
 51
144.7931043506
  0
ARC
  5
3D3
100
AcDbEntity
  8
0
100
AcDbCircle
 62
7
  6
CONTINUOUS
 10
7.1152142482
 20
8.5232779095
 40
0.025
100
AcDbArc
 50
221.6464596392
 51
305.5781784771
  0
ARC
  5
3D4
100
AcDbEntity
  8
0
100
AcDbCircle
 62
7
  6
CONTINUOUS
 10
7.1145637255
 20
8.5186017629
 40
0.025
100
AcDbArc
 50
33.0231697083
 51
118.2602047088
  0
ARC
  5
3D5
100
AcDbEntity
  8
0
100
AcDbCircle
 62
7
  6
CONTINUOUS
 10
7.1853291029
 20
8.5467380117
 40
0.025
100
AcDbArc
 50
234.6464596386
 51
318.5781784784
  0
ARC
  5
3D6
100
AcDbEntity
  8
0
100
AcDbCircle
 62
7
  6
CONTINUOUS
 10
7.1857471571
 20
8.5420353787
 40
0.025
100
AcDbArc
 50
46.0231697089
 51
131.2602047082
  0
ARC
  5
3D7
100
AcDbEntity
  8
0
100
AcDbCircle
 62
7
  6
CONTINUOUS
 10
7.0841784517
 20
8.5058938689
 40
0.015
100
AcDbArc
 50
199.9999999998
 51
251.0945407939
  0
ARC
  5
3D8
100
AcDbEntity
  8
0
100
AcDbCircle
 62
7
  6
CONTINUOUS
 10
7.1331850055
 20
8.5108781586
 40
0.015
100
AcDbArc
 50
301.4712206346
 51
61.619642743
  0
ARC
  5
3D9
100
AcDbEntity
  8
0
100
AcDbCircle
 62
7
  6
CONTINUOUS
 10
7.2056286079
 20
8.5386986064
 40
0.015
100
AcDbArc
 50
314.4712206324
 51
74.6196427433
  0
ARC
  5
3DA
100
AcDbEntity
  8
0
100
AcDbCircle
 62
7
  6
CONTINUOUS
 10
7.0920587266
 20
8.4773903282
 40
0.014
100
AcDbArc
 50
76.2146351731
 51
93.0000000024
  0
ARC
  5
3DB
100
AcDbEntity
  8
0
100
AcDbCircle
 62
7
  6
CONTINUOUS
 10
7.1399990163
 20
8.5615004886
 40
0.014
100
AcDbArc
 50
252.2068956489
 51
272.9999999984
  0
ARC
  5
3DC
100
AcDbEntity
  8
0
100
AcDbCircle
 62
7
  6
CONTINUOUS
 10
7.1730895156
 20
8.4968176671
 40
0.014
100
AcDbArc
 50
89.2146351755
 51
106.0000000021
  0
ARC
  5
3DD
100
AcDbEntity
  8
0
100
AcDbCircle
 62
7
  6
CONTINUOUS
 10
7.2008804295
 20
8.5895563083
 40
0.014
100
AcDbArc
 50
265.2068956512
 51
286.0000000023
  0
ARC
  5
3DE
100
AcDbEntity
  8
0
100
AcDbCircle
 62
7
  6
CONTINUOUS
 10
7.0967554926
 20
8.5283540431
 40
0.013
100
AcDbArc
 50
131.7931043517
 51
243.9826041721
  0
ARC
  5
3DF
100
AcDbEntity
  8
0
100
AcDbCircle
 62
7
  6
CONTINUOUS
 10
7.1662015624
 20
8.5475317278
 40
0.013
100
AcDbArc
 50
144.7931043508
 51
256.982604171
  0
ARC
  5
3E0
100
AcDbEntity
  8
0
100
AcDbCircle
 62
7
  6
CONTINUOUS
 10
7.0510772755
 20
8.4974292533
 40
0.006
100
AcDbArc
 50
287.3757198781
 51
20.0000000028
  0
ARC
  5
3E1
100
AcDbEntity
  8
0
100
AcDbCircle
 62
7
  6
CONTINUOUS
 10
7.1833183383
 20
8.8277030515
 40
0.055
100
AcDbArc
 50
180.0
 51
360.0
  0
ARC
  5
3E2
100
AcDbEntity
  8
0
100
AcDbCircle
 62
7
  6
CONTINUOUS
 10
7.3273183383
 20
8.8327030515
 40
0.04
100
AcDbArc
 50
270.0
 51
341.7900431358
  0
ARC
  5
3E3
100
AcDbEntity
  8
0
100
AcDbCircle
 62
7
  6
CONTINUOUS
 10
7.1336936113
 20
8.8258029482
 40
0.035
100
AcDbArc
 50
199.9999999997
 51
251.0339524933
  0
ARC
  5
3E4
100
AcDbEntity
  8
0
100
AcDbCircle
 62
7
  6
CONTINUOUS
 10
7.1883183383
 20
8.8277030515
 40
0.03
100
AcDbArc
 50
180.0
 51
360.0
  0
ARC
  5
3E5
100
AcDbEntity
  8
0
100
AcDbCircle
 62
7
  6
CONTINUOUS
 10
7.055569719
 20
8.806542226
 40
0.015
100
AcDbArc
 50
292.6890780444
 51
19.9999999997
  0
ARC
  5
3E6
100
AcDbEntity
  8
0
100
AcDbCircle
 62
7
  6
CONTINUOUS
 10
7.2503183383
 20
8.8059695507
 40
0.015
100
AcDbArc
 50
297.8181392847
 51
360.0
  0
ARC
  5
3E7
100
AcDbEntity
  8
0
100
AcDbCircle
 62
7
  6
CONTINUOUS
 10
7.3073183383
 20
8.7977030515
 40
0.005
100
AcDbArc
 50
180.0
 51
270.0
  0
ARC
  5
3E8
100
AcDbEntity
  8
0
100
AcDbCircle
 62
7
  6
CONTINUOUS
 10
6.7632313948
 20
8.8492972965
 40
0.076594245
100
AcDbArc
 50
259.9827100941
 51
334.4203702628
  0
ARC
  5
3E9
100
AcDbEntity
  8
0
100
AcDbCircle
 62
7
  6
CONTINUOUS
 10
6.7973183383
 20
8.8440249461
 40
0.07
100
AcDbArc
 50
157.8274919951
 51
202.1725080049
  0
ARC
  5
3EA
100
AcDbEntity
  8
0
100
AcDbCircle
 62
7
  6
CONTINUOUS
 10
6.7620350862
 20
8.8425246447
 40
0.0697167479
100
AcDbArc
 50
180.0014238353
 51
259.9827100941
  0
ARC
  5
3EB
100
AcDbEntity
  8
0
100
AcDbCircle
 62
7
  6
CONTINUOUS
 10
6.7620350862
 20
8.8425246447
 40
0.0697167479
100
AcDbArc
 50
100.0172899059
 51
179.8547546399
  0
ARC
  5
3EC
100
AcDbEntity
  8
0
100
AcDbCircle
 62
7
  6
CONTINUOUS
 10
6.7710308379
 20
8.8455638385
 40
0.0529472791
100
AcDbArc
 50
263.3735843885
 51
334.4203702626
  0
ARC
  5
3ED
100
AcDbEntity
  8
0
100
AcDbCircle
 62
7
  6
CONTINUOUS
 10
6.7710308379
 20
8.8494365198
 40
0.0486968155
100
AcDbArc
 50
15.8089885519
 51
65.8402771876
  0
ARC
  5
3EE
100
AcDbEntity
  8
0
100
AcDbCircle
 62
7
  6
CONTINUOUS
 10
6.7730413801
 20
8.8539186032
 40
0.0437844483
100
AcDbArc
 50
65.8402771868
 51
157.8274919948
  0
ARC
  5
3EF
100
AcDbEntity
  8
0
100
AcDbCircle
 62
7
  6
CONTINUOUS
 10
6.9853110571
 20
8.873474167
 40
0.0274927188
100
AcDbArc
 50
118.2023966769
 51
180.0
  0
ARC
  5
3F0
100
AcDbEntity
  8
0
100
AcDbCircle
 62
7
  6
CONTINUOUS
 10
6.8243256195
 20
8.873474167
 40
0.0274927188
100
AcDbArc
 50
0.0
 51
61.7976033231
  0
ARC
  5
3F1
100
AcDbEntity
  8
0
100
AcDbCircle
 62
7
  6
CONTINUOUS
 10
6.9048183383
 20
8.873474167
 40
0.02
100
AcDbArc
 50
0.0
 51
67.975687163
  0
ARC
  5
3F2
100
AcDbEntity
  8
0
100
AcDbCircle
 62
7
  6
CONTINUOUS
 10
6.9048183383
 20
8.873474167
 40
0.02
100
AcDbArc
 50
112.024312837
 51
180.0
  0
ARC
  5
3F3
100
AcDbEntity
  8
0
100
AcDbCircle
 62
7
  6
CONTINUOUS
 10
6.9198183383
 20
8.853474167
 40
0.005
100
AcDbArc
 50
270.0
 51
360.0
  0
ARC
  5
3F4
100
AcDbEntity
  8
0
100
AcDbCircle
 62
7
  6
CONTINUOUS
 10
6.8898183383
 20
8.853474167
 40
0.005
100
AcDbArc
 50
180.0
 51
270.0
  0
ARC
  5
3F5
100
AcDbEntity
  8
0
100
AcDbCircle
 62
7
  6
CONTINUOUS
 10
6.7993183383
 20
8.9127030515
 40
0.005
100
AcDbArc
 50
252.2472098366
 51
360.0
  0
ARC
  5
3F6
100
AcDbEntity
  8
0
100
AcDbCircle
 62
7
  6
CONTINUOUS
 10
6.9308844078
 20
9.1580483636
 40
0.026
100
AcDbArc
 50
292.0000000003
 51
331.7151372322
  0
ARC
  5
3F7
100
AcDbEntity
  8
0
100
AcDbCircle
 62
7
  6
CONTINUOUS
 10
6.9375257552
 20
9.1521033641
 40
0.022
100
AcDbArc
 50
87.3800226715
 51
111.9999999996
  0
ARC
  5
3F8
100
AcDbEntity
  8
0
100
AcDbCircle
 62
7
  6
CONTINUOUS
 10
6.9320274492
 20
9.1628243212
 40
0.019
100
AcDbArc
 50
59.9798724439
 51
112.0000000002
  0
ARC
  5
3F9
100
AcDbEntity
  8
0
100
AcDbCircle
 62
7
  6
CONTINUOUS
 10
6.9359695947
 20
9.1374536828
 40
0.012
100
AcDbArc
 50
75.1301023545
 51
112.0
  0
ARC
  5
3FA
100
AcDbEntity
  8
0
100
AcDbCircle
 62
7
  6
CONTINUOUS
 10
6.8531105998
 20
9.1236174844
 40
0.011
100
AcDbArc
 50
36.0
 51
110.1733798712
  0
ARC
  5
3FB
100
AcDbEntity
  8
0
100
AcDbCircle
 62
7
  6
CONTINUOUS
 10
6.8199409031
 20
9.0995182891
 40
0.011
100
AcDbArc
 50
36.0
 51
110.1733798663
  0
ARC
  5
3FC
100
AcDbEntity
  8
0
100
AcDbCircle
 62
7
  6
CONTINUOUS
 10
6.8345379559
 20
9.0794271695
 40
0.011
100
AcDbArc
 50
321.8266201302
 51
36.0
  0
ARC
  5
3FD
100
AcDbEntity
  8
0
100
AcDbCircle
 62
7
  6
CONTINUOUS
 10
6.8571904317
 20
9.0958851566
 40
0.011
100
AcDbArc
 50
216.0000000003
 51
290.1733798712
  0
ARC
  5
3FE
100
AcDbEntity
  8
0
100
AcDbCircle
 62
7
  6
CONTINUOUS
 10
6.8903601285
 20
9.119984352
 40
0.011
100
AcDbArc
 50
216.0000000003
 51
290.1733798712
  0
ARC
  5
3FF
100
AcDbEntity
  8
0
100
AcDbCircle
 62
7
  6
CONTINUOUS
 10
6.8757630757
 20
9.1400754715
 40
0.011
100
AcDbArc
 50
141.826620133
 51
216.0000000003
  0
ARC
  5
400
100
AcDbEntity
  8
0
100
AcDbCircle
 62
7
  6
CONTINUOUS
 10
6.9282621617
 20
9.1645386505
 40
0.007
100
AcDbArc
 50
292.0000000009
 51
328.869897649
  0
ARC
  5
401
100
AcDbEntity
  8
0
100
AcDbCircle
 62
7
  6
CONTINUOUS
 10
6.9012502951
 20
9.1214806629
 40
0.006
100
AcDbArc
 50
322.0000000018
 51
22.0
  0
ARC
  5
402
100
AcDbEntity
  8
0
100
AcDbCircle
 62
7
  6
CONTINUOUS
 10
6.8882860243
 20
9.1535683591
 40
0.006
100
AcDbArc
 50
22.0
 51
82.0000000071
  0
ARC
  5
403
100
AcDbEntity
  8
0
100
AcDbCircle
 62
7
  6
CONTINUOUS
 10
7.0380016535
 20
9.1566043565
 40
0.006
100
AcDbArc
 50
297.5000000049
 51
357.5
  0
ARC
  5
404
100
AcDbEntity
  8
0
100
AcDbCircle
 62
7
  6
CONTINUOUS
 10
7.0395112199
 20
9.1911791128
 40
0.006
100
AcDbArc
 50
357.5
 51
57.5000000008
  0
ARC
  5
405
100
AcDbEntity
  8
0
100
AcDbCircle
 62
7
  6
CONTINUOUS
 10
6.955093349
 20
9.1788792684
 40
0.0055355033
100
AcDbArc
 50
31.2094967096
 51
99.0000000003
  0
ARC
  5
406
100
AcDbEntity
  8
0
100
AcDbCircle
 62
7
  6
CONTINUOUS
 10
6.9807732458
 20
9.1829465645
 40
0.0055355033
100
AcDbArc
 50
99.0000000001
 51
211.2094967096
  0
ARC
  5
407
100
AcDbEntity
  8
0
100
AcDbCircle
 62
7
  6
CONTINUOUS
 10
7.0129333297
 20
9.1880402214
 40
0.0055355033
100
AcDbArc
 50
346.790503292
 51
99.0000000003
  0
ARC
  5
408
100
AcDbEntity
  8
0
100
AcDbCircle
 62
7
  6
CONTINUOUS
 10
7.0311453512
 20
9.1909247222
 40
0.0055355033
100
AcDbArc
 50
99.0000000003
 51
166.7905032919
  0
ARC
  5
409
100
AcDbEntity
  8
0
100
AcDbCircle
 62
7
  6
CONTINUOUS
 10
6.9218838662
 20
9.1296056096
 40
0.003
100
AcDbArc
 50
201.999999997
 51
291.9999999956
  0
ARC
  5
40A
100
AcDbEntity
  8
0
100
AcDbCircle
 62
7
  6
CONTINUOUS
 10
6.9091472421
 20
9.1611298607
 40
0.003
100
AcDbArc
 50
111.9999999956
 51
201.9999999987
  0
ARC
  5
40B
100
AcDbEntity
  8
0
100
AcDbCircle
 62
7
  6
CONTINUOUS
 10
6.9177631937
 20
9.139804632
 40
0.003
100
AcDbArc
 50
112.0000000133
 51
201.999999997
  0
ARC
  5
40C
100
AcDbEntity
  8
0
100
AcDbCircle
 62
7
  6
CONTINUOUS
 10
6.9115915176
 20
9.1524105994
 40
0.002
100
AcDbArc
 50
202.0000000031
 51
292.0000000039
  0
ARC
  5
40D
100
AcDbEntity
  8
0
100
AcDbCircle
 62
7
  6
CONTINUOUS
 10
6.935966122
 20
9.1598858024
 40
0.002
100
AcDbArc
 50
66.9999999994
 51
148.8698976467
  0
ARC
  5
40E
100
AcDbEntity
  8
0
100
AcDbCircle
 62
7
  6
CONTINUOUS
 10
6.9395623453
 20
9.1509848374
 40
0.002
100
AcDbArc
 50
255.1301023545
 51
337.0000000033
  0
ARC
  5
40F
100
AcDbEntity
  8
0
100
AcDbCircle
 62
7
  6
CONTINUOUS
 10
7.0473183383
 20
8.8427030515
 40
1.3125
100
AcDbArc
 50
189.4161384642
 51
170.5838615358
  0
ARC
  5
410
100
AcDbEntity
  8
0
100
AcDbCircle
 62
7
  6
CONTINUOUS
 10
7.0473183383
 20
8.8427030515
 40
1.2625
100
AcDbArc
 50
189.6629524427
 51
170.3370475573
  0
ARC
  5
411
100
AcDbEntity
  8
0
100
AcDbCircle
 62
9
  6
CONTINUOUS
 10
7.0473183383
 20
8.8427030515
 40
1.1354891084
100
AcDbArc
 50
190.3860323802
 51
169.6139676198
  0
ARC
  5
412
100
AcDbEntity
  8
0
100
AcDbCircle
 62
7
  6
CONTINUOUS
 10
7.0473183383
 20
8.8427030515
 40
1.125
100
AcDbArc
 50
190.4511309808
 51
169.5510815967
  0
ARC
  5
413
100
AcDbEntity
  8
0
100
AcDbCircle
 62
7
  6
CONTINUOUS
 10
7.0473183383
 20
8.8427030515
 40
1.05
100
AcDbArc
 50
190.9737420496
 51
169.0262579504
  0
ARC
  5
414
100
AcDbEntity
  8
0
100
AcDbCircle
 62
7
  6
CONTINUOUS
 10
7.0473183383
 20
8.8427030515
 40
0.6375
100
AcDbArc
 50
196.0510311337
 51
163.9523651423
  0
ARC
  5
415
100
AcDbEntity
  8
0
100
AcDbCircle
 62
7
  6
CONTINUOUS
 10
7.0473183383
 20
8.8427030515
 40
0.5375
100
AcDbArc
 50
199.0588163609
 51
160.9450144321
  0
CIRCLE
  5
416
100
AcDbEntity
  8
0
100
AcDbCircle
 62
7
  6
CONTINUOUS
 10
7.0473183383
 20
8.8427030515
 40
0.5
  0
CIRCLE
  5
417
100
AcDbEntity
  8
0
100
AcDbCircle
 62
7
  6
CONTINUOUS
 10
7.0473183383
 20
8.8427030515
 40
0.425
  0
CIRCLE
  5
418
100
AcDbEntity
  8
0
100
AcDbCircle
 62
7
  6
CONTINUOUS
 10
7.0473183383
 20
8.8427030515
 40
0.4175
  0
CIRCLE
  5
419
100
AcDbEntity
  8
0
100
AcDbCircle
 62
9
  6
CONTINUOUS
 10
7.0473183383
 20
8.8427030515
 40
0.3951446566
  0
ARC
  5
41A
100
AcDbEntity
  8
0
100
AcDbCircle
 62
7
  6
CONTINUOUS
 10
7.1743183383
 20
8.8817030515
 40
0.016
100
AcDbArc
 50
90.0
 51
180.0
  0
ARC
  5
41B
100
AcDbEntity
  8
0
100
AcDbCircle
 62
7
  6
CONTINUOUS
 10
7.1123183383
 20
8.8817030515
 40
0.016
100
AcDbArc
 50
0.0
 51
90.0
  0
ARC
  5
41C
100
AcDbEntity
  8
0
100
AcDbCircle
 62
7
  6
CONTINUOUS
 10
7.2893216279
 20
8.8452030515
 40
0.08
100
AcDbArc
 50
341.7900431358
 51
18.2099568643
  0
ARC
  5
41D
100
AcDbEntity
  8
0
100
AcDbCircle
 62
7
  6
CONTINUOUS
 10
7.3273183383
 20
8.8427030515
 40
0.07
100
AcDbArc
 50
270.0
 51
90.0
  0
ARC
  5
41E
100
AcDbEntity
  8
0
100
AcDbCircle
 62
7
  6
CONTINUOUS
 10
7.3273183383
 20
8.8577030515
 40
0.04
100
AcDbArc
 50
18.2099568643
 51
90.0
  0
ARC
  5
41F
100
AcDbEntity
  8
0
100
AcDbCircle
 62
7
  6
CONTINUOUS
 10
7.2023183383
 20
8.8817030515
 40
0.016
100
AcDbArc
 50
0.0
 51
90.0
  0
ARC
  5
420
100
AcDbEntity
  8
0
100
AcDbCircle
 62
7
  6
CONTINUOUS
 10
7.2503183383
 20
8.8844365523
 40
0.015
100
AcDbArc
 50
0.0
 51
62.1818607153
  0
ARC
  5
421
100
AcDbEntity
  8
0
100
AcDbCircle
 62
7
  6
CONTINUOUS
 10
7.2523183383
 20
8.8817030515
 40
0.014
100
AcDbArc
 50
90.0
 51
180.0
  0
ARC
  5
422
100
AcDbEntity
  8
0
100
AcDbCircle
 62
7
  6
CONTINUOUS
 10
7.3073183383
 20
8.8927030515
 40
0.005
100
AcDbArc
 50
90.0
 51
180.0
  0
ARC
  5
423
100
AcDbEntity
  8
0
100
AcDbCircle
 62
7
  6
CONTINUOUS
 10
7.2084872219
 20
9.1434929964
 40
0.018
100
AcDbArc
 50
236.016443854
 51
64.0000000005
  0
ARC
  5
424
100
AcDbEntity
  8
0
100
AcDbCircle
 62
7
  6
CONTINUOUS
 10
7.0822607526
 20
9.1845042038
 40
0.016
100
AcDbArc
 50
267.4999999995
 51
87.4999999994
  0
ARC
  5
425
100
AcDbEntity
  8
0
100
AcDbCircle
 62
7
  6
CONTINUOUS
 10
7.2419462183
 20
9.1190875969
 40
0.0146811183
100
AcDbArc
 50
52.0000000006
 51
97.0000000004
  0
ARC
  5
426
100
AcDbEntity
  8
0
100
AcDbCircle
 62
7
  6
CONTINUOUS
 10
7.2684083358
 20
9.0984131249
 40
0.0146811183
100
AcDbArc
 50
7.0000000003
 51
52.0000000009
  0
ARC
  5
427
100
AcDbEntity
  8
0
100
AcDbCircle
 62
7
  6
CONTINUOUS
 10
7.2285071832
 20
9.1062874477
 40
0.013
100
AcDbArc
 50
261.9999999977
 51
322.0
  0
ARC
  5
428
100
AcDbEntity
  8
0
100
AcDbCircle
 62
7
  6
CONTINUOUS
 10
7.2592396026
 20
9.0822766501
 40
0.013
100
AcDbArc
 50
142.0000000001
 51
201.9999999989
  0
ARC
  5
429
100
AcDbEntity
  8
0
100
AcDbCircle
 62
7
  6
CONTINUOUS
 10
7.2025633703
 20
9.1463822519
 40
0.0115908889
100
AcDbArc
 50
243.9999999995
 51
63.9999999997
  0
ARC
  5
42A
100
AcDbEntity
  8
0
100
AcDbCircle
 62
7
  6
CONTINUOUS
 10
7.1590994791
 20
9.141464101
 40
0.011
100
AcDbArc
 50
274.0000000043
 51
334.0
  0
ARC
  5
42B
100
AcDbEntity
  8
0
100
AcDbCircle
 62
7
  6
CONTINUOUS
 10
7.1905572707
 20
9.1261211108
 40
0.011
100
AcDbArc
 50
153.9999999992
 51
214.0000000004
  0
ARC
  5
42C
100
AcDbEntity
  8
0
100
AcDbCircle
 62
7
  6
CONTINUOUS
 10
7.2186165257
 20
9.1140753621
 40
0.011
100
AcDbArc
 50
208.0605153629
 51
244.0000000032
  0
ARC
  5
42D
100
AcDbEntity
  8
0
100
AcDbCircle
 62
7
  6
CONTINUOUS
 10
7.1704740886
 20
9.1647855066
 40
0.011
100
AcDbArc
 50
334.0
 51
34.0
  0
ARC
  5
42E
100
AcDbEntity
  8
0
100
AcDbCircle
 62
7
  6
CONTINUOUS
 10
7.0755749563
 20
9.1847961119
 40
0.0096921657
100
AcDbArc
 50
267.4999999989
 51
87.4999999989
  0
ARC
  5
42F
100
AcDbEntity
  8
0
100
AcDbCircle
 62
7
  6
CONTINUOUS
 10
7.0639769072
 20
9.1554702524
 40
0.006
100
AcDbArc
 50
177.5000000001
 51
237.5000000008
  0
ARC
  5
430
100
AcDbEntity
  8
0
100
AcDbCircle
 62
7
  6
CONTINUOUS
 10
7.0599025448
 20
9.1767799376
 40
0.001
100
AcDbArc
 50
177.4999999988
 51
267.4999999638
  0
ARC
  5
431
100
AcDbEntity
  8
0
100
AcDbCircle
 62
7
  6
CONTINUOUS
 10
7.1836147204
 20
9.1346984934
 40
0.001
100
AcDbArc
 50
63.9999999892
 51
153.9999999916
  0
ARC
  5
432
100
AcDbEntity
  8
0
100
AcDbCircle
 62
7
  6
CONTINUOUS
 10
7.1859584871
 20
9.133555362
 40
0.001
100
AcDbArc
 50
14.1777964199
 51
63.9999999891
  0
ARC
  5
433
100
AcDbEntity
  8
0
100
AcDbCircle
 62
7
  6
CONTINUOUS
 10
7.2576901339
 20
9.1241486903
 40
0.001
100
AcDbArc
 50
322.0000000003
 51
52.0000000144
  0
ARC
  5
434
100
AcDbEntity
  8
0
100
AcDbCircle
 62
7
  6
CONTINUOUS
 10
7.2695102952
 20
9.1149137682
 40
0.001
100
AcDbArc
 50
52.0000000146
 51
142.0000000148
  0
ARC
  5
435
100
AcDbEntity
  8
0
100
AcDbCircle
 62
7
  6
CONTINUOUS
 10
7.0606608386
 20
9.194147723
 40
0.001
100
AcDbArc
 50
87.5000000209
 51
177.4999999989
  0
ARC
  5
436
100
AcDbEntity
  8
0
100
AcDbCircle
 62
7
  6
CONTINUOUS
 10
7.187216792
 20
9.1420838347
 40
0.001
100
AcDbArc
 50
153.9999999917
 51
243.9999999891
  0
ARC
  5
437
100
AcDbEntity
  8
0
100
AcDbCircle
 62
7
  6
CONTINUOUS
 10
7.1965022722
 20
9.1611218905
 40
0.001
100
AcDbArc
 50
64.0000000405
 51
154.0000000168
  0
ARC
  5
438
100
AcDbEntity
  8
0
100
AcDbCircle
 62
7
  6
CONTINUOUS
 10
7.0595401621
 20
9.1684800105
 40
0.001
100
AcDbArc
 50
87.5000000209
 51
177.4999999989
  0
ARC
  5
439
100
AcDbEntity
  8
0
100
AcDbCircle
 62
7
  6
CONTINUOUS
 10
11.0172663383
 20
17.8447030515
 40
1.0775
100
AcDbArc
 50
143.6026297633
 51
171.3973702366
  0
ARC
  5
43A
100
AcDbEntity
  8
0
100
AcDbCircle
 62
7
  6
CONTINUOUS
 10
11.0172663383
 20
17.8447030515
 40
1.0775
100
AcDbArc
 50
98.6026297633
 51
126.3973702367
  0
ARC
  5
43B
100
AcDbEntity
  8
0
100
AcDbCircle
 62
7
  6
CONTINUOUS
 10
11.0172663383
 20
17.8447030515
 40
1.0775
100
AcDbArc
 50
53.6026297633
 51
81.3973702367
  0
ARC
  5
43C
100
AcDbEntity
  8
0
100
AcDbCircle
 62
7
  6
CONTINUOUS
 10
11.0172663383
 20
17.8447030515
 40
1.0775
100
AcDbArc
 50
8.6026297634
 51
36.3973702367
  0
ARC
  5
43D
100
AcDbEntity
  8
0
100
AcDbCircle
 62
7
  6
CONTINUOUS
 10
11.0172663383
 20
17.8447030515
 40
1.0775
100
AcDbArc
 50
278.6026297634
 51
306.3973702367
  0
ARC
  5
43E
100
AcDbEntity
  8
0
100
AcDbCircle
 62
7
  6
CONTINUOUS
 10
11.0172663383
 20
17.8447030515
 40
1.0775
100
AcDbArc
 50
233.6026297633
 51
261.3973702366
  0
ARC
  5
43F
100
AcDbEntity
  8
0
100
AcDbCircle
 62
7
  6
CONTINUOUS
 10
11.0172663383
 20
17.8447030515
 40
1.0775
100
AcDbArc
 50
188.6026297634
 51
216.3973702367
  0
ARC
  5
440
100
AcDbEntity
  8
0
100
AcDbCircle
 62
7
  6
CONTINUOUS
 10
11.0172663383
 20
17.8447030515
 40
1.0775
100
AcDbArc
 50
323.6026297633
 51
351.3973702366
  0
ARC
  5
441
100
AcDbEntity
  8
0
100
AcDbCircle
 62
7
  6
CONTINUOUS
 10
11.0172663383
 20
17.8447030515
 40
1.0125
100
AcDbArc
 50
310.3996571512
 51
319.6088775861
  0
ARC
  5
442
100
AcDbEntity
  8
0
100
AcDbCircle
 62
7
  6
CONTINUOUS
 10
11.0172663383
 20
17.8447030515
 40
1.0125
100
AcDbArc
 50
265.1750095504
 51
274.8488484452
  0
ARC
  5
443
100
AcDbEntity
  8
0
100
AcDbCircle
 62
7
  6
CONTINUOUS
 10
11.0172663383
 20
17.8447030515
 40
1.0125
100
AcDbArc
 50
220.4291195382
 51
229.6328230268
  0
ARC
  5
444
100
AcDbEntity
  8
0
100
AcDbCircle
 62
7
  6
CONTINUOUS
 10
11.0172663383
 20
17.8447030515
 40
1.0125
100
AcDbArc
 50
175.4737180399
 51
184.4863586334
  0
ARC
  5
445
100
AcDbEntity
  8
0
100
AcDbCircle
 62
7
  6
CONTINUOUS
 10
11.0172663383
 20
17.8447030515
 40
1.0125
100
AcDbArc
 50
130.3996571512
 51
139.6088775861
  0
ARC
  5
446
100
AcDbEntity
  8
0
100
AcDbCircle
 62
7
  6
CONTINUOUS
 10
11.0172663383
 20
17.8447030515
 40
1.0125
100
AcDbArc
 50
85.1750095505
 51
94.8488484454
  0
ARC
  5
447
100
AcDbEntity
  8
0
100
AcDbCircle
 62
7
  6
CONTINUOUS
 10
11.0172663383
 20
17.8447030515
 40
1.0125
100
AcDbArc
 50
40.4291195382
 51
49.6328230268
  0
ARC
  5
448
100
AcDbEntity
  8
0
100
AcDbCircle
 62
7
  6
CONTINUOUS
 10
11.0172663383
 20
17.8447030515
 40
1.0125
100
AcDbArc
 50
355.4737180399
 51
4.4863586334
  0
CIRCLE
  5
449
100
AcDbEntity
  8
0
100
AcDbCircle
 62
7
  6
CONTINUOUS
 10
11.0172663383
 20
17.8447030515
 40
0.935
  0
CIRCLE
  5
44A
100
AcDbEntity
  8
0
100
AcDbCircle
 62
9
  6
CONTINUOUS
 10
11.0172663383
 20
17.8447030515
 40
0.909136433
  0
ARC
  5
44B
100
AcDbEntity
  8
0
100
AcDbCircle
 62
7
  6
CONTINUOUS
 10
10.1687382009
 20
18.6932311889
 40
0.21
100
AcDbArc
 50
264.870833936
 51
5.1291660639
  0
ARC
  5
44C
100
AcDbEntity
  8
0
100
AcDbCircle
 62
7
  6
CONTINUOUS
 10
11.0172663383
 20
19.0447030515
 40
0.21
100
AcDbArc
 50
219.8708339353
 51
320.1291660647
  0
ARC
  5
44D
100
AcDbEntity
  8
0
100
AcDbCircle
 62
7
  6
CONTINUOUS
 10
11.0172663383
 20
16.6447030515
 40
0.21
100
AcDbArc
 50
39.8708339359
 51
140.1291660641
  0
ARC
  5
44E
100
AcDbEntity
  8
0
100
AcDbCircle
 62
7
  6
CONTINUOUS
 10
10.1687382009
 20
16.9961749141
 40
0.21
100
AcDbArc
 50
354.8708339361
 51
95.129166064
  0
ARC
  5
44F
100
AcDbEntity
  8
0
100
AcDbCircle
 62
7
  6
CONTINUOUS
 10
9.8172663383
 20
17.8447030515
 40
0.21
100
AcDbArc
 50
309.8708339358
 51
50.1291660642
  0
CIRCLE
  5
450
100
AcDbEntity
  8
0
100
AcDbCircle
 62
7
  6
CONTINUOUS
 10
11.0473183383
 20
-3.1554169485
 40
0.79
  0
CIRCLE
  5
451
100
AcDbEntity
  8
0
100
AcDbCircle
 62
7
  6
CONTINUOUS
 10
11.0473183383
 20
-0.1572969485
 40
0.656
  0
CIRCLE
  5
452
100
AcDbEntity
  8
0
100
AcDbCircle
 62
7
  6
CONTINUOUS
 10
11.0473183383
 20
-3.1554169485
 40
0.495
  0
CIRCLE
  5
453
100
AcDbEntity
  8
0
100
AcDbCircle
 62
9
  6
CONTINUOUS
 10
11.0473183383
 20
-3.1554169485
 40
0.49
  0
CIRCLE
  5
454
100
AcDbEntity
  8
0
100
AcDbCircle
 62
9
  6
CONTINUOUS
 10
11.0473183383
 20
-0.1572969485
 40
0.4795772124
  0
CIRCLE
  5
455
100
AcDbEntity
  8
0
100
AcDbCircle
 62
7
  6
CONTINUOUS
 10
11.0473183383
 20
-3.1554169485
 40
0.47
  0
CIRCLE
  5
456
100
AcDbEntity
  8
0
100
AcDbCircle
 62
7
  6
CONTINUOUS
 10
11.0473183383
 20
-0.1572969485
 40
0.46875
  0
CIRCLE
  5
457
100
AcDbEntity
  8
0
100
AcDbCircle
 62
7
  6
CONTINUOUS
 10
11.0473183383
 20
-3.1554169485
 40
0.4625
  0
CIRCLE
  5
458
100
AcDbEntity
  8
0
100
AcDbCircle
 62
9
  6
CONTINUOUS
 10
11.0473183383
 20
-3.1554169485
 40
0.4272880871
  0
CIRCLE
  5
459
100
AcDbEntity
  8
0
100
AcDbCircle
 62
9
  6
CONTINUOUS
 10
11.0473183383
 20
-3.1554169485
 40
0.4181683849
  0
CIRCLE
  5
45A
100
AcDbEntity
  8
0
100
AcDbCircle
 62
7
  6
CONTINUOUS
 10
11.0473183383
 20
-0.1572969485
 40
0.4
  0
CIRCLE
  5
45B
100
AcDbEntity
  8
0
100
AcDbCircle
 62
7
  6
CONTINUOUS
 10
11.0473183383
 20
-3.1554169485
 40
0.396
  0
CIRCLE
  5
45C
100
AcDbEntity
  8
0
100
AcDbCircle
 62
7
  6
CONTINUOUS
 10
11.0473183383
 20
-3.1554169485
 40
0.395
  0
CIRCLE
  5
45D
100
AcDbEntity
  8
0
100
AcDbCircle
 62
9
  6
CONTINUOUS
 10
11.0473183383
 20
-0.1572969485
 40
0.3875
  0
CIRCLE
  5
45E
100
AcDbEntity
  8
0
100
AcDbCircle
 62
7
  6
CONTINUOUS
 10
11.0473183383
 20
-3.1554169485
 40
0.3875
  0
ARC
  5
45F
100
AcDbEntity
  8
0
100
AcDbCircle
 62
7
  6
CONTINUOUS
 10
11.0473183383
 20
-3.1554169485
 40
0.375
100
AcDbArc
 50
196.9999999999
 51
208.0000000005
  0
ARC
  5
460
100
AcDbEntity
  8
0
100
AcDbCircle
 62
7
  6
CONTINUOUS
 10
11.0473183383
 20
-3.1554169485
 40
0.375
100
AcDbArc
 50
106.9999999998
 51
117.9999999998
  0
ARC
  5
461
100
AcDbEntity
  8
0
100
AcDbCircle
 62
7
  6
CONTINUOUS
 10
11.0473183383
 20
-3.1554169485
 40
0.375
100
AcDbArc
 50
152.0000000006
 51
162.9999999998
  0
ARC
  5
462
100
AcDbEntity
  8
0
100
AcDbCircle
 62
7
  6
CONTINUOUS
 10
11.0473183383
 20
-3.1554169485
 40
0.375
100
AcDbArc
 50
286.9999999998
 51
297.9999999998
  0
ARC
  5
463
100
AcDbEntity
  8
0
100
AcDbCircle
 62
7
  6
CONTINUOUS
 10
11.0473183383
 20
-3.1554169485
 40
0.375
100
AcDbArc
 50
16.9999999999
 51
28.0000000005
  0
ARC
  5
464
100
AcDbEntity
  8
0
100
AcDbCircle
 62
7
  6
CONTINUOUS
 10
11.0473183383
 20
-3.1554169485
 40
0.375
100
AcDbArc
 50
241.9999999999
 51
253.0000000001
  0
ARC
  5
465
100
AcDbEntity
  8
0
100
AcDbCircle
 62
7
  6
CONTINUOUS
 10
11.0473183383
 20
-3.1554169485
 40
0.375
100
AcDbArc
 50
332.0000000006
 51
342.9999999998
  0
ARC
  5
466
100
AcDbEntity
  8
0
100
AcDbCircle
 62
7
  6
CONTINUOUS
 10
11.0473183383
 20
-3.1554169485
 40
0.375
100
AcDbArc
 50
61.9999999999
 51
73.0000000001
  0
ARC
  5
467
100
AcDbEntity
  8
0
100
AcDbCircle
 62
7
  6
CONTINUOUS
 10
11.0473183383
 20
-3.1554169485
 40
0.3575
100
AcDbArc
 50
342.9999999998
 51
16.9999999998
  0
ARC
  5
468
100
AcDbEntity
  8
0
100
AcDbCircle
 62
7
  6
CONTINUOUS
 10
11.0473183383
 20
-3.1554169485
 40
0.3575
100
AcDbArc
 50
297.9999999998
 51
332.0000000007
  0
ARC
  5
469
100
AcDbEntity
  8
0
100
AcDbCircle
 62
7
  6
CONTINUOUS
 10
11.0473183383
 20
-3.1554169485
 40
0.3575
100
AcDbArc
 50
253.0000000001
 51
286.9999999998
  0
ARC
  5
46A
100
AcDbEntity
  8
0
100
AcDbCircle
 62
7
  6
CONTINUOUS
 10
11.0473183383
 20
-3.1554169485
 40
0.3575
100
AcDbArc
 50
208.0000000006
 51
241.9999999998
  0
ARC
  5
46B
100
AcDbEntity
  8
0
100
AcDbCircle
 62
7
  6
CONTINUOUS
 10
11.0473183383
 20
-3.1554169485
 40
0.3575
100
AcDbArc
 50
162.9999999998
 51
196.9999999998
  0
ARC
  5
46C
100
AcDbEntity
  8
0
100
AcDbCircle
 62
7
  6
CONTINUOUS
 10
11.0473183383
 20
-3.1554169485
 40
0.3575
100
AcDbArc
 50
117.9999999998
 51
152.0000000007
  0
ARC
  5
46D
100
AcDbEntity
  8
0
100
AcDbCircle
 62
7
  6
CONTINUOUS
 10
11.0473183383
 20
-3.1554169485
 40
0.3575
100
AcDbArc
 50
73.0000000001
 51
106.9999999998
  0
ARC
  5
46E
100
AcDbEntity
  8
0
100
AcDbCircle
 62
7
  6
CONTINUOUS
 10
11.0473183383
 20
-3.1554169485
 40
0.3575
100
AcDbArc
 50
28.0000000006
 51
61.9999999998
  0
CIRCLE
  5
46F
100
AcDbEntity
  8
0
100
AcDbCircle
 62
7
  6
CONTINUOUS
 10
11.0473183383
 20
-0.1572969485
 40
0.3125
  0
CIRCLE
  5
470
100
AcDbEntity
  8
0
100
AcDbCircle
 62
7
  6
CONTINUOUS
 10
11.0473183383
 20
-3.1554169485
 40
0.3125
  0
CIRCLE
  5
471
100
AcDbEntity
  8
0
100
AcDbCircle
 62
7
  6
CONTINUOUS
 10
11.0473183383
 20
-0.1572969485
 40
0.2625
  0
ARC
  5
472
100
AcDbEntity
  8
0
100
AcDbCircle
 62
7
  6
CONTINUOUS
 10
14.8295902981
 20
8.8627030515
 40
0.025
100
AcDbArc
 50
44.3891151236
 51
90.0
  0
ARC
  5
473
100
AcDbEntity
  8
0
100
AcDbCircle
 62
7
  6
CONTINUOUS
 10
14.7278183383
 20
8.813553711
 40
0.021
100
AcDbArc
 50
276.8371411681
 51
360.0
  0
ARC
  5
474
100
AcDbEntity
  8
0
100
AcDbCircle
 62
7
  6
CONTINUOUS
 10
14.7278183383
 20
8.8775784397
 40
0.021
100
AcDbArc
 50
0.0
 51
73.398450401
  0
ARC
  5
475
100
AcDbEntity
  8
0
100
AcDbCircle
 62
7
  6
CONTINUOUS
 10
14.7978183383
 20
8.813553711
 40
0.021
100
AcDbArc
 50
180.0
 51
263.1628588319
  0
ARC
  5
476
100
AcDbEntity
  8
0
100
AcDbCircle
 62
7
  6
CONTINUOUS
 10
14.8345379559
 20
9.0794271695
 40
0.011
100
AcDbArc
 50
321.8266201302
 51
36.0
  0
ARC
  5
477
100
AcDbEntity
  8
0
100
AcDbCircle
 62
7
  6
CONTINUOUS
 10
14.8199409031
 20
9.0995182891
 40
0.011
100
AcDbArc
 50
36.0
 51
110.1733798663
  0
ARC
  5
478
100
AcDbEntity
  8
0
100
AcDbCircle
 62
7
  6
CONTINUOUS
 10
14.7868183383
 20
8.8247030515
 40
0.01
100
AcDbArc
 50
90.0
 51
180.0
  0
ARC
  5
479
100
AcDbEntity
  8
0
100
AcDbCircle
 62
7
  6
CONTINUOUS
 10
14.7953183383
 20
8.8247030515
 40
0.01
100
AcDbArc
 50
0.0
 51
90.0
  0
ARC
  5
47A
100
AcDbEntity
  8
0
100
AcDbCircle
 62
7
  6
CONTINUOUS
 10
14.7953183383
 20
8.8607030515
 40
0.01
100
AcDbArc
 50
270.0
 51
360.0
  0
ARC
  5
47B
100
AcDbEntity
  8
0
100
AcDbCircle
 62
7
  6
CONTINUOUS
 10
14.7868183383
 20
8.8607030515
 40
0.01
100
AcDbArc
 50
180.0
 51
270.0
  0
ARC
  5
47C
100
AcDbEntity
  8
0
100
AcDbCircle
 62
7
  6
CONTINUOUS
 10
14.7818183383
 20
8.8827030515
 40
0.005
100
AcDbArc
 50
90.0
 51
180.0
  0
ARC
  5
47D
100
AcDbEntity
  8
0
100
AcDbCircle
 62
7
  6
CONTINUOUS
 10
11.8657944757
 20
18.6932311889
 40
0.21
100
AcDbArc
 50
174.8708339361
 51
275.129166064
  0
ARC
  5
47E
100
AcDbEntity
  8
0
100
AcDbCircle
 62
7
  6
CONTINUOUS
 10
11.8657944757
 20
16.9961749141
 40
0.21
100
AcDbArc
 50
84.870833936
 51
185.1291660639
  0
ARC
  5
47F
100
AcDbEntity
  8
0
100
AcDbCircle
 62
7
  6
CONTINUOUS
 10
12.2172663383
 20
17.8447030515
 40
0.21
100
AcDbArc
 50
129.8708339358
 51
230.1291660642
  0
ARC
  5
480
100
AcDbEntity
  8
0
100
AcDbCircle
 62
7
  6
CONTINUOUS
 10
14.9929401918
 20
8.5291571742
 40
0.018
100
AcDbArc
 50
250.0164438527
 51
78.0000000022
  0
ARC
  5
481
100
AcDbEntity
  8
0
100
AcDbCircle
 62
7
  6
CONTINUOUS
 10
14.9211387318
 20
8.524225315
 40
0.0177342409
100
AcDbArc
 50
245.9999999981
 51
42.5194112818
  0
ARC
  5
482
100
AcDbEntity
  8
0
100
AcDbCircle
 62
7
  6
CONTINUOUS
 10
15.0124582249
 20
8.5058938689
 40
0.015
100
AcDbArc
 50
288.9054592062
 51
340.0000000002
  0
ARC
  5
483
100
AcDbEntity
  8
0
100
AcDbCircle
 62
7
  6
CONTINUOUS
 10
14.9308189823
 20
8.550308797
 40
0.0145
100
AcDbArc
 50
283.5235132019
 51
65.9999999985
  0
ARC
  5
484
100
AcDbEntity
  8
0
100
AcDbCircle
 62
7
  6
CONTINUOUS
 10
14.91552277
 20
8.5270166118
 40
0.012
100
AcDbArc
 50
245.9999999996
 51
65.9999999996
  0
ARC
  5
485
100
AcDbEntity
  8
0
100
AcDbCircle
 62
7
  6
CONTINUOUS
 10
14.9864933297
 20
8.530527497
 40
0.0115908889
100
AcDbArc
 50
258.0000000013
 51
77.9999999964
  0
ARC
  5
486
100
AcDbEntity
  8
0
100
AcDbCircle
 62
7
  6
CONTINUOUS
 10
14.9455103102
 20
8.5152405693
 40
0.011
100
AcDbArc
 50
287.9999999995
 51
348.0
  0
ARC
  5
487
100
AcDbEntity
  8
0
100
AcDbCircle
 62
7
  6
CONTINUOUS
 10
14.9797454763
 20
8.5079636601
 40
0.011
100
AcDbArc
 50
167.9999999999
 51
227.9999999996
  0
ARC
  5
488
100
AcDbEntity
  8
0
100
AcDbCircle
 62
7
  6
CONTINUOUS
 10
15.0098853818
 20
8.5030638698
 40
0.011
100
AcDbArc
 50
222.0605153603
 51
258.0
  0
ARC
  5
489
100
AcDbEntity
  8
0
100
AcDbCircle
 62
7
  6
CONTINUOUS
 10
14.9509050866
 20
8.5406209966
 40
0.011
100
AcDbArc
 50
348.0
 51
47.9999999996
  0
ARC
  5
48A
100
AcDbEntity
  8
0
100
AcDbCircle
 62
7
  6
CONTINUOUS
 10
14.9244241641
 20
8.5531559535
 40
0.0095
100
AcDbArc
 50
245.9999999957
 51
66.0000000012
  0
ARC
  5
48B
100
AcDbEntity
  8
0
100
AcDbCircle
 62
7
  6
CONTINUOUS
 10
14.9000304531
 20
8.5659780984
 40
0.007
100
AcDbArc
 50
336.0
 51
49.3984504
  0
ARC
  5
48C
100
AcDbEntity
  8
0
100
AcDbCircle
 62
7
  6
CONTINUOUS
 10
14.8871842488
 20
8.5371250512
 40
0.007
100
AcDbArc
 50
262.6015496013
 51
336.0
  0
ARC
  5
48D
100
AcDbEntity
  8
0
100
AcDbCircle
 62
7
  6
CONTINUOUS
 10
15.0381101566
 20
8.4974292533
 40
0.006
100
AcDbArc
 50
160.0000000005
 51
252.6242801219
  0
ARC
  5
48E
100
AcDbEntity
  8
0
100
AcDbCircle
 62
7
  6
CONTINUOUS
 10
15.0510772755
 20
8.4974292533
 40
0.006
100
AcDbArc
 50
287.3757198781
 51
20.0000000028
  0
ARC
  5
48F
100
AcDbEntity
  8
0
100
AcDbCircle
 62
7
  6
CONTINUOUS
 10
14.9215366434
 20
8.5626513326
 40
0.002
100
AcDbArc
 50
66.000000004
 51
155.9999999979
  0
ARC
  5
490
100
AcDbEntity
  8
0
100
AcDbCircle
 62
7
  6
CONTINUOUS
 10
14.9154355938
 20
8.5489481508
 40
0.002
100
AcDbArc
 50
155.9999999979
 51
246.0000000041
  0
ARC
  5
491
100
AcDbEntity
  8
0
100
AcDbCircle
 62
7
  6
CONTINUOUS
 10
14.9113682273
 20
8.5398126962
 40
0.002
100
AcDbArc
 50
66.0000000041
 51
155.9999999953
  0
ARC
  5
492
100
AcDbEntity
  8
0
100
AcDbCircle
 62
7
  6
CONTINUOUS
 10
14.9032334945
 20
8.521541787
 40
0.002
100
AcDbArc
 50
156.0000000095
 51
246.0000000042
  0
ARC
  5
493
100
AcDbEntity
  8
0
100
AcDbCircle
 62
7
  6
CONTINUOUS
 10
14.9726424916
 20
8.5226440879
 40
0.001
100
AcDbArc
 50
168.000000004
 51
257.9999999907
  0
ARC
  5
494
100
AcDbEntity
  8
0
100
AcDbCircle
 62
7
  6
CONTINUOUS
 10
14.9770464308
 20
8.543362993
 40
0.001
100
AcDbArc
 50
78.0000000453
 51
168.000000004
  0
ARC
  5
495
100
AcDbEntity
  8
0
100
AcDbCircle
 62
7
  6
CONTINUOUS
 10
14.9709340926
 20
8.5146067028
 40
0.001
100
AcDbArc
 50
78.0000000453
 51
168.0000000039
  0
ARC
  5
496
100
AcDbEntity
  8
0
100
AcDbCircle
 62
7
  6
CONTINUOUS
 10
14.973484788
 20
8.5140645358
 40
0.001
100
AcDbArc
 50
28.1777964323
 51
77.9999999903
  0
ARC
  5
497
100
AcDbEntity
  8
0
100
AcDbCircle
 62
7
  6
CONTINUOUS
 10
14.8608183383
 20
8.8143536866
 40
0.025
100
AcDbArc
 50
300.0
 51
360.0
  0
ARC
  5
498
100
AcDbEntity
  8
0
100
AcDbCircle
 62
7
  6
CONTINUOUS
 10
14.9408183383
 20
8.8143536866
 40
0.025
100
AcDbArc
 50
180.0
 51
240.0
  0
ARC
  5
499
100
AcDbEntity
  8
0
100
AcDbCircle
 62
7
  6
CONTINUOUS
 10
15.0133183383
 20
8.8177030515
 40
0.025
100
AcDbArc
 50
233.574758698
 51
270.0
  0
ARC
  5
49A
100
AcDbEntity
  8
0
100
AcDbCircle
 62
7
  6
CONTINUOUS
 10
14.9188183383
 20
8.8247030515
 40
0.003
100
AcDbArc
 50
90.0
 51
179.9999999999
  0
ARC
  5
49B
100
AcDbEntity
  8
0
100
AcDbCircle
 62
7
  6
CONTINUOUS
 10
14.925308228
 20
8.8247030515
 40
0.003
100
AcDbArc
 50
40.2859999933
 51
90.0
  0
ARC
  5
49C
100
AcDbEntity
  8
0
100
AcDbCircle
 62
7
  6
CONTINUOUS
 10
15.1096918455
 20
8.5492587713
 40
0.06
100
AcDbArc
 50
256.2146351723
 51
301.4712206346
  0
ARC
  5
49D
100
AcDbEntity
  8
0
100
AcDbCircle
 62
7
  6
CONTINUOUS
 10
15.1741038168
 20
8.5708107154
 40
0.06
100
AcDbArc
 50
269.2146351718
 51
314.4712206344
  0
ARC
  5
49E
100
AcDbEntity
  8
0
100
AcDbCircle
 62
7
  6
CONTINUOUS
 10
15.1207474314
 20
8.5015140195
 40
0.049
100
AcDbArc
 50
72.2068956489
 51
131.793104351
  0
ARC
  5
49F
100
AcDbEntity
  8
0
100
AcDbCircle
 62
7
  6
CONTINUOUS
 10
15.195616281
 20
8.5267766242
 40
0.049
100
AcDbArc
 50
85.2068956488
 51
144.7931043506
  0
ARC
  5
4A0
100
AcDbEntity
  8
0
100
AcDbCircle
 62
7
  6
CONTINUOUS
 10
15.1152142482
 20
8.5232779095
 40
0.025
100
AcDbArc
 50
221.6464596392
 51
305.5781784771
  0
ARC
  5
4A1
100
AcDbEntity
  8
0
100
AcDbCircle
 62
7
  6
CONTINUOUS
 10
15.1145637255
 20
8.5186017629
 40
0.025
100
AcDbArc
 50
33.0231697083
 51
118.2602047088
  0
ARC
  5
4A2
100
AcDbEntity
  8
0
100
AcDbCircle
 62
7
  6
CONTINUOUS
 10
15.1853291029
 20
8.5467380117
 40
0.025
100
AcDbArc
 50
234.6464596386
 51
318.5781784785
  0
ARC
  5
4A3
100
AcDbEntity
  8
0
100
AcDbCircle
 62
7
  6
CONTINUOUS
 10
15.1857471571
 20
8.5420353787
 40
0.025
100
AcDbArc
 50
46.0231697089
 51
131.2602047082
  0
ARC
  5
4A4
100
AcDbEntity
  8
0
100
AcDbCircle
 62
7
  6
CONTINUOUS
 10
15.0841784517
 20
8.5058938689
 40
0.015
100
AcDbArc
 50
199.9999999998
 51
251.0945407939
  0
ARC
  5
4A5
100
AcDbEntity
  8
0
100
AcDbCircle
 62
7
  6
CONTINUOUS
 10
15.1331850055
 20
8.5108781586
 40
0.015
100
AcDbArc
 50
301.4712206346
 51
61.619642743
  0
ARC
  5
4A6
100
AcDbEntity
  8
0
100
AcDbCircle
 62
7
  6
CONTINUOUS
 10
15.2056286079
 20
8.5386986064
 40
0.015
100
AcDbArc
 50
314.4712206324
 51
74.6196427433
  0
ARC
  5
4A7
100
AcDbEntity
  8
0
100
AcDbCircle
 62
7
  6
CONTINUOUS
 10
15.0920587266
 20
8.4773903282
 40
0.014
100
AcDbArc
 50
76.214635173
 51
93.0000000024
  0
ARC
  5
4A8
100
AcDbEntity
  8
0
100
AcDbCircle
 62
7
  6
CONTINUOUS
 10
15.1399990163
 20
8.5615004886
 40
0.014
100
AcDbArc
 50
252.2068956489
 51
272.9999999984
  0
ARC
  5
4A9
100
AcDbEntity
  8
0
100
AcDbCircle
 62
7
  6
CONTINUOUS
 10
15.1730895156
 20
8.4968176671
 40
0.014
100
AcDbArc
 50
89.2146351755
 51
106.0000000021
  0
ARC
  5
4AA
100
AcDbEntity
  8
0
100
AcDbCircle
 62
7
  6
CONTINUOUS
 10
15.2008804295
 20
8.5895563083
 40
0.014
100
AcDbArc
 50
265.2068956512
 51
286.0000000023
  0
ARC
  5
4AB
100
AcDbEntity
  8
0
100
AcDbCircle
 62
7
  6
CONTINUOUS
 10
15.0967554926
 20
8.5283540431
 40
0.013
100
AcDbArc
 50
131.7931043517
 51
243.9826041721
  0
ARC
  5
4AC
100
AcDbEntity
  8
0
100
AcDbCircle
 62
7
  6
CONTINUOUS
 10
15.1662015624
 20
8.5475317278
 40
0.013
100
AcDbArc
 50
144.7931043508
 51
256.982604171
  0
ARC
  5
4AD
100
AcDbEntity
  8
0
100
AcDbCircle
 62
7
  6
CONTINUOUS
 10
15.3073183383
 20
8.8327030515
 40
0.04
100
AcDbArc
 50
270.0
 51
341.7900431358
  0
ARC
  5
4AE
100
AcDbEntity
  8
0
100
AcDbCircle
 62
7
  6
CONTINUOUS
 10
15.1548183383
 20
8.8165515315
 40
0.025
100
AcDbArc
 50
287.4576031237
 51
360.0
  0
ARC
  5
4AF
100
AcDbEntity
  8
0
100
AcDbCircle
 62
7
  6
CONTINUOUS
 10
15.2348183383
 20
8.8165515315
 40
0.025
100
AcDbArc
 50
180.0
 51
252.5423968763
  0
ARC
  5
4B0
100
AcDbEntity
  8
0
100
AcDbCircle
 62
7
  6
CONTINUOUS
 10
15.2303183383
 20
8.8059695507
 40
0.015
100
AcDbArc
 50
297.8181392847
 51
360.0
  0
ARC
  5
4B1
100
AcDbEntity
  8
0
100
AcDbCircle
 62
7
  6
CONTINUOUS
 10
15.2873183383
 20
8.7977030515
 40
0.005
100
AcDbArc
 50
180.0
 51
270.0000000001
  0
ARC
  5
4B2
100
AcDbEntity
  8
0
100
AcDbCircle
 62
7
  6
CONTINUOUS
 10
15.0473183383
 20
8.8427030515
 40
1.3125
100
AcDbArc
 50
9.4161384642
 51
350.5838615358
  0
ARC
  5
4B3
100
AcDbEntity
  8
0
100
AcDbCircle
 62
7
  6
CONTINUOUS
 10
15.0473183383
 20
8.8427030515
 40
1.2625
100
AcDbArc
 50
9.6629524427
 51
350.3370475573
  0
ARC
  5
4B4
100
AcDbEntity
  8
0
100
AcDbCircle
 62
9
  6
CONTINUOUS
 10
15.0473183383
 20
8.8427030515
 40
1.1354891084
100
AcDbArc
 50
10.3860323802
 51
349.6139676198
  0
ARC
  5
4B5
100
AcDbEntity
  8
0
100
AcDbCircle
 62
7
  6
CONTINUOUS
 10
15.0473183383
 20
8.8427030515
 40
1.125
100
AcDbArc
 50
10.4511309808
 51
349.5510815967
  0
ARC
  5
4B6
100
AcDbEntity
  8
0
100
AcDbCircle
 62
7
  6
CONTINUOUS
 10
15.0473183383
 20
8.8427030515
 40
1.05
100
AcDbArc
 50
10.9737420496
 51
349.0262579504
  0
ARC
  5
4B7
100
AcDbEntity
  8
0
100
AcDbCircle
 62
7
  6
CONTINUOUS
 10
15.0473183383
 20
8.8427030515
 40
0.6375
100
AcDbArc
 50
16.0510311337
 51
343.9523651423
  0
ARC
  5
4B8
100
AcDbEntity
  8
0
100
AcDbCircle
 62
7
  6
CONTINUOUS
 10
15.0473183383
 20
8.8427030515
 40
0.5375
100
AcDbArc
 50
19.0588163609
 51
340.9450144321
  0
CIRCLE
  5
4B9
100
AcDbEntity
  8
0
100
AcDbCircle
 62
7
  6
CONTINUOUS
 10
15.0473183383
 20
8.8427030515
 40
0.5
  0
CIRCLE
  5
4BA
100
AcDbEntity
  8
0
100
AcDbCircle
 62
7
  6
CONTINUOUS
 10
15.0473183383
 20
8.8427030515
 40
0.425
  0
CIRCLE
  5
4BB
100
AcDbEntity
  8
0
100
AcDbCircle
 62
7
  6
CONTINUOUS
 10
15.0473183383
 20
8.8427030515
 40
0.4175
  0
CIRCLE
  5
4BC
100
AcDbEntity
  8
0
100
AcDbCircle
 62
9
  6
CONTINUOUS
 10
15.0473183383
 20
8.8427030515
 40
0.3951446566
  0
ARC
  5
4BD
100
AcDbEntity
  8
0
100
AcDbCircle
 62
7
  6
CONTINUOUS
 10
14.9613183383
 20
8.8707030515
 40
0.042
100
AcDbArc
 50
262.4753697776
 51
90.0
  0
ARC
  5
4BE
100
AcDbEntity
  8
0
100
AcDbCircle
 62
7
  6
CONTINUOUS
 10
14.9463183383
 20
8.8707030515
 40
0.027
100
AcDbArc
 50
270.0
 51
90.0
  0
ARC
  5
4BF
100
AcDbEntity
  8
0
100
AcDbCircle
 62
7
  6
CONTINUOUS
 10
14.8608183383
 20
8.8760524164
 40
0.025
100
AcDbArc
 50
0.0
 51
60.0
  0
ARC
  5
4C0
100
AcDbEntity
  8
0
100
AcDbCircle
 62
7
  6
CONTINUOUS
 10
14.9188183383
 20
8.8467030515
 40
0.003
100
AcDbArc
 50
179.9999999999
 51
270.0
  0
ARC
  5
4C1
100
AcDbEntity
  8
0
100
AcDbCircle
 62
7
  6
CONTINUOUS
 10
14.9188183383
 20
8.8947030515
 40
0.003
100
AcDbArc
 50
90.0
 51
179.9999999999
  0
ARC
  5
4C2
100
AcDbEntity
  8
0
100
AcDbCircle
 62
7
  6
CONTINUOUS
 10
14.9308844078
 20
9.1580483636
 40
0.026
100
AcDbArc
 50
292.0000000003
 51
331.7151372322
  0
ARC
  5
4C3
100
AcDbEntity
  8
0
100
AcDbCircle
 62
7
  6
CONTINUOUS
 10
14.9375257552
 20
9.1521033641
 40
0.022
100
AcDbArc
 50
87.3800226715
 51
111.9999999996
  0
ARC
  5
4C4
100
AcDbEntity
  8
0
100
AcDbCircle
 62
7
  6
CONTINUOUS
 10
14.9320274492
 20
9.1628243212
 40
0.019
100
AcDbArc
 50
59.9798724439
 51
112.0000000002
  0
ARC
  5
4C5
100
AcDbEntity
  8
0
100
AcDbCircle
 62
7
  6
CONTINUOUS
 10
14.9359695947
 20
9.1374536828
 40
0.012
100
AcDbArc
 50
75.1301023545
 51
112.0
  0
ARC
  5
4C6
100
AcDbEntity
  8
0
100
AcDbCircle
 62
7
  6
CONTINUOUS
 10
14.8571904317
 20
9.0958851566
 40
0.011
100
AcDbArc
 50
216.0000000003
 51
290.1733798713
  0
ARC
  5
4C7
100
AcDbEntity
  8
0
100
AcDbCircle
 62
7
  6
CONTINUOUS
 10
14.8903601285
 20
9.119984352
 40
0.011
100
AcDbArc
 50
216.0000000003
 51
290.1733798712
  0
ARC
  5
4C8
100
AcDbEntity
  8
0
100
AcDbCircle
 62
7
  6
CONTINUOUS
 10
14.8757630757
 20
9.1400754715
 40
0.011
100
AcDbArc
 50
141.826620133
 51
216.0000000003
  0
ARC
  5
4C9
100
AcDbEntity
  8
0
100
AcDbCircle
 62
7
  6
CONTINUOUS
 10
14.8531105998
 20
9.1236174844
 40
0.011
100
AcDbArc
 50
36.0
 51
110.1733798712
  0
ARC
  5
4CA
100
AcDbEntity
  8
0
100
AcDbCircle
 62
7
  6
CONTINUOUS
 10
15.0755749563
 20
9.1847961119
 40
0.0096921657
100
AcDbArc
 50
267.4999999989
 51
87.4999999989
  0
ARC
  5
4CB
100
AcDbEntity
  8
0
100
AcDbCircle
 62
7
  6
CONTINUOUS
 10
14.9282621617
 20
9.1645386505
 40
0.007
100
AcDbArc
 50
292.0000000009
 51
328.869897649
  0
ARC
  5
4CC
100
AcDbEntity
  8
0
100
AcDbCircle
 62
7
  6
CONTINUOUS
 10
14.9012502951
 20
9.1214806629
 40
0.006
100
AcDbArc
 50
322.0000000018
 51
22.0
  0
ARC
  5
4CD
100
AcDbEntity
  8
0
100
AcDbCircle
 62
7
  6
CONTINUOUS
 10
14.8882860243
 20
9.1535683591
 40
0.006
100
AcDbArc
 50
22.0
 51
82.0000000071
  0
ARC
  5
4CE
100
AcDbEntity
  8
0
100
AcDbCircle
 62
7
  6
CONTINUOUS
 10
15.0380016535
 20
9.1566043565
 40
0.006
100
AcDbArc
 50
297.5000000049
 51
357.5
  0
ARC
  5
4CF
100
AcDbEntity
  8
0
100
AcDbCircle
 62
7
  6
CONTINUOUS
 10
15.0639769072
 20
9.1554702524
 40
0.006
100
AcDbArc
 50
177.5000000001
 51
237.5000000008
  0
ARC
  5
4D0
100
AcDbEntity
  8
0
100
AcDbCircle
 62
7
  6
CONTINUOUS
 10
15.0395112199
 20
9.1911791128
 40
0.006
100
AcDbArc
 50
357.5
 51
57.5000000008
  0
ARC
  5
4D1
100
AcDbEntity
  8
0
100
AcDbCircle
 62
7
  6
CONTINUOUS
 10
15.0311453512
 20
9.1909247222
 40
0.0055355033
100
AcDbArc
 50
99.0000000002
 51
166.7905032919
  0
ARC
  5
4D2
100
AcDbEntity
  8
0
100
AcDbCircle
 62
7
  6
CONTINUOUS
 10
15.0129333297
 20
9.1880402214
 40
0.0055355033
100
AcDbArc
 50
346.790503292
 51
99.0000000003
  0
ARC
  5
4D3
100
AcDbEntity
  8
0
100
AcDbCircle
 62
7
  6
CONTINUOUS
 10
14.9807732458
 20
9.1829465645
 40
0.0055355033
100
AcDbArc
 50
99.0000000001
 51
211.2094967096
  0
ARC
  5
4D4
100
AcDbEntity
  8
0
100
AcDbCircle
 62
7
  6
CONTINUOUS
 10
14.955093349
 20
9.1788792684
 40
0.0055355033
100
AcDbArc
 50
31.2094967096
 51
99.0000000003
  0
ARC
  5
4D5
100
AcDbEntity
  8
0
100
AcDbCircle
 62
7
  6
CONTINUOUS
 10
14.9218838662
 20
9.1296056096
 40
0.003
100
AcDbArc
 50
201.999999997
 51
291.9999999957
  0
ARC
  5
4D6
100
AcDbEntity
  8
0
100
AcDbCircle
 62
7
  6
CONTINUOUS
 10
14.9177631937
 20
9.139804632
 40
0.003
100
AcDbArc
 50
112.0000000133
 51
201.999999997
  0
ARC
  5
4D7
100
AcDbEntity
  8
0
100
AcDbCircle
 62
7
  6
CONTINUOUS
 10
14.9091472421
 20
9.1611298607
 40
0.003
100
AcDbArc
 50
111.9999999955
 51
201.9999999987
  0
ARC
  5
4D8
100
AcDbEntity
  8
0
100
AcDbCircle
 62
7
  6
CONTINUOUS
 10
14.9395623453
 20
9.1509848374
 40
0.002
100
AcDbArc
 50
255.1301023546
 51
337.0000000033
  0
ARC
  5
4D9
100
AcDbEntity
  8
0
100
AcDbCircle
 62
7
  6
CONTINUOUS
 10
14.935966122
 20
9.1598858024
 40
0.002
100
AcDbArc
 50
66.9999999993
 51
148.8698976467
  0
ARC
  5
4DA
100
AcDbEntity
  8
0
100
AcDbCircle
 62
7
  6
CONTINUOUS
 10
14.9115915176
 20
9.1524105994
 40
0.002
100
AcDbArc
 50
202.0000000031
 51
292.0000000039
  0
ARC
  5
4DB
100
AcDbEntity
  8
0
100
AcDbCircle
 62
7
  6
CONTINUOUS
 10
15.0599025448
 20
9.1767799376
 40
0.001
100
AcDbArc
 50
177.4999999988
 51
267.4999999639
  0
ARC
  5
4DC
100
AcDbEntity
  8
0
100
AcDbCircle
 62
7
  6
CONTINUOUS
 10
15.0606608386
 20
9.194147723
 40
0.001
100
AcDbArc
 50
87.5000000207
 51
177.4999999988
  0
ARC
  5
4DD
100
AcDbEntity
  8
0
100
AcDbCircle
 62
7
  6
CONTINUOUS
 10
15.0595401621
 20
9.1684800105
 40
0.001
100
AcDbArc
 50
87.5000000207
 51
177.4999999988
  0
ARC
  5
4DE
100
AcDbEntity
  8
0
100
AcDbCircle
 62
7
  6
CONTINUOUS
 10
15.2693216279
 20
8.8452030515
 40
0.08
100
AcDbArc
 50
341.7900431358
 51
18.2099568643
  0
ARC
  5
4DF
100
AcDbEntity
  8
0
100
AcDbCircle
 62
7
  6
CONTINUOUS
 10
15.3073183383
 20
8.8427030515
 40
0.07
100
AcDbArc
 50
270.0
 51
90.0
  0
ARC
  5
4E0
100
AcDbEntity
  8
0
100
AcDbCircle
 62
7
  6
CONTINUOUS
 10
15.3073183383
 20
8.8577030515
 40
0.04
100
AcDbArc
 50
18.2099568643
 51
90.0
  0
ARC
  5
4E1
100
AcDbEntity
  8
0
100
AcDbCircle
 62
7
  6
CONTINUOUS
 10
15.2348183383
 20
8.8738545715
 40
0.025
100
AcDbArc
 50
107.4576031237
 51
180.0
  0
ARC
  5
4E2
100
AcDbEntity
  8
0
100
AcDbCircle
 62
7
  6
CONTINUOUS
 10
15.1548183383
 20
8.8738545715
 40
0.025
100
AcDbArc
 50
0.0
 51
72.5423968763
  0
ARC
  5
4E3
100
AcDbEntity
  8
0
100
AcDbCircle
 62
7
  6
CONTINUOUS
 10
15.2303183383
 20
8.8844365523
 40
0.015
100
AcDbArc
 50
0.0
 51
62.1818607153
  0
ARC
  5
4E4
100
AcDbEntity
  8
0
100
AcDbCircle
 62
7
  6
CONTINUOUS
 10
15.2873183383
 20
8.8927030515
 40
0.005
100
AcDbArc
 50
89.9999999999
 51
180.0
  0
ARC
  5
4E5
100
AcDbEntity
  8
0
100
AcDbCircle
 62
7
  6
CONTINUOUS
 10
15.2084872219
 20
9.1434929964
 40
0.018
100
AcDbArc
 50
236.016443854
 51
64.0000000005
  0
ARC
  5
4E6
100
AcDbEntity
  8
0
100
AcDbCircle
 62
7
  6
CONTINUOUS
 10
15.0822607526
 20
9.1845042038
 40
0.016
100
AcDbArc
 50
267.4999999995
 51
87.4999999994
  0
ARC
  5
4E7
100
AcDbEntity
  8
0
100
AcDbCircle
 62
7
  6
CONTINUOUS
 10
15.2684083358
 20
9.0984131249
 40
0.0146811183
100
AcDbArc
 50
7.0000000003
 51
52.0000000009
  0
ARC
  5
4E8
100
AcDbEntity
  8
0
100
AcDbCircle
 62
7
  6
CONTINUOUS
 10
15.2419462183
 20
9.1190875969
 40
0.0146811183
100
AcDbArc
 50
52.0000000006
 51
97.0000000004
  0
ARC
  5
4E9
100
AcDbEntity
  8
0
100
AcDbCircle
 62
7
  6
CONTINUOUS
 10
15.2285071832
 20
9.1062874477
 40
0.013
100
AcDbArc
 50
261.9999999977
 51
322.0
  0
ARC
  5
4EA
100
AcDbEntity
  8
0
100
AcDbCircle
 62
7
  6
CONTINUOUS
 10
15.2592396026
 20
9.0822766501
 40
0.013
100
AcDbArc
 50
142.0000000001
 51
201.9999999989
  0
ARC
  5
4EB
100
AcDbEntity
  8
0
100
AcDbCircle
 62
7
  6
CONTINUOUS
 10
15.2025633703
 20
9.1463822519
 40
0.0115908889
100
AcDbArc
 50
243.9999999995
 51
63.9999999997
  0
ARC
  5
4EC
100
AcDbEntity
  8
0
100
AcDbCircle
 62
7
  6
CONTINUOUS
 10
15.1590994791
 20
9.141464101
 40
0.011
100
AcDbArc
 50
274.0000000043
 51
334.0
  0
ARC
  5
4ED
100
AcDbEntity
  8
0
100
AcDbCircle
 62
7
  6
CONTINUOUS
 10
15.1905572707
 20
9.1261211108
 40
0.011
100
AcDbArc
 50
153.9999999992
 51
214.0000000004
  0
ARC
  5
4EE
100
AcDbEntity
  8
0
100
AcDbCircle
 62
7
  6
CONTINUOUS
 10
15.2186165257
 20
9.1140753621
 40
0.011
100
AcDbArc
 50
208.0605153629
 51
244.0000000032
  0
ARC
  5
4EF
100
AcDbEntity
  8
0
100
AcDbCircle
 62
7
  6
CONTINUOUS
 10
15.1704740886
 20
9.1647855066
 40
0.011
100
AcDbArc
 50
334.0
 51
34.0
  0
ARC
  5
4F0
100
AcDbEntity
  8
0
100
AcDbCircle
 62
7
  6
CONTINUOUS
 10
15.187216792
 20
9.1420838347
 40
0.001
100
AcDbArc
 50
153.9999999917
 51
243.9999999893
  0
ARC
  5
4F1
100
AcDbEntity
  8
0
100
AcDbCircle
 62
7
  6
CONTINUOUS
 10
15.1965022722
 20
9.1611218905
 40
0.001
100
AcDbArc
 50
64.0000000405
 51
154.0000000168
  0
ARC
  5
4F2
100
AcDbEntity
  8
0
100
AcDbCircle
 62
7
  6
CONTINUOUS
 10
15.1836147204
 20
9.1346984934
 40
0.001
100
AcDbArc
 50
63.9999999891
 51
153.9999999916
  0
ARC
  5
4F3
100
AcDbEntity
  8
0
100
AcDbCircle
 62
7
  6
CONTINUOUS
 10
15.1859584871
 20
9.133555362
 40
0.001
100
AcDbArc
 50
14.1777964199
 51
63.9999999892
  0
ARC
  5
4F4
100
AcDbEntity
  8
0
100
AcDbCircle
 62
7
  6
CONTINUOUS
 10
15.2695102952
 20
9.1149137682
 40
0.001
100
AcDbArc
 50
52.0000000145
 51
142.0000000148
  0
ARC
  5
4F5
100
AcDbEntity
  8
0
100
AcDbCircle
 62
7
  6
CONTINUOUS
 10
15.2576901339
 20
9.1241486903
 40
0.001
100
AcDbArc
 50
322.0000000003
 51
52.0000000144
  0
ARC
  5
4F6
100
AcDbEntity
  8
0
100
AcDbCircle
 62
7
  6
CONTINUOUS
 10
17.8093183383
 20
8.8427030515
 40
0.3125
100
AcDbArc
 50
284.539847615
 51
75.460152385
  0
ARC
  5
4F7
100
AcDbEntity
  8
0
100
AcDbCircle
 62
7
  6
CONTINUOUS
 10
17.7922935348
 20
8.8427690941
 40
0.095470928
100
AcDbArc
 50
359.9603686448
 51
79.7270982684
  0
ARC
  5
4F8
100
AcDbEntity
  8
0
100
AcDbCircle
 62
7
  6
CONTINUOUS
 10
17.7922935364
 20
8.8426370073
 40
0.0954709261
100
AcDbArc
 50
280.2729009524
 51
0.0396323484
  0
SPLINE
  5
4F9
100
AcDbEntity
  8
0
100
AcDbSpline
 62
7
  6
CONTINUOUS
 70
0
 71
3
 72
12
 73
8
 74
0
 42
0.0000001
 43
0.0000001
 44
0.0000000001
 40
0.0
 40
0.0
 40
0.0
 40
0.0
 40
0.1951112257
 40
0.2906771722
 40
0.5118928084
 40
0.8199224049
 40
1.0
 40
1.0
 40
1.0
 40
1.0
 10
15.1692601643
 20
8.5608284377
 30
0.0
 10
15.1649756457
 20
8.5570696655
 30
0.0
 10
15.1622959904
 20
8.5501948134
 30
0.0
 10
15.1736096617
 20
8.547989117
 30
0.0
 10
15.184849272
 20
8.5526798306
 30
0.0
 10
15.1952403104
 20
8.5560884796
 30
0.0
 10
15.2046907911
 20
8.5545137363
 30
0.0
 10
15.2096069916
 20
8.5531614022
 30
0.0
  0
SPLINE
  5
4FA
100
AcDbEntity
  8
0
100
AcDbSpline
 62
7
  6
CONTINUOUS
 70
0
 71
3
 72
12
 73
8
 74
0
 42
0.0000001
 43
0.0000001
 44
0.0000000001
 40
0.0
 40
0.0
 40
0.0
 40
0.0
 40
0.1951112257
 40
0.2906771722
 40
0.5118928084
 40
0.8199224049
 40
1.0
 40
1.0
 40
1.0
 40
1.0
 10
15.1027268117
 20
8.5406219235
 30
0.0
 10
15.0977065652
 20
8.5379232953
 30
0.0
 10
15.0935490841
 20
8.5318274365
 30
0.0
 10
15.104076613
 20
8.5271332497
 30
0.0
 10
15.1160833338
 20
8.5291753784
 30
0.0
 10
15.1269748297
 20
8.530159189
 30
0.0
 10
15.135828855
 20
8.5264989106
 30
0.0
 10
15.1403148447
 20
8.5240753322
 30
0.0
  0
SPLINE
  5
4FB
100
AcDbEntity
  8
0
100
AcDbSpline
 62
7
  6
CONTINUOUS
 70
0
 71
3
 72
11
 73
7
 74
0
 42
0.0000001
 43
0.0000001
 44
0.0000000001
 40
0.0
 40
0.0
 40
0.0
 40
0.0
 40
0.2734606541
 40
0.500005319
 40
0.7265393459
 40
1.0
 40
1.0
 40
1.0
 40
1.0
 10
15.0223183383
 20
8.8427030515
 30
0.0
 10
15.0223189491
 20
8.8230635265
 30
0.0
 10
15.0335599481
 20
8.7871538896
 30
0.0
 10
15.0873169369
 20
8.766155502
 30
0.0
 10
15.1410778656
 20
8.7871546961
 30
0.0
 10
15.1523190005
 20
8.8230635054
 30
0.0
 10
15.1523183383
 20
8.8427030515
 30
0.0
  0
SPLINE
  5
4FC
100
AcDbEntity
  8
0
100
AcDbSpline
 62
7
  6
CONTINUOUS
 70
0
 71
3
 72
11
 73
7
 74
0
 42
0.0000001
 43
0.0000001
 44
0.0000000001
 40
0.0
 40
0.0
 40
0.0
 40
0.0
 40
0.2462014344
 40
0.5246240876
 40
0.8727706547
 40
1.0
 40
1.0
 40
1.0
 40
1.0
 10
15.0910531204
 20
8.5166714513
 30
0.0
 10
15.0958122923
 20
8.5143484591
 30
0.0
 10
15.1032090217
 20
8.5120988252
 30
0.0
 10
15.1172040853
 20
8.5153528762
 30
0.0
 10
15.1359363034
 20
8.5117814176
 30
0.0
 10
15.132269488
 20
8.5047403218
 30
0.0
 10
15.1297595795
 20
8.5029448493
 30
0.0
  0
SPLINE
  5
4FD
100
AcDbEntity
  8
0
100
AcDbSpline
 62
7
  6
CONTINUOUS
 70
0
 71
3
 72
11
 73
7
 74
0
 42
0.0000001
 43
0.0000001
 44
0.0000000001
 40
0.0
 40
0.0
 40
0.0
 40
0.0
 40
0.2462014344
 40
0.5246240876
 40
0.8727706547
 40
1.0
 40
1.0
 40
1.0
 40
1.0
 10
15.163273353
 20
8.5348658054
 30
0.0
 10
15.1684331071
 20
8.5336729321
 30
0.0
 10
15.1761463163
 20
8.5331448582
 30
0.0
 10
15.1890506852
 20
8.5394637124
 30
0.0
 10
15.2081062012
 20
8.5401976223
 30
0.0
 10
15.2061172679
 20
8.5325121354
 30
0.0
 10
15.2040755816
 20
8.5301980741
 30
0.0
  0
SPLINE
  5
4FE
100
AcDbEntity
  8
0
100
AcDbSpline
 62
7
  6
CONTINUOUS
 70
0
 71
3
 72
11
 73
7
 74
0
 42
0.0000001
 43
0.0000001
 44
0.0000000001
 40
0.0
 40
0.0
 40
0.0
 40
0.0
 40
0.2871955376
 40
0.5007701497
 40
0.7143447617
 40
1.0
 40
1.0
 40
1.0
 40
1.0
 10
15.1178042859
 20
9.1644222621
 30
0.0
 10
15.1193206667
 20
9.1700814724
 30
0.0
 10
15.1230969768
 20
9.1796457978
 30
0.0
 10
15.1386045915
 20
9.1834987269
 30
0.0
 10
15.1502728346
 20
9.1724002207
 30
0.0
 10
15.1482995197
 20
9.1623209249
 30
0.0
 10
15.1467820607
 20
9.1566576908
 30
0.0
  0
SPLINE
  5
4FF
100
AcDbEntity
  8
0
100
AcDbSpline
 62
7
  6
CONTINUOUS
 70
0
 71
3
 72
11
 73
7
 74
0
 42
0.0000001
 43
0.0000001
 44
0.0000000001
 40
0.0
 40
0.0
 40
0.0
 40
0.0
 40
0.2856552383
 40
0.4992298503
 40
0.7128044624
 40
1.0
 40
1.0
 40
1.0
 40
1.0
 10
15.1467820607
 20
9.1566576908
 30
0.0
 10
15.1452646016
 20
9.1509944566
 30
0.0
 10
15.1419338946
 20
9.1412788729
 30
0.0
 10
15.1262796466
 20
9.1375014062
 30
0.0
 10
15.1147761229
 20
9.148591948
 30
0.0
 10
15.116287905
 20
9.1587630518
 30
0.0
 10
15.1178042859
 20
9.1644222621
 30
0.0
  0
SPLINE
  5
500
100
AcDbEntity
  8
0
100
AcDbSpline
 62
7
  6
CONTINUOUS
 70
0
 71
3
 72
11
 73
7
 74
0
 42
0.0000001
 43
0.0000001
 44
0.0000000001
 40
0.0
 40
0.0
 40
0.0
 40
0.0
 40
0.2906657346
 40
0.5
 40
0.7093342654
 40
1.0
 40
1.0
 40
1.0
 40
1.0
 10
15.0523183383
 20
8.8427030515
 30
0.0
 10
15.0523183383
 20
8.8564437563
 30
0.0
 10
15.0551529711
 20
8.8800803656
 30
0.0
 10
15.0873183383
 20
8.8979877729
 30
0.0
 10
15.1194837054
 20
8.8800803656
 30
0.0
 10
15.1223183383
 20
8.8564437563
 30
0.0
 10
15.1223183383
 20
8.8427030515
 30
0.0
  0
SPLINE
  5
501
100
AcDbEntity
  8
0
100
AcDbSpline
 62
7
  6
CONTINUOUS
 70
0
 71
3
 72
11
 73
7
 74
0
 42
0.0000001
 43
0.0000001
 44
0.0000000001
 40
0.0
 40
0.0
 40
0.0
 40
0.0
 40
0.2906657346
 40
0.5
 40
0.7093342654
 40
1.0
 40
1.0
 40
1.0
 40
1.0
 10
15.1223183383
 20
8.8427030515
 30
0.0
 10
15.1223183383
 20
8.8289623467
 30
0.0
 10
15.1194837054
 20
8.8053257374
 30
0.0
 10
15.0873183383
 20
8.7874183301
 30
0.0
 10
15.0551529711
 20
8.8053257374
 30
0.0
 10
15.0523183383
 20
8.8289623467
 30
0.0
 10
15.0523183383
 20
8.8427030515
 30
0.0
  0
SPLINE
  5
502
100
AcDbEntity
  8
0
100
AcDbSpline
 62
7
  6
CONTINUOUS
 70
0
 71
3
 72
11
 73
7
 74
0
 42
0.0000001
 43
0.0000001
 44
0.0000000001
 40
0.0
 40
0.0
 40
0.0
 40
0.0
 40
0.2734597226
 40
0.5000256251
 40
0.7265402774
 40
1.0
 40
1.0
 40
1.0
 40
1.0
 10
15.1523183383
 20
8.8427030515
 30
0.0
 10
15.152317676
 20
8.8623425976
 30
0.0
 10
15.1410733852
 20
8.8982539132
 30
0.0
 10
15.0873255456
 20
8.919250546
 30
0.0
 10
15.0335558002
 20
8.8982500704
 30
0.0
 10
15.0223177275
 20
8.8623425764
 30
0.0
 10
15.0223183383
 20
8.8427030515
 30
0.0
  0
SPLINE
  5
503
100
AcDbEntity
  8
0
100
AcDbSpline
 62
7
  6
CONTINUOUS
 70
0
 71
3
 72
11
 73
7
 74
0
 42
0.0000001
 43
0.0000001
 44
0.0000000001
 40
0.0
 40
0.0
 40
0.0
 40
0.0
 40
0.271807482
 40
0.4996953051
 40
0.7275315791
 40
1.0
 40
1.0
 40
1.0
 40
1.0
 10
15.159435689
 20
9.1532671613
 30
0.0
 10
15.161616944
 20
9.1614088095
 30
0.0
 10
15.1611304259
 20
9.177581434
 30
0.0
 10
15.1409412954
 20
9.1921530315
 30
0.0
 10
15.1162256935
 20
9.1895892001
 30
0.0
 10
15.1075247411
 20
9.175901133
 30
0.0
 10
15.1053438838
 20
9.1677611813
 30
0.0
  0
SPLINE
  5
504
100
AcDbEntity
  8
0
100
AcDbSpline
 62
7
  6
CONTINUOUS
 70
0
 71
3
 72
11
 73
7
 74
0
 42
0.0000001
 43
0.0000001
 44
0.0000000001
 40
0.0
 40
0.0
 40
0.0
 40
0.0
 40
0.272471847
 40
0.5003375325
 40
0.728192518
 40
1.0
 40
1.0
 40
1.0
 40
1.0
 10
15.1053438838
 20
9.1677611813
 30
0.0
 10
15.1031629991
 20
9.1596211273
 30
0.0
 10
15.1038551049
 20
9.1434150649
 30
0.0
 10
15.1239725245
 20
9.1288391506
 30
0.0
 10
15.1487483655
 20
9.1313635643
 30
0.0
 10
15.157254434
 20
9.145125513
 30
0.0
 10
15.159435689
 20
9.1532671613
 30
0.0
  0
SPLINE
  5
505
100
AcDbEntity
  8
0
100
AcDbSpline
 62
7
  6
CONTINUOUS
 70
0
 71
3
 72
12
 73
8
 74
0
 42
0.0000001
 43
0.0000001
 44
0.0000000001
 40
0.0
 40
0.0
 40
0.0
 40
0.0
 40
0.1951112257
 40
0.2906771722
 40
0.5118928084
 40
0.8199224049
 40
1.0
 40
1.0
 40
1.0
 40
1.0
 10
7.1692601643
 20
8.5608284377
 30
0.0
 10
7.1649756457
 20
8.5570696655
 30
0.0
 10
7.1622959904
 20
8.5501948134
 30
0.0
 10
7.1736096617
 20
8.547989117
 30
0.0
 10
7.184849272
 20
8.5526798306
 30
0.0
 10
7.1952403104
 20
8.5560884796
 30
0.0
 10
7.2046907911
 20
8.5545137363
 30
0.0
 10
7.2096069916
 20
8.5531614022
 30
0.0
  0
SPLINE
  5
506
100
AcDbEntity
  8
0
100
AcDbSpline
 62
7
  6
CONTINUOUS
 70
0
 71
3
 72
12
 73
8
 74
0
 42
0.0000001
 43
0.0000001
 44
0.0000000001
 40
0.0
 40
0.0
 40
0.0
 40
0.0
 40
0.1951112257
 40
0.2906771722
 40
0.5118928084
 40
0.8199224049
 40
1.0
 40
1.0
 40
1.0
 40
1.0
 10
7.1027268117
 20
8.5406219235
 30
0.0
 10
7.0977065652
 20
8.5379232953
 30
0.0
 10
7.0935490841
 20
8.5318274365
 30
0.0
 10
7.104076613
 20
8.5271332497
 30
0.0
 10
7.1160833338
 20
8.5291753784
 30
0.0
 10
7.1269748297
 20
8.530159189
 30
0.0
 10
7.135828855
 20
8.5264989106
 30
0.0
 10
7.1403148447
 20
8.5240753322
 30
0.0
  0
SPLINE
  5
507
100
AcDbEntity
  8
0
100
AcDbSpline
 62
7
  6
CONTINUOUS
 70
0
 71
3
 72
11
 73
7
 74
0
 42
0.0000001
 43
0.0000001
 44
0.0000000001
 40
0.0
 40
0.0
 40
0.0
 40
0.0
 40
0.2462014344
 40
0.5246240876
 40
0.8727706547
 40
1.0
 40
1.0
 40
1.0
 40
1.0
 10
7.0910531204
 20
8.5166714513
 30
0.0
 10
7.0958122923
 20
8.5143484591
 30
0.0
 10
7.1032090217
 20
8.5120988252
 30
0.0
 10
7.1172040853
 20
8.5153528762
 30
0.0
 10
7.1359363034
 20
8.5117814176
 30
0.0
 10
7.132269488
 20
8.5047403218
 30
0.0
 10
7.1297595795
 20
8.5029448493
 30
0.0
  0
SPLINE
  5
508
100
AcDbEntity
  8
0
100
AcDbSpline
 62
7
  6
CONTINUOUS
 70
0
 71
3
 72
11
 73
7
 74
0
 42
0.0000001
 43
0.0000001
 44
0.0000000001
 40
0.0
 40
0.0
 40
0.0
 40
0.0
 40
0.2462014344
 40
0.5246240876
 40
0.8727706547
 40
1.0
 40
1.0
 40
1.0
 40
1.0
 10
7.163273353
 20
8.5348658054
 30
0.0
 10
7.1684331071
 20
8.5336729321
 30
0.0
 10
7.1761463163
 20
8.5331448582
 30
0.0
 10
7.1890506852
 20
8.5394637124
 30
0.0
 10
7.2081062012
 20
8.5401976223
 30
0.0
 10
7.2061172679
 20
8.5325121354
 30
0.0
 10
7.2040755816
 20
8.5301980741
 30
0.0
  0
SPLINE
  5
509
100
AcDbEntity
  8
0
100
AcDbSpline
 62
7
  6
CONTINUOUS
 70
0
 71
3
 72
10
 73
6
 74
0
 42
0.0000001
 43
0.0000001
 44
0.0000000001
 40
0.0
 40
0.0
 40
0.0
 40
0.0
 40
0.3565546084
 40
0.7858130073
 40
1.0
 40
1.0
 40
1.0
 40
1.0
 10
7.1098508809
 20
9.1409529265
 30
0.0
 10
7.1135364852
 20
9.1364925271
 30
0.0
 10
7.125287131
 20
9.1289730961
 30
0.0
 10
7.1433637971
 20
9.13081493
 30
0.0
 10
7.1510189176
 20
9.1376202247
 30
0.0
 10
7.1531318197
 20
9.140295765
 30
0.0
  0
SPLINE
  5
50A
100
AcDbEntity
  8
0
100
AcDbSpline
 62
7
  6
CONTINUOUS
 70
0
 71
3
 72
11
 73
7
 74
0
 42
0.0000001
 43
0.0000001
 44
0.0000000001
 40
0.0
 40
0.0
 40
0.0
 40
0.0
 40
0.2871955376
 40
0.5007701497
 40
0.7143447617
 40
1.0
 40
1.0
 40
1.0
 40
1.0
 10
7.1178042859
 20
9.1644222621
 30
0.0
 10
7.1193206667
 20
9.1700814724
 30
0.0
 10
7.1230969768
 20
9.1796457978
 30
0.0
 10
7.1386045915
 20
9.1834987269
 30
0.0
 10
7.1502728346
 20
9.1724002207
 30
0.0
 10
7.1482995197
 20
9.1623209249
 30
0.0
 10
7.1467820607
 20
9.1566576908
 30
0.0
  0
SPLINE
  5
50B
100
AcDbEntity
  8
0
100
AcDbSpline
 62
7
  6
CONTINUOUS
 70
0
 71
3
 72
11
 73
7
 74
0
 42
0.0000001
 43
0.0000001
 44
0.0000000001
 40
0.0
 40
0.0
 40
0.0
 40
0.0
 40
0.2856552383
 40
0.4992298503
 40
0.7128044624
 40
1.0
 40
1.0
 40
1.0
 40
1.0
 10
7.1467820607
 20
9.1566576908
 30
0.0
 10
7.1452646016
 20
9.1509944566
 30
0.0
 10
7.1419338946
 20
9.1412788729
 30
0.0
 10
7.1262796466
 20
9.1375014062
 30
0.0
 10
7.1147761229
 20
9.148591948
 30
0.0
 10
7.116287905
 20
9.1587630518
 30
0.0
 10
7.1178042859
 20
9.1644222621
 30
0.0
  0
SPLINE
  5
50C
100
AcDbEntity
  8
0
100
AcDbSpline
 62
7
  6
CONTINUOUS
 70
0
 71
3
 72
9
 73
5
 74
0
 42
0.0000001
 43
0.0000001
 44
0.0000000001
 40
0.0
 40
0.0
 40
0.0
 40
0.0
 40
0.875905433
 40
1.0
 40
1.0
 40
1.0
 40
1.0
 10
7.1053438838
 20
9.1677611813
 30
0.0
 10
7.1031629991
 20
9.1596211273
 30
0.0
 10
7.1035933016
 20
9.1495453435
 30
0.0
 10
7.109099154
 20
9.141862683
 30
0.0
 10
7.1098508809
 20
9.1409529265
 30
0.0
  0
SPLINE
  5
50D
100
AcDbEntity
  8
0
100
AcDbSpline
 62
7
  6
CONTINUOUS
 70
0
 71
3
 72
11
 73
7
 74
0
 42
0.0000001
 43
0.0000001
 44
0.0000000001
 40
0.0
 40
0.0
 40
0.0
 40
0.0
 40
0.271807482
 40
0.4996953051
 40
0.7275315791
 40
1.0
 40
1.0
 40
1.0
 40
1.0
 10
7.159435689
 20
9.1532671613
 30
0.0
 10
7.161616944
 20
9.1614088095
 30
0.0
 10
7.1611304259
 20
9.177581434
 30
0.0
 10
7.1409412954
 20
9.1921530315
 30
0.0
 10
7.1162256935
 20
9.1895892001
 30
0.0
 10
7.1075247411
 20
9.175901133
 30
0.0
 10
7.1053438838
 20
9.1677611813
 30
0.0
  0
SPLINE
  5
50E
100
AcDbEntity
  8
0
100
AcDbSpline
 62
7
  6
CONTINUOUS
 70
0
 71
3
 72
8
 73
4
 74
0
 42
0.0000001
 43
0.0000001
 44
0.0000000001
 40
0.0
 40
0.0
 40
0.0
 40
0.0
 40
1.0
 40
1.0
 40
1.0
 40
1.0
 10
7.1531318197
 20
9.140295765
 30
0.0
 10
7.1560702734
 20
9.1440166905
 30
0.0
 10
7.1581668184
 20
9.1485310355
 30
0.0
 10
7.159435689
 20
9.1532671613
 30
0.0
  0
SPLINE
  5
50F
100
AcDbEntity
  8
0
100
AcDbSpline
 62
7
  6
CONTINUOUS
 70
0
 71
3
 72
22
 73
18
 74
0
 42
0.0000001
 43
0.0000001
 44
0.0000000001
 40
0.0
 40
0.0
 40
0.0
 40
0.0
 40
0.0693226932
 40
0.1385443823
 40
0.207467614
 40
0.2758949266
 40
0.3772048505
 40
0.4764444466
 40
0.5251235717
 40
0.5730893141
 40
0.6666358478
 40
0.7120941283
 40
0.7565933993
 40
0.8000727219
 40
0.8424716793
 40
0.9237773502
 40
1.0
 40
1.0
 40
1.0
 40
1.0
 10
6.4473183364
 20
8.8427030515
 30
0.0
 10
6.4473183364
 20
8.8398435815
 30
0.0
 10
6.4472958386
 20
8.83412881
 30
0.0
 10
6.4472284475
 20
8.8255713096
 30
0.0
 10
6.4471610612
 20
8.8170507473
 30
0.0
 10
6.4471220072
 20
8.8072063093
 30
0.0
 10
6.4471881748
 20
8.7961114208
 30
0.0
 10
6.4472823283
 20
8.7858315183
 30
0.0
 10
6.4473210446
 20
8.7777516014
 30
0.0
 10
6.4473127004
 20
8.7699064103
 30
0.0
 10
6.4472460189
 20
8.7621943546
 30
0.0
 10
6.4471785795
 20
8.7546253615
 30
0.0
 10
6.4471418724
 20
8.7491213743
 30
0.0
 10
6.4471345371
 20
8.7437434396
 30
0.0
 10
6.4471716953
 20
8.7368473752
 30
0.0
 10
6.4472638084
 20
8.7286011809
 30
0.0
 10
6.4473183354
 20
8.7221034428
 30
0.0
 10
6.4473183366
 20
8.7189593586
 30
0.0
  0
SPLINE
  5
510
100
AcDbEntity
  8
0
100
AcDbSpline
 62
7
  6
CONTINUOUS
 70
0
 71
3
 72
34
 73
30
 74
0
 42
0.0000001
 43
0.0000001
 44
0.0000000001
 40
0.0
 40
0.0
 40
0.0
 40
0.0
 40
0.2248372075
 40
0.3279802696
 40
0.4245213459
 40
0.5141812177
 40
0.596768517
 40
0.6720993532
 40
0.7399879139
 40
0.8002735592
 40
0.8528368725
 40
0.8975483582
 40
0.9169170396
 40
0.9342734777
 40
0.9496075283
 40
0.9629176626
 40
0.9742020567
 40
0.983456382
 40
0.9873202825
 40
0.9906739095
 40
0.9935160254
 40
0.9958452402
 40
0.9976600119
 40
0.9983739606
 40
0.9989586516
 40
0.9994138499
 40
0.9997393113
 40
0.9999347823
 40
1.0
 40
1.0
 40
1.0
 40
1.0
 10
6.4473183366
 20
8.7189593586
 30
0.0
 10
6.447318338
 20
8.7151170967
 30
0.0
 10
6.4472559955
 20
8.70951234
 30
0.0
 10
6.4471627439
 20
8.7022583159
 30
0.0
 10
6.4471275882
 20
8.6973137049
 30
0.0
 10
6.4471590284
 20
8.6927203458
 30
0.0
 10
6.4472249304
 20
8.688489961
 30
0.0
 10
6.4472919187
 20
8.6846317371
 30
0.0
 10
6.4473281991
 20
8.6811540752
 30
0.0
 10
6.447298644
 20
8.6780653851
 30
0.0
 10
6.4472340346
 20
8.6753735658
 30
0.0
 10
6.4471754011
 20
8.6733810905
 30
0.0
 10
6.447145325
 20
8.6719897283
 30
0.0
 10
6.4471359605
 20
8.6711000961
 30
0.0
 10
6.4471430959
 20
8.6703139637
 30
0.0
 10
6.4471630512
 20
8.6696318671
 30
0.0
 10
6.4471914776
 20
8.6690540828
 30
0.0
 10
6.4472202067
 20
8.6686380256
 30
0.0
 10
6.4472439929
 20
8.6683575377
 30
0.0
 10
6.4472602159
 20
8.6681863958
 30
0.0
 10
6.4472753726
 20
8.6680414891
 30
0.0
 10
6.44728899
 20
8.6679229111
 30
0.0
 10
6.4472991675
 20
8.6678404481
 30
0.0
 10
6.447306247
 20
8.6677878218
 30
0.0
 10
6.4473101068
 20
8.6677578771
 30
0.0
 10
6.4473139446
 20
8.6677354262
 30
0.0
 10
6.4473151131
 20
8.6677174507
 30
0.0
 10
6.4473188219
 20
8.6677101307
 30
0.0
 10
6.447317222
 20
8.6677030524
 30
0.0
 10
6.4473183365
 20
8.6677030515
 30
0.0
  0
SPLINE
  5
511
100
AcDbEntity
  8
0
100
AcDbSpline
 62
7
  6
CONTINUOUS
 70
0
 71
3
 72
20
 73
16
 74
0
 42
0.0000001
 43
0.0000001
 44
0.0000000001
 40
0.0
 40
0.0
 40
0.0
 40
0.0
 40
0.102784985
 40
0.1575282433
 40
0.2143032496
 40
0.302954857
 40
0.3953599984
 40
0.4428160209
 40
0.4910265484
 40
0.5894591164
 40
0.6901372759
 40
0.7411547277
 40
0.7925324539
 40
0.8960416299
 40
1.0
 40
1.0
 40
1.0
 40
1.0
 10
6.4473183365
 20
8.966446729
 30
0.0
 10
6.4473183389
 20
8.9622069855
 30
0.0
 10
6.4472469153
 20
8.955709349
 30
0.0
 10
6.4471598739
 20
8.9468701008
 30
0.0
 10
6.4471219266
 20
8.9386133314
 30
0.0
 10
6.4471918385
 20
8.9288031796
 30
0.0
 10
6.4472837403
 20
8.9193778076
 30
0.0
 10
6.4473212473
 20
8.9116201539
 30
0.0
 10
6.4473118722
 20
8.903613779
 30
0.0
 10
6.4472268175
 20
8.8934124224
 30
0.0
 10
6.4471438334
 20
8.8830952637
 30
0.0
 10
6.4471346928
 20
8.8747187148
 30
0.0
 10
6.4471732496
 20
8.8662254898
 30
0.0
 10
6.4472677907
 20
8.855548904
 30
0.0
 10
6.4473183364
 20
8.8469911956
 30
0.0
 10
6.4473183364
 20
8.8427030515
 30
0.0
  0
SPLINE
  5
512
100
AcDbEntity
  8
0
100
AcDbSpline
 62
7
  6
CONTINUOUS
 70
0
 71
3
 72
27
 73
23
 74
0
 42
0.0000001
 43
0.0000001
 44
0.0000000001
 40
0.0
 40
0.0
 40
0.0
 40
0.0
 40
0.0733829569
 40
0.1450424829
 40
0.2138717763
 40
0.2792725598
 40
0.3409286795
 40
0.3989131899
 40
0.4267383083
 40
0.4539125344
 40
0.4805909053
 40
0.5069470103
 40
0.5331730398
 40
0.5594693693
 40
0.586029041
 40
0.613035628
 40
0.6689184717
 40
0.7281426261
 40
0.7911045481
 40
0.8577560026
 40
0.927705767
 40
1.0
 40
1.0
 40
1.0
 40
1.0
 10
4.2853183383
 20
8.6984339897
 30
0.0
 10
4.2799218127
 20
8.6975283961
 30
0.0
 10
4.2693535778
 20
8.6950780782
 30
0.0
 10
4.2543567747
 20
8.6895258094
 30
0.0
 10
4.2407721452
 20
8.6822612826
 30
0.0
 10
4.2290106098
 20
8.6734982263
 30
0.0
 10
4.2194121317
 20
8.663489134
 30
0.0
 10
4.2133910969
 20
8.6541889091
 30
0.0
 10
4.2100047633
 20
8.6464579936
 30
0.0
 10
4.2082014619
 20
8.6406260991
 30
0.0
 10
4.20711115
 20
8.6347311501
 30
0.0
 10
4.2067432677
 20
8.6288174586
 30
0.0
 10
4.2071078131
 20
8.6229318507
 30
0.0
 10
4.2081960377
 20
8.6171213183
 30
0.0
 10
4.2099983032
 20
8.6114298459
 30
0.0
 10
4.2133762263
 20
8.6039823316
 30
0.0
 10
4.2193993135
 20
8.5951510317
 30
0.0
 10
4.229024641
 20
8.5858894644
 30
0.0
 10
4.2408119165
 20
8.5780630181
 30
0.0
 10
4.2544164433
 20
8.5718922797
 30
0.0
 10
4.2694256941
 20
8.5675529757
 30
0.0
 10
4.2799479819
 20
8.5659669378
 30
0.0
 10
4.2853183383
 20
8.5654979148
 30
0.0
  0
SPLINE
  5
513
100
AcDbEntity
  8
0
100
AcDbSpline
 62
7
  6
CONTINUOUS
 70
0
 71
3
 72
34
 73
30
 74
0
 42
0.0000001
 43
0.0000001
 44
0.0000000001
 40
0.0
 40
0.0
 40
0.0
 40
0.0
 40
0.0000652169
 40
0.0002606873
 40
0.0005861485
 40
0.001041347
 40
0.0016260384
 40
0.0023399878
 40
0.0041547618
 40
0.00648398
 40
0.0093261003
 40
0.0126797325
 40
0.016543639
 40
0.0257979785
 40
0.0370823887
 40
0.0503925404
 40
0.0657266086
 40
0.0830830647
 40
0.102451766
 40
0.1238174755
 40
0.147163306
 40
0.1997266731
 40
0.260012379
 40
0.3279010067
 40
0.4032319161
 40
0.4858192911
 40
0.5754792364
 40
0.7751626116
 40
1.0
 40
1.0
 40
1.0
 40
1.0
 10
6.4473183365
 20
9.0177030515
 30
0.0
 10
6.4473194319
 20
9.0177028465
 30
0.0
 10
6.4473156552
 20
9.0176962647
 30
0.0
 10
6.4473171376
 20
9.0176884653
 30
0.0
 10
6.4473130134
 20
9.0176707628
 30
0.0
 10
6.4473104814
 20
9.0176481913
 30
0.0
 10
6.4473061172
 20
9.0176182931
 30
0.0
 10
6.447299279
 20
9.0175656444
 30
0.0
 10
6.4472889451
 20
9.0174831958
 30
0.0
 10
6.4472753971
 20
9.0173646113
 30
0.0
 10
6.4472602164
 20
9.0172197067
 30
0.0
 10
6.4472440024
 20
9.0170485638
 30
0.0
 10
6.4472202131
 20
9.0167680759
 30
0.0
 10
6.4471914864
 20
9.0163520182
 30
0.0
 10
6.4471630583
 20
9.0157742335
 30
0.0
 10
6.4471431028
 20
9.0150921364
 30
0.0
 10
6.4471359608
 20
9.0143060036
 30
0.0
 10
6.4471453412
 20
9.0134163713
 30
0.0
 10
6.4471667127
 20
9.0124238756
 30
0.0
 10
6.4471961586
 20
9.0113291974
 30
0.0
 10
6.4472426007
 20
9.0096675105
 30
0.0
 10
6.4472987186
 20
9.0073407128
 30
0.0
 10
6.4473281756
 20
9.0042520201
 30
0.0
 10
6.4472919237
 20
9.0007743578
 30
0.0
 10
6.4472249569
 20
8.9969161306
 30
0.0
 10
6.4471589191
 20
8.992685753
 30
0.0
 10
6.447116206
 20
8.9863297342
 30
0.0
 10
6.4472393326
 20
8.977543352
 30
0.0
 10
6.4473183344
 20
8.9702889916
 30
0.0
 10
6.4473183365
 20
8.966446729
 30
0.0
  0
SPLINE
  5
514
100
AcDbEntity
  8
0
100
AcDbSpline
 62
7
  6
CONTINUOUS
 70
0
 71
3
 72
27
 73
23
 74
0
 42
0.0000001
 43
0.0000001
 44
0.0000000001
 40
0.0
 40
0.0
 40
0.0
 40
0.0
 40
0.0722963492
 40
0.1422514747
 40
0.2089058296
 40
0.2718685827
 40
0.3310939391
 40
0.3869770832
 40
0.4139839437
 40
0.4405436107
 40
0.4668399869
 40
0.4930661587
 40
0.5194222162
 40
0.5461007137
 40
0.5732750473
 40
0.601099932
 40
0.6590842414
 40
0.7207391148
 40
0.786138985
 40
0.854965214
 40
0.9266192393
 40
1.0
 40
1.0
 40
1.0
 40
1.0
 10
4.2853183383
 20
9.1199081882
 30
0.0
 10
4.2799478248
 20
9.1194391515
 30
0.0
 10
4.2694250244
 20
9.11785279
 30
0.0
 10
4.2544149978
 20
9.1135133879
 30
0.0
 10
4.240809976
 20
9.1073420149
 30
0.0
 10
4.2290227045
 20
9.0995149426
 30
0.0
 10
4.2193973748
 20
9.0902530618
 30
0.0
 10
4.2133749796
 20
9.0814211369
 30
0.0
 10
4.209997184
 20
9.0739735314
 30
0.0
 10
4.2081952139
 20
9.0682819203
 30
0.0
 10
4.2071076241
 20
9.0624712601
 30
0.0
 10
4.2067432676
 20
9.0565856469
 30
0.0
 10
4.2071113428
 20
9.0506719345
 30
0.0
 10
4.2082022859
 20
9.0447770841
 30
0.0
 10
4.2100058802
 20
9.0389452996
 30
0.0
 10
4.2133923462
 20
9.0312144572
 30
0.0
 10
4.219414062
 20
9.0219148167
 30
0.0
 10
4.2290125422
 20
9.0119060269
 30
0.0
 10
4.2407740834
 20
9.0031435934
 30
0.0
 10
4.2543582327
 20
8.9958797362
 30
0.0
 10
4.2693542429
 20
8.9903276347
 30
0.0
 10
4.2799219743
 20
8.9878776798
 30
0.0
 10
4.2853183383
 20
8.9869721133
 30
0.0
  0
SPLINE
  5
515
100
AcDbEntity
  8
0
100
AcDbSpline
 62
7
  6
CONTINUOUS
 70
0
 71
3
 72
15
 73
11
 74
0
 42
0.0000001
 43
0.0000001
 44
0.0000000001
 40
0.0
 40
0.0
 40
0.0
 40
0.0
 40
0.1385443899
 40
0.2758949703
 40
0.4105409114
 40
0.541194724
 40
0.6666360868
 40
0.7856967755
 40
0.8972148686
 40
1.0
 40
1.0
 40
1.0
 40
1.0
 10
15.6473183401
 20
8.8427030515
 30
0.0
 10
15.6473183401
 20
8.8484178116
 30
0.0
 10
15.6474073412
 20
8.8597978202
 30
0.0
 10
15.6475421907
 20
8.8767318562
 30
0.0
 10
15.6474132693
 20
8.8933403768
 30
0.0
 10
15.6472789816
 20
8.9094576584
 30
0.0
 10
15.6474050934
 20
8.9249320647
 30
0.0
 10
15.6475421347
 20
8.9396171174
 30
0.0
 10
15.6474158859
 20
8.9533676888
 30
0.0
 10
15.6473183416
 20
8.9622070031
 30
0.0
 10
15.64731834
 20
8.9664467444
 30
0.0
  0
SPLINE
  5
516
100
AcDbEntity
  8
0
100
AcDbSpline
 62
7
  6
CONTINUOUS
 70
0
 71
3
 72
34
 73
30
 74
0
 42
0.0000001
 43
0.0000001
 44
0.0000000001
 40
0.0
 40
0.0
 40
0.0
 40
0.0
 40
0.2248376171
 40
0.3279808801
 40
0.4245221926
 40
0.5141821836
 40
0.5967694299
 40
0.6721002273
 40
0.739988934
 40
0.8002746848
 40
0.8528377601
 40
0.897548839
 40
0.9169173901
 40
0.9342738083
 40
0.9496079344
 40
0.9629181603
 40
0.974202601
 40
0.983456896
 40
0.9873207499
 40
0.9906743124
 40
0.9935163503
 40
0.9958454793
 40
0.9976601653
 40
0.9983740739
 40
0.9989587287
 40
0.9994138959
 40
0.999739333
 40
0.999934788
 40
1.0
 40
1.0
 40
1.0
 40
1.0
 10
15.64731834
 20
8.9664467444
 30
0.0
 10
15.6473183386
 20
8.9702890044
 30
0.0
 10
15.6473804397
 20
8.9758937603
 30
0.0
 10
15.6474736329
 20
8.9831477833
 30
0.0
 10
15.6475090788
 20
8.9880923883
 30
0.0
 10
15.6474784689
 20
8.9926857456
 30
0.0
 10
15.6474136107
 20
8.9969161371
 30
0.0
 10
15.6473475344
 20
9.0007743692
 30
0.0
 10
15.6473117069
 20
9.0042520279
 30
0.0
 10
15.6473408936
 20
9.0073407098
 30
0.0
 10
15.6474046325
 20
9.010032533
 30
0.0
 10
15.6474623648
 20
9.012025017
 30
0.0
 10
15.6474918076
 20
9.0134163799
 30
0.0
 10
15.6475008105
 20
9.0143060121
 30
0.0
 10
15.647493447
 20
9.0150921424
 30
0.0
 10
15.6474733747
 20
9.0157742371
 30
0.0
 10
15.647444917
 20
9.01635202
 30
0.0
 10
15.647416214
 20
9.0167680772
 30
0.0
 10
15.6473924713
 20
9.0170485656
 30
0.0
 10
15.6473762849
 20
9.0172197073
 30
0.0
 10
15.6473611676
 20
9.0173646139
 30
0.0
 10
15.6473475894
 20
9.0174831918
 30
0.0
 10
15.6473374439
 20
9.0175656548
 30
0.0
 10
15.6473303872
 20
9.0176182813
 30
0.0
 10
15.6473265413
 20
9.017648226
 30
0.0
 10
15.6473227145
 20
9.0176706768
 30
0.0
 10
15.6473215553
 20
9.0176886523
 30
0.0
 10
15.6473178507
 20
9.0176959723
 30
0.0
 10
15.6473194545
 20
9.0177030506
 30
0.0
 10
15.6473183401
 20
9.0177030515
 30
0.0
  0
SPLINE
  5
517
100
AcDbEntity
  8
0
100
AcDbSpline
 62
7
  6
CONTINUOUS
 70
0
 71
3
 72
15
 73
11
 74
0
 42
0.0000001
 43
0.0000001
 44
0.0000000001
 40
0.0
 40
0.0
 40
0.0
 40
0.0
 40
0.1027851429
 40
0.2143032482
 40
0.3333639416
 40
0.4588053019
 40
0.5894591071
 40
0.7241050403
 40
0.8614556147
 40
1.0
 40
1.0
 40
1.0
 40
1.0
 10
15.6473183401
 20
8.718959374
 30
0.0
 10
15.6473183377
 20
8.7231991152
 30
0.0
 10
15.647415878
 20
8.7320384295
 30
0.0
 10
15.6475421337
 20
8.7457890003
 30
0.0
 10
15.6474050985
 20
8.7604740518
 30
0.0
 10
15.6472789811
 20
8.7759484558
 30
0.0
 10
15.6474132659
 20
8.7920657347
 30
0.0
 10
15.6475421904
 20
8.8086742524
 30
0.0
 10
15.6474073416
 20
8.8256082855
 30
0.0
 10
15.6473183401
 20
8.8369882923
 30
0.0
 10
15.6473183401
 20
8.8427030515
 30
0.0
  0
SPLINE
  5
518
100
AcDbEntity
  8
0
100
AcDbSpline
 62
7
  6
CONTINUOUS
 70
0
 71
3
 72
27
 73
23
 74
0
 42
0.0000001
 43
0.0000001
 44
0.0000000001
 40
0.0
 40
0.0
 40
0.0
 40
0.0
 40
0.0733829569
 40
0.1450424829
 40
0.2138717763
 40
0.2792725598
 40
0.3409286795
 40
0.3989131899
 40
0.4267383083
 40
0.4539125344
 40
0.4805909053
 40
0.5069470103
 40
0.5331730398
 40
0.5594693693
 40
0.586029041
 40
0.613035628
 40
0.6689184717
 40
0.7281426261
 40
0.7911045481
 40
0.8577560026
 40
0.927705767
 40
1.0
 40
1.0
 40
1.0
 40
1.0
 10
17.8093183383
 20
8.9869721133
 30
0.0
 10
17.8147148639
 20
8.9878777069
 30
0.0
 10
17.8252830988
 20
8.9903280248
 30
0.0
 10
17.8402799019
 20
8.9958802936
 30
0.0
 10
17.8538645314
 20
9.0031448204
 30
0.0
 10
17.8656260668
 20
9.0119078766
 30
0.0
 10
17.8752245449
 20
9.021916969
 30
0.0
 10
17.8812455796
 20
9.0312171938
 30
0.0
 10
17.8846319133
 20
9.0389481094
 30
0.0
 10
17.8864352147
 20
9.0447800039
 30
0.0
 10
17.8875255266
 20
9.0506749529
 30
0.0
 10
17.8878934088
 20
9.0565886444
 30
0.0
 10
17.8875288635
 20
9.0624742523
 30
0.0
 10
17.8864406389
 20
9.0682847846
 30
0.0
 10
17.8846383733
 20
9.0739762571
 30
0.0
 10
17.8812604503
 20
9.0814237714
 30
0.0
 10
17.875237363
 20
9.0902550713
 30
0.0
 10
17.8656120356
 20
9.0995166386
 30
0.0
 10
17.8538247601
 20
9.1073430849
 30
0.0
 10
17.8402202332
 20
9.1135138233
 30
0.0
 10
17.8252109825
 20
9.1178531273
 30
0.0
 10
17.8146886947
 20
9.1194391652
 30
0.0
 10
17.8093183383
 20
9.1199081882
 30
0.0
  0
SPLINE
  5
519
100
AcDbEntity
  8
0
100
AcDbSpline
 62
7
  6
CONTINUOUS
 70
0
 71
3
 72
34
 73
30
 74
0
 42
0.0000001
 43
0.0000001
 44
0.0000000001
 40
0.0
 40
0.0
 40
0.0
 40
0.0
 40
0.0000652112
 40
0.0002606657
 40
0.0005861027
 40
0.0010412701
 40
0.0016259253
 40
0.0023398348
 40
0.0041545233
 40
0.0064836559
 40
0.0093256984
 40
0.0126792665
 40
0.0165431268
 40
0.0257974364
 40
0.0370818936
 40
0.050392137
 40
0.0657262804
 40
0.0830827163
 40
0.1024512867
 40
0.1238167973
 40
0.1471624197
 40
0.1997255481
 40
0.2600113576
 40
0.3279001283
 40
0.4032309954
 40
0.4858183143
 40
0.5754783766
 40
0.7751622063
 40
1.0
 40
1.0
 40
1.0
 40
1.0
 10
15.6473183401
 20
8.6677030515
 30
0.0
 10
15.6473172447
 20
8.6677032565
 30
0.0
 10
15.6473210172
 20
8.6677098383
 30
0.0
 10
15.6473195311
 20
8.6677176376
 30
0.0
 10
15.6473236457
 20
8.6677353402
 30
0.0
 10
15.6473261667
 20
8.6677579117
 30
0.0
 10
15.647330517
 20
8.6677878098
 30
0.0
 10
15.6473373325
 20
8.6678404586
 30
0.0
 10
15.6473476345
 20
8.6679229074
 30
0.0
 10
15.6473611433
 20
8.6680414918
 30
0.0
 10
15.6473762846
 20
8.6681863962
 30
0.0
 10
15.6473924622
 20
8.6683575389
 30
0.0
 10
15.6474162081
 20
8.6686380274
 30
0.0
 10
15.647444909
 20
8.6690540851
 30
0.0
 10
15.6474733687
 20
8.6696318683
 30
0.0
 10
15.6474934416
 20
8.6703139635
 30
0.0
 10
15.6475008121
 20
8.6711000942
 30
0.0
 10
15.6474917938
 20
8.6719897266
 30
0.0
 10
15.6474708735
 20
8.6729822237
 30
0.0
 10
15.6474419265
 20
8.6740769034
 30
0.0
 10
15.647396185
 20
8.675738595
 30
0.0
 10
15.6473408209
 20
8.6780653985
 30
0.0
 10
15.6473117302
 20
8.6811540828
 30
0.0
 10
15.6473475283
 20
8.6846317419
 30
0.0
 10
15.6474135824
 20
8.6884899773
 30
0.0
 10
15.647478575
 20
8.6927203616
 30
0.0
 10
15.6475201449
 20
8.6990763789
 30
0.0
 10
15.6473970433
 20
8.70786275
 30
0.0
 10
15.6473183422
 20
8.7151171132
 30
0.0
 10
15.6473183401
 20
8.718959374
 30
0.0
  0
SPLINE
  5
51A
100
AcDbEntity
  8
0
100
AcDbSpline
 62
7
  6
CONTINUOUS
 70
0
 71
3
 72
27
 73
23
 74
0
 42
0.0000001
 43
0.0000001
 44
0.0000000001
 40
0.0
 40
0.0
 40
0.0
 40
0.0
 40
0.0722963492
 40
0.1422514747
 40
0.2089058296
 40
0.2718685827
 40
0.3310939391
 40
0.3869770832
 40
0.4139839437
 40
0.4405436107
 40
0.4668399869
 40
0.4930661587
 40
0.5194222162
 40
0.5461007137
 40
0.5732750473
 40
0.601099932
 40
0.6590842414
 40
0.7207391148
 40
0.786138985
 40
0.854965214
 40
0.9266192393
 40
1.0
 40
1.0
 40
1.0
 40
1.0
 10
17.8093183383
 20
8.5654979148
 30
0.0
 10
17.8146888518
 20
8.5659669515
 30
0.0
 10
17.8252116521
 20
8.567553313
 30
0.0
 10
17.8402216788
 20
8.5718927151
 30
0.0
 10
17.8538267006
 20
8.5780640881
 30
0.0
 10
17.8656139721
 20
8.5858911604
 30
0.0
 10
17.8752393018
 20
8.5951530412
 30
0.0
 10
17.8812616969
 20
8.6039849661
 30
0.0
 10
17.8846394926
 20
8.6114325716
 30
0.0
 10
17.8864414627
 20
8.6171241827
 30
0.0
 10
17.8875290524
 20
8.6229348429
 30
0.0
 10
17.887893409
 20
8.6288204561
 30
0.0
 10
17.8875253338
 20
8.6347341685
 30
0.0
 10
17.8864343907
 20
8.6406290189
 30
0.0
 10
17.8846307964
 20
8.6464608034
 30
0.0
 10
17.8812443304
 20
8.6541916457
 30
0.0
 10
17.8752226145
 20
8.6634912863
 30
0.0
 10
17.8656241344
 20
8.6735000761
 30
0.0
 10
17.8538625932
 20
8.6822625096
 30
0.0
 10
17.8402784439
 20
8.6895263668
 30
0.0
 10
17.8252824337
 20
8.6950784683
 30
0.0
 10
17.8147147022
 20
8.6975284232
 30
0.0
 10
17.8093183383
 20
8.6984339897
 30
0.0
  0
ENDSEC
  0
SECTION
  2
OBJECTS
  0
DICTIONARY
  5
C
100
AcDbDictionary
280
0
281
1
  3
ACAD_GROUP
350
D
  3
ACAD_MLINESTYLE
350
17
  3
ACAD_LAYOUT
350
1A
  3
ACAD_PLOTSETTINGS
350
19
  3
ACAD_PLOTSTYLENAME
350
E
  0
DICTIONARY
  5
D
102
{ACAD_REACTORS
330
C
102
}
100
AcDbDictionary
280
0
281
1
  0
ACDBDICTIONARYWDFLT
  5
E
102
{ACAD_REACTORS
330
C
102
}
100
AcDbDictionary
281
1
  3
Normal
350
F
100
AcDbDictionaryWithDefault
340
F
  0
DICTIONARY
  5
17
102
{ACAD_REACTORS
330
C
102
}
100
AcDbDictionary
280
0
281
1
  3
Standard
350
18
  0
DICTIONARY
  5
19
102
{ACAD_REACTORS
330
C
102
}
100
AcDbDictionary
281
1
  0
DICTIONARY
  5
1A
102
{ACAD_REACTORS
330
C
102
}
100
AcDbDictionary
281
1
  3
Model
350
51B
  3
Layout1
350
51C
  0
ACDBPLACEHOLDER
  5
F
102
{ACAD_REACTORS
330
E
102
}
  0
MLINESTYLE
  5
18
102
{ACAD_REACTORS
330
17
102
}
100
AcDbMlineStyle
  2
STANDARD
 70
0
  3

 62
256
 51
90.0
 52
90.0
 71
2
 49
0.5
 62
256
  6
BYLAYER
 49
-0.5
 62
256
  6
BYLAYER
  0
LAYOUT
  5
51B
102
{ACAD_REACTORS
330
1A
102
}
100
AcDbPlotSettings
  1

  2
none_device
  4
ANSI_C_(22.00_x_17.00_Inches)
  6

 40
0.0
 41
0.0
 42
0.0
 43
0.0
 44
558.8
 45
431.8
 46
0.0
 47
0.0
 48
0.0
 49
0.0
140
0.0
141
0.0
142
1.0
143
1.0
 70
1024
 72
0
 73
0
 74
0
  7

 75
0
147
1.0
148
0.0
149
0.0
100
AcDbLayout
  1
Model
 70
0
 71
0
 10
0.0
 20
0.0
 11
22.0
 21
17.0
 12
0.0
 22
0.0
 32
0.0
 14
0.0
 24
0.0
 34
0.0
 15
0.0
 25
0.0
 35
0.0
146
0.0
 13
0.0
 23
0.0
 33
0.0
 16
1.0
 26
0.0
 36
0.0
 17
0.0
 27
1.0
 37
0.0
 76
0
330
202
345
0
346
0
  0
LAYOUT
  5
51C
102
{ACAD_REACTORS
330
1A
102
}
100
AcDbPlotSettings
  1

  2
none_device
  4
ANSI_C_(22.00_x_17.00_Inches)
  6

 40
0.0
 41
0.0
 42
0.0
 43
0.0
 44
558.8
 45
431.8
 46
0.0
 47
0.0
 48
0.0
 49
0.0
140
0.0
141
0.0
142
1.0
143
1.0
 70
0
 72
0
 73
0
 74
0
  7

 75
0
147
1.0
148
0.0
149
0.0
100
AcDbLayout
  1
Layout1
 70
0
 71
1
 10
0.0
 20
0.0
 11
22.0
 21
17.0
 12
0.0
 22
0.0
 32
0.0
 14
0.0
 24
0.0
 34
0.0
 15
0.0
 25
0.0
 35
0.0
146
0.0
 13
0.0
 23
0.0
 33
0.0
 16
1.0
 26
0.0
 36
0.0
 17
0.0
 27
1.0
 37
0.0
 76
0
330
203
345
0
346
0
  0
ENDSEC
  0
EOF
