  0
SECTION
  2
HEADER
  9
$ACADVER
  1
AC1015
  9
$DWGCODEPAGE
  3
ANSI_1252
  9
$EXTMAX
 10
33.1102362205
 20
23.3858267717
 30
0.0
  9
$EXTMIN
 10
0.0
 20
0.0
 30
0.0
  9
$LIMMIN
 10
0.0
 20
0.0
  9
$LIMMAX
 10
33.1102362205
 20
23.3858267717
  9
$VIEWCTR
 10
16.5551181102
 20
11.6929133858
  9
$VIEWSIZE
 40
23.3858267717
  9
$CLAYER
  8
0
  9
$LTSCALE
 40
1.8210629921
  9
$CELTYPE
  6
BYLAYER
  9
$DIMSCALE
 40
1.0
  9
$DIMASZ
 40
0.1875
  9
$DIMEXO
 40
0.2069389764
  9
$DIMDLI
 40
1.2581889764
  9
$DIMEXE
 40
0.595984252
  9
$DIMCEN
 40
0.297992126
  9
$DIMLFAC
 40
1.0
  9
$DIMBLK
  1
_CLOSED
  9
$DIMTXT
 40
0.15625
  9
$DIMTOL
 70
0
  9
$DIMLIM
 70
0
  9
$DIMTFAC
 40
1.0
  9
$PDMODE
 70
3
  9
$PDSIZE
 40
0.3125
  9
$HANDSEED
  5
25E
  9
$TILEMODE
 70
1
  9
$MEASUREMENT
 70
0
  9
$INSUNITS
 70
1
  0
ENDSEC
  0
SECTION
  2
CLASSES
  0
CLASS
  1
ACDBDICTIONARYWDFLT
  2
AcDbDictionaryWithDefault
  3
AutoCAD 2000
 90
0
280
0
281
0
  0
CLASS
  1
ACDBPLACEHOLDER
  2
AcDbPlaceHolder
  3
AutoCAD 2000
 90
0
280
0
281
0
  0
CLASS
  1
LAYOUT
  2
AcDbLayout
  3
AutoCAD 2000
 90
0
280
0
281
0
  0
ENDSEC
  0
SECTION
  2
TABLES
  0
TABLE
  2
VPORT
  5
8
100
AcDbSymbolTable
 70
2
  0
VPORT
  5
1F4
100
AcDbSymbolTableRecord
100
AcDbViewportTableRecord
  2
*ACTIVE
 70
0
 10
0.0
 20
0.0
 11
1.0
 21
1.0
 12
16.5551181102
 22
11.6929133858
 13
0.0
 23
0.0
 14
1.0
 24
1.0
 15
0.0
 25
0.0
 16
0.0
 26
0.0
 36
1.0
 17
0.0
 27
0.0
 37
0.0
 40
23.3858267717
 41
1.4158249158
 42
50.0
 43
0.0
 44
0.0
 50
0.0
 51
0.0
 71
0
 72
100
 73
1
 74
1
 75
0
 76
0
 77
0
 78
0
  0
ENDTAB
  0
TABLE
  2
LTYPE
  5
5
100
AcDbSymbolTable
 70
6
  0
LTYPE
  5
14
100
AcDbSymbolTableRecord
100
AcDbLinetypeTableRecord
  2
BYBLOCK
 70
0
  3

 72
65
 73
0
 40
0.0
  0
LTYPE
  5
15
100
AcDbSymbolTableRecord
100
AcDbLinetypeTableRecord
  2
BYLAYER
 70
0
  3

 72
65
 73
0
 40
0.0
  0
LTYPE
  5
16
100
AcDbSymbolTableRecord
100
AcDbLinetypeTableRecord
  2
CONTINUOUS
 70
64
  3
Solid line
 72
65
 73
0
 40
0.0
  0
LTYPE
  5
1F5
100
AcDbSymbolTableRecord
100
AcDbLinetypeTableRecord
  2
CENTER
 70
64
  3
____ _ ____ _ ____ _ ____ _ ____ _ ____ _ ____
 72
65
 73
4
 40
0.6
 49
0.375
 74
0
 49
-0.075
 74
0
 49
0.075
 74
0
 49
-0.075
 74
0
  0
LTYPE
  5
1F6
100
AcDbSymbolTableRecord
100
AcDbLinetypeTableRecord
  2
HIDDEN
 70
64
  3
- - - - - - - - - - - - - - - - - - - -
 72
65
 73
2
 40
0.2
 49
0.1
 74
0
 49
-0.1
 74
0
  0
LTYPE
  5
1F7
100
AcDbSymbolTableRecord
100
AcDbLinetypeTableRecord
  2
PHANTOM
 70
64
  3
_____ _ _ _____ _ _ _____ _ _ _____
 72
65
 73
6
 40
0.8
 49
0.45
 74
0
 49
-0.05
 74
0
 49
0.1
 74
0
 49
-0.05
 74
0
 49
0.1
 74
0
 49
-0.05
 74
0
  0
LTYPE
  5
1F8
100
AcDbSymbolTableRecord
100
AcDbLinetypeTableRecord
  2
DOT
 70
64
  3
. . . . . . . . . . . . . . . . . . . .
 72
65
 73
2
 40
0.2
 49
0.1
 74
0
 49
-0.1
 74
0
  0
LTYPE
  5
1F9
100
AcDbSymbolTableRecord
100
AcDbLinetypeTableRecord
  2
DASHED
 70
64
  3
- - - - - - - - - - - - - - - - - - - -
 72
65
 73
2
 40
0.2
 49
0.1
 74
0
 49
-0.1
 74
0
  0
ENDTAB
  0
TABLE
  2
LAYER
  5
2
100
AcDbSymbolTable
 70
36
  0
LAYER
  5
10
100
AcDbSymbolTableRecord
100
AcDbLayerTableRecord
  2
0
 70
0
 62
7
  6
CONTINUOUS
370
-3
390
F
  0
LAYER
  5
1FA
100
AcDbSymbolTableRecord
100
AcDbLayerTableRecord
  2
DEFAULT_1
 70
0
 62
7
  6
CENTER
370
-3
390
F
  0
LAYER
  5
1FB
100
AcDbSymbolTableRecord
100
AcDbLayerTableRecord
  2
DEFAULT_2
 70
0
 62
8
  6
HIDDEN
370
-3
390
F
  0
LAYER
  5
1FC
100
AcDbSymbolTableRecord
100
AcDbLayerTableRecord
  2
DEFAULT_3
 70
0
 62
7
  6
PHANTOM
370
-3
390
F
  0
LAYER
  5
1FD
100
AcDbSymbolTableRecord
100
AcDbLayerTableRecord
  2
DEFAULT_COORDINATE_SYSTEM
 70
0
 62
7
  6
CONTINUOUS
370
-3
390
F
  0
LAYER
  5
1FE
100
AcDbSymbolTableRecord
100
AcDbLayerTableRecord
  2
DEFAULT_DATUM_AXES
 70
0
 62
7
  6
CONTINUOUS
370
-3
390
F
  0
LAYER
  5
1FF
100
AcDbSymbolTableRecord
100
AcDbLayerTableRecord
  2
DEFAULT_DATUM_CURVES
 70
0
 62
7
  6
CONTINUOUS
370
-3
390
F
  0
LAYER
  5
200
100
AcDbSymbolTableRecord
100
AcDbLayerTableRecord
  2
DEFAULT_DATUM_PLANES
 70
0
 62
7
  6
CONTINUOUS
370
-3
390
F
  0
ENDTAB
  0
TABLE
  2
STYLE
  5
3
100
AcDbSymbolTable
 70
1
  0
STYLE
  5
11
100
AcDbSymbolTableRecord
100
AcDbTextStyleTableRecord
  2
STANDARD
 70
0
 40
0.0
 41
0.8
 50
0.0
 71
0
 42
0.2
  3
txt
  4

  0
STYLE
  5
201
100
AcDbSymbolTableRecord
100
AcDbTextStyleTableRecord
  2
TEXTSTYLE_1
 70
0
 40
0.0
 41
0.8
 50
0.0
 71
0
 42
0.2
  3
gdt
  4

  0
ENDTAB
  0
TABLE
  2
VIEW
  5
6
100
AcDbSymbolTable
 70
0
  0
ENDTAB
  0
TABLE
  2
UCS
  5
7
100
AcDbSymbolTable
 70
0
  0
ENDTAB
  0
TABLE
  2
APPID
  5
9
100
AcDbSymbolTable
 70
1
  0
APPID
  5
202
100
AcDbSymbolTableRecord
100
AcDbRegAppTableRecord
  2
ACAD
 70
0
  0
ENDTAB
  0
TABLE
  2
BLOCK_RECORD
  5
1
100
AcDbSymbolTable
 70
0
  0
BLOCK_RECORD
  5
203
100
AcDbSymbolTableRecord
100
AcDbBlockTableRecord
  2
*Model_Space
  0
BLOCK_RECORD
  5
204
100
AcDbSymbolTableRecord
100
AcDbBlockTableRecord
  2
*Paper_Space
  0
ENDTAB
  0
TABLE
  2
DIMSTYLE
  5
A
100
AcDbSymbolTable
 70
1
100
AcDbDimStyleTable
 71
0
  0
DIMSTYLE
105
205
100
AcDbSymbolTableRecord
100
AcDbDimStyleTableRecord
  2
STANDARD
 70
0
  3

  4

 40
1.0
 41
0.1875
 42
0.0625
 43
0.38
 44
0.18
 45
0.0
 46
0.0
 47
0.01
 48
0.01
140
0.15625
141
0.09
142
0.0
143
25.4
144
1.0
145
0.0
146
1.0
147
0.09
 71
0.0
 72
0.0
 73
1
 74
1
 75
0
 76
0
 77
0
 78
4
170
0
171
2
172
0
173
0
174
0
175
0
176
0
177
0
178
0
270
2
271
2
272
2
273
2
274
2
275
0
280
0
281
0
282
0
283
1
284
4
285
0
286
0
287
3
288
0
340
11
  0
ENDTAB
  0
ENDSEC
  0
SECTION
  2
BLOCKS
  0
BLOCK
  5
20
100
AcDbEntity
  8
0
100
AcDbBlockBegin
  2
*Model_Space
 70
0
 10
0.0
 20
0.0
 30
0.0
  3
*Model_Space
  1

  0
ENDBLK
  5
21
100
AcDbEntity
  8
0
100
AcDbBlockEnd
  0
BLOCK
  5
1C
100
AcDbEntity
  8
0
100
AcDbBlockBegin
  2
*Paper_Space
 70
0
 10
0.0
 20
0.0
 30
0.0
  3
*Paper_Space
  1

  0
ENDBLK
  5
1D
100
AcDbEntity
  8
0
100
AcDbBlockEnd
  0
ENDSEC
  0
SECTION
  2
ENTITIES
  0
LINE
  5
206
100
AcDbEntity
  8
0
100
AcDbLine
 62
6
  6
CONTINUOUS
 10
3.5747239378
 20
10.9766778625
 11
3.5747239378
 21
11.5926778625
  0
LINE
  5
207
100
AcDbEntity
  8
0
100
AcDbLine
 62
6
  6
CONTINUOUS
 10
3.5947239378
 20
10.9566778625
 11
3.5947239378
 21
11.6126778625
  0
LINE
  5
208
100
AcDbEntity
  8
0
100
AcDbLine
 62
6
  6
CONTINUOUS
 10
3.6482239378
 20
13.6946778625
 11
3.6482239378
 21
13.6076778625
  0
LINE
  5
209
100
AcDbEntity
  8
0
100
AcDbLine
 62
6
  6
CONTINUOUS
 10
4.0547239378
 20
10.9163251875
 11
4.0547239378
 21
11.6530305375
  0
LINE
  5
20A
100
AcDbEntity
  8
0
100
AcDbLine
 62
6
  6
CONTINUOUS
 10
4.1482239378
 20
11.6890100674
 11
4.1482239378
 21
12.2946778625
  0
LINE
  5
20B
100
AcDbEntity
  8
0
100
AcDbLine
 62
6
  6
CONTINUOUS
 10
4.2171239378
 20
10.9163221871
 11
4.2171239378
 21
11.5836793068
  0
LINE
  5
20C
100
AcDbEntity
  8
0
100
AcDbLine
 62
6
  6
CONTINUOUS
 10
4.3795239378
 20
11.476131104
 11
4.3795239378
 21
10.9163221871
  0
LINE
  5
20D
100
AcDbEntity
  8
0
100
AcDbLine
 62
6
  6
CONTINUOUS
 10
4.5419239378
 20
11.476131104
 11
4.5419239378
 21
10.9163221871
  0
LINE
  5
20E
100
AcDbEntity
  8
0
100
AcDbLine
 62
6
  6
CONTINUOUS
 10
4.7043239378
 20
10.9163221871
 11
4.7043239378
 21
11.5836793068
  0
LINE
  5
20F
100
AcDbEntity
  8
0
100
AcDbLine
 62
6
  6
CONTINUOUS
 10
4.7732239378
 20
11.6890101698
 11
4.7732239378
 21
12.2946778625
  0
LINE
  5
210
100
AcDbEntity
  8
0
100
AcDbLine
 62
6
  6
CONTINUOUS
 10
4.8667239378
 20
10.9163251875
 11
4.8667239378
 21
11.6530305375
  0
LINE
  5
211
100
AcDbEntity
  8
0
100
AcDbLine
 62
6
  6
CONTINUOUS
 10
5.2732239378
 20
13.6946778625
 11
5.2732239378
 21
13.6076778625
  0
LINE
  5
212
100
AcDbEntity
  8
0
100
AcDbLine
 62
6
  6
CONTINUOUS
 10
3.5747239378
 20
10.9766778625
 11
3.5947239378
 21
10.9566778625
  0
LINE
  5
213
100
AcDbEntity
  8
0
100
AcDbLine
 62
6
  6
CONTINUOUS
 10
4.0512239378
 20
12.3146778625
 11
4.0712239378
 21
12.2946778625
  0
LINE
  5
214
100
AcDbEntity
  8
0
100
AcDbLine
 62
6
  6
CONTINUOUS
 10
3.5747239378
 20
11.5926778625
 11
3.5947239378
 21
11.6126778625
  0
LINE
  5
215
100
AcDbEntity
  8
0
100
AcDbLine
 62
6
  6
CONTINUOUS
 10
4.8702239378
 20
12.3146778625
 11
4.8502239378
 21
12.2946778625
  0
LINE
  5
216
100
AcDbEntity
  8
0
100
AcDbLine
 62
6
  6
CONTINUOUS
 10
29.8867239378
 20
10.9566778625
 11
29.4267239378
 21
10.9566778625
  0
LINE
  5
217
100
AcDbEntity
  8
0
100
AcDbLine
 62
6
  6
CONTINUOUS
 10
3.5947239378
 20
10.9566778625
 11
4.0547239378
 21
10.9566778625
  0
LINE
  5
218
100
AcDbEntity
  8
0
100
AcDbLine
 62
6
  6
CONTINUOUS
 10
28.6147239378
 20
10.9721778625
 11
4.8667239378
 21
10.9721778625
  0
LINE
  5
219
100
AcDbEntity
  8
0
100
AcDbLine
 62
6
  6
CONTINUOUS
 10
28.6147239378
 20
11.5971778625
 11
4.8667239378
 21
11.5971778625
  0
LINE
  5
21A
100
AcDbEntity
  8
0
100
AcDbLine
 62
6
  6
CONTINUOUS
 10
29.8867239378
 20
11.6126778625
 11
29.4267239378
 21
11.6126778625
  0
LINE
  5
21B
100
AcDbEntity
  8
0
100
AcDbLine
 62
6
  6
CONTINUOUS
 10
3.5947239378
 20
11.6126778625
 11
4.0547239378
 21
11.6126778625
  0
LINE
  5
21C
100
AcDbEntity
  8
0
100
AcDbLine
 62
6
  6
CONTINUOUS
 10
4.0712239378
 20
12.2946778625
 11
4.8502239378
 21
12.2946778625
  0
LINE
  5
21D
100
AcDbEntity
  8
0
100
AcDbLine
 62
6
  6
CONTINUOUS
 10
28.6312239378
 20
12.2946778625
 11
29.4102239378
 21
12.2946778625
  0
LINE
  5
21E
100
AcDbEntity
  8
0
100
AcDbLine
 62
6
  6
CONTINUOUS
 10
4.0512239378
 20
12.3146778625
 11
4.8702239378
 21
12.3146778625
  0
LINE
  5
21F
100
AcDbEntity
  8
0
100
AcDbLine
 62
6
  6
CONTINUOUS
 10
28.6112239378
 20
12.3146778625
 11
29.4302239378
 21
12.3146778625
  0
LINE
  5
220
100
AcDbEntity
  8
0
100
AcDbLine
 62
6
  6
CONTINUOUS
 10
3.6482239378
 20
13.6076778625
 11
5.2732239378
 21
13.6076778625
  0
LINE
  5
221
100
AcDbEntity
  8
0
100
AcDbLine
 62
6
  6
CONTINUOUS
 10
28.2082239378
 20
13.6076778625
 11
29.8332239378
 21
13.6076778625
  0
LINE
  5
222
100
AcDbEntity
  8
0
100
AcDbLine
 62
7
  6
CONTINUOUS
 10
3.647721264
 20
13.6946778625
 11
5.2737266116
 21
13.6946778625
  0
LINE
  5
223
100
AcDbEntity
  8
0
100
AcDbLine
 62
7
  6
CONTINUOUS
 10
28.207721264
 20
13.6946778625
 11
29.8337266116
 21
13.6946778625
  0
LINE
  5
224
100
AcDbEntity
  8
0
100
AcDbLine
 62
6
  6
CONTINUOUS
 10
3.4607239378
 20
13.8826778625
 11
5.4607239378
 21
13.8826778625
  0
LINE
  5
225
100
AcDbEntity
  8
0
100
AcDbLine
 62
6
  6
CONTINUOUS
 10
28.0207239378
 20
13.8826778625
 11
30.0207239378
 21
13.8826778625
  0
LINE
  5
226
100
AcDbEntity
  8
0
100
AcDbLine
 62
6
  6
CONTINUOUS
 10
3.2807239378
 20
14.0696778625
 11
5.6407239378
 21
14.0696778625
  0
LINE
  5
227
100
AcDbEntity
  8
0
100
AcDbLine
 62
6
  6
CONTINUOUS
 10
27.8407239378
 20
14.0696778625
 11
30.2007239378
 21
14.0696778625
  0
LINE
  5
228
100
AcDbEntity
  8
0
100
AcDbLine
 62
6
  6
CONTINUOUS
 10
29.4302239378
 20
12.3146778625
 11
29.4102239378
 21
12.2946778625
  0
LINE
  5
229
100
AcDbEntity
  8
0
100
AcDbLine
 62
6
  6
CONTINUOUS
 10
28.6312239378
 20
12.2946778625
 11
28.6112239378
 21
12.3146778625
  0
LINE
  5
22A
100
AcDbEntity
  8
0
100
AcDbLine
 62
6
  6
CONTINUOUS
 10
29.9067239378
 20
11.5926778625
 11
29.8867239378
 21
11.6126778625
  0
LINE
  5
22B
100
AcDbEntity
  8
0
100
AcDbLine
 62
6
  6
CONTINUOUS
 10
29.9067239378
 20
10.9766778625
 11
29.8867239378
 21
10.9566778625
  0
LINE
  5
22C
100
AcDbEntity
  8
0
100
AcDbLine
 62
6
  6
CONTINUOUS
 10
28.2082239378
 20
13.6946778625
 11
28.2082239378
 21
13.6076778625
  0
LINE
  5
22D
100
AcDbEntity
  8
0
100
AcDbLine
 62
6
  6
CONTINUOUS
 10
28.6147239378
 20
10.9163251875
 11
28.6147239378
 21
11.6530305375
  0
LINE
  5
22E
100
AcDbEntity
  8
0
100
AcDbLine
 62
6
  6
CONTINUOUS
 10
28.7082239378
 20
11.6890100674
 11
28.7082239378
 21
12.2946778625
  0
LINE
  5
22F
100
AcDbEntity
  8
0
100
AcDbLine
 62
6
  6
CONTINUOUS
 10
28.7771239378
 20
10.9163221871
 11
28.7771239378
 21
11.5836793068
  0
LINE
  5
230
100
AcDbEntity
  8
0
100
AcDbLine
 62
6
  6
CONTINUOUS
 10
28.9395239378
 20
11.476131104
 11
28.9395239378
 21
10.9163221871
  0
LINE
  5
231
100
AcDbEntity
  8
0
100
AcDbLine
 62
6
  6
CONTINUOUS
 10
29.1019239378
 20
11.476131104
 11
29.1019239378
 21
10.9163221871
  0
LINE
  5
232
100
AcDbEntity
  8
0
100
AcDbLine
 62
6
  6
CONTINUOUS
 10
29.2643239378
 20
10.9163221871
 11
29.2643239378
 21
11.5836793068
  0
LINE
  5
233
100
AcDbEntity
  8
0
100
AcDbLine
 62
6
  6
CONTINUOUS
 10
29.3332239378
 20
11.6890101698
 11
29.3332239378
 21
12.2946778625
  0
LINE
  5
234
100
AcDbEntity
  8
0
100
AcDbLine
 62
6
  6
CONTINUOUS
 10
29.4267239378
 20
10.9163251875
 11
29.4267239378
 21
11.6530305375
  0
LINE
  5
235
100
AcDbEntity
  8
0
100
AcDbLine
 62
6
  6
CONTINUOUS
 10
29.8332239378
 20
13.6946778625
 11
29.8332239378
 21
13.6076778625
  0
LINE
  5
236
100
AcDbEntity
  8
0
100
AcDbLine
 62
6
  6
CONTINUOUS
 10
29.8867239378
 20
10.9566778625
 11
29.8867239378
 21
11.6126778625
  0
LINE
  5
237
100
AcDbEntity
  8
0
100
AcDbLine
 62
6
  6
CONTINUOUS
 10
29.9067239378
 20
10.9766778625
 11
29.9067239378
 21
11.5926778625
  0
ARC
  5
238
100
AcDbEntity
  8
0
100
AcDbCircle
 62
6
  6
CONTINUOUS
 10
7.861913738
 20
12.0915363393
 40
3.0
100
AcDbArc
 50
149.6433854291
 51
175.7343714095
  0
ARC
  5
239
100
AcDbEntity
  8
0
100
AcDbCircle
 62
6
  6
CONTINUOUS
 10
1.0595341376
 20
12.0915363393
 40
3.0
100
AcDbArc
 50
4.2656285905
 51
30.3566145709
  0
ARC
  5
23A
100
AcDbEntity
  8
0
100
AcDbCircle
 62
6
  6
CONTINUOUS
 10
4.1359239378
 20
11.6056778625
 40
0.094
100
AcDbArc
 50
90.1219060058
 51
149.7493496838
  0
ARC
  5
23B
100
AcDbEntity
  8
0
100
AcDbCircle
 62
6
  6
CONTINUOUS
 10
4.7855239378
 20
11.6056778625
 40
0.094
100
AcDbArc
 50
30.2506503162
 51
89.8780939942
  0
ARC
  5
23C
100
AcDbEntity
  8
0
100
AcDbCircle
 62
6
  6
CONTINUOUS
 10
4.1359239378
 20
10.9636778625
 40
0.094
100
AcDbArc
 50
210.2506503162
 51
329.7493496838
  0
ARC
  5
23D
100
AcDbEntity
  8
0
100
AcDbCircle
 62
6
  6
CONTINUOUS
 10
4.2983239378
 20
10.9636778625
 40
0.094
100
AcDbArc
 50
210.2506503162
 51
329.7493496838
  0
ARC
  5
23E
100
AcDbEntity
  8
0
100
AcDbCircle
 62
6
  6
CONTINUOUS
 10
4.4607239378
 20
10.9636778625
 40
0.094
100
AcDbArc
 50
210.2506503162
 51
329.7493496838
  0
ARC
  5
23F
100
AcDbEntity
  8
0
100
AcDbCircle
 62
6
  6
CONTINUOUS
 10
4.6231239378
 20
10.9636778625
 40
0.094
100
AcDbArc
 50
210.2506503162
 51
329.7493496838
  0
ARC
  5
240
100
AcDbEntity
  8
0
100
AcDbCircle
 62
6
  6
CONTINUOUS
 10
4.7855239378
 20
10.9636778625
 40
0.094
100
AcDbArc
 50
210.2506503162
 51
329.7493496838
  0
ARC
  5
241
100
AcDbEntity
  8
0
100
AcDbCircle
 62
6
  6
CONTINUOUS
 10
3.647721264
 20
13.8816778625
 40
0.187
100
AcDbArc
 50
179.6936039968
 51
270.0
  0
ARC
  5
242
100
AcDbEntity
  8
0
100
AcDbCircle
 62
6
  6
CONTINUOUS
 10
3.4678600489
 20
14.0696778625
 40
0.1871361111
100
AcDbArc
 50
180.0
 51
267.8145949287
  0
ARC
  5
243
100
AcDbEntity
  8
0
100
AcDbCircle
 62
6
  6
CONTINUOUS
 10
5.2737266116
 20
13.8816778625
 40
0.187
100
AcDbArc
 50
270.0
 51
0.3063960032
  0
ARC
  5
244
100
AcDbEntity
  8
0
100
AcDbCircle
 62
6
  6
CONTINUOUS
 10
5.4535878267
 20
14.0696778625
 40
0.1871361111
100
AcDbArc
 50
272.1854050713
 51
360.0
  0
ARC
  5
245
100
AcDbEntity
  8
0
100
AcDbCircle
 62
6
  6
CONTINUOUS
 10
25.6195341376
 20
12.0915363393
 40
3.0
100
AcDbArc
 50
4.2656285905
 51
30.3566145709
  0
ARC
  5
246
100
AcDbEntity
  8
0
100
AcDbCircle
 62
6
  6
CONTINUOUS
 10
32.421913738
 20
12.0915363393
 40
3.0
100
AcDbArc
 50
149.6433854291
 51
175.7343714095
  0
ARC
  5
247
100
AcDbEntity
  8
0
100
AcDbCircle
 62
6
  6
CONTINUOUS
 10
29.3455239378
 20
10.9636778625
 40
0.094
100
AcDbArc
 50
210.2506503162
 51
329.7493496838
  0
ARC
  5
248
100
AcDbEntity
  8
0
100
AcDbCircle
 62
6
  6
CONTINUOUS
 10
29.1831239378
 20
10.9636778625
 40
0.094
100
AcDbArc
 50
210.2506503162
 51
329.7493496838
  0
ARC
  5
249
100
AcDbEntity
  8
0
100
AcDbCircle
 62
6
  6
CONTINUOUS
 10
29.0207239378
 20
10.9636778625
 40
0.094
100
AcDbArc
 50
210.2506503162
 51
329.7493496838
  0
ARC
  5
24A
100
AcDbEntity
  8
0
100
AcDbCircle
 62
6
  6
CONTINUOUS
 10
28.8583239378
 20
10.9636778625
 40
0.094
100
AcDbArc
 50
210.2506503162
 51
329.7493496838
  0
ARC
  5
24B
100
AcDbEntity
  8
0
100
AcDbCircle
 62
6
  6
CONTINUOUS
 10
28.6959239378
 20
10.9636778625
 40
0.094
100
AcDbArc
 50
210.2506503162
 51
329.7493496838
  0
ARC
  5
24C
100
AcDbEntity
  8
0
100
AcDbCircle
 62
6
  6
CONTINUOUS
 10
29.3455239378
 20
11.6056778625
 40
0.094
100
AcDbArc
 50
30.2506503162
 51
89.8780939942
  0
ARC
  5
24D
100
AcDbEntity
  8
0
100
AcDbCircle
 62
6
  6
CONTINUOUS
 10
28.6959239378
 20
11.6056778625
 40
0.094
100
AcDbArc
 50
90.1219060058
 51
149.7493496838
  0
ARC
  5
24E
100
AcDbEntity
  8
0
100
AcDbCircle
 62
6
  6
CONTINUOUS
 10
28.207721264
 20
13.8816778625
 40
0.187
100
AcDbArc
 50
179.6936039968
 51
270.0
  0
ARC
  5
24F
100
AcDbEntity
  8
0
100
AcDbCircle
 62
6
  6
CONTINUOUS
 10
28.0278600489
 20
14.0696778625
 40
0.1871361111
100
AcDbArc
 50
180.0
 51
267.8145949287
  0
ARC
  5
250
100
AcDbEntity
  8
0
100
AcDbCircle
 62
6
  6
CONTINUOUS
 10
29.8337266116
 20
13.8816778625
 40
0.187
100
AcDbArc
 50
270.0
 51
0.3063960032
  0
ARC
  5
251
100
AcDbEntity
  8
0
100
AcDbCircle
 62
6
  6
CONTINUOUS
 10
30.0135878267
 20
14.0696778625
 40
0.1871361111
100
AcDbArc
 50
272.1854050713
 51
360.0
  0
SPLINE
  5
252
100
AcDbEntity
  8
0
100
AcDbSpline
 62
7
  6
CONTINUOUS
 70
0
 71
3
 72
36
 73
32
 74
30
 42
0.0000001
 43
0.0000001
 44
0.0000000001
 12
-0.1136805942
 22
-0.0878030983
 32
0.0
 13
-0.046437118
 23
-0.1359270677
 33
0.0
 40
0.0
 40
0.0
 40
0.0
 40
0.0
 40
0.0010094334
 40
0.0040401898
 40
0.0090960561
 40
0.0161809525
 40
0.0252989488
 40
0.0364547821
 40
0.0649041316
 40
0.0822126416
 40
0.1015855383
 40
0.1230200414
 40
0.1465132001
 40
0.1720643526
 40
0.1996724623
 40
0.229318002
 40
0.2609749895
 40
0.2946210896
 40
0.3302345491
 40
0.4071661851
 40
0.4913586233
 40
0.5360271481
 40
0.5822990376
 40
0.6300967076
 40
0.6793414964
 40
0.7299414807
 40
0.7818078542
 40
0.8348572373
 40
0.8889862368
 40
0.9440727513
 40
1.0
 40
1.0
 40
1.0
 40
1.0
 10
4.7857239378
 20
11.6996776498
 30
0.0
 10
4.7856856868
 20
11.699648106
 30
0.0
 10
4.7855327589
 20
11.6995296408
 30
0.0
 10
4.7851897397
 20
11.6992612793
 30
0.0
 10
4.784619456
 20
11.6988113267
 30
0.0
 10
4.7838233567
 20
11.6981770574
 30
0.0
 10
4.7828023666
 20
11.6973563648
 30
0.0
 10
4.7809930542
 20
11.6958836953
 30
0.0
 10
4.7789036789
 20
11.6941339963
 30
0.0
 10
4.7765427128
 20
11.6920966036
 30
0.0
 10
4.7744563666
 20
11.6902552992
 30
0.0
 10
4.7721744948
 20
11.6881883792
 30
0.0
 10
4.7697056663
 20
11.6858876837
 30
0.0
 10
4.7670587636
 20
11.6833450812
 30
0.0
 10
4.7642432518
 20
11.6805534528
 30
0.0
 10
4.7612715804
 20
11.677504918
 30
0.0
 10
4.7581577331
 20
11.6741922392
 30
0.0
 10
4.754916044
 20
11.6706086927
 30
0.0
 10
4.7503244293
 20
11.6653249536
 30
0.0
 10
4.7443750811
 20
11.6580175751
 30
0.0
 10
4.7385059019
 20
11.6500979888
 30
0.0
 10
4.7337580847
 20
11.6431853213
 30
0.0
 10
4.7301363613
 20
11.6376157568
 30
0.0
 10
4.7265470717
 20
11.6317664941
 30
0.0
 10
4.7230138586
 20
11.6256426282
 30
0.0
 10
4.7195591079
 20
11.6192517328
 30
0.0
 10
4.7162058937
 20
11.6126022086
 30
0.0
 10
4.7129784037
 20
11.6057036576
 30
0.0
 10
4.7098990657
 20
11.5985693715
 30
0.0
 10
4.7069892415
 20
11.591215902
 30
0.0
 10
4.7051896379
 20
11.5862133157
 30
0.0
 10
4.7043239378
 20
11.5836793068
 30
0.0
 11
4.7857239378
 21
11.6996776498
 31
0.0
 11
4.7856093049
 21
11.6995888637
 31
0.0
 11
4.7852662463
 21
11.6993208506
 31
0.0
 11
4.7846960224
 21
11.6988711284
 31
0.0
 11
4.7838998933
 21
11.698237215
 31
0.0
 11
4.7828791708
 21
11.6974165608
 31
0.0
 11
4.7816365708
 21
11.6964047688
 31
0.0
 11
4.7785028501
 21
11.6937819673
 31
0.0
 11
4.7766204037
 21
11.6921578998
 31
0.0
 11
4.7745341683
 21
11.6903163746
 31
0.0
 11
4.7722522373
 21
11.6882494499
 31
0.0
 11
4.7697833624
 21
11.6859489365
 31
0.0
 11
4.7671362951
 21
11.6834066451
 31
0.0
 11
4.7643202318
 21
11.6806144963
 31
0.0
 11
4.7613478133
 21
11.6775652618
 31
0.0
 11
4.7582332882
 21
11.6742521102
 31
0.0
 11
4.754990914
 21
11.6706682126
 31
0.0
 11
4.751635328
 21
11.6668070318
 31
0.0
 11
4.7446578333
 21
11.6582380194
 31
0.0
 11
4.7374562499
 21
11.6485226479
 31
0.0
 11
4.7338236029
 21
11.6432338316
 31
0.0
 11
4.730200315
 21
11.6376617642
 31
0.0
 11
4.7266095408
 21
11.6318099376
 31
0.0
 11
4.7230744391
 21
11.6256831062
 31
0.0
 11
4.7196181807
 21
11.6192892763
 31
0.0
 11
4.7162639379
 21
11.6126369707
 31
0.0
 11
4.7130348603
 21
11.6057349413
 31
0.0
 11
4.7099536459
 21
11.5985964192
 31
0.0
 11
4.7070425812
 21
11.5912387195
 31
0.0
 11
4.7043239378
 21
11.5836793068
 31
0.0
  0
SPLINE
  5
253
100
AcDbEntity
  8
0
100
AcDbSpline
 62
7
  6
CONTINUOUS
 70
0
 71
3
 72
44
 73
40
 74
38
 42
0.0000001
 43
0.0000001
 44
0.0000000001
 12
-0.1416566936
 22
0.183827541
 32
0.0
 13
-0.0601992476
 23
-0.2241321804
 33
0.0
 40
0.0
 40
0.0
 40
0.0
 40
0.0
 40
0.0141846561
 40
0.0280820752
 40
0.0417284112
 40
0.0551571279
 40
0.0684142125
 40
0.0815531244
 40
0.0946206325
 40
0.1076563742
 40
0.1206966399
 40
0.1337747745
 40
0.1469183713
 40
0.1601493613
 40
0.186934173
 40
0.2142551785
 40
0.2281423421
 40
0.242184713
 40
0.27074292
 40
0.2999452762
 40
0.3297779067
 40
0.3602166862
 40
0.3912257341
 40
0.4227609287
 40
0.45477893
 40
0.4872309349
 40
0.5200658348
 40
0.5532416763
 40
0.5867149119
 40
0.6204394346
 40
0.6543811296
 40
0.7227690193
 40
0.757166703
 40
0.791672328
 40
0.8262695425
 40
0.8609362588
 40
0.8956554561
 40
0.9304180734
 40
1.0
 40
1.0
 40
1.0
 40
1.0
 10
29.2643239378
 20
11.5836793068
 30
0.0
 10
29.263654154
 20
11.5845484836
 30
0.0
 10
29.262265704
 20
11.5862222186
 30
0.0
 10
29.2600267861
 20
11.5885514444
 30
0.0
 10
29.2576667857
 20
11.5906715534
 30
0.0
 10
29.2551968842
 20
11.5925824681
 30
0.0
 10
29.252627383
 20
11.5942869681
 30
0.0
 10
29.2499678383
 20
11.5957909305
 30
0.0
 10
29.2472266457
 20
11.597100706
 30
0.0
 10
29.2444119508
 20
11.5982230793
 30
0.0
 10
29.2415307845
 20
11.5991639144
 30
0.0
 10
29.2385894763
 20
11.5999285023
 30
0.0
 10
29.2355940652
 20
11.6005224
 30
0.0
 10
29.2315201942
 20
11.6010963875
 30
0.0
 10
29.2263107851
 20
11.6014100483
 30
0.0
 10
29.2210467922
 20
11.601216416
 30
0.0
 10
29.2167940301
 20
11.6007791965
 30
0.0
 10
29.2124686455
 20
11.6001496879
 30
0.0
 10
29.2070249161
 20
11.599014884
 30
0.0
 10
29.2005079788
 20
11.5971382132
 30
0.0
 10
29.1940012724
 20
11.5947624226
 30
0.0
 10
29.187536937
 20
11.5919089704
 30
0.0
 10
29.1811458205
 20
11.5885988074
 30
0.0
 10
29.1748580119
 20
11.5848523446
 30
0.0
 10
29.168701225
 20
11.5806919339
 30
0.0
 10
29.1627020602
 20
11.5761392641
 30
0.0
 10
29.156886329
 20
11.5712149941
 30
0.0
 10
29.1512748593
 20
11.565943379
 30
0.0
 10
29.1458866893
 20
11.5603480294
 30
0.0
 10
29.1407405015
 20
11.5544503887
 30
0.0
 10
29.1342034461
 20
11.5461978095
 30
0.0
 10
29.1282144642
 20
11.5374590722
 30
0.0
 10
29.1227932789
 20
11.5283235971
 30
0.0
 10
29.1189970841
 20
11.5212713399
 30
0.0
 10
29.1154781737
 20
11.5140539849
 30
0.0
 10
29.1122348055
 20
11.506690746
 30
0.0
 10
29.1092627344
 20
11.4992001755
 30
0.0
 10
29.1056491499
 20
11.4890658039
 30
0.0
 10
29.1033201977
 20
11.4813296203
 30
0.0
 10
29.1019239378
 20
11.476131104
 30
0.0
 11
29.2643239378
 21
11.5836793068
 31
0.0
 11
29.2622213242
 21
11.5862122348
 31
0.0
 11
29.2599856509
 21
11.5885368926
 31
0.0
 11
29.2576292192
 21
11.5906527897
 31
0.0
 11
29.2551642006
 21
11.5925596545
 31
0.0
 11
29.2526006344
 21
11.5942607999
 31
0.0
 11
29.2499468165
 21
11.5957624707
 31
0.0
 11
29.2472109914
 21
11.5970709976
 31
0.0
 11
29.2444013399
 21
11.598192684
 31
0.0
 11
29.2415249141
 21
11.5991333482
 31
0.0
 11
29.2385877978
 21
11.5998983931
 31
0.0
 11
29.2355960438
 21
11.600493208
 31
0.0
 11
29.2325557046
 21
11.6009231821
 31
0.0
 11
29.226351522
 21
11.6013080245
 31
0.0
 11
29.2200148518
 21
11.6010864019
 31
0.0
 11
29.2168087403
 21
11.6007581163
 31
0.0
 11
29.2135836585
 21
11.6002898835
 31
0.0
 11
29.2070937293
 21
11.5989457048
 31
0.0
 11
29.2005791118
 21
11.5970776401
 31
0.0
 11
29.1940734612
 21
11.5947090075
 31
0.0
 11
29.1876087478
 21
11.5918613674
 31
0.0
 11
29.1812164284
 21
11.588555744
 31
0.0
 11
29.1749271091
 21
11.5848133217
 31
0.0
 11
29.1687684363
 21
11.580655844
 31
0.0
 11
29.162767413
 21
11.5761051757
 31
0.0
 11
29.156949904
 21
11.571183405
 31
0.0
 11
29.1513366281
 21
11.5659136314
 31
0.0
 11
29.14594685
 21
11.5603192396
 31
0.0
 11
29.1407991966
 21
11.5544236436
 31
0.0
 11
29.1359062901
 21
11.5482505303
 31
0.0
 11
29.1269219797
 21
11.5351670916
 31
0.0
 11
29.1228457726
 21
11.528303364
 31
0.0
 11
29.1190481223
 21
11.5212532114
 31
0.0
 11
29.1155275274
 21
11.5140370427
 31
0.0
 11
29.1122824181
 21
11.5066752344
 31
0.0
 11
29.1093082433
 21
11.4991867523
 31
0.0
 11
29.1065963813
 21
11.4915886359
 31
0.0
 11
29.1019239378
 21
11.476131104
 31
0.0
  0
SPLINE
  5
254
100
AcDbEntity
  8
0
100
AcDbSpline
 62
7
  6
CONTINUOUS
 70
0
 71
3
 72
45
 73
41
 74
39
 42
0.0000001
 43
0.0000001
 44
0.0000000001
 12
-0.0738594853
 22
0.2123403746
 32
0.0
 13
-0.0738594853
 23
-0.2123403746
 33
0.0
 40
0.0
 40
0.0
 40
0.0
 40
0.0
 40
0.0312445863
 40
0.062486595
 40
0.0937081277
 40
0.1249118992
 40
0.1560913136
 40
0.1872495981
 40
0.218412039
 40
0.2495790927
 40
0.2651691585
 40
0.2807659321
 40
0.3119761059
 40
0.3432167455
 40
0.3588565419
 40
0.3745079959
 40
0.4058325225
 40
0.4215126124
 40
0.43720203
 40
0.4685940288
 40
0.4999999988
 40
0.5314059633
 40
0.5627979473
 40
0.5784873553
 40
0.5941674357
 40
0.6254919437
 40
0.6411433879
 40
0.6567831748
 40
0.6880238097
 40
0.7192339842
 40
0.734830757
 40
0.7504208281
 40
0.7815879013
 40
0.8127503527
 40
0.8439086451
 40
0.8750880706
 40
0.906291849
 40
0.9375133905
 40
0.968755409
 40
1.0
 40
1.0
 40
1.0
 40
1.0
 10
29.1019239378
 20
11.476131104
 30
0.0
 10
29.1011547015
 20
11.4783425997
 30
0.0
 10
29.099515339
 20
11.4827312033
 30
0.0
 10
29.0967310753
 20
11.4891814825
 30
0.0
 10
29.0935990356
 20
11.4954677073
 30
0.0
 10
29.09009907
 20
11.5015520865
 30
0.0
 10
29.0862170315
 20
11.507395217
 30
0.0
 10
29.0819414686
 20
11.5129541074
 30
0.0
 10
29.0772648972
 20
11.5181795931
 30
0.0
 10
29.073038614
 20
11.522218794
 30
0.0
 10
29.0694677476
 20
11.5252345846
 30
0.0
 10
29.0657705148
 20
11.5280993659
 30
0.0
 10
29.0609204378
 20
11.5313820688
 30
0.0
 10
29.0557984933
 20
11.5342297371
 30
0.0
 10
29.051556624
 20
11.5362247494
 30
0.0
 10
29.0472227919
 20
11.5380271052
 30
0.0
 10
29.042766815
 20
11.5395321088
 30
0.0
 10
29.0382209044
 20
11.5407242762
 30
0.0
 10
29.0336192545
 20
11.5417042189
 30
0.0
 10
29.0277859068
 20
11.542526295
 30
0.0
 10
29.0207239385
 20
11.5428583079
 30
0.0
 10
29.0136619713
 20
11.5425262954
 30
0.0
 10
29.0078286257
 20
11.5417042203
 30
0.0
 10
29.0032269783
 20
11.5407242777
 30
0.0
 10
28.9986810704
 20
11.5395321115
 30
0.0
 10
28.9942250956
 20
11.5380271106
 30
0.0
 10
28.9898912657
 20
11.5362247568
 30
0.0
 10
28.9856493986
 20
11.5342297441
 30
0.0
 10
28.980527454
 20
11.5313820785
 30
0.0
 10
28.9756773752
 20
11.5280993785
 30
0.0
 10
28.9719801432
 20
11.5252345957
 30
0.0
 10
28.9684092753
 20
11.5222188041
 30
0.0
 10
28.9641829883
 20
11.5181796033
 30
0.0
 10
28.9595064139
 20
11.5129541164
 30
0.0
 10
28.9552308496
 20
11.5073952242
 30
0.0
 10
28.9513488091
 20
11.5015520927
 30
0.0
 10
28.9478488424
 20
11.4954677118
 30
0.0
 10
28.9447168018
 20
11.4891814853
 30
0.0
 10
28.9419325373
 20
11.4827312046
 30
0.0
 10
28.9402931743
 20
11.4783426
 30
0.0
 10
28.9395239378
 20
11.476131104
 30
0.0
 11
29.1019239378
 21
11.476131104
 31
0.0
 11
29.0994609558
 21
11.4827095278
 31
0.0
 11
29.0966722466
 21
11.4891559921
 31
0.0
 11
29.0935367149
 21
11.495435928
 31
0.0
 11
29.0900340134
 21
11.5015141018
 31
0.0
 11
29.0861502321
 21
11.5073495588
 31
0.0
 11
29.0818747434
 21
11.5128984267
 31
0.0
 11
29.0771994469
 21
11.5181161306
 31
0.0
 11
29.0721308116
 21
11.5229541363
 31
0.0
 11
29.069452657
 21
11.5252151387
 31
0.0
 11
29.0666806459
 21
11.5273625026
 31
0.0
 11
29.0608685634
 21
11.5312935341
 31
0.0
 11
29.0547284892
 21
11.534703661
 31
0.0
 11
29.0515466446
 21
11.536199992
 31
0.0
 11
29.0482976401
 21
11.537551121
 31
0.0
 11
29.0416251673
 21
11.5398034213
 31
0.0
 11
29.038215231
 21
11.5406974358
 31
0.0
 11
29.0347653205
 21
11.5414321702
 31
0.0
 11
29.0277768614
 21
11.5424170922
 31
0.0
 11
29.0207239381
 21
11.5427476205
 31
0.0
 11
29.013671016
 21
11.5424170927
 31
0.0
 11
29.0066825601
 21
11.5414321715
 31
0.0
 11
29.0032326518
 21
11.5406974374
 31
0.0
 11
28.9998227174
 21
11.5398034239
 31
0.0
 11
28.9931502479
 21
11.5375511269
 31
0.0
 11
28.9899012453
 21
11.5361999992
 31
0.0
 11
28.9867194027
 21
11.5347036686
 31
0.0
 11
28.9805793285
 21
11.5312935441
 31
0.0
 11
28.9747672445
 21
11.5273625145
 31
0.0
 11
28.9719952339
 21
11.5252151503
 31
0.0
 11
28.9693170784
 21
11.5229541471
 31
0.0
 11
28.9642484384
 21
11.51811614
 31
0.0
 11
28.9595731392
 21
11.5128984353
 31
0.0
 11
28.955297649
 21
11.5073495663
 31
0.0
 11
28.9514138657
 21
11.5015141077
 31
0.0
 11
28.9479111632
 21
11.4954359327
 31
0.0
 11
28.9447756306
 21
11.489155995
 31
0.0
 11
28.9419869204
 21
11.4827095288
 31
0.0
 11
28.9395239378
 21
11.476131104
 31
0.0
  0
SPLINE
  5
255
100
AcDbEntity
  8
0
100
AcDbSpline
 62
7
  6
CONTINUOUS
 70
0
 71
3
 72
44
 73
40
 74
38
 42
0.0000001
 43
0.0000001
 44
0.0000000001
 12
-0.0601992476
 22
0.2241321805
 32
0.0
 13
-0.1416566937
 23
-0.1838275411
 33
0.0
 40
0.0
 40
0.0
 40
0.0
 40
0.0
 40
0.0695819962
 40
0.1043446676
 40
0.1390639011
 40
0.1737306245
 40
0.2083278456
 40
0.2428334653
 40
0.2772311133
 40
0.345618865
 40
0.3795605057
 40
0.413284997
 40
0.4467582147
 40
0.4799340488
 40
0.5127689561
 40
0.5452209761
 40
0.5772389922
 40
0.6087742046
 40
0.6397832731
 40
0.6702220724
 40
0.7000547223
 40
0.7292570974
 40
0.7578153214
 40
0.7718576995
 40
0.7857448701
 40
0.8130658899
 40
0.8398507078
 40
0.8530816988
 40
0.8662252985
 40
0.8793034355
 40
0.8923437009
 40
0.9053794397
 40
0.9184469475
 40
0.9315858568
 40
0.9448429292
 40
0.9582716196
 40
0.9719179363
 40
0.9858153461
 40
1.0
 40
1.0
 40
1.0
 40
1.0
 10
28.9395239378
 20
11.476131104
 30
0.0
 10
28.9381276766
 20
11.4813296255
 30
0.0
 10
28.9357987182
 20
11.4890658174
 30
0.0
 10
28.9321851275
 20
11.4992001998
 30
0.0
 10
28.9292130547
 20
11.5066907777
 30
0.0
 10
28.9259696888
 20
11.5140540219
 30
0.0
 10
28.9224507746
 20
11.5212713758
 30
0.0
 10
28.9186545768
 20
11.5283236284
 30
0.0
 10
28.9132333978
 20
11.537459091
 30
0.0
 10
28.9072444303
 20
11.5461978168
 30
0.0
 10
28.900707384
 20
11.5544503812
 30
0.0
 10
28.8955611989
 20
11.5603480136
 30
0.0
 10
28.8901730328
 20
11.5659433608
 30
0.0
 10
28.8845615663
 20
11.5712149773
 30
0.0
 10
28.8787458348
 20
11.5761392487
 30
0.0
 10
28.8727466679
 20
11.5806919206
 30
0.0
 10
28.8665898791
 20
11.584852335
 30
0.0
 10
28.8603020675
 20
11.5885988009
 30
0.0
 10
28.8539109471
 20
11.5919089663
 30
0.0
 10
28.8474466077
 20
11.5947624207
 30
0.0
 10
28.8409398971
 20
11.5971382132
 30
0.0
 10
28.8344229557
 20
11.5990148854
 30
0.0
 10
28.828979223
 20
11.6001496897
 30
0.0
 10
28.8246538359
 20
11.6007791977
 30
0.0
 10
28.8204010715
 20
11.6012164163
 30
0.0
 10
28.8151370765
 20
11.6014100489
 30
0.0
 10
28.8099276657
 20
11.6010963866
 30
0.0
 10
28.8058537942
 20
11.6005223967
 30
0.0
 10
28.8028583828
 20
11.5999284986
 30
0.0
 10
28.7999170743
 20
11.5991639102
 30
0.0
 10
28.7970359082
 20
11.5982230743
 30
0.0
 10
28.7942212147
 20
11.5971006982
 30
0.0
 10
28.7914800235
 20
11.5957909211
 30
0.0
 10
28.7888204802
 20
11.5942869586
 30
0.0
 10
28.7862509814
 20
11.5925824607
 30
0.0
 10
28.7837810825
 20
11.5906715499
 30
0.0
 10
28.7814210858
 20
11.5885514432
 30
0.0
 10
28.7791821705
 20
11.5862222181
 30
0.0
 10
28.7777937216
 20
11.5845484835
 30
0.0
 10
28.7771239378
 20
11.5836793068
 30
0.0
 11
28.9395239378
 21
11.476131104
 31
0.0
 11
28.934851486
 21
11.4915886502
 31
0.0
 11
28.9321396186
 21
11.499186778
 31
0.0
 11
28.9291654418
 21
11.5066752684
 31
0.0
 11
28.9259203339
 21
11.5140370792
 31
0.0
 11
28.9223997359
 21
11.521253248
 31
0.0
 11
28.9186020826
 21
11.5283033976
 31
0.0
 11
28.914525879
 21
11.5351671176
 31
0.0
 11
28.9055415895
 21
11.5482505319
 31
0.0
 11
28.9006486899
 21
11.5544236346
 31
0.0
 11
28.8955010394
 21
11.5603192235
 31
0.0
 11
28.8901112648
 21
11.5659136129
 31
0.0
 11
28.8844979919
 21
11.5711833872
 31
0.0
 11
28.8786804824
 21
11.5761051599
 31
0.0
 11
28.8726794567
 21
11.5806558309
 31
0.0
 11
28.8665207819
 21
11.5848133119
 31
0.0
 11
28.8602314596
 21
11.5885557372
 31
0.0
 11
28.8538391362
 21
11.5918613633
 31
0.0
 11
28.8473744188
 21
11.5947090056
 31
0.0
 11
28.840868764
 21
11.59707764
 31
0.0
 11
28.8343541424
 21
11.5989457061
 31
0.0
 11
28.8278642092
 21
11.6002898851
 31
0.0
 11
28.8246391257
 21
11.6007581175
 31
0.0
 11
28.8214330125
 21
11.6010864025
 31
0.0
 11
28.815096339
 21
11.6013080248
 31
0.0
 11
28.808892155
 21
11.6009231805
 31
0.0
 11
28.8058518158
 21
11.600493205
 31
0.0
 11
28.8028600612
 21
11.5998983894
 31
0.0
 11
28.7999229445
 21
11.5991333439
 31
0.0
 11
28.7970465191
 21
11.5981926786
 31
0.0
 11
28.7942368692
 21
11.5970709902
 31
0.0
 11
28.7915010451
 21
11.5957624614
 31
0.0
 11
28.788847228
 21
11.5942607902
 31
0.0
 11
28.786283664
 21
11.5925596466
 31
0.0
 11
28.7838186497
 21
11.5906527864
 31
0.0
 11
28.7814622217
 21
11.5885368918
 31
0.0
 11
28.7792265507
 21
11.5862122348
 31
0.0
 11
28.7771239378
 21
11.5836793068
 31
0.0
  0
SPLINE
  5
256
100
AcDbEntity
  8
0
100
AcDbSpline
 62
7
  6
CONTINUOUS
 70
0
 71
3
 72
36
 73
32
 74
30
 42
0.0000001
 43
0.0000001
 44
0.0000000001
 12
-0.046437118
 22
0.1359270676
 32
0.0
 13
-0.1136797824
 23
0.0878041486
 33
0.0
 40
0.0
 40
0.0
 40
0.0
 40
0.0
 40
0.0559272622
 40
0.1110138195
 40
0.165142895
 40
0.2181923811
 40
0.2700588248
 40
0.320658847
 40
0.3699036531
 40
0.4177013013
 40
0.4639731093
 40
0.5086415371
 40
0.5928338682
 40
0.6697654696
 40
0.7053789315
 40
0.7390250379
 40
0.7706820351
 40
0.8003275921
 40
0.8279357297
 40
0.8534868955
 40
0.8769800505
 40
0.898414546
 40
0.917787445
 40
0.9350959614
 40
0.9635452911
 40
0.9747011055
 40
0.9838190828
 40
0.9909039641
 40
0.9959598194
 40
0.998990569
 40
1.0
 40
1.0
 40
1.0
 40
1.0
 10
28.7771239378
 20
11.5836793068
 30
0.0
 10
28.7762582375
 20
11.5862133164
 30
0.0
 10
28.7744586325
 20
11.5912159049
 30
0.0
 10
28.7715488047
 20
11.5985693798
 30
0.0
 10
28.7684694618
 20
11.6057036754
 30
0.0
 10
28.7652419687
 20
11.6126022381
 30
0.0
 10
28.7618887482
 20
11.6192517705
 30
0.0
 10
28.758433992
 20
11.6256426698
 30
0.0
 10
28.7549007774
 20
11.6317665366
 30
0.0
 10
28.7513114918
 20
11.6376157969
 30
0.0
 10
28.7476897727
 20
11.6431853528
 30
0.0
 10
28.7429419608
 20
11.6500980073
 30
0.0
 10
28.7370727865
 20
11.658017583
 30
0.0
 10
28.731123443
 20
11.6653249567
 30
0.0
 10
28.7265318295
 20
11.6706086951
 30
0.0
 10
28.7232901402
 20
11.6741922426
 30
0.0
 10
28.7201762918
 20
11.6775049226
 30
0.0
 10
28.7172046185
 20
11.6805534593
 30
0.0
 10
28.7143891035
 20
11.6833450884
 30
0.0
 10
28.7117421998
 20
11.6858876923
 30
0.0
 10
28.7092733721
 20
11.6881883888
 30
0.0
 10
28.7069915012
 20
11.6902553093
 30
0.0
 10
28.7049051533
 20
11.6920966118
 30
0.0
 10
28.7025441858
 20
11.694134002
 30
0.0
 10
28.7004548151
 20
11.6958837042
 30
0.0
 10
28.6986455054
 20
11.6973563726
 30
0.0
 10
28.6976245127
 20
11.6981770579
 30
0.0
 10
28.696828414
 20
11.6988113245
 30
0.0
 10
28.6962581323
 20
11.6992612771
 30
0.0
 10
28.695915115
 20
11.6995296396
 30
0.0
 10
28.6957621885
 20
11.6996481057
 30
0.0
 10
28.6957239378
 20
11.6996776498
 30
0.0
 11
28.7771239378
 21
11.5836793068
 31
0.0
 11
28.7744052931
 21
11.5912387211
 31
0.0
 11
28.7714942251
 21
11.598596426
 31
0.0
 11
28.7684130061
 21
11.605734958
 31
0.0
 11
28.7651839231
 21
11.6126370013
 31
0.0
 11
28.7618296745
 21
11.6192893152
 31
0.0
 11
28.7583734113
 21
11.6256831487
 31
0.0
 11
28.7548383078
 21
11.631809982
 31
0.0
 11
28.7512475362
 21
11.6376618064
 31
0.0
 11
28.747624254
 21
11.6432338636
 31
0.0
 11
28.7439916132
 21
11.6485226673
 31
0.0
 11
28.736790037
 21
11.658238025
 31
0.0
 11
28.7298125456
 21
11.6668070336
 31
0.0
 11
28.7264569597
 21
11.6706682149
 31
0.0
 11
28.7232145852
 21
11.6742521135
 31
0.0
 11
28.7201000592
 21
11.6775652662
 31
0.0
 11
28.7171276387
 21
11.6806145022
 31
0.0
 11
28.7143115718
 21
11.683406653
 31
0.0
 11
28.7116645032
 21
11.6859489458
 31
0.0
 11
28.7091956294
 21
11.6882494596
 31
0.0
 11
28.7069136994
 21
11.6903163838
 31
0.0
 11
28.7048274625
 21
11.6921579078
 31
0.0
 11
28.7029450145
 21
11.6937819749
 31
0.0
 11
28.6998112986
 21
11.6964047777
 31
0.0
 11
28.6985687001
 21
11.6974165672
 31
0.0
 11
28.6975479765
 21
11.6982372157
 31
0.0
 11
28.6967518481
 21
11.6988711265
 31
0.0
 11
28.6961816262
 21
11.6993208487
 31
0.0
 11
28.6958385698
 21
11.6995888629
 31
0.0
 11
28.6957239378
 21
11.6996776498
 31
0.0
  0
SPLINE
  5
257
100
AcDbEntity
  8
0
100
AcDbSpline
 62
7
  6
CONTINUOUS
 70
0
 71
3
 72
44
 73
40
 74
38
 42
0.0000001
 43
0.0000001
 44
0.0000000001
 12
-0.1416566936
 22
0.183827541
 32
0.0
 13
-0.0601992476
 23
-0.2241321804
 33
0.0
 40
0.0
 40
0.0
 40
0.0
 40
0.0
 40
0.0141846561
 40
0.0280820752
 40
0.0417284112
 40
0.0551571279
 40
0.0684142125
 40
0.0815531244
 40
0.0946206325
 40
0.1076563742
 40
0.1206966399
 40
0.1337747745
 40
0.1469183713
 40
0.1601493613
 40
0.186934173
 40
0.2142551785
 40
0.2281423421
 40
0.242184713
 40
0.27074292
 40
0.2999452762
 40
0.3297779067
 40
0.3602166862
 40
0.3912257341
 40
0.4227609287
 40
0.45477893
 40
0.4872309349
 40
0.5200658348
 40
0.5532416763
 40
0.5867149119
 40
0.6204394346
 40
0.6543811296
 40
0.7227690193
 40
0.757166703
 40
0.791672328
 40
0.8262695425
 40
0.8609362588
 40
0.8956554561
 40
0.9304180734
 40
1.0
 40
1.0
 40
1.0
 40
1.0
 10
4.7043239378
 20
11.5836793068
 30
0.0
 10
4.703654154
 20
11.5845484836
 30
0.0
 10
4.702265704
 20
11.5862222186
 30
0.0
 10
4.7000267861
 20
11.5885514444
 30
0.0
 10
4.6976667857
 20
11.5906715534
 30
0.0
 10
4.6951968842
 20
11.5925824681
 30
0.0
 10
4.692627383
 20
11.5942869681
 30
0.0
 10
4.6899678383
 20
11.5957909305
 30
0.0
 10
4.6872266457
 20
11.597100706
 30
0.0
 10
4.6844119508
 20
11.5982230793
 30
0.0
 10
4.6815307845
 20
11.5991639144
 30
0.0
 10
4.6785894763
 20
11.5999285023
 30
0.0
 10
4.6755940652
 20
11.6005224
 30
0.0
 10
4.6715201942
 20
11.6010963875
 30
0.0
 10
4.6663107851
 20
11.6014100483
 30
0.0
 10
4.6610467922
 20
11.601216416
 30
0.0
 10
4.6567940301
 20
11.6007791965
 30
0.0
 10
4.6524686455
 20
11.6001496879
 30
0.0
 10
4.6470249161
 20
11.599014884
 30
0.0
 10
4.6405079788
 20
11.5971382132
 30
0.0
 10
4.6340012724
 20
11.5947624226
 30
0.0
 10
4.627536937
 20
11.5919089704
 30
0.0
 10
4.6211458205
 20
11.5885988074
 30
0.0
 10
4.6148580119
 20
11.5848523446
 30
0.0
 10
4.608701225
 20
11.5806919339
 30
0.0
 10
4.6027020602
 20
11.5761392641
 30
0.0
 10
4.596886329
 20
11.5712149941
 30
0.0
 10
4.5912748593
 20
11.565943379
 30
0.0
 10
4.5858866893
 20
11.5603480294
 30
0.0
 10
4.5807405015
 20
11.5544503887
 30
0.0
 10
4.5742034461
 20
11.5461978095
 30
0.0
 10
4.5682144642
 20
11.5374590722
 30
0.0
 10
4.5627932789
 20
11.5283235971
 30
0.0
 10
4.5589970841
 20
11.5212713399
 30
0.0
 10
4.5554781737
 20
11.5140539849
 30
0.0
 10
4.5522348055
 20
11.506690746
 30
0.0
 10
4.5492627344
 20
11.4992001755
 30
0.0
 10
4.5456491499
 20
11.4890658039
 30
0.0
 10
4.5433201977
 20
11.4813296203
 30
0.0
 10
4.5419239378
 20
11.476131104
 30
0.0
 11
4.7043239378
 21
11.5836793068
 31
0.0
 11
4.7022213242
 21
11.5862122348
 31
0.0
 11
4.6999856509
 21
11.5885368926
 31
0.0
 11
4.6976292192
 21
11.5906527897
 31
0.0
 11
4.6951642006
 21
11.5925596545
 31
0.0
 11
4.6926006344
 21
11.5942607999
 31
0.0
 11
4.6899468165
 21
11.5957624707
 31
0.0
 11
4.6872109914
 21
11.5970709976
 31
0.0
 11
4.6844013399
 21
11.598192684
 31
0.0
 11
4.6815249141
 21
11.5991333482
 31
0.0
 11
4.6785877978
 21
11.5998983931
 31
0.0
 11
4.6755960438
 21
11.600493208
 31
0.0
 11
4.6725557046
 21
11.6009231821
 31
0.0
 11
4.666351522
 21
11.6013080245
 31
0.0
 11
4.6600148518
 21
11.6010864019
 31
0.0
 11
4.6568087403
 21
11.6007581163
 31
0.0
 11
4.6535836585
 21
11.6002898835
 31
0.0
 11
4.6470937293
 21
11.5989457048
 31
0.0
 11
4.6405791118
 21
11.5970776401
 31
0.0
 11
4.6340734612
 21
11.5947090075
 31
0.0
 11
4.6276087478
 21
11.5918613674
 31
0.0
 11
4.6212164284
 21
11.588555744
 31
0.0
 11
4.6149271091
 21
11.5848133217
 31
0.0
 11
4.6087684363
 21
11.580655844
 31
0.0
 11
4.602767413
 21
11.5761051757
 31
0.0
 11
4.596949904
 21
11.571183405
 31
0.0
 11
4.5913366281
 21
11.5659136314
 31
0.0
 11
4.58594685
 21
11.5603192396
 31
0.0
 11
4.5807991966
 21
11.5544236436
 31
0.0
 11
4.5759062901
 21
11.5482505303
 31
0.0
 11
4.5669219797
 21
11.5351670916
 31
0.0
 11
4.5628457726
 21
11.528303364
 31
0.0
 11
4.5590481223
 21
11.5212532114
 31
0.0
 11
4.5555275274
 21
11.5140370427
 31
0.0
 11
4.5522824181
 21
11.5066752344
 31
0.0
 11
4.5493082433
 21
11.4991867523
 31
0.0
 11
4.5465963813
 21
11.4915886359
 31
0.0
 11
4.5419239378
 21
11.476131104
 31
0.0
  0
SPLINE
  5
258
100
AcDbEntity
  8
0
100
AcDbSpline
 62
7
  6
CONTINUOUS
 70
0
 71
3
 72
45
 73
41
 74
39
 42
0.0000001
 43
0.0000001
 44
0.0000000001
 12
-0.0738594853
 22
0.2123403746
 32
0.0
 13
-0.0738594853
 23
-0.2123403746
 33
0.0
 40
0.0
 40
0.0
 40
0.0
 40
0.0
 40
0.0312445863
 40
0.062486595
 40
0.0937081277
 40
0.1249118992
 40
0.1560913136
 40
0.1872495981
 40
0.218412039
 40
0.2495790927
 40
0.2651691585
 40
0.2807659321
 40
0.3119761059
 40
0.3432167455
 40
0.3588565419
 40
0.3745079959
 40
0.4058325225
 40
0.4215126124
 40
0.43720203
 40
0.4685940288
 40
0.4999999988
 40
0.5314059633
 40
0.5627979473
 40
0.5784873553
 40
0.5941674357
 40
0.6254919437
 40
0.6411433879
 40
0.6567831748
 40
0.6880238097
 40
0.7192339842
 40
0.734830757
 40
0.7504208281
 40
0.7815879013
 40
0.8127503527
 40
0.8439086451
 40
0.8750880706
 40
0.906291849
 40
0.9375133905
 40
0.968755409
 40
1.0
 40
1.0
 40
1.0
 40
1.0
 10
4.5419239378
 20
11.476131104
 30
0.0
 10
4.5411547015
 20
11.4783425997
 30
0.0
 10
4.539515339
 20
11.4827312033
 30
0.0
 10
4.5367310753
 20
11.4891814825
 30
0.0
 10
4.5335990356
 20
11.4954677073
 30
0.0
 10
4.53009907
 20
11.5015520865
 30
0.0
 10
4.5262170315
 20
11.507395217
 30
0.0
 10
4.5219414686
 20
11.5129541074
 30
0.0
 10
4.5172648972
 20
11.5181795931
 30
0.0
 10
4.513038614
 20
11.522218794
 30
0.0
 10
4.5094677476
 20
11.5252345846
 30
0.0
 10
4.5057705148
 20
11.5280993659
 30
0.0
 10
4.5009204378
 20
11.5313820688
 30
0.0
 10
4.4957984933
 20
11.5342297371
 30
0.0
 10
4.491556624
 20
11.5362247494
 30
0.0
 10
4.4872227919
 20
11.5380271052
 30
0.0
 10
4.482766815
 20
11.5395321088
 30
0.0
 10
4.4782209044
 20
11.5407242762
 30
0.0
 10
4.4736192545
 20
11.5417042189
 30
0.0
 10
4.4677859068
 20
11.542526295
 30
0.0
 10
4.4607239385
 20
11.5428583079
 30
0.0
 10
4.4536619713
 20
11.5425262954
 30
0.0
 10
4.4478286257
 20
11.5417042203
 30
0.0
 10
4.4432269783
 20
11.5407242777
 30
0.0
 10
4.4386810704
 20
11.5395321115
 30
0.0
 10
4.4342250956
 20
11.5380271106
 30
0.0
 10
4.4298912657
 20
11.5362247568
 30
0.0
 10
4.4256493986
 20
11.5342297441
 30
0.0
 10
4.420527454
 20
11.5313820785
 30
0.0
 10
4.4156773752
 20
11.5280993785
 30
0.0
 10
4.4119801432
 20
11.5252345957
 30
0.0
 10
4.4084092753
 20
11.5222188041
 30
0.0
 10
4.4041829883
 20
11.5181796033
 30
0.0
 10
4.3995064139
 20
11.5129541164
 30
0.0
 10
4.3952308496
 20
11.5073952242
 30
0.0
 10
4.3913488091
 20
11.5015520927
 30
0.0
 10
4.3878488424
 20
11.4954677118
 30
0.0
 10
4.3847168018
 20
11.4891814853
 30
0.0
 10
4.3819325373
 20
11.4827312046
 30
0.0
 10
4.3802931743
 20
11.4783426
 30
0.0
 10
4.3795239378
 20
11.476131104
 30
0.0
 11
4.5419239378
 21
11.476131104
 31
0.0
 11
4.5394609558
 21
11.4827095278
 31
0.0
 11
4.5366722466
 21
11.4891559921
 31
0.0
 11
4.5335367149
 21
11.495435928
 31
0.0
 11
4.5300340134
 21
11.5015141018
 31
0.0
 11
4.5261502321
 21
11.5073495588
 31
0.0
 11
4.5218747434
 21
11.5128984267
 31
0.0
 11
4.5171994469
 21
11.5181161306
 31
0.0
 11
4.5121308116
 21
11.5229541363
 31
0.0
 11
4.509452657
 21
11.5252151387
 31
0.0
 11
4.5066806459
 21
11.5273625026
 31
0.0
 11
4.5008685634
 21
11.5312935341
 31
0.0
 11
4.4947284892
 21
11.534703661
 31
0.0
 11
4.4915466446
 21
11.536199992
 31
0.0
 11
4.4882976401
 21
11.537551121
 31
0.0
 11
4.4816251673
 21
11.5398034213
 31
0.0
 11
4.478215231
 21
11.5406974358
 31
0.0
 11
4.4747653205
 21
11.5414321702
 31
0.0
 11
4.4677768614
 21
11.5424170922
 31
0.0
 11
4.4607239381
 21
11.5427476205
 31
0.0
 11
4.453671016
 21
11.5424170927
 31
0.0
 11
4.4466825601
 21
11.5414321715
 31
0.0
 11
4.4432326518
 21
11.5406974374
 31
0.0
 11
4.4398227174
 21
11.5398034239
 31
0.0
 11
4.4331502479
 21
11.5375511269
 31
0.0
 11
4.4299012453
 21
11.5361999992
 31
0.0
 11
4.4267194027
 21
11.5347036686
 31
0.0
 11
4.4205793285
 21
11.5312935441
 31
0.0
 11
4.4147672445
 21
11.5273625145
 31
0.0
 11
4.4119952339
 21
11.5252151503
 31
0.0
 11
4.4093170784
 21
11.5229541471
 31
0.0
 11
4.4042484384
 21
11.51811614
 31
0.0
 11
4.3995731392
 21
11.5128984353
 31
0.0
 11
4.395297649
 21
11.5073495663
 31
0.0
 11
4.3914138657
 21
11.5015141077
 31
0.0
 11
4.3879111632
 21
11.4954359327
 31
0.0
 11
4.3847756306
 21
11.489155995
 31
0.0
 11
4.3819869204
 21
11.4827095288
 31
0.0
 11
4.3795239378
 21
11.476131104
 31
0.0
  0
SPLINE
  5
259
100
AcDbEntity
  8
0
100
AcDbSpline
 62
7
  6
CONTINUOUS
 70
0
 71
3
 72
44
 73
40
 74
38
 42
0.0000001
 43
0.0000001
 44
0.0000000001
 12
-0.0601992476
 22
0.2241321805
 32
0.0
 13
-0.1416566937
 23
-0.1838275411
 33
0.0
 40
0.0
 40
0.0
 40
0.0
 40
0.0
 40
0.0695819962
 40
0.1043446676
 40
0.1390639011
 40
0.1737306245
 40
0.2083278456
 40
0.2428334653
 40
0.2772311133
 40
0.345618865
 40
0.3795605057
 40
0.413284997
 40
0.4467582147
 40
0.4799340488
 40
0.5127689561
 40
0.5452209761
 40
0.5772389922
 40
0.6087742046
 40
0.6397832731
 40
0.6702220724
 40
0.7000547223
 40
0.7292570974
 40
0.7578153214
 40
0.7718576995
 40
0.7857448701
 40
0.8130658899
 40
0.8398507078
 40
0.8530816988
 40
0.8662252985
 40
0.8793034355
 40
0.8923437009
 40
0.9053794397
 40
0.9184469475
 40
0.9315858568
 40
0.9448429292
 40
0.9582716196
 40
0.9719179363
 40
0.9858153461
 40
1.0
 40
1.0
 40
1.0
 40
1.0
 10
4.3795239378
 20
11.476131104
 30
0.0
 10
4.3781276766
 20
11.4813296255
 30
0.0
 10
4.3757987182
 20
11.4890658174
 30
0.0
 10
4.3721851275
 20
11.4992001998
 30
0.0
 10
4.3692130547
 20
11.5066907777
 30
0.0
 10
4.3659696888
 20
11.5140540219
 30
0.0
 10
4.3624507746
 20
11.5212713758
 30
0.0
 10
4.3586545768
 20
11.5283236284
 30
0.0
 10
4.3532333978
 20
11.537459091
 30
0.0
 10
4.3472444303
 20
11.5461978168
 30
0.0
 10
4.340707384
 20
11.5544503812
 30
0.0
 10
4.3355611989
 20
11.5603480136
 30
0.0
 10
4.3301730328
 20
11.5659433608
 30
0.0
 10
4.3245615663
 20
11.5712149773
 30
0.0
 10
4.3187458348
 20
11.5761392487
 30
0.0
 10
4.3127466679
 20
11.5806919206
 30
0.0
 10
4.3065898791
 20
11.584852335
 30
0.0
 10
4.3003020675
 20
11.5885988009
 30
0.0
 10
4.2939109471
 20
11.5919089663
 30
0.0
 10
4.2874466077
 20
11.5947624207
 30
0.0
 10
4.2809398971
 20
11.5971382132
 30
0.0
 10
4.2744229557
 20
11.5990148854
 30
0.0
 10
4.268979223
 20
11.6001496897
 30
0.0
 10
4.2646538359
 20
11.6007791977
 30
0.0
 10
4.2604010715
 20
11.6012164163
 30
0.0
 10
4.2551370765
 20
11.6014100489
 30
0.0
 10
4.2499276657
 20
11.6010963866
 30
0.0
 10
4.2458537942
 20
11.6005223967
 30
0.0
 10
4.2428583828
 20
11.5999284986
 30
0.0
 10
4.2399170743
 20
11.5991639102
 30
0.0
 10
4.2370359082
 20
11.5982230743
 30
0.0
 10
4.2342212147
 20
11.5971006982
 30
0.0
 10
4.2314800235
 20
11.5957909211
 30
0.0
 10
4.2288204802
 20
11.5942869586
 30
0.0
 10
4.2262509814
 20
11.5925824607
 30
0.0
 10
4.2237810825
 20
11.5906715499
 30
0.0
 10
4.2214210858
 20
11.5885514432
 30
0.0
 10
4.2191821705
 20
11.5862222181
 30
0.0
 10
4.2177937216
 20
11.5845484835
 30
0.0
 10
4.2171239378
 20
11.5836793068
 30
0.0
 11
4.3795239378
 21
11.476131104
 31
0.0
 11
4.374851486
 21
11.4915886502
 31
0.0
 11
4.3721396186
 21
11.499186778
 31
0.0
 11
4.3691654418
 21
11.5066752684
 31
0.0
 11
4.3659203339
 21
11.5140370792
 31
0.0
 11
4.3623997359
 21
11.521253248
 31
0.0
 11
4.3586020826
 21
11.5283033976
 31
0.0
 11
4.354525879
 21
11.5351671176
 31
0.0
 11
4.3455415895
 21
11.5482505319
 31
0.0
 11
4.3406486899
 21
11.5544236346
 31
0.0
 11
4.3355010394
 21
11.5603192235
 31
0.0
 11
4.3301112648
 21
11.5659136129
 31
0.0
 11
4.3244979919
 21
11.5711833872
 31
0.0
 11
4.3186804824
 21
11.5761051599
 31
0.0
 11
4.3126794567
 21
11.5806558309
 31
0.0
 11
4.3065207819
 21
11.5848133119
 31
0.0
 11
4.3002314596
 21
11.5885557372
 31
0.0
 11
4.2938391362
 21
11.5918613633
 31
0.0
 11
4.2873744188
 21
11.5947090056
 31
0.0
 11
4.280868764
 21
11.59707764
 31
0.0
 11
4.2743541424
 21
11.5989457061
 31
0.0
 11
4.2678642092
 21
11.6002898851
 31
0.0
 11
4.2646391257
 21
11.6007581175
 31
0.0
 11
4.2614330125
 21
11.6010864025
 31
0.0
 11
4.255096339
 21
11.6013080248
 31
0.0
 11
4.248892155
 21
11.6009231805
 31
0.0
 11
4.2458518158
 21
11.600493205
 31
0.0
 11
4.2428600612
 21
11.5998983894
 31
0.0
 11
4.2399229445
 21
11.5991333439
 31
0.0
 11
4.2370465191
 21
11.5981926786
 31
0.0
 11
4.2342368692
 21
11.5970709902
 31
0.0
 11
4.2315010451
 21
11.5957624614
 31
0.0
 11
4.228847228
 21
11.5942607902
 31
0.0
 11
4.226283664
 21
11.5925596466
 31
0.0
 11
4.2238186497
 21
11.5906527864
 31
0.0
 11
4.2214622217
 21
11.5885368918
 31
0.0
 11
4.2192265507
 21
11.5862122348
 31
0.0
 11
4.2171239378
 21
11.5836793068
 31
0.0
  0
SPLINE
  5
25A
100
AcDbEntity
  8
0
100
AcDbSpline
 62
7
  6
CONTINUOUS
 70
0
 71
3
 72
36
 73
32
 74
30
 42
0.0000001
 43
0.0000001
 44
0.0000000001
 12
-0.046437118
 22
0.1359270676
 32
0.0
 13
-0.1136797824
 23
0.0878041486
 33
0.0
 40
0.0
 40
0.0
 40
0.0
 40
0.0
 40
0.0559272622
 40
0.1110138195
 40
0.165142895
 40
0.2181923811
 40
0.2700588248
 40
0.320658847
 40
0.3699036531
 40
0.4177013013
 40
0.4639731093
 40
0.5086415371
 40
0.5928338682
 40
0.6697654696
 40
0.7053789315
 40
0.7390250379
 40
0.7706820351
 40
0.8003275921
 40
0.8279357297
 40
0.8534868955
 40
0.8769800505
 40
0.898414546
 40
0.917787445
 40
0.9350959614
 40
0.9635452911
 40
0.9747011055
 40
0.9838190828
 40
0.9909039641
 40
0.9959598194
 40
0.998990569
 40
1.0
 40
1.0
 40
1.0
 40
1.0
 10
4.2171239378
 20
11.5836793068
 30
0.0
 10
4.2162582375
 20
11.5862133164
 30
0.0
 10
4.2144586325
 20
11.5912159049
 30
0.0
 10
4.2115488047
 20
11.5985693798
 30
0.0
 10
4.2084694618
 20
11.6057036754
 30
0.0
 10
4.2052419687
 20
11.6126022381
 30
0.0
 10
4.2018887482
 20
11.6192517705
 30
0.0
 10
4.198433992
 20
11.6256426698
 30
0.0
 10
4.1949007774
 20
11.6317665366
 30
0.0
 10
4.1913114918
 20
11.6376157969
 30
0.0
 10
4.1876897727
 20
11.6431853528
 30
0.0
 10
4.1829419608
 20
11.6500980073
 30
0.0
 10
4.1770727865
 20
11.658017583
 30
0.0
 10
4.171123443
 20
11.6653249567
 30
0.0
 10
4.1665318295
 20
11.6706086951
 30
0.0
 10
4.1632901402
 20
11.6741922426
 30
0.0
 10
4.1601762918
 20
11.6775049226
 30
0.0
 10
4.1572046185
 20
11.6805534593
 30
0.0
 10
4.1543891035
 20
11.6833450884
 30
0.0
 10
4.1517421998
 20
11.6858876923
 30
0.0
 10
4.1492733721
 20
11.6881883888
 30
0.0
 10
4.1469915012
 20
11.6902553093
 30
0.0
 10
4.1449051533
 20
11.6920966118
 30
0.0
 10
4.1425441858
 20
11.694134002
 30
0.0
 10
4.1404548151
 20
11.6958837042
 30
0.0
 10
4.1386455054
 20
11.6973563726
 30
0.0
 10
4.1376245127
 20
11.6981770579
 30
0.0
 10
4.136828414
 20
11.6988113245
 30
0.0
 10
4.1362581323
 20
11.6992612771
 30
0.0
 10
4.135915115
 20
11.6995296396
 30
0.0
 10
4.1357621885
 20
11.6996481057
 30
0.0
 10
4.1357239378
 20
11.6996776498
 30
0.0
 11
4.2171239378
 21
11.5836793068
 31
0.0
 11
4.2144052931
 21
11.5912387211
 31
0.0
 11
4.2114942251
 21
11.598596426
 31
0.0
 11
4.2084130061
 21
11.605734958
 31
0.0
 11
4.2051839231
 21
11.6126370013
 31
0.0
 11
4.2018296745
 21
11.6192893152
 31
0.0
 11
4.1983734113
 21
11.6256831487
 31
0.0
 11
4.1948383078
 21
11.631809982
 31
0.0
 11
4.1912475362
 21
11.6376618064
 31
0.0
 11
4.187624254
 21
11.6432338636
 31
0.0
 11
4.1839916132
 21
11.6485226673
 31
0.0
 11
4.176790037
 21
11.658238025
 31
0.0
 11
4.1698125456
 21
11.6668070336
 31
0.0
 11
4.1664569597
 21
11.6706682149
 31
0.0
 11
4.1632145852
 21
11.6742521135
 31
0.0
 11
4.1601000592
 21
11.6775652662
 31
0.0
 11
4.1571276387
 21
11.6806145022
 31
0.0
 11
4.1543115718
 21
11.683406653
 31
0.0
 11
4.1516645032
 21
11.6859489458
 31
0.0
 11
4.1491956294
 21
11.6882494596
 31
0.0
 11
4.1469136994
 21
11.6903163838
 31
0.0
 11
4.1448274625
 21
11.6921579078
 31
0.0
 11
4.1429450145
 21
11.6937819749
 31
0.0
 11
4.1398112986
 21
11.6964047777
 31
0.0
 11
4.1385687001
 21
11.6974165672
 31
0.0
 11
4.1375479765
 21
11.6982372157
 31
0.0
 11
4.1367518481
 21
11.6988711265
 31
0.0
 11
4.1361816262
 21
11.6993208487
 31
0.0
 11
4.1358385698
 21
11.6995888629
 31
0.0
 11
4.1357239378
 21
11.6996776498
 31
0.0
  0
SPLINE
  5
25B
100
AcDbEntity
  8
0
100
AcDbSpline
 62
7
  6
CONTINUOUS
 70
0
 71
3
 72
36
 73
32
 74
30
 42
0.0000001
 43
0.0000001
 44
0.0000000001
 12
-0.1136805942
 22
-0.0878030983
 32
0.0
 13
-0.046437118
 23
-0.1359270677
 33
0.0
 40
0.0
 40
0.0
 40
0.0
 40
0.0
 40
0.0010094334
 40
0.0040401898
 40
0.0090960561
 40
0.0161809525
 40
0.0252989488
 40
0.0364547821
 40
0.0649041316
 40
0.0822126416
 40
0.1015855383
 40
0.1230200414
 40
0.1465132001
 40
0.1720643526
 40
0.1996724623
 40
0.229318002
 40
0.2609749895
 40
0.2946210896
 40
0.3302345491
 40
0.4071661851
 40
0.4913586233
 40
0.5360271481
 40
0.5822990376
 40
0.6300967076
 40
0.6793414964
 40
0.7299414807
 40
0.7818078542
 40
0.8348572373
 40
0.8889862368
 40
0.9440727513
 40
1.0
 40
1.0
 40
1.0
 40
1.0
 10
29.3457239378
 20
11.6996776498
 30
0.0
 10
29.3456856868
 20
11.699648106
 30
0.0
 10
29.3455327589
 20
11.6995296408
 30
0.0
 10
29.3451897397
 20
11.6992612793
 30
0.0
 10
29.344619456
 20
11.6988113267
 30
0.0
 10
29.3438233567
 20
11.6981770574
 30
0.0
 10
29.3428023666
 20
11.6973563648
 30
0.0
 10
29.3409930542
 20
11.6958836953
 30
0.0
 10
29.3389036789
 20
11.6941339963
 30
0.0
 10
29.3365427128
 20
11.6920966036
 30
0.0
 10
29.3344563666
 20
11.6902552992
 30
0.0
 10
29.3321744948
 20
11.6881883792
 30
0.0
 10
29.3297056663
 20
11.6858876837
 30
0.0
 10
29.3270587636
 20
11.6833450812
 30
0.0
 10
29.3242432518
 20
11.6805534528
 30
0.0
 10
29.3212715804
 20
11.677504918
 30
0.0
 10
29.3181577331
 20
11.6741922392
 30
0.0
 10
29.314916044
 20
11.6706086927
 30
0.0
 10
29.3103244293
 20
11.6653249536
 30
0.0
 10
29.3043750811
 20
11.6580175751
 30
0.0
 10
29.2985059019
 20
11.6500979888
 30
0.0
 10
29.2937580847
 20
11.6431853213
 30
0.0
 10
29.2901363613
 20
11.6376157568
 30
0.0
 10
29.2865470717
 20
11.6317664941
 30
0.0
 10
29.2830138586
 20
11.6256426282
 30
0.0
 10
29.2795591079
 20
11.6192517328
 30
0.0
 10
29.2762058937
 20
11.6126022086
 30
0.0
 10
29.2729784037
 20
11.6057036576
 30
0.0
 10
29.2698990657
 20
11.5985693715
 30
0.0
 10
29.2669892415
 20
11.591215902
 30
0.0
 10
29.2651896379
 20
11.5862133157
 30
0.0
 10
29.2643239378
 20
11.5836793068
 30
0.0
 11
29.3457239378
 21
11.6996776498
 31
0.0
 11
29.3456093049
 21
11.6995888637
 31
0.0
 11
29.3452662463
 21
11.6993208506
 31
0.0
 11
29.3446960224
 21
11.6988711284
 31
0.0
 11
29.3438998933
 21
11.698237215
 31
0.0
 11
29.3428791708
 21
11.6974165608
 31
0.0
 11
29.3416365708
 21
11.6964047688
 31
0.0
 11
29.3385028501
 21
11.6937819673
 31
0.0
 11
29.3366204037
 21
11.6921578998
 31
0.0
 11
29.3345341683
 21
11.6903163746
 31
0.0
 11
29.3322522373
 21
11.6882494499
 31
0.0
 11
29.3297833624
 21
11.6859489365
 31
0.0
 11
29.3271362951
 21
11.6834066451
 31
0.0
 11
29.3243202318
 21
11.6806144963
 31
0.0
 11
29.3213478133
 21
11.6775652618
 31
0.0
 11
29.3182332882
 21
11.6742521102
 31
0.0
 11
29.314990914
 21
11.6706682126
 31
0.0
 11
29.311635328
 21
11.6668070318
 31
0.0
 11
29.3046578333
 21
11.6582380194
 31
0.0
 11
29.2974562499
 21
11.6485226479
 31
0.0
 11
29.2938236029
 21
11.6432338316
 31
0.0
 11
29.290200315
 21
11.6376617642
 31
0.0
 11
29.2866095408
 21
11.6318099376
 31
0.0
 11
29.2830744391
 21
11.6256831062
 31
0.0
 11
29.2796181807
 21
11.6192892763
 31
0.0
 11
29.2762639379
 21
11.6126369707
 31
0.0
 11
29.2730348603
 21
11.6057349413
 31
0.0
 11
29.2699536459
 21
11.5985964192
 31
0.0
 11
29.2670425812
 21
11.5912387195
 31
0.0
 11
29.2643239378
 21
11.5836793068
 31
0.0
  0
ENDSEC
  0
SECTION
  2
OBJECTS
  0
DICTIONARY
  5
C
100
AcDbDictionary
280
0
281
1
  3
ACAD_GROUP
350
D
  3
ACAD_MLINESTYLE
350
17
  3
ACAD_LAYOUT
350
1A
  3
ACAD_PLOTSETTINGS
350
19
  3
ACAD_PLOTSTYLENAME
350
E
  0
DICTIONARY
  5
D
102
{ACAD_REACTORS
330
C
102
}
100
AcDbDictionary
280
0
281
1
  0
ACDBDICTIONARYWDFLT
  5
E
102
{ACAD_REACTORS
330
C
102
}
100
AcDbDictionary
281
1
  3
Normal
350
F
100
AcDbDictionaryWithDefault
340
F
  0
DICTIONARY
  5
17
102
{ACAD_REACTORS
330
C
102
}
100
AcDbDictionary
280
0
281
1
  3
Standard
350
18
  0
DICTIONARY
  5
19
102
{ACAD_REACTORS
330
C
102
}
100
AcDbDictionary
281
1
  0
DICTIONARY
  5
1A
102
{ACAD_REACTORS
330
C
102
}
100
AcDbDictionary
281
1
  3
Model
350
25C
  3
Layout1
350
25D
  0
ACDBPLACEHOLDER
  5
F
102
{ACAD_REACTORS
330
E
102
}
  0
MLINESTYLE
  5
18
102
{ACAD_REACTORS
330
17
102
}
100
AcDbMlineStyle
  2
STANDARD
 70
0
  3

 62
256
 51
90.0
 52
90.0
 71
2
 49
0.5
 62
256
  6
BYLAYER
 49
-0.5
 62
256
  6
BYLAYER
  0
LAYOUT
  5
25C
102
{ACAD_REACTORS
330
1A
102
}
100
AcDbPlotSettings
  1

  2
none_device
  4
ISO_A1_(594.00_x_841.00_MM)
  6

 40
0.0
 41
0.0
 42
0.0
 43
0.0
 44
841.0
 45
594.0
 46
0.0
 47
0.0
 48
0.0
 49
0.0
140
0.0
141
0.0
142
1.0
143
1.0
 70
1024
 72
0
 73
0
 74
0
  7

 75
0
147
1.0
148
0.0
149
0.0
100
AcDbLayout
  1
Model
 70
0
 71
0
 10
0.0
 20
0.0
 11
33.1102362205
 21
23.3858267717
 12
0.0
 22
0.0
 32
0.0
 14
0.0
 24
0.0
 34
0.0
 15
0.0
 25
0.0
 35
0.0
146
0.0
 13
0.0
 23
0.0
 33
0.0
 16
1.0
 26
0.0
 36
0.0
 17
0.0
 27
1.0
 37
0.0
 76
0
330
203
345
0
346
0
  0
LAYOUT
  5
25D
102
{ACAD_REACTORS
330
1A
102
}
100
AcDbPlotSettings
  1

  2
none_device
  4
ISO_A1_(594.00_x_841.00_MM)
  6

 40
0.0
 41
0.0
 42
0.0
 43
0.0
 44
841.0
 45
594.0
 46
0.0
 47
0.0
 48
0.0
 49
0.0
140
0.0
141
0.0
142
1.0
143
1.0
 70
0
 72
0
 73
0
 74
0
  7

 75
0
147
1.0
148
0.0
149
0.0
100
AcDbLayout
  1
Layout1
 70
0
 71
1
 10
0.0
 20
0.0
 11
33.1102362205
 21
23.3858267717
 12
0.0
 22
0.0
 32
0.0
 14
0.0
 24
0.0
 34
0.0
 15
0.0
 25
0.0
 35
0.0
146
0.0
 13
0.0
 23
0.0
 33
0.0
 16
1.0
 26
0.0
 36
0.0
 17
0.0
 27
1.0
 37
0.0
 76
0
330
204
345
0
346
0
  0
ENDSEC
  0
EOF
