  0
SECTION
  2
HEADER
  9
$ACADVER
  1
AC1015
  9
$DWGCODEPAGE
  3
ANSI_1252
  9
$EXTMAX
 10
11.6929133858
 20
8.2677165354
 30
0.0
  9
$EXTMIN
 10
0.0
 20
0.0
 30
0.0
  9
$LIMMIN
 10
0.0
 20
0.0
  9
$LIMMAX
 10
11.6929133858
 20
8.2677165354
  9
$VIEWCTR
 10
5.8464566929
 20
4.1338582677
  9
$VIEWSIZE
 40
8.2677165354
  9
$CLAYER
  8
0
  9
$LTSCALE
 40
0.6431102362
  9
$CELTYPE
  6
BYLAYER
  9
$DIMSCALE
 40
1.0
  9
$DIMASZ
 40
0.1875
  9
$DIMEXO
 40
0.0730807087
  9
$DIMDLI
 40
0.4443307087
  9
$DIMEXE
 40
0.2104724409
  9
$DIMCEN
 40
0.1052362205
  9
$DIMLFAC
 40
1.0
  9
$DIMBLK
  1
_CLOSED
  9
$DIMTXT
 40
0.15625
  9
$DIMTOL
 70
0
  9
$DIMLIM
 70
0
  9
$DIMTFAC
 40
1.0
  9
$PDMODE
 70
3
  9
$PDSIZE
 40
0.3125
  9
$HANDSEED
  5
23E
  9
$TILEMODE
 70
1
  9
$MEASUREMENT
 70
0
  9
$INSUNITS
 70
1
  0
ENDSEC
  0
SECTION
  2
CLASSES
  0
CLASS
  1
ACDBDICTIONARYWDFLT
  2
AcDbDictionaryWithDefault
  3
AutoCAD 2000
 90
0
280
0
281
0
  0
CLASS
  1
ACDBPLACEHOLDER
  2
AcDbPlaceHolder
  3
AutoCAD 2000
 90
0
280
0
281
0
  0
CLASS
  1
LAYOUT
  2
AcDbLayout
  3
AutoCAD 2000
 90
0
280
0
281
0
  0
ENDSEC
  0
SECTION
  2
TABLES
  0
TABLE
  2
VPORT
  5
8
100
AcDbSymbolTable
 70
2
  0
VPORT
  5
1F4
100
AcDbSymbolTableRecord
100
AcDbViewportTableRecord
  2
*ACTIVE
 70
0
 10
0.0
 20
0.0
 11
1.0
 21
1.0
 12
5.8464566929
 22
4.1338582677
 13
0.0
 23
0.0
 14
1.0
 24
1.0
 15
0.0
 25
0.0
 16
0.0
 26
0.0
 36
1.0
 17
0.0
 27
0.0
 37
0.0
 40
8.2677165354
 41
1.4142857143
 42
50.0
 43
0.0
 44
0.0
 50
0.0
 51
0.0
 71
0
 72
100
 73
1
 74
1
 75
0
 76
0
 77
0
 78
0
  0
ENDTAB
  0
TABLE
  2
LTYPE
  5
5
100
AcDbSymbolTable
 70
6
  0
LTYPE
  5
14
100
AcDbSymbolTableRecord
100
AcDbLinetypeTableRecord
  2
BYBLOCK
 70
0
  3

 72
65
 73
0
 40
0.0
  0
LTYPE
  5
15
100
AcDbSymbolTableRecord
100
AcDbLinetypeTableRecord
  2
BYLAYER
 70
0
  3

 72
65
 73
0
 40
0.0
  0
LTYPE
  5
16
100
AcDbSymbolTableRecord
100
AcDbLinetypeTableRecord
  2
CONTINUOUS
 70
64
  3
Solid line
 72
65
 73
0
 40
0.0
  0
LTYPE
  5
1F5
100
AcDbSymbolTableRecord
100
AcDbLinetypeTableRecord
  2
CENTER
 70
64
  3
____ _ ____ _ ____ _ ____ _ ____ _ ____ _ ____
 72
65
 73
4
 40
0.6
 49
0.375
 74
0
 49
-0.075
 74
0
 49
0.075
 74
0
 49
-0.075
 74
0
  0
LTYPE
  5
1F6
100
AcDbSymbolTableRecord
100
AcDbLinetypeTableRecord
  2
HIDDEN
 70
64
  3
- - - - - - - - - - - - - - - - - - - -
 72
65
 73
2
 40
0.2
 49
0.1
 74
0
 49
-0.1
 74
0
  0
LTYPE
  5
1F7
100
AcDbSymbolTableRecord
100
AcDbLinetypeTableRecord
  2
PHANTOM
 70
64
  3
_____ _ _ _____ _ _ _____ _ _ _____
 72
65
 73
6
 40
0.8
 49
0.45
 74
0
 49
-0.05
 74
0
 49
0.1
 74
0
 49
-0.05
 74
0
 49
0.1
 74
0
 49
-0.05
 74
0
  0
LTYPE
  5
1F8
100
AcDbSymbolTableRecord
100
AcDbLinetypeTableRecord
  2
DOT
 70
64
  3
. . . . . . . . . . . . . . . . . . . .
 72
65
 73
2
 40
0.2
 49
0.1
 74
0
 49
-0.1
 74
0
  0
LTYPE
  5
1F9
100
AcDbSymbolTableRecord
100
AcDbLinetypeTableRecord
  2
DASHED
 70
64
  3
- - - - - - - - - - - - - - - - - - - -
 72
65
 73
2
 40
0.2
 49
0.1
 74
0
 49
-0.1
 74
0
  0
ENDTAB
  0
TABLE
  2
LAYER
  5
2
100
AcDbSymbolTable
 70
36
  0
LAYER
  5
10
100
AcDbSymbolTableRecord
100
AcDbLayerTableRecord
  2
0
 70
0
 62
7
  6
CONTINUOUS
370
-3
390
F
  0
LAYER
  5
1FA
100
AcDbSymbolTableRecord
100
AcDbLayerTableRecord
  2
DEFAULT_1
 70
0
 62
7
  6
CENTER
370
-3
390
F
  0
LAYER
  5
1FB
100
AcDbSymbolTableRecord
100
AcDbLayerTableRecord
  2
DEFAULT_2
 70
0
 62
8
  6
HIDDEN
370
-3
390
F
  0
LAYER
  5
1FC
100
AcDbSymbolTableRecord
100
AcDbLayerTableRecord
  2
DEFAULT_3
 70
0
 62
7
  6
PHANTOM
370
-3
390
F
  0
LAYER
  5
1FD
100
AcDbSymbolTableRecord
100
AcDbLayerTableRecord
  2
DEFAULT_COORDINATE_SYSTEM
 70
0
 62
7
  6
CONTINUOUS
370
-3
390
F
  0
LAYER
  5
1FE
100
AcDbSymbolTableRecord
100
AcDbLayerTableRecord
  2
DEFAULT_DATUM_AXES
 70
0
 62
7
  6
CONTINUOUS
370
-3
390
F
  0
LAYER
  5
1FF
100
AcDbSymbolTableRecord
100
AcDbLayerTableRecord
  2
DEFAULT_DATUM_CURVES
 70
0
 62
7
  6
CONTINUOUS
370
-3
390
F
  0
LAYER
  5
200
100
AcDbSymbolTableRecord
100
AcDbLayerTableRecord
  2
DEFAULT_DATUM_PLANES
 70
0
 62
7
  6
CONTINUOUS
370
-3
390
F
  0
ENDTAB
  0
TABLE
  2
STYLE
  5
3
100
AcDbSymbolTable
 70
1
  0
STYLE
  5
11
100
AcDbSymbolTableRecord
100
AcDbTextStyleTableRecord
  2
STANDARD
 70
0
 40
0.0
 41
0.8
 50
0.0
 71
0
 42
0.2
  3
txt
  4

  0
STYLE
  5
201
100
AcDbSymbolTableRecord
100
AcDbTextStyleTableRecord
  2
TEXTSTYLE_1
 70
0
 40
0.0
 41
0.8
 50
0.0
 71
0
 42
0.2
  3
gdt
  4

  0
ENDTAB
  0
TABLE
  2
VIEW
  5
6
100
AcDbSymbolTable
 70
0
  0
ENDTAB
  0
TABLE
  2
UCS
  5
7
100
AcDbSymbolTable
 70
0
  0
ENDTAB
  0
TABLE
  2
APPID
  5
9
100
AcDbSymbolTable
 70
1
  0
APPID
  5
202
100
AcDbSymbolTableRecord
100
AcDbRegAppTableRecord
  2
ACAD
 70
0
  0
ENDTAB
  0
TABLE
  2
BLOCK_RECORD
  5
1
100
AcDbSymbolTable
 70
0
  0
BLOCK_RECORD
  5
203
100
AcDbSymbolTableRecord
100
AcDbBlockTableRecord
  2
*Model_Space
  0
BLOCK_RECORD
  5
204
100
AcDbSymbolTableRecord
100
AcDbBlockTableRecord
  2
*Paper_Space
  0
ENDTAB
  0
TABLE
  2
DIMSTYLE
  5
A
100
AcDbSymbolTable
 70
1
100
AcDbDimStyleTable
 71
0
  0
DIMSTYLE
105
205
100
AcDbSymbolTableRecord
100
AcDbDimStyleTableRecord
  2
STANDARD
 70
0
  3

  4

 40
1.0
 41
0.1875
 42
0.0625
 43
0.38
 44
0.18
 45
0.0
 46
0.0
 47
0.01
 48
0.01
140
0.15625
141
0.09
142
0.0
143
25.4
144
1.0
145
0.0
146
1.0
147
0.09
 71
0.0
 72
0.0
 73
1
 74
1
 75
0
 76
0
 77
0
 78
4
170
0
171
2
172
0
173
0
174
0
175
0
176
0
177
0
178
0
270
2
271
2
272
2
273
2
274
2
275
0
280
0
281
0
282
0
283
1
284
4
285
0
286
0
287
3
288
0
340
11
  0
ENDTAB
  0
ENDSEC
  0
SECTION
  2
BLOCKS
  0
BLOCK
  5
20
100
AcDbEntity
  8
0
100
AcDbBlockBegin
  2
*Model_Space
 70
0
 10
0.0
 20
0.0
 30
0.0
  3
*Model_Space
  1

  0
ENDBLK
  5
21
100
AcDbEntity
  8
0
100
AcDbBlockEnd
  0
BLOCK
  5
1C
100
AcDbEntity
  8
0
100
AcDbBlockBegin
  2
*Paper_Space
 70
0
 10
0.0
 20
0.0
 30
0.0
  3
*Paper_Space
  1

  0
ENDBLK
  5
1D
100
AcDbEntity
  8
0
100
AcDbBlockEnd
  0
ENDSEC
  0
SECTION
  2
ENTITIES
  0
LINE
  5
206
100
AcDbEntity
  8
0
100
AcDbLine
 62
6
  6
CONTINUOUS
 10
6.6014784483
 20
2.9180111492
 11
6.4334784483
 21
2.9180111492
  0
LINE
  5
207
100
AcDbEntity
  8
0
100
AcDbLine
 62
6
  6
CONTINUOUS
 10
5.6214784483
 20
2.9180111492
 11
5.4534784483
 21
2.9180111492
  0
LINE
  5
208
100
AcDbEntity
  8
0
100
AcDbLine
 62
6
  6
CONTINUOUS
 10
9.3399424894
 20
3.0585111492
 11
6.6214784483
 21
3.0585111492
  0
LINE
  5
209
100
AcDbEntity
  8
0
100
AcDbLine
 62
6
  6
CONTINUOUS
 10
5.4334784483
 20
3.0585111492
 11
2.7149794172
 21
3.0585111492
  0
LINE
  5
20A
100
AcDbEntity
  8
0
100
AcDbLine
 62
6
  6
CONTINUOUS
 10
5.4534784483
 20
2.9180111492
 11
5.4334784483
 21
2.9380111492
  0
LINE
  5
20B
100
AcDbEntity
  8
0
100
AcDbLine
 62
6
  6
CONTINUOUS
 10
9.3399424894
 20
3.4335111492
 11
6.6214784483
 21
3.4335111492
  0
LINE
  5
20C
100
AcDbEntity
  8
0
100
AcDbLine
 62
6
  6
CONTINUOUS
 10
5.4334784483
 20
3.4335111492
 11
2.7149794172
 21
3.4335111492
  0
LINE
  5
20D
100
AcDbEntity
  8
0
100
AcDbLine
 62
6
  6
CONTINUOUS
 10
5.2149784483
 20
5.6560111492
 11
5.2149784483
 21
5.5690111492
  0
LINE
  5
20E
100
AcDbEntity
  8
0
100
AcDbLine
 62
6
  6
CONTINUOUS
 10
6.6014784483
 20
3.5740111492
 11
6.4334784483
 21
3.5740111492
  0
LINE
  5
20F
100
AcDbEntity
  8
0
100
AcDbLine
 62
6
  6
CONTINUOUS
 10
5.6214784483
 20
3.5740111492
 11
5.4534784483
 21
3.5740111492
  0
LINE
  5
210
100
AcDbEntity
  8
0
100
AcDbLine
 62
6
  6
CONTINUOUS
 10
5.4334784483
 20
2.9380165326
 11
5.4334784483
 21
3.5540057658
  0
LINE
  5
211
100
AcDbEntity
  8
0
100
AcDbLine
 62
6
  6
CONTINUOUS
 10
5.4534784483
 20
2.9180111492
 11
5.4534784483
 21
3.5740111492
  0
LINE
  5
212
100
AcDbEntity
  8
0
100
AcDbLine
 62
6
  6
CONTINUOUS
 10
5.6214784483
 20
2.8776584742
 11
5.6214784483
 21
3.6143638242
  0
LINE
  5
213
100
AcDbEntity
  8
0
100
AcDbLine
 62
6
  6
CONTINUOUS
 10
5.7149784483
 20
3.6503433541
 11
5.7149784483
 21
4.2560111492
  0
LINE
  5
214
100
AcDbEntity
  8
0
100
AcDbLine
 62
6
  6
CONTINUOUS
 10
5.7838784483
 20
2.8776554737
 11
5.7838784483
 21
3.5450125934
  0
LINE
  5
215
100
AcDbEntity
  8
0
100
AcDbLine
 62
6
  6
CONTINUOUS
 10
5.6379784483
 20
4.2560111492
 11
5.6179784483
 21
4.2760111492
  0
LINE
  5
216
100
AcDbEntity
  8
0
100
AcDbLine
 62
6
  6
CONTINUOUS
 10
5.9462784483
 20
3.4374643906
 11
5.9462784483
 21
2.8776554737
  0
LINE
  5
217
100
AcDbEntity
  8
0
100
AcDbLine
 62
6
  6
CONTINUOUS
 10
5.6379784483
 20
4.2560111492
 11
6.4169784483
 21
4.2560111492
  0
LINE
  5
218
100
AcDbEntity
  8
0
100
AcDbLine
 62
6
  6
CONTINUOUS
 10
5.6179784483
 20
4.2760111492
 11
6.4369784483
 21
4.2760111492
  0
LINE
  5
219
100
AcDbEntity
  8
0
100
AcDbLine
 62
6
  6
CONTINUOUS
 10
6.6214784483
 20
3.5540111492
 11
6.6014784483
 21
3.5740111492
  0
LINE
  5
21A
100
AcDbEntity
  8
0
100
AcDbLine
 62
6
  6
CONTINUOUS
 10
6.1086784483
 20
3.4374643906
 11
6.1086784483
 21
2.8776554737
  0
LINE
  5
21B
100
AcDbEntity
  8
0
100
AcDbLine
 62
6
  6
CONTINUOUS
 10
6.2710784483
 20
2.8776554737
 11
6.2710784483
 21
3.5450125934
  0
LINE
  5
21C
100
AcDbEntity
  8
0
100
AcDbLine
 62
6
  6
CONTINUOUS
 10
5.4534784483
 20
3.5740111492
 11
5.4334784483
 21
3.5540111492
  0
LINE
  5
21D
100
AcDbEntity
  8
0
100
AcDbLine
 62
6
  6
CONTINUOUS
 10
6.3399784483
 20
3.6503434565
 11
6.3399784483
 21
4.2560111492
  0
LINE
  5
21E
100
AcDbEntity
  8
0
100
AcDbLine
 62
6
  6
CONTINUOUS
 10
6.4334784483
 20
2.8776584742
 11
6.4334784483
 21
3.6143638242
  0
LINE
  5
21F
100
AcDbEntity
  8
0
100
AcDbLine
 62
6
  6
CONTINUOUS
 10
6.4369784483
 20
4.2760111492
 11
6.4169784483
 21
4.2560111492
  0
LINE
  5
220
100
AcDbEntity
  8
0
100
AcDbLine
 62
6
  6
CONTINUOUS
 10
6.6014784483
 20
2.9180111492
 11
6.6014784483
 21
3.5740111492
  0
LINE
  5
221
100
AcDbEntity
  8
0
100
AcDbLine
 62
6
  6
CONTINUOUS
 10
6.6214784483
 20
2.9380165326
 11
6.6214784483
 21
3.5540057658
  0
LINE
  5
222
100
AcDbEntity
  8
0
100
AcDbLine
 62
6
  6
CONTINUOUS
 10
6.8399784483
 20
5.6560111492
 11
6.8399784483
 21
5.5690111492
  0
LINE
  5
223
100
AcDbEntity
  8
0
100
AcDbLine
 62
6
  6
CONTINUOUS
 10
5.2149784483
 20
5.5690111492
 11
6.8399784483
 21
5.5690111492
  0
LINE
  5
224
100
AcDbEntity
  8
0
100
AcDbLine
 62
7
  6
CONTINUOUS
 10
5.2144757745
 20
5.6560111492
 11
6.8404811221
 21
5.6560111492
  0
LINE
  5
225
100
AcDbEntity
  8
0
100
AcDbLine
 62
6
  6
CONTINUOUS
 10
6.6214784483
 20
2.9380111492
 11
6.6014784483
 21
2.9180111492
  0
LINE
  5
226
100
AcDbEntity
  8
0
100
AcDbLine
 62
6
  6
CONTINUOUS
 10
5.0274784483
 20
5.8440111492
 11
7.0274784483
 21
5.8440111492
  0
LINE
  5
227
100
AcDbEntity
  8
0
100
AcDbLine
 62
6
  6
CONTINUOUS
 10
4.8474784483
 20
6.0310111492
 11
7.2074784483
 21
6.0310111492
  0
ARC
  5
228
100
AcDbEntity
  8
0
100
AcDbCircle
 62
6
  6
CONTINUOUS
 10
2.6262886481
 20
4.052869626
 40
3.0
100
AcDbArc
 50
4.2656285905
 51
30.3566145709
  0
ARC
  5
229
100
AcDbEntity
  8
0
100
AcDbCircle
 62
6
  6
CONTINUOUS
 10
2.7149784483
 20
3.2460111492
 40
0.1875
100
AcDbArc
 50
90.0
 51
270.0
  0
ARC
  5
22A
100
AcDbEntity
  8
0
100
AcDbCircle
 62
6
  6
CONTINUOUS
 10
5.8650784483
 20
2.9250111492
 40
0.094
100
AcDbArc
 50
210.2506503162
 51
329.7493496838
  0
ARC
  5
22B
100
AcDbEntity
  8
0
100
AcDbCircle
 62
6
  6
CONTINUOUS
 10
5.7026784483
 20
2.9250111492
 40
0.094
100
AcDbArc
 50
210.2506503162
 51
329.7493496838
  0
ARC
  5
22C
100
AcDbEntity
  8
0
100
AcDbCircle
 62
6
  6
CONTINUOUS
 10
5.7026784483
 20
3.5670111492
 40
0.094
100
AcDbArc
 50
90.1219060058
 51
149.7493496838
  0
ARC
  5
22D
100
AcDbEntity
  8
0
100
AcDbCircle
 62
6
  6
CONTINUOUS
 10
5.0346145594
 20
6.0310111492
 40
0.1871361111
100
AcDbArc
 50
180.0
 51
267.8145949287
  0
ARC
  5
22E
100
AcDbEntity
  8
0
100
AcDbCircle
 62
6
  6
CONTINUOUS
 10
5.2144757745
 20
5.8430111492
 40
0.187
100
AcDbArc
 50
179.6936039968
 51
270.0
  0
ARC
  5
22F
100
AcDbEntity
  8
0
100
AcDbCircle
 62
6
  6
CONTINUOUS
 10
9.4286682485
 20
4.052869626
 40
3.0
100
AcDbArc
 50
149.6433854291
 51
175.7343714095
  0
ARC
  5
230
100
AcDbEntity
  8
0
100
AcDbCircle
 62
6
  6
CONTINUOUS
 10
9.3399784483
 20
3.2460111492
 40
0.1875
100
AcDbArc
 50
270.0
 51
90.0
  0
ARC
  5
231
100
AcDbEntity
  8
0
100
AcDbCircle
 62
6
  6
CONTINUOUS
 10
6.3522784483
 20
2.9250111492
 40
0.094
100
AcDbArc
 50
210.2506503162
 51
329.7493496838
  0
ARC
  5
232
100
AcDbEntity
  8
0
100
AcDbCircle
 62
6
  6
CONTINUOUS
 10
6.1898784483
 20
2.9250111492
 40
0.094
100
AcDbArc
 50
210.2506503162
 51
329.7493496838
  0
ARC
  5
233
100
AcDbEntity
  8
0
100
AcDbCircle
 62
6
  6
CONTINUOUS
 10
6.0274784483
 20
2.9250111492
 40
0.094
100
AcDbArc
 50
210.2506503162
 51
329.7493496838
  0
ARC
  5
234
100
AcDbEntity
  8
0
100
AcDbCircle
 62
6
  6
CONTINUOUS
 10
6.3522784483
 20
3.5670111492
 40
0.094
100
AcDbArc
 50
30.2506503162
 51
89.8780939942
  0
ARC
  5
235
100
AcDbEntity
  8
0
100
AcDbCircle
 62
6
  6
CONTINUOUS
 10
7.0203423372
 20
6.0310111492
 40
0.1871361111
100
AcDbArc
 50
272.1854050713
 51
360.0
  0
ARC
  5
236
100
AcDbEntity
  8
0
100
AcDbCircle
 62
6
  6
CONTINUOUS
 10
6.8404811221
 20
5.8430111492
 40
0.187
100
AcDbArc
 50
270.0
 51
0.3063960032
  0
SPLINE
  5
237
100
AcDbEntity
  8
0
100
AcDbSpline
 62
6
  6
CONTINUOUS
 70
0
 71
3
 72
54
 73
50
 74
48
 42
0.0000001
 43
0.0000001
 44
0.0000000001
 12
-0.1416636127
 22
0.1838365199
 32
0.0
 13
-0.0602021879
 23
-0.2241431279
 33
0.0
 40
0.0
 40
0.0
 40
0.0
 40
0.0
 40
0.0141839633
 40
0.0280807036
 40
0.0417263732
 40
0.0484664701
 40
0.0551566783
 40
0.0684131155
 40
0.0815513856
 40
0.0946182555
 40
0.1076533605
 40
0.1206929893
 40
0.1337704852
 40
0.14691344
 40
0.1601437838
 40
0.1734791534
 40
0.1869358991
 40
0.2142555701
 40
0.2281420555
 40
0.2421837405
 40
0.2563843627
 40
0.2707459645
 40
0.2852688305
 40
0.2999516662
 40
0.3297828397
 40
0.3602201325
 40
0.3912276658
 40
0.4227613202
 40
0.4547777577
 40
0.4872281776
 40
0.5200614738
 40
0.5532356949
 40
0.5699385251
 40
0.5867098647
 40
0.603543672
 40
0.6204352071
 40
0.6543752444
 40
0.6885012655
 40
0.7056238777
 40
0.7227790377
 40
0.7399637762
 40
0.7571769976
 40
0.7916809373
 40
0.826276462
 40
0.8436026015
 40
0.8609430509
 40
0.8956605524
 40
0.9304214719
 40
1.0
 40
1.0
 40
1.0
 40
1.0
 10
6.2710784483
 20
3.5450125934
 30
0.0
 10
6.2704086644
 20
3.5458817703
 30
0.0
 10
6.2690201995
 20
3.5475555123
 30
0.0
 10
6.2667813475
 20
3.5498847073
 30
0.0
 10
6.2648063936
 20
3.5516588246
 30
0.0
 10
6.2631729435
 20
3.5529707463
 30
0.0
 10
6.2615167386
 20
3.5542040339
 30
0.0
 10
6.2593818621
 20
3.5556202936
 30
0.0
 10
6.256722357
 20
3.5571242069
 30
0.0
 10
6.2539811541
 20
3.5584339954
 30
0.0
 10
6.2511664612
 20
3.5595563652
 30
0.0
 10
6.2482852974
 20
3.5604972014
 30
0.0
 10
6.2453439771
 20
3.5612617885
 30
0.0
 10
6.2423486121
 20
3.5618556882
 30
0.0
 10
6.2393052154
 20
3.5622844552
 30
0.0
 10
6.2362192435
 20
3.5625535059
 30
0.0
 10
6.2320343755
 20
3.5627052948
 30
0.0
 10
6.2278011433
 20
3.562549715
 30
0.0
 10
6.223548595
 20
3.5621124836
 30
0.0
 10
6.2203223822
 20
3.5616429587
 30
0.0
 10
6.2170818484
 20
3.5610365685
 30
0.0
 10
6.2138310928
 20
3.5602963174
 30
0.0
 10
6.2105743361
 20
3.5594251665
 30
0.0
 10
6.2062069557
 20
3.5580860976
 30
0.0
 10
6.2007556776
 20
3.5560956694
 30
0.0
 10
6.1942914764
 20
3.553242268
 30
0.0
 10
6.1879003232
 20
3.5499320912
 30
0.0
 10
6.1816125236
 20
3.5461856315
 30
0.0
 10
6.1754557382
 20
3.5420252227
 30
0.0
 10
6.1694565581
 20
3.5374725419
 30
0.0
 10
6.1636408877
 20
3.5325483145
 30
0.0
 10
6.1589751274
 20
3.5281651788
 30
0.0
 10
6.1553518933
 20
3.5244961564
 30
0.0
 10
6.1526863393
 20
3.521659739
 30
0.0
 10
6.1500814413
 20
3.51874792
 30
0.0
 10
6.1466864349
 20
3.5147628124
 30
0.0
 10
6.1426037753
 20
3.5096088096
 30
0.0
 10
6.1387520707
 20
3.5042581885
 30
0.0
 10
6.1358058383
 20
3.4998618805
 30
0.0
 10
6.1336629959
 20
3.4965060896
 30
0.0
 10
6.1315901453
 20
3.4930984318
 30
0.0
 10
6.1289175069
 20
3.4884860645
 30
0.0
 10
6.1257516003
 20
3.4826046524
 30
0.0
 10
6.1228206924
 20
3.4765931742
 30
0.0
 10
6.1206130433
 20
3.471710498
 30
0.0
 10
6.1184949924
 20
3.4667780385
 30
0.0
 10
6.1160172151
 20
3.4605334339
 30
0.0
 10
6.1124036783
 20
3.4503991076
 30
0.0
 10
6.1100747082
 20
3.4426629069
 30
0.0
 10
6.1086784483
 20
3.4374643906
 30
0.0
 11
6.2710784483
 21
3.5450125934
 31
0.0
 11
6.2689758346
 21
3.5475455215
 31
0.0
 11
6.2667401613
 21
3.5498701792
 31
0.0
 11
6.2643837297
 21
3.5519860764
 31
0.0
 11
6.2631640733
 21
3.5529655871
 31
0.0
 11
6.2619187111
 21
3.5538929412
 31
0.0
 11
6.2593551449
 21
3.5555940866
 31
0.0
 11
6.2567013269
 21
3.5570957574
 31
0.0
 11
6.2539655018
 21
3.5584042843
 31
0.0
 11
6.2511558504
 21
3.5595259706
 31
0.0
 11
6.2482794245
 21
3.5604666349
 31
0.0
 11
6.2453423082
 21
3.5612316798
 31
0.0
 11
6.2423505542
 21
3.5618264947
 31
0.0
 11
6.2393102151
 21
3.5622564687
 31
0.0
 11
6.2362270661
 21
3.5625266883
 31
0.0
 11
6.2331060324
 21
3.5626413112
 31
0.0
 11
6.2267693622
 21
3.5624196886
 31
0.0
 11
6.2235632508
 21
3.562091403
 31
0.0
 11
6.220338169
 21
3.5616231702
 31
0.0
 11
6.2170984153
 21
3.5610180464
 31
0.0
 11
6.2138482397
 21
3.5602789915
 31
0.0
 11
6.210591892
 21
3.559408965
 31
0.0
 11
6.2073336223
 21
3.5584109268
 31
0.0
 11
6.2008279716
 21
3.5560422942
 31
0.0
 11
6.1943632582
 21
3.5531946541
 31
0.0
 11
6.1879709389
 21
3.5498890306
 31
0.0
 11
6.1816816196
 21
3.5461466084
 31
0.0
 11
6.1755229467
 21
3.5419891307
 31
0.0
 11
6.1695219234
 21
3.5374384624
 31
0.0
 11
6.1637044145
 21
3.5325166917
 31
0.0
 11
6.1580911385
 21
3.5272469181
 31
0.0
 11
6.1553671082
 21
3.5244888379
 31
0.0
 11
6.1527013605
 21
3.5216525263
 31
0.0
 11
6.1500962841
 21
3.5187409073
 31
0.0
 11
6.147553707
 21
3.5157569303
 31
0.0
 11
6.1426608005
 21
3.509583817
 31
0.0
 11
6.1380319713
 21
3.5031570229
 31
0.0
 11
6.1358194907
 21
3.4998559451
 31
0.0
 11
6.1336764901
 21
3.4965003782
 31
0.0
 11
6.1316034731
 21
3.4930930931
 31
0.0
 11
6.129600283
 21
3.4896366507
 31
0.0
 11
6.1258026327
 21
3.4825864981
 31
0.0
 11
6.1222820378
 21
3.4753703294
 31
0.0
 11
6.120625167
 21
3.4717063668
 31
0.0
 11
6.1190369285
 21
3.4680085211
 31
0.0
 11
6.1160627537
 21
3.460520039
 31
0.0
 11
6.1133508918
 21
3.4529219225
 31
0.0
 11
6.1086784483
 21
3.4374643906
 31
0.0
  0
SPLINE
  5
238
100
AcDbEntity
  8
0
100
AcDbSpline
 62
6
  6
CONTINUOUS
 70
0
 71
3
 72
57
 73
53
 74
51
 42
0.0000001
 43
0.0000001
 44
0.0000000001
 12
-0.0738659322
 22
0.2123589089
 32
0.0
 13
-0.0738659322
 23
-0.2123589089
 33
0.0
 40
0.0
 40
0.0
 40
0.0
 40
0.0
 40
0.0312418593
 40
0.0624811413
 40
0.093699949
 40
0.1249009971
 40
0.1560776902
 40
0.1872332553
 40
0.2028147158
 40
0.2183986333
 40
0.2339834258
 40
0.2495691927
 40
0.2651578978
 40
0.2807533102
 40
0.2963570091
 40
0.3119680648
 40
0.3275865202
 40
0.343213704
 40
0.3588521354
 40
0.3745022234
 40
0.3901625816
 40
0.4058322537
 40
0.4215109751
 40
0.4371990233
 40
0.452895049
 40
0.4685967698
 40
0.4999999988
 40
0.5314032222
 40
0.5471049367
 40
0.562800954
 40
0.5784889927
 40
0.5941677046
 40
0.6098373675
 40
0.6254977162
 40
0.6411477944
 40
0.6567862163
 40
0.6724133958
 40
0.6880318506
 40
0.7036429071
 40
0.7192466061
 40
0.7348420177
 40
0.750430728
 40
0.7660165043
 40
0.7816013069
 40
0.7971852321
 40
0.8127666955
 40
0.8439222685
 40
0.8750989727
 40
0.9063000277
 40
0.9375188442
 40
0.968758136
 40
1.0
 40
1.0
 40
1.0
 40
1.0
 10
6.1086784483
 20
3.4374643906
 30
0.0
 10
6.1079092119
 20
3.4396758864
 30
0.0
 10
6.1062698499
 20
3.4440644895
 30
0.0
 10
6.1034855842
 20
3.4505147708
 30
0.0
 10
6.1003535521
 20
3.4568009878
 30
0.0
 10
6.096853558
 20
3.4628853959
 30
0.0
 10
6.0929716256
 20
3.4687284188
 30
0.0
 10
6.089408156
 20
3.4733613841
 30
0.0
 10
6.0863579819
 20
3.47689987
 30
0.0
 10
6.0839702784
 20
3.4794653035
 30
0.0
 10
6.0814841523
 20
3.481935936
 30
0.0
 10
6.07890098
 20
3.4843055309
 30
0.0
 10
6.0762222648
 20
3.4865678707
 30
0.0
 10
6.0734495707
 20
3.488716275
 30
0.0
 10
6.0705860499
 20
3.4907449804
 30
0.0
 10
6.0676360409
 20
3.4926489616
 30
0.0
 10
6.064603894
 20
3.4944227605
 30
0.0
 10
6.0614940725
 20
3.4960610499
 30
0.0
 10
6.0583111624
 20
3.4975580342
 30
0.0
 10
6.0550611419
 20
3.4989096165
 30
0.0
 10
6.0517506889
 20
3.5001124752
 30
0.0
 10
6.0483865181
 20
3.5011629728
 30
0.0
 10
6.0449753987
 20
3.5020575775
 30
0.0
 10
6.0415243332
 20
3.5027924792
 30
0.0
 10
6.0380410361
 20
3.503366238
 30
0.0
 10
6.0333650022
 20
3.5039147855
 30
0.0
 10
6.0274784489
 20
3.5041916547
 30
0.0
 10
6.0215918962
 20
3.5039147858
 30
0.0
 10
6.0169158637
 20
3.503366239
 30
0.0
 10
6.0134325684
 20
3.5027924806
 30
0.0
 10
6.0099815049
 20
3.502057579
 30
0.0
 10
6.0065703875
 20
3.5011629752
 30
0.0
 10
6.0032062184
 20
3.5001124793
 30
0.0
 10
5.9998957671
 20
3.4989096224
 30
0.0
 10
5.9966457482
 20
3.4975580415
 30
0.0
 10
5.9934628402
 20
3.4960610572
 30
0.0
 10
5.9903530193
 20
3.4944227689
 30
0.0
 10
5.9873208718
 20
3.4926489716
 30
0.0
 10
5.9843708618
 20
3.4907449918
 30
0.0
 10
5.9815073404
 20
3.4887162872
 30
0.0
 10
5.9787346468
 20
3.4865678817
 30
0.0
 10
5.9760559308
 20
3.4843055414
 30
0.0
 10
5.9734727564
 20
3.481935946
 30
0.0
 10
5.9709866279
 20
3.479465313
 30
0.0
 10
5.9685989224
 20
3.4768998793
 30
0.0
 10
5.9655487472
 20
3.4733613925
 30
0.0
 10
5.9619852764
 20
3.468728426
 30
0.0
 10
5.958103342
 20
3.4628854021
 30
0.0
 10
5.9546033468
 20
3.4568009924
 30
0.0
 10
5.9514713139
 20
3.4505147736
 30
0.0
 10
5.9486870473
 20
3.4440644908
 30
0.0
 10
5.9470476847
 20
3.4396758867
 30
0.0
 10
5.9462784483
 20
3.4374643906
 30
0.0
 11
6.1086784483
 21
3.4374643906
 31
0.0
 11
6.1062154662
 21
3.4440428145
 31
0.0
 11
6.1034267571
 21
3.4504892787
 31
0.0
 11
6.1002912253
 21
3.4567692147
 31
0.0
 11
6.0967885239
 21
3.4628473885
 31
0.0
 11
6.0929047426
 21
3.4686828454
 31
0.0
 11
6.0886292539
 21
3.4742317134
 31
0.0
 11
6.0863415039
 21
3.4768849055
 31
0.0
 11
6.0839539574
 21
3.4794494173
 31
0.0
 11
6.0814680744
 21
3.481919005
 31
0.0
 11
6.078885322
 21
3.484287423
 31
0.0
 11
6.0762071675
 21
3.4865484254
 31
0.0
 11
6.0734351563
 21
3.4886957892
 31
0.0
 11
6.0705723302
 21
3.4907237226
 31
0.0
 11
6.0676230739
 21
3.4926268207
 31
0.0
 11
6.0645918196
 21
3.4943996928
 31
0.0
 11
6.0614829997
 21
3.4960369476
 31
0.0
 11
6.058301155
 21
3.4975332787
 31
0.0
 11
6.0550521505
 21
3.4988844077
 31
0.0
 11
6.0517427361
 21
3.5000867436
 31
0.0
 11
6.0483796777
 21
3.501136708
 31
0.0
 11
6.0449697414
 21
3.5020307225
 31
0.0
 11
6.0415198309
 21
3.5027654569
 31
0.0
 11
6.0380376885
 21
3.5033390925
 31
0.0
 11
6.0345313719
 21
3.5037503789
 31
0.0
 11
6.0274784485
 21
3.5040809072
 31
0.0
 11
6.0204255264
 21
3.5037503794
 31
0.0
 11
6.0169192111
 21
3.5033390934
 31
0.0
 11
6.0134370706
 21
3.5027654582
 31
0.0
 11
6.0099871622
 21
3.5020307241
 31
0.0
 11
6.0065772279
 21
3.5011367105
 31
0.0
 11
6.0032141712
 21
3.5000867477
 31
0.0
 11
5.9999047584
 21
3.4988844135
 31
0.0
 11
5.9966557558
 21
3.4975332858
 31
0.0
 11
5.9934739132
 21
3.4960369553
 31
0.0
 11
5.9903650939
 21
3.4943997014
 31
0.0
 11
5.9873338389
 21
3.4926268308
 31
0.0
 11
5.9843845815
 21
3.4907237339
 31
0.0
 11
5.981521755
 21
3.4886958011
 31
0.0
 11
5.9787497444
 21
3.4865484369
 31
0.0
 11
5.9760715889
 21
3.4842874338
 31
0.0
 11
5.9734888343
 21
3.4819190151
 31
0.0
 11
5.9710029488
 21
3.4794494267
 31
0.0
 11
5.9686154003
 21
3.4768849144
 31
0.0
 11
5.9663276496
 21
3.474231722
 31
0.0
 11
5.9620521594
 21
3.4686828529
 31
0.0
 11
5.9581683761
 21
3.4628473943
 31
0.0
 11
5.9546656737
 21
3.4567692193
 31
0.0
 11
5.951530141
 21
3.4504892816
 31
0.0
 11
5.9487414308
 21
3.4440428154
 31
0.0
 11
5.9462784483
 21
3.4374643906
 31
0.0
  0
SPLINE
  5
239
100
AcDbEntity
  8
0
100
AcDbSpline
 62
6
  6
CONTINUOUS
 70
0
 71
3
 72
54
 73
50
 74
48
 42
0.0000001
 43
0.0000001
 44
0.0000000001
 12
-0.060202188
 22
0.224143128
 32
0.0
 13
-0.1416636128
 23
-0.18383652
 33
0.0
 40
0.0
 40
0.0
 40
0.0
 40
0.0
 40
0.0695785977
 40
0.1043395713
 40
0.139057109
 40
0.1563975628
 40
0.173723705
 40
0.2083192363
 40
0.2428231707
 40
0.2600363793
 40
0.2772210948
 40
0.2943762209
 40
0.3114987972
 40
0.3456247503
 40
0.3795647332
 40
0.3964562495
 40
0.4132900442
 40
0.4300613737
 40
0.4467641961
 40
0.4799384098
 40
0.5127717134
 40
0.5452221483
 40
0.5772386007
 40
0.6087722729
 40
0.6397798268
 40
0.6702171395
 40
0.7000483322
 40
0.7147311775
 40
0.7292540529
 40
0.7436156635
 40
0.7578162938
 40
0.7718579861
 40
0.7857444784
 40
0.8130641638
 40
0.8265209142
 40
0.8398562854
 40
0.8530866301
 40
0.8662295879
 40
0.8793070861
 40
0.8923467146
 40
0.9053818167
 40
0.9184486863
 40
0.9315869538
 40
0.9448433787
 40
0.9515335749
 40
0.9582736577
 40
0.9719193078
 40
0.9858160389
 40
1.0
 40
1.0
 40
1.0
 40
1.0
 10
5.9462784483
 20
3.4374643906
 30
0.0
 10
5.944882187
 20
3.4426629121
 30
0.0
 10
5.9425532107
 20
3.450399121
 30
0.0
 10
5.9389396679
 20
3.4605334582
 30
0.0
 10
5.9364618884
 20
3.4667780698
 30
0.0
 10
5.934343839
 20
3.4717105337
 30
0.0
 10
5.9321361901
 20
3.4765932112
 30
0.0
 10
5.9292052793
 20
3.4826046884
 30
0.0
 10
5.9260393697
 20
3.4884860978
 30
0.0
 10
5.9233667315
 20
3.4930984616
 30
0.0
 10
5.9212938838
 20
3.4965061147
 30
0.0
 10
5.919151047
 20
3.4998619006
 30
0.0
 10
5.9162048218
 20
3.5042582006
 30
0.0
 10
5.9123531247
 20
3.5096088122
 30
0.0
 10
5.9082704709
 20
3.5147628057
 30
0.0
 10
5.9048754677
 20
3.5187479072
 30
0.0
 10
5.9022705707
 20
3.5216597228
 30
0.0
 10
5.8996050184
 20
3.5244961386
 30
0.0
 10
5.8959817865
 20
3.5281651604
 30
0.0
 10
5.8913160286
 20
3.5325482977
 30
0.0
 10
5.8855003578
 20
3.5374725266
 30
0.0
 10
5.8795011756
 20
3.5420252093
 30
0.0
 10
5.8733443882
 20
3.5461856219
 30
0.0
 10
5.8670565857
 20
3.5499320847
 30
0.0
 10
5.8606654286
 20
3.5532422639
 30
0.0
 10
5.8542012234
 20
3.5560956675
 30
0.0
 10
5.8487499418
 20
3.5580860973
 30
0.0
 10
5.8443825587
 20
3.5594251672
 30
0.0
 10
5.8411257999
 20
3.5602963187
 30
0.0
 10
5.8378750422
 20
3.5610365701
 30
0.0
 10
5.8346345065
 20
3.5616429603
 30
0.0
 10
5.8314082919
 20
3.5621124848
 30
0.0
 10
5.8271557413
 20
3.5625497153
 30
0.0
 10
5.822922507
 20
3.5627052953
 30
0.0
 10
5.8187376375
 20
3.5625535058
 30
0.0
 10
5.8156516651
 20
3.5622844536
 30
0.0
 10
5.8126082682
 20
3.5618556849
 30
0.0
 10
5.8096129029
 20
3.5612617848
 30
0.0
 10
5.8066715823
 20
3.5604971972
 30
0.0
 10
5.8037904188
 20
3.5595563602
 30
0.0
 10
5.8009757272
 20
3.5584339877
 30
0.0
 10
5.7982345256
 20
3.5571241975
 30
0.0
 10
5.795575022
 20
3.555620284
 30
0.0
 10
5.793440147
 20
3.5542040258
 30
0.0
 10
5.7917839441
 20
3.5529707406
 30
0.0
 10
5.7901504963
 20
3.5516588216
 30
0.0
 10
5.7881755453
 20
3.549884706
 30
0.0
 10
5.785936696
 20
3.5475555118
 30
0.0
 10
5.784548232
 20
3.5458817701
 30
0.0
 10
5.7838784483
 20
3.5450125934
 30
0.0
 11
5.9462784483
 21
3.4374643906
 31
0.0
 11
5.9416059964
 21
3.4529219369
 31
0.0
 11
5.938894129
 21
3.4605200647
 31
0.0
 11
5.9359199522
 21
3.4680085551
 31
0.0
 11
5.934331715
 21
3.4717064024
 31
0.0
 11
5.9326748444
 21
3.4753703658
 31
0.0
 11
5.9291542463
 21
3.4825865347
 31
0.0
 11
5.9253565931
 21
3.4896366843
 31
0.0
 11
5.9233534035
 21
3.4930931236
 31
0.0
 11
5.9212803894
 21
3.4965004043
 31
0.0
 11
5.9191373943
 21
3.4998559653
 31
0.0
 11
5.9169249194
 21
3.5031570369
 31
0.0
 11
5.9122960999
 21
3.5095838186
 31
0.0
 11
5.9074032003
 21
3.5157569212
 31
0.0
 11
5.9048606252
 21
3.5187408941
 31
0.0
 11
5.9022555498
 21
3.5216525102
 31
0.0
 11
5.8995898037
 21
3.5244888201
 31
0.0
 11
5.8968657753
 21
3.5272468995
 31
0.0
 11
5.8912525023
 21
3.5325166739
 31
0.0
 11
5.8854349928
 21
3.5374384466
 31
0.0
 11
5.8794339672
 21
3.5419891176
 31
0.0
 11
5.8732752924
 21
3.5461465985
 31
0.0
 11
5.8669859701
 21
3.5498890239
 31
0.0
 11
5.8605936467
 21
3.55319465
 31
0.0
 11
5.8541289293
 21
3.5560422923
 31
0.0
 11
5.8476232745
 21
3.5584109267
 31
0.0
 11
5.8443650026
 21
3.5594089657
 31
0.0
 11
5.8411086529
 21
3.5602789927
 31
0.0
 11
5.8378584752
 21
3.561018048
 31
0.0
 11
5.8346187196
 21
3.5616231717
 31
0.0
 11
5.8313936361
 21
3.5620914041
 31
0.0
 11
5.828187523
 21
3.5624196892
 31
0.0
 11
5.8218508494
 21
3.5626413114
 31
0.0
 11
5.8187298147
 21
3.562526688
 31
0.0
 11
5.8156466654
 21
3.5622564671
 31
0.0
 11
5.8126063262
 21
3.5618264916
 31
0.0
 11
5.8096145717
 21
3.5612316761
 31
0.0
 11
5.806677455
 21
3.5604666306
 31
0.0
 11
5.8038010295
 21
3.5595259652
 31
0.0
 11
5.8009913797
 21
3.5584042768
 31
0.0
 11
5.7982555555
 21
3.5570957481
 31
0.0
 11
5.7956017385
 21
3.5555940768
 31
0.0
 11
5.7930381745
 21
3.5538929333
 31
0.0
 11
5.7917928142
 21
3.5529655813
 31
0.0
 11
5.7905731601
 21
3.551986073
 31
0.0
 11
5.7882167321
 21
3.5498701785
 31
0.0
 11
5.7859810611
 21
3.5475455215
 31
0.0
 11
5.7838784483
 21
3.5450125934
 31
0.0
  0
SPLINE
  5
23A
100
AcDbEntity
  8
0
100
AcDbSpline
 62
6
  6
CONTINUOUS
 70
0
 71
3
 72
41
 73
37
 74
35
 42
0.0000001
 43
0.0000001
 44
0.0000000001
 12
-0.0464376885
 22
0.1359287375
 32
0.0
 13
-0.1136810925
 23
0.0878053324
 33
0.0
 40
0.0
 40
0.0
 40
0.0
 40
0.0
 40
0.0559265752
 40
0.1110124557
 40
0.1651408662
 40
0.1918085529
 40
0.2181911787
 40
0.2700569852
 40
0.3206563857
 40
0.3699005869
 40
0.4176976479
 40
0.4639688875
 40
0.5086367665
 40
0.5516177064
 40
0.5928339473
 40
0.6322346165
 40
0.6697691902
 40
0.7053822145
 40
0.7390279075
 40
0.7706845159
 40
0.8003297087
 40
0.8279375071
 40
0.853488359
 40
0.8769812254
 40
0.8984154575
 40
0.9177881185
 40
0.9350964223
 40
0.9503463495
 40
0.9635457321
 40
0.9747014094
 40
0.9795147445
 40
0.9838192815
 40
0.9909040758
 40
0.995959869
 40
0.9989905814
 40
1.0
 40
1.0
 40
1.0
 40
1.0
 10
5.7838784483
 20
3.5450125934
 30
0.0
 10
5.783012748
 20
3.547546603
 30
0.0
 10
5.7812131361
 20
3.5525491957
 30
0.0
 10
5.7783033386
 20
3.5599026524
 30
0.0
 10
5.7757245523
 20
3.5658770904
 30
0.0
 10
5.7735844452
 20
3.5705415247
 30
0.0
 10
5.7714214841
 20
3.5750756592
 30
0.0
 10
5.7686432633
 20
3.5805850801
 30
0.0
 10
5.7651885009
 20
3.5869759509
 30
0.0
 10
5.7616552896
 20
3.5930998235
 30
0.0
 10
5.758065997
 20
3.598949088
 30
0.0
 10
5.7544443016
 20
3.6045186226
 30
0.0
 10
5.7508136251
 20
3.6098047207
 30
0.0
 10
5.7471967702
 20
3.6148043711
 30
0.0
 10
5.7436152831
 20
3.6195162127
 30
0.0
 10
5.7400899833
 20
3.6239412839
 30
0.0
 10
5.7366406055
 20
3.6280821036
 30
0.0
 10
5.7332863325
 20
3.6319419908
 30
0.0
 10
5.7300446525
 20
3.6355255271
 30
0.0
 10
5.7269308018
 20
3.6388382098
 30
0.0
 10
5.7239591291
 20
3.6418867458
 30
0.0
 10
5.721143614
 20
3.6446783751
 30
0.0
 10
5.7184967101
 20
3.647220979
 30
0.0
 10
5.716027883
 20
3.6495216756
 30
0.0
 10
5.71374601
 20
3.6515885954
 30
0.0
 10
5.7116596689
 20
3.6534298999
 30
0.0
 10
5.7097771469
 20
3.6550543921
 30
0.0
 10
5.7081034671
 20
3.6564682665
 30
0.0
 10
5.706643017
 20
3.6576778946
 30
0.0
 10
5.7055598957
 20
3.6585595918
 30
0.0
 10
5.70480402
 20
3.6591686369
 30
0.0
 10
5.7041987909
 20
3.6596539793
 30
0.0
 10
5.7035829198
 20
3.6601446056
 30
0.0
 10
5.7030126433
 20
3.6605945645
 30
0.0
 10
5.7026696255
 20
3.6608629262
 30
0.0
 10
5.7025166989
 20
3.6609813923
 30
0.0
 10
5.7024784483
 20
3.6610109364
 30
0.0
 11
5.7838784483
 21
3.5450125934
 31
0.0
 11
5.7811598036
 21
3.5525720078
 31
0.0
 11
5.7782487356
 21
3.5599297127
 31
0.0
 11
5.7751675165
 21
3.5670682447
 31
0.0
 11
5.7735700604
 21
3.5705498635
 31
0.0
 11
5.7719384336
 21
3.573970288
 31
0.0
 11
5.768584185
 21
3.5806226019
 31
0.0
 11
5.7651279217
 21
3.5870164354
 31
0.0
 11
5.7615928183
 21
3.5931432686
 31
0.0
 11
5.7580020466
 21
3.5989950931
 31
0.0
 11
5.7543787644
 21
3.6045671503
 31
0.0
 11
5.7507461237
 21
3.609855954
 31
0.0
 11
5.7471272755
 21
3.6148580225
 31
0.0
 11
5.7435445474
 21
3.6195713116
 31
0.0
 11
5.7400179425
 21
3.6239978356
 31
0.0
 11
5.7365670561
 21
3.6281403203
 31
0.0
 11
5.7332114701
 21
3.6320015016
 31
0.0
 11
5.7299690956
 21
3.6355854001
 31
0.0
 11
5.7268545696
 21
3.6388985528
 31
0.0
 11
5.7238821491
 21
3.6419477889
 31
0.0
 11
5.7210660823
 21
3.6447399397
 31
0.0
 11
5.7184190137
 21
3.6472822325
 31
0.0
 11
5.7159501398
 21
3.6495827463
 31
0.0
 11
5.7136682099
 21
3.6516496705
 31
0.0
 11
5.7115819729
 21
3.6534911945
 31
0.0
 11
5.7096995249
 21
3.6551152615
 31
0.0
 11
5.7080260254
 21
3.6565287092
 31
0.0
 11
5.7065658091
 21
3.6577380644
 31
0.0
 11
5.7053232106
 21
3.6587498539
 31
0.0
 11
5.7047848726
 21
3.6591837011
 31
0.0
 11
5.7043024869
 21
3.6595705024
 31
0.0
 11
5.7035063585
 21
3.6602044132
 31
0.0
 11
5.7029361366
 21
3.6606541354
 31
0.0
 11
5.7025930802
 21
3.6609221496
 31
0.0
 11
5.7024784483
 21
3.6610109364
 31
0.0
  0
SPLINE
  5
23B
100
AcDbEntity
  8
0
100
AcDbSpline
 62
6
  6
CONTINUOUS
 70
0
 71
3
 72
41
 73
37
 74
35
 42
0.0000001
 43
0.0000001
 44
0.0000000001
 12
-0.1136819042
 22
-0.0878042824
 32
0.0
 13
-0.0464376885
 23
-0.1359287376
 33
0.0
 40
0.0
 40
0.0
 40
0.0
 40
0.0
 40
0.001009421
 40
0.0040401402
 40
0.0090959443
 40
0.0161807537
 40
0.0204852999
 40
0.0252986449
 40
0.0364543411
 40
0.0496537379
 40
0.0649036706
 40
0.082211968
 40
0.1015846267
 40
0.1230188665
 40
0.1465117366
 40
0.1720625752
 40
0.1996703457
 40
0.2293155212
 40
0.2609721198
 40
0.2946178066
 40
0.3302308285
 40
0.3677654126
 40
0.407166106
 40
0.4483823854
 40
0.491363394
 40
0.53603137
 40
0.582302691
 40
0.6300997739
 40
0.6793439577
 40
0.7299433204
 40
0.7818090567
 40
0.808191631
 40
0.8348592661
 40
0.8889876006
 40
0.9440734383
 40
1.0
 40
1.0
 40
1.0
 40
1.0
 10
6.3524784483
 20
3.6610109364
 30
0.0
 10
6.3524401973
 20
3.6609813926
 30
0.0
 10
6.3522872694
 20
3.6608629275
 30
0.0
 10
6.3519442495
 20
3.6605945667
 30
0.0
 10
6.3513739711
 20
3.6601446078
 30
0.0
 10
6.3507580994
 20
3.6596539794
 30
0.0
 10
6.3501528714
 20
3.6591686332
 30
0.0
 10
6.3493969967
 20
3.6585595838
 30
0.0
 10
6.3483138736
 20
3.6576778857
 30
0.0
 10
6.3468534205
 20
3.6564682583
 30
0.0
 10
6.3451797385
 20
3.6550543856
 30
0.0
 10
6.343297218
 20
3.6534298917
 30
0.0
 10
6.3412108787
 20
3.6515885854
 30
0.0
 10
6.3389290047
 20
3.649521666
 30
0.0
 10
6.3364601769
 20
3.6472209703
 30
0.0
 10
6.333813274
 20
3.6446783679
 30
0.0
 10
6.3309977621
 20
3.6418867393
 30
0.0
 10
6.3280260913
 20
3.6388382052
 30
0.0
 10
6.3249122417
 20
3.6355255237
 30
0.0
 10
6.3216705619
 20
3.6319419884
 30
0.0
 10
6.3183162886
 20
3.6280821013
 30
0.0
 10
6.3148669095
 20
3.6239412806
 30
0.0
 10
6.3113416075
 20
3.6195162067
 30
0.0
 10
6.3077601171
 20
3.6148043598
 30
0.0
 10
6.3041432581
 20
3.6098047003
 30
0.0
 10
6.3005125767
 20
3.6045185911
 30
0.0
 10
6.2968908771
 20
3.5989490478
 30
0.0
 10
6.2933015804
 20
3.593099781
 30
0.0
 10
6.2897683706
 20
3.5869759093
 30
0.0
 10
6.2863136137
 20
3.5805850424
 30
0.0
 10
6.2835353978
 20
3.5750756276
 30
0.0
 10
6.2813724395
 20
3.570541501
 30
0.0
 10
6.2792323352
 20
3.5658770748
 30
0.0
 10
6.2766535526
 20
3.5599026441
 30
0.0
 10
6.2737437588
 20
3.5525491927
 30
0.0
 10
6.2719441484
 20
3.5475466024
 30
0.0
 10
6.2710784483
 20
3.5450125934
 30
0.0
 11
6.3524784483
 21
3.6610109364
 31
0.0
 11
6.3523638154
 21
3.6609221503
 31
0.0
 11
6.3520207568
 21
3.6606541373
 31
0.0
 11
6.3514505328
 21
3.6602044151
 31
0.0
 11
6.3506544038
 21
3.6595705017
 31
0.0
 11
6.3501720187
 21
3.6591836976
 31
0.0
 11
6.3496336812
 21
3.6587498474
 31
0.0
 11
6.3483910812
 21
3.6577380555
 31
0.0
 11
6.3469308619
 21
3.6565287006
 31
0.0
 11
6.3452573605
 21
3.655115254
 31
0.0
 11
6.3433749141
 21
3.6534911865
 31
0.0
 11
6.3412886788
 21
3.6516496612
 31
0.0
 11
6.3390067478
 21
3.6495827365
 31
0.0
 11
6.3365378728
 21
3.6472822231
 31
0.0
 11
6.3338908055
 21
3.6447399318
 31
0.0
 11
6.3310747422
 21
3.641947783
 31
0.0
 11
6.3281023237
 21
3.6388985485
 31
0.0
 11
6.3249877986
 21
3.6355853969
 31
0.0
 11
6.3217454244
 21
3.6320014993
 31
0.0
 11
6.3183898384
 21
3.6281403185
 31
0.0
 11
6.3149389508
 21
3.6239978328
 31
0.0
 11
6.3114123437
 21
3.6195713061
 31
0.0
 11
6.3078296129
 21
3.6148580122
 31
0.0
 11
6.3042107603
 21
3.6098559346
 31
0.0
 11
6.3005781133
 21
3.6045671183
 31
0.0
 11
6.2969548255
 21
3.5989950508
 31
0.0
 11
6.2933640512
 21
3.5931432243
 31
0.0
 11
6.2898289496
 21
3.5870163929
 31
0.0
 11
6.2863726911
 21
3.580622563
 31
0.0
 11
6.2830184484
 21
3.5739702574
 31
0.0
 11
6.2813868243
 21
3.5705498397
 31
0.0
 11
6.2797893708
 21
3.5670682279
 31
0.0
 11
6.2767081563
 21
3.5599297058
 31
0.0
 11
6.2737970917
 21
3.5525720062
 31
0.0
 11
6.2710784483
 21
3.5450125934
 31
0.0
  0
ENDSEC
  0
SECTION
  2
OBJECTS
  0
DICTIONARY
  5
C
100
AcDbDictionary
280
0
281
1
  3
ACAD_GROUP
350
D
  3
ACAD_MLINESTYLE
350
17
  3
ACAD_LAYOUT
350
1A
  3
ACAD_PLOTSETTINGS
350
19
  3
ACAD_PLOTSTYLENAME
350
E
  0
DICTIONARY
  5
D
102
{ACAD_REACTORS
330
C
102
}
100
AcDbDictionary
280
0
281
1
  0
ACDBDICTIONARYWDFLT
  5
E
102
{ACAD_REACTORS
330
C
102
}
100
AcDbDictionary
281
1
  3
Normal
350
F
100
AcDbDictionaryWithDefault
340
F
  0
DICTIONARY
  5
17
102
{ACAD_REACTORS
330
C
102
}
100
AcDbDictionary
280
0
281
1
  3
Standard
350
18
  0
DICTIONARY
  5
19
102
{ACAD_REACTORS
330
C
102
}
100
AcDbDictionary
281
1
  0
DICTIONARY
  5
1A
102
{ACAD_REACTORS
330
C
102
}
100
AcDbDictionary
281
1
  3
Model
350
23C
  3
Layout1
350
23D
  0
ACDBPLACEHOLDER
  5
F
102
{ACAD_REACTORS
330
E
102
}
  0
MLINESTYLE
  5
18
102
{ACAD_REACTORS
330
17
102
}
100
AcDbMlineStyle
  2
STANDARD
 70
0
  3

 62
256
 51
90.0
 52
90.0
 71
2
 49
0.5
 62
256
  6
BYLAYER
 49
-0.5
 62
256
  6
BYLAYER
  0
LAYOUT
  5
23C
102
{ACAD_REACTORS
330
1A
102
}
100
AcDbPlotSettings
  1

  2
none_device
  4
ISO_A4_(297.00_x_210.00_MM)
  6

 40
0.0
 41
0.0
 42
0.0
 43
0.0
 44
297.0
 45
210.0
 46
0.0
 47
0.0
 48
0.0
 49
0.0
140
0.0
141
0.0
142
1.0
143
1.0
 70
1024
 72
0
 73
0
 74
0
  7

 75
0
147
1.0
148
0.0
149
0.0
100
AcDbLayout
  1
Model
 70
0
 71
0
 10
0.0
 20
0.0
 11
11.6929133858
 21
8.2677165354
 12
0.0
 22
0.0
 32
0.0
 14
0.0
 24
0.0
 34
0.0
 15
0.0
 25
0.0
 35
0.0
146
0.0
 13
0.0
 23
0.0
 33
0.0
 16
1.0
 26
0.0
 36
0.0
 17
0.0
 27
1.0
 37
0.0
 76
0
330
203
345
0
346
0
  0
LAYOUT
  5
23D
102
{ACAD_REACTORS
330
1A
102
}
100
AcDbPlotSettings
  1

  2
none_device
  4
ISO_A4_(297.00_x_210.00_MM)
  6

 40
0.0
 41
0.0
 42
0.0
 43
0.0
 44
297.0
 45
210.0
 46
0.0
 47
0.0
 48
0.0
 49
0.0
140
0.0
141
0.0
142
1.0
143
1.0
 70
0
 72
0
 73
0
 74
0
  7

 75
0
147
1.0
148
0.0
149
0.0
100
AcDbLayout
  1
Layout1
 70
0
 71
1
 10
0.0
 20
0.0
 11
11.6929133858
 21
8.2677165354
 12
0.0
 22
0.0
 32
0.0
 14
0.0
 24
0.0
 34
0.0
 15
0.0
 25
0.0
 35
0.0
146
0.0
 13
0.0
 23
0.0
 33
0.0
 16
1.0
 26
0.0
 36
0.0
 17
0.0
 27
1.0
 37
0.0
 76
0
330
204
345
0
346
0
  0
ENDSEC
  0
EOF
