  0
SECTION
  2
HEADER
  9
$ACADVER
  1
AC1015
  9
$DWGCODEPAGE
  3
ANSI_1252
  9
$EXTMAX
 10
11.6929133858
 20
8.2677165354
 30
0.0
  9
$EXTMIN
 10
0.0
 20
0.0
 30
0.0
  9
$LIMMIN
 10
0.0
 20
0.0
  9
$LIMMAX
 10
11.6929133858
 20
8.2677165354
  9
$VIEWCTR
 10
5.8464566929
 20
4.1338582677
  9
$VIEWSIZE
 40
8.2677165354
  9
$CLAYER
  8
0
  9
$LTSCALE
 40
0.6431102362
  9
$CELTYPE
  6
BYLAYER
  9
$DIMSCALE
 40
1.0
  9
$DIMASZ
 40
0.1875
  9
$DIMEXO
 40
0.0730807087
  9
$DIMDLI
 40
0.4443307087
  9
$DIMEXE
 40
0.2104724409
  9
$DIMCEN
 40
0.1052362205
  9
$DIMLFAC
 40
1.0
  9
$DIMBLK
  1
_CLOSED
  9
$DIMTXT
 40
0.15625
  9
$DIMTOL
 70
0
  9
$DIMLIM
 70
0
  9
$DIMTFAC
 40
1.0
  9
$PDMODE
 70
3
  9
$PDSIZE
 40
0.3125
  9
$HANDSEED
  5
240
  9
$TILEMODE
 70
1
  9
$MEASUREMENT
 70
0
  9
$INSUNITS
 70
1
  0
ENDSEC
  0
SECTION
  2
CLASSES
  0
CLASS
  1
ACDBDICTIONARYWDFLT
  2
AcDbDictionaryWithDefault
  3
AutoCAD 2000
 90
0
280
0
281
0
  0
CLASS
  1
ACDBPLACEHOLDER
  2
AcDbPlaceHolder
  3
AutoCAD 2000
 90
0
280
0
281
0
  0
CLASS
  1
LAYOUT
  2
AcDbLayout
  3
AutoCAD 2000
 90
0
280
0
281
0
  0
ENDSEC
  0
SECTION
  2
TABLES
  0
TABLE
  2
VPORT
  5
8
100
AcDbSymbolTable
 70
2
  0
VPORT
  5
1F4
100
AcDbSymbolTableRecord
100
AcDbViewportTableRecord
  2
*ACTIVE
 70
0
 10
0.0
 20
0.0
 11
1.0
 21
1.0
 12
5.8464566929
 22
4.1338582677
 13
0.0
 23
0.0
 14
1.0
 24
1.0
 15
0.0
 25
0.0
 16
0.0
 26
0.0
 36
1.0
 17
0.0
 27
0.0
 37
0.0
 40
8.2677165354
 41
1.4142857143
 42
50.0
 43
0.0
 44
0.0
 50
0.0
 51
0.0
 71
0
 72
100
 73
1
 74
1
 75
0
 76
0
 77
0
 78
0
  0
ENDTAB
  0
TABLE
  2
LTYPE
  5
5
100
AcDbSymbolTable
 70
6
  0
LTYPE
  5
14
100
AcDbSymbolTableRecord
100
AcDbLinetypeTableRecord
  2
BYBLOCK
 70
0
  3

 72
65
 73
0
 40
0.0
  0
LTYPE
  5
15
100
AcDbSymbolTableRecord
100
AcDbLinetypeTableRecord
  2
BYLAYER
 70
0
  3

 72
65
 73
0
 40
0.0
  0
LTYPE
  5
16
100
AcDbSymbolTableRecord
100
AcDbLinetypeTableRecord
  2
CONTINUOUS
 70
64
  3
Solid line
 72
65
 73
0
 40
0.0
  0
LTYPE
  5
1F5
100
AcDbSymbolTableRecord
100
AcDbLinetypeTableRecord
  2
CENTER
 70
64
  3
____ _ ____ _ ____ _ ____ _ ____ _ ____ _ ____
 72
65
 73
4
 40
0.6
 49
0.375
 74
0
 49
-0.075
 74
0
 49
0.075
 74
0
 49
-0.075
 74
0
  0
LTYPE
  5
1F6
100
AcDbSymbolTableRecord
100
AcDbLinetypeTableRecord
  2
HIDDEN
 70
64
  3
- - - - - - - - - - - - - - - - - - - -
 72
65
 73
2
 40
0.2
 49
0.1
 74
0
 49
-0.1
 74
0
  0
LTYPE
  5
1F7
100
AcDbSymbolTableRecord
100
AcDbLinetypeTableRecord
  2
PHANTOM
 70
64
  3
_____ _ _ _____ _ _ _____ _ _ _____
 72
65
 73
6
 40
0.8
 49
0.45
 74
0
 49
-0.05
 74
0
 49
0.1
 74
0
 49
-0.05
 74
0
 49
0.1
 74
0
 49
-0.05
 74
0
  0
LTYPE
  5
1F8
100
AcDbSymbolTableRecord
100
AcDbLinetypeTableRecord
  2
DOT
 70
64
  3
. . . . . . . . . . . . . . . . . . . .
 72
65
 73
2
 40
0.2
 49
0.1
 74
0
 49
-0.1
 74
0
  0
LTYPE
  5
1F9
100
AcDbSymbolTableRecord
100
AcDbLinetypeTableRecord
  2
DASHED
 70
64
  3
- - - - - - - - - - - - - - - - - - - -
 72
65
 73
2
 40
0.2
 49
0.1
 74
0
 49
-0.1
 74
0
  0
ENDTAB
  0
TABLE
  2
LAYER
  5
2
100
AcDbSymbolTable
 70
36
  0
LAYER
  5
10
100
AcDbSymbolTableRecord
100
AcDbLayerTableRecord
  2
0
 70
0
 62
7
  6
CONTINUOUS
370
-3
390
F
  0
LAYER
  5
1FA
100
AcDbSymbolTableRecord
100
AcDbLayerTableRecord
  2
DEFAULT_1
 70
0
 62
7
  6
CENTER
370
-3
390
F
  0
LAYER
  5
1FB
100
AcDbSymbolTableRecord
100
AcDbLayerTableRecord
  2
DEFAULT_2
 70
0
 62
8
  6
HIDDEN
370
-3
390
F
  0
LAYER
  5
1FC
100
AcDbSymbolTableRecord
100
AcDbLayerTableRecord
  2
DEFAULT_3
 70
0
 62
7
  6
PHANTOM
370
-3
390
F
  0
LAYER
  5
1FD
100
AcDbSymbolTableRecord
100
AcDbLayerTableRecord
  2
DEFAULT_COORDINATE_SYSTEM
 70
0
 62
7
  6
CONTINUOUS
370
-3
390
F
  0
LAYER
  5
1FE
100
AcDbSymbolTableRecord
100
AcDbLayerTableRecord
  2
DEFAULT_DATUM_AXES
 70
0
 62
7
  6
CONTINUOUS
370
-3
390
F
  0
LAYER
  5
1FF
100
AcDbSymbolTableRecord
100
AcDbLayerTableRecord
  2
DEFAULT_DATUM_CURVES
 70
0
 62
7
  6
CONTINUOUS
370
-3
390
F
  0
LAYER
  5
200
100
AcDbSymbolTableRecord
100
AcDbLayerTableRecord
  2
DEFAULT_DATUM_PLANES
 70
0
 62
7
  6
CONTINUOUS
370
-3
390
F
  0
ENDTAB
  0
TABLE
  2
STYLE
  5
3
100
AcDbSymbolTable
 70
1
  0
STYLE
  5
11
100
AcDbSymbolTableRecord
100
AcDbTextStyleTableRecord
  2
STANDARD
 70
0
 40
0.0
 41
0.8
 50
0.0
 71
0
 42
0.2
  3
txt
  4

  0
STYLE
  5
201
100
AcDbSymbolTableRecord
100
AcDbTextStyleTableRecord
  2
TEXTSTYLE_1
 70
0
 40
0.0
 41
0.8
 50
0.0
 71
0
 42
0.2
  3
gdt
  4

  0
ENDTAB
  0
TABLE
  2
VIEW
  5
6
100
AcDbSymbolTable
 70
0
  0
ENDTAB
  0
TABLE
  2
UCS
  5
7
100
AcDbSymbolTable
 70
0
  0
ENDTAB
  0
TABLE
  2
APPID
  5
9
100
AcDbSymbolTable
 70
1
  0
APPID
  5
202
100
AcDbSymbolTableRecord
100
AcDbRegAppTableRecord
  2
ACAD
 70
0
  0
ENDTAB
  0
TABLE
  2
BLOCK_RECORD
  5
1
100
AcDbSymbolTable
 70
0
  0
BLOCK_RECORD
  5
203
100
AcDbSymbolTableRecord
100
AcDbBlockTableRecord
  2
*Model_Space
  0
BLOCK_RECORD
  5
204
100
AcDbSymbolTableRecord
100
AcDbBlockTableRecord
  2
*Paper_Space
  0
ENDTAB
  0
TABLE
  2
DIMSTYLE
  5
A
100
AcDbSymbolTable
 70
1
100
AcDbDimStyleTable
 71
0
  0
DIMSTYLE
105
205
100
AcDbSymbolTableRecord
100
AcDbDimStyleTableRecord
  2
STANDARD
 70
0
  3

  4

 40
1.0
 41
0.1875
 42
0.0625
 43
0.38
 44
0.18
 45
0.0
 46
0.0
 47
0.01
 48
0.01
140
0.15625
141
0.09
142
0.0
143
25.4
144
1.0
145
0.0
146
1.0
147
0.09
 71
0.0
 72
0.0
 73
1
 74
1
 75
0
 76
0
 77
0
 78
4
170
0
171
2
172
0
173
0
174
0
175
0
176
0
177
0
178
0
270
2
271
2
272
2
273
2
274
2
275
0
280
0
281
0
282
0
283
1
284
4
285
0
286
0
287
3
288
0
340
11
  0
ENDTAB
  0
ENDSEC
  0
SECTION
  2
BLOCKS
  0
BLOCK
  5
20
100
AcDbEntity
  8
0
100
AcDbBlockBegin
  2
*Model_Space
 70
0
 10
0.0
 20
0.0
 30
0.0
  3
*Model_Space
  1

  0
ENDBLK
  5
21
100
AcDbEntity
  8
0
100
AcDbBlockEnd
  0
BLOCK
  5
1C
100
AcDbEntity
  8
0
100
AcDbBlockBegin
  2
*Paper_Space
 70
0
 10
0.0
 20
0.0
 30
0.0
  3
*Paper_Space
  1

  0
ENDBLK
  5
1D
100
AcDbEntity
  8
0
100
AcDbBlockEnd
  0
ENDSEC
  0
SECTION
  2
ENTITIES
  0
LINE
  5
206
100
AcDbEntity
  8
0
100
AcDbLine
 62
6
  6
CONTINUOUS
 10
6.4876573446
 20
2.8426204181
 11
6.3196573446
 21
2.8426204181
  0
LINE
  5
207
100
AcDbEntity
  8
0
100
AcDbLine
 62
6
  6
CONTINUOUS
 10
5.5076573446
 20
2.8426204181
 11
5.3396573446
 21
2.8426204181
  0
LINE
  5
208
100
AcDbEntity
  8
0
100
AcDbLine
 62
6
  6
CONTINUOUS
 10
5.3396573446
 20
2.8426204181
 11
5.3196573446
 21
2.8626204181
  0
LINE
  5
209
100
AcDbEntity
  8
0
100
AcDbLine
 62
9
  6
CONTINUOUS
 10
4.5386573446
 20
3.0456204181
 11
4.5386573446
 21
3.2956204181
  0
LINE
  5
20A
100
AcDbEntity
  8
0
100
AcDbLine
 62
6
  6
CONTINUOUS
 10
5.3196573446
 20
3.0456204181
 11
4.2549331719
 21
3.0456204181
  0
LINE
  5
20B
100
AcDbEntity
  8
0
100
AcDbLine
 62
6
  6
CONTINUOUS
 10
6.5076573446
 20
3.0456204181
 11
7.5723815172
 21
3.0456204181
  0
LINE
  5
20C
100
AcDbEntity
  8
0
100
AcDbLine
 62
6
  6
CONTINUOUS
 10
5.3196573446
 20
3.2956204181
 11
4.2549331719
 21
3.2956204181
  0
LINE
  5
20D
100
AcDbEntity
  8
0
100
AcDbLine
 62
6
  6
CONTINUOUS
 10
6.5076573446
 20
3.2956204181
 11
7.5723815172
 21
3.2956204181
  0
LINE
  5
20E
100
AcDbEntity
  8
0
100
AcDbLine
 62
6
  6
CONTINUOUS
 10
5.1011573446
 20
5.5806204181
 11
5.1011573446
 21
5.4936204181
  0
LINE
  5
20F
100
AcDbEntity
  8
0
100
AcDbLine
 62
6
  6
CONTINUOUS
 10
6.4876573446
 20
3.4986204181
 11
6.3196573446
 21
3.4986204181
  0
LINE
  5
210
100
AcDbEntity
  8
0
100
AcDbLine
 62
6
  6
CONTINUOUS
 10
5.5076573446
 20
3.4986204181
 11
5.3396573446
 21
3.4986204181
  0
LINE
  5
211
100
AcDbEntity
  8
0
100
AcDbLine
 62
6
  6
CONTINUOUS
 10
5.3196573446
 20
2.8626258015
 11
5.3196573446
 21
3.4786150347
  0
LINE
  5
212
100
AcDbEntity
  8
0
100
AcDbLine
 62
6
  6
CONTINUOUS
 10
5.3396573446
 20
2.8426204181
 11
5.3396573446
 21
3.4986204181
  0
LINE
  5
213
100
AcDbEntity
  8
0
100
AcDbLine
 62
6
  6
CONTINUOUS
 10
5.5076573446
 20
2.8022677431
 11
5.5076573446
 21
3.5389730931
  0
LINE
  5
214
100
AcDbEntity
  8
0
100
AcDbLine
 62
6
  6
CONTINUOUS
 10
5.5241573446
 20
4.1806204181
 11
5.5041573446
 21
4.2006204181
  0
LINE
  5
215
100
AcDbEntity
  8
0
100
AcDbLine
 62
6
  6
CONTINUOUS
 10
5.6011573446
 20
4.1806204181
 11
5.6011573446
 21
3.5749526014
  0
LINE
  5
216
100
AcDbEntity
  8
0
100
AcDbLine
 62
6
  6
CONTINUOUS
 10
5.6700573446
 20
2.8022647427
 11
5.6700573446
 21
3.4696218624
  0
LINE
  5
217
100
AcDbEntity
  8
0
100
AcDbLine
 62
6
  6
CONTINUOUS
 10
5.5241573446
 20
4.1806204181
 11
6.3031573446
 21
4.1806204181
  0
LINE
  5
218
100
AcDbEntity
  8
0
100
AcDbLine
 62
6
  6
CONTINUOUS
 10
5.5041573446
 20
4.2006204181
 11
6.3231573446
 21
4.2006204181
  0
LINE
  5
219
100
AcDbEntity
  8
0
100
AcDbLine
 62
6
  6
CONTINUOUS
 10
6.5076573446
 20
3.4786204181
 11
6.4876573446
 21
3.4986204181
  0
LINE
  5
21A
100
AcDbEntity
  8
0
100
AcDbLine
 62
6
  6
CONTINUOUS
 10
5.8324573446
 20
2.8022647427
 11
5.8324573446
 21
3.3620736596
  0
LINE
  5
21B
100
AcDbEntity
  8
0
100
AcDbLine
 62
6
  6
CONTINUOUS
 10
5.9948573446
 20
2.8022647427
 11
5.9948573446
 21
3.3620736596
  0
LINE
  5
21C
100
AcDbEntity
  8
0
100
AcDbLine
 62
6
  6
CONTINUOUS
 10
5.3396573446
 20
3.4986204181
 11
5.3196573446
 21
3.4786204181
  0
LINE
  5
21D
100
AcDbEntity
  8
0
100
AcDbLine
 62
6
  6
CONTINUOUS
 10
6.1572573446
 20
2.8022647427
 11
6.1572573446
 21
3.4696218624
  0
LINE
  5
21E
100
AcDbEntity
  8
0
100
AcDbLine
 62
6
  6
CONTINUOUS
 10
6.2261573446
 20
4.1806204181
 11
6.2261573446
 21
3.5749527235
  0
LINE
  5
21F
100
AcDbEntity
  8
0
100
AcDbLine
 62
6
  6
CONTINUOUS
 10
6.3196573446
 20
2.8022677431
 11
6.3196573446
 21
3.5389730931
  0
LINE
  5
220
100
AcDbEntity
  8
0
100
AcDbLine
 62
6
  6
CONTINUOUS
 10
6.3231573446
 20
4.2006204181
 11
6.3031573446
 21
4.1806204181
  0
LINE
  5
221
100
AcDbEntity
  8
0
100
AcDbLine
 62
6
  6
CONTINUOUS
 10
6.4876573446
 20
2.8426204181
 11
6.4876573446
 21
3.4986204181
  0
LINE
  5
222
100
AcDbEntity
  8
0
100
AcDbLine
 62
6
  6
CONTINUOUS
 10
6.5076573446
 20
2.8626258015
 11
6.5076573446
 21
3.4786150347
  0
LINE
  5
223
100
AcDbEntity
  8
0
100
AcDbLine
 62
6
  6
CONTINUOUS
 10
6.7261573446
 20
5.5806204181
 11
6.7261573446
 21
5.4936204181
  0
LINE
  5
224
100
AcDbEntity
  8
0
100
AcDbLine
 62
6
  6
CONTINUOUS
 10
5.1011573446
 20
5.4936204181
 11
6.7261573446
 21
5.4936204181
  0
LINE
  5
225
100
AcDbEntity
  8
0
100
AcDbLine
 62
9
  6
CONTINUOUS
 10
5.1006546707
 20
5.5806204181
 11
6.7266600184
 21
5.5806204181
  0
LINE
  5
226
100
AcDbEntity
  8
0
100
AcDbLine
 62
9
  6
CONTINUOUS
 10
7.2886573446
 20
3.2956204181
 11
7.2886573446
 21
3.0456204181
  0
LINE
  5
227
100
AcDbEntity
  8
0
100
AcDbLine
 62
6
  6
CONTINUOUS
 10
4.9136573446
 20
5.7686204181
 11
6.9136573446
 21
5.7686204181
  0
LINE
  5
228
100
AcDbEntity
  8
0
100
AcDbLine
 62
6
  6
CONTINUOUS
 10
6.5076573446
 20
2.8626204181
 11
6.4876573446
 21
2.8426204181
  0
LINE
  5
229
100
AcDbEntity
  8
0
100
AcDbLine
 62
6
  6
CONTINUOUS
 10
4.7336573446
 20
5.9556204181
 11
7.0936573446
 21
5.9556204181
  0
ARC
  5
22A
100
AcDbEntity
  8
0
100
AcDbCircle
 62
6
  6
CONTINUOUS
 10
2.5124675444
 20
3.977478895
 40
3.0
100
AcDbArc
 50
4.2656285905
 51
30.3566145709
  0
CIRCLE
  5
22B
100
AcDbEntity
  8
0
100
AcDbCircle
 62
6
  6
CONTINUOUS
 10
4.0386573446
 20
3.1706204181
 40
0.25
  0
ARC
  5
22C
100
AcDbEntity
  8
0
100
AcDbCircle
 62
6
  6
CONTINUOUS
 10
5.5888573446
 20
3.4916204181
 40
0.094
100
AcDbArc
 50
90.1219060058
 51
149.7493496838
  0
ARC
  5
22D
100
AcDbEntity
  8
0
100
AcDbCircle
 62
6
  6
CONTINUOUS
 10
5.7512573446
 20
2.8496204181
 40
0.094
100
AcDbArc
 50
210.2506503162
 51
329.7493496838
  0
ARC
  5
22E
100
AcDbEntity
  8
0
100
AcDbCircle
 62
6
  6
CONTINUOUS
 10
5.5888573446
 20
2.8496204181
 40
0.094
100
AcDbArc
 50
210.2506503162
 51
329.7493496838
  0
ARC
  5
22F
100
AcDbEntity
  8
0
100
AcDbCircle
 62
6
  6
CONTINUOUS
 10
4.9207934557
 20
5.9556204181
 40
0.1871361111
100
AcDbArc
 50
180.0
 51
267.8145949287
  0
ARC
  5
230
100
AcDbEntity
  8
0
100
AcDbCircle
 62
6
  6
CONTINUOUS
 10
5.1006546707
 20
5.7676204181
 40
0.187
100
AcDbArc
 50
179.6936039968
 51
270.0
  0
ARC
  5
231
100
AcDbEntity
  8
0
100
AcDbCircle
 62
6
  6
CONTINUOUS
 10
9.3148471448
 20
3.977478895
 40
3.0
100
AcDbArc
 50
149.6433854291
 51
175.7343714095
  0
CIRCLE
  5
232
100
AcDbEntity
  8
0
100
AcDbCircle
 62
6
  6
CONTINUOUS
 10
7.7886573446
 20
3.1706204181
 40
0.25
  0
ARC
  5
233
100
AcDbEntity
  8
0
100
AcDbCircle
 62
6
  6
CONTINUOUS
 10
6.2384573446
 20
3.4916204181
 40
0.094
100
AcDbArc
 50
30.2506503162
 51
89.8780939942
  0
ARC
  5
234
100
AcDbEntity
  8
0
100
AcDbCircle
 62
6
  6
CONTINUOUS
 10
6.2384573446
 20
2.8496204181
 40
0.094
100
AcDbArc
 50
210.2506503162
 51
329.7493496838
  0
ARC
  5
235
100
AcDbEntity
  8
0
100
AcDbCircle
 62
6
  6
CONTINUOUS
 10
6.0760573446
 20
2.8496204181
 40
0.094
100
AcDbArc
 50
210.2506503162
 51
329.7493496838
  0
ARC
  5
236
100
AcDbEntity
  8
0
100
AcDbCircle
 62
6
  6
CONTINUOUS
 10
5.9136573446
 20
2.8496204181
 40
0.094
100
AcDbArc
 50
210.2506503162
 51
329.7493496838
  0
ARC
  5
237
100
AcDbEntity
  8
0
100
AcDbCircle
 62
6
  6
CONTINUOUS
 10
6.9065212334
 20
5.9556204181
 40
0.1871361111
100
AcDbArc
 50
272.1854050713
 51
360.0
  0
ARC
  5
238
100
AcDbEntity
  8
0
100
AcDbCircle
 62
6
  6
CONTINUOUS
 10
6.7266600184
 20
5.7676204181
 40
0.187
100
AcDbArc
 50
270.0
 51
0.3063960032
  0
SPLINE
  5
239
100
AcDbEntity
  8
0
100
AcDbSpline
 62
6
  6
CONTINUOUS
 70
0
 71
3
 72
31
 73
27
 74
25
 42
0.0000001
 43
0.0000001
 44
0.0000000001
 12
-0.1136764638
 22
-0.0877998184
 32
0.0
 13
-0.0464354117
 23
-0.1359220732
 33
0.0
 40
0.0
 40
0.0
 40
0.0
 40
0.0
 40
0.0010094705
 40
0.0040403387
 40
0.0090963912
 40
0.0161815486
 40
0.0364560286
 40
0.0649064254
 40
0.0822155721
 40
0.1015891824
 40
0.123024476
 40
0.1465185007
 40
0.1720705936
 40
0.1996797195
 40
0.2293263532
 40
0.2609845079
 40
0.3302431618
 40
0.4071776184
 40
0.4913731376
 40
0.5823096131
 40
0.63010904
 40
0.6793556426
 40
0.7299574917
 40
0.781825775
 40
0.8889959425
 40
1.0
 40
1.0
 40
1.0
 40
1.0
 10
6.2386573446
 20
3.5856202054
 30
0.0
 10
6.2386190935
 20
3.5855906616
 30
0.0
 10
6.2384661656
 20
3.5854721965
 30
0.0
 10
6.2381231463
 20
3.585203835
 30
0.0
 10
6.2375528618
 20
3.584753883
 30
0.0
 10
6.2363390094
 20
3.5837867684
 30
0.0
 10
6.2342612025
 20
3.5821065357
 30
0.0
 10
6.2318370828
 20
3.5800765563
 30
0.0
 10
6.2294761193
 20
3.5780391575
 30
0.0
 10
6.2273897724
 20
3.5761978543
 30
0.0
 10
6.2251079004
 20
3.5741309337
 30
0.0
 10
6.2226390716
 20
3.5718302382
 30
0.0
 10
6.2199921681
 20
3.5692876353
 30
0.0
 10
6.2171766595
 20
3.5664960068
 30
0.0
 10
6.2142049741
 20
3.56344747
 30
0.0
 10
6.2099233713
 20
3.5588923971
 30
0.0
 10
6.2042750986
 20
3.5525168369
 30
0.0
 10
6.1973084447
 20
3.5439601329
 30
0.0
 10
6.1901201584
 20
3.5342604414
 30
0.0
 10
6.1841882602
 20
3.5253809838
 30
0.0
 10
6.1794804875
 20
3.5177090778
 30
0.0
 10
6.175947265
 20
3.5115851845
 30
0.0
 10
6.1724925095
 20
3.5051942591
 30
0.0
 10
6.1679724715
 20
3.4962310163
 30
0.0
 10
6.1626691368
 20
3.4844307746
 30
0.0
 10
6.1589755176
 20
3.4746511629
 30
0.0
 10
6.1572573446
 20
3.4696218624
 30
0.0
 11
6.2386573446
 21
3.5856202054
 31
0.0
 11
6.2385427116
 21
3.5855314193
 31
0.0
 11
6.2381996529
 21
3.5852634063
 31
0.0
 11
6.2376294289
 21
3.5848136841
 31
0.0
 11
6.2368332998
 21
3.5841797706
 31
0.0
 11
6.2345699772
 21
3.582347324
 31
0.0
 11
6.2314362561
 21
3.5797245225
 31
0.0
 11
6.2295538097
 21
3.5781004549
 31
0.0
 11
6.2274675743
 21
3.5762589294
 31
0.0
 11
6.2251856429
 21
3.5741920045
 31
0.0
 11
6.2227167676
 21
3.5718914909
 31
0.0
 11
6.2200697002
 21
3.5693491993
 31
0.0
 11
6.2172536369
 21
3.5665570502
 31
0.0
 11
6.214281218
 21
3.5635078151
 31
0.0
 11
6.2111666924
 21
3.5601946632
 31
0.0
 11
6.2045687329
 21
3.5527495853
 31
0.0
 11
6.1975912389
 21
3.5441805735
 31
0.0
 11
6.1903896565
 21
3.5344652036
 31
0.0
 11
6.1831337225
 21
3.5236043212
 31
0.0
 11
6.1795429483
 21
3.5177524945
 31
0.0
 11
6.1760078464
 21
3.5116256625
 31
0.0
 11
6.1725515876
 21
3.5052318319
 31
0.0
 11
6.1691973445
 21
3.4985795259
 31
0.0
 11
6.1628870524
 21
3.4845389744
 31
0.0
 11
6.1572573446
 21
3.4696218624
 31
0.0
  0
SPLINE
  5
23A
100
AcDbEntity
  8
0
100
AcDbSpline
 62
6
  6
CONTINUOUS
 70
0
 71
3
 72
41
 73
37
 74
35
 42
0.0000001
 43
0.0000001
 44
0.0000000001
 12
-0.0601971179
 22
0.2241242513
 32
0.0
 13
-0.1416516822
 23
-0.1838210378
 33
0.0
 40
0.0
 40
0.0
 40
0.0
 40
0.0
 40
0.0695844644
 40
0.1390580448
 40
0.1737259909
 40
0.2083244299
 40
0.2428312643
 40
0.2772301257
 40
0.345620294
 40
0.3795631323
 40
0.4132888128
 40
0.4467632063
 40
0.4799402026
 40
0.5127762617
 40
0.5452294191
 40
0.5772485551
 40
0.6087848746
 40
0.6397950355
 40
0.6702349071
 40
0.7000686116
 40
0.7292720189
 40
0.7578312514
 40
0.7718741266
 40
0.7857617884
 40
0.8130837689
 40
0.8398695351
 40
0.8662348064
 40
0.8793134043
 40
0.8923541319
 40
0.918443966
 40
0.9315833426
 40
0.9448408998
 40
0.9582701004
 40
0.9719169263
 40
0.9858148408
 40
1.0
 40
1.0
 40
1.0
 40
1.0
 10
5.8324573446
 20
3.3620736596
 30
0.0
 10
5.8310610832
 20
3.3672721816
 30
0.0
 10
5.8279578811
 20
3.377580182
 30
0.0
 10
5.8232302911
 20
3.3901726666
 30
0.0
 10
5.8189031186
 20
3.3999965455
 30
0.0
 10
5.8153841756
 20
3.4072139408
 30
0.0
 10
5.8115879862
 20
3.4142661811
 30
0.0
 10
5.8061668046
 20
3.4234016461
 30
0.0
 10
5.8001778386
 20
3.4321403697
 30
0.0
 10
5.7936407932
 20
3.4403929343
 30
0.0
 10
5.7884946087
 20
3.4462905655
 30
0.0
 10
5.7831064443
 20
3.4518859118
 30
0.0
 10
5.7774949802
 20
3.4571575275
 30
0.0
 10
5.7716792503
 20
3.4620817971
 30
0.0
 10
5.7656800858
 20
3.4666344677
 30
0.0
 10
5.7595233001
 20
3.4707948822
 30
0.0
 10
5.7532354906
 20
3.4745413478
 30
0.0
 10
5.7468443717
 20
3.4778515129
 30
0.0
 10
5.7403800334
 20
3.4807049683
 30
0.0
 10
5.7338733246
 20
3.4830807627
 30
0.0
 10
5.7273563816
 20
3.4849574354
 30
0.0
 10
5.7219126558
 20
3.4860922417
 30
0.0
 10
5.717587256
 20
3.486721749
 30
0.0
 10
5.7133345441
 20
3.4871589802
 30
0.0
 10
5.7080701634
 20
3.487352536
 30
0.0
 10
5.7018462702
 20
3.4869780092
 30
0.0
 10
5.6967820513
 20
3.4861285373
 30
0.0
 10
5.6928504374
 20
3.4851064105
 30
0.0
 10
5.6890094005
 20
3.4838523289
 30
0.0
 10
5.6852904452
 20
3.4822295786
 30
0.0
 10
5.6817540086
 20
3.4802295575
 30
0.0
 10
5.6791843732
 20
3.4785250182
 30
0.0
 10
5.6767145073
 20
3.4766141126
 30
0.0
 10
5.6743544955
 20
3.474494
 30
0.0
 10
5.6721155795
 20
3.4721647746
 30
0.0
 10
5.6707271284
 20
3.4704910393
 30
0.0
 10
5.6700573446
 20
3.4696218624
 30
0.0
 11
5.8324573446
 21
3.3620736596
 31
0.0
 11
5.8277848919
 21
3.3775312072
 31
0.0
 11
5.8220988474
 21
3.3926178263
 31
0.0
 11
5.8188537403
 21
3.3999796364
 31
0.0
 11
5.815333143
 21
3.4071958041
 31
0.0
 11
5.8115354904
 21
3.4142459524
 31
0.0
 11
5.8074592869
 21
3.4211096715
 31
0.0
 11
5.7984749978
 21
3.4341930852
 31
0.0
 11
5.7935820989
 21
3.4403661876
 31
0.0
 11
5.7884344491
 21
3.4462617759
 31
0.0
 11
5.7830446763
 21
3.4518561642
 31
0.0
 11
5.7774314057
 21
3.4571259372
 31
0.0
 11
5.771613898
 21
3.4620477084
 31
0.0
 11
5.7656128746
 21
3.4665983784
 31
0.0
 11
5.7594542031
 21
3.4707558588
 31
0.0
 11
5.753164883
 21
3.4744982839
 31
0.0
 11
5.7467725609
 21
3.4778039101
 31
0.0
 11
5.740307845
 21
3.4806515533
 31
0.0
 11
5.733802191
 21
3.4830201893
 31
0.0
 11
5.7272875699
 21
3.4848882564
 31
0.0
 11
5.7207976374
 21
3.4862324367
 31
0.0
 11
5.717572554
 21
3.4867006705
 31
0.0
 11
5.7143664411
 21
3.4870289571
 31
0.0
 11
5.7080297689
 21
3.4872505804
 31
0.0
 11
5.7018255846
 21
3.4868657384
 31
0.0
 11
5.6957934903
 21
3.48584095
 31
0.0
 11
5.6928563739
 21
3.4850759052
 31
0.0
 11
5.6899799478
 21
3.4841352413
 31
0.0
 11
5.6844344707
 21
3.4817050295
 31
0.0
 11
5.6817806526
 21
3.480203359
 31
0.0
 11
5.6792170858
 21
3.478502213
 31
0.0
 11
5.6767520658
 21
3.4765953467
 31
0.0
 11
5.6743956328
 21
3.4744794486
 31
0.0
 11
5.6721599585
 21
3.4721547905
 31
0.0
 11
5.6700573446
 21
3.4696218624
 31
0.0
  0
SPLINE
  5
23B
100
AcDbEntity
  8
0
100
AcDbSpline
 62
6
  6
CONTINUOUS
 70
0
 71
3
 72
41
 73
37
 74
35
 42
0.0000001
 43
0.0000001
 44
0.0000000001
 12
-0.0738554013
 22
0.2123286334
 32
0.0
 13
-0.0738554013
 23
-0.2123286334
 33
0.0
 40
0.0
 40
0.0
 40
0.0
 40
0.0
 40
0.0624705019
 40
0.0936937604
 40
0.1248992455
 40
0.1560803742
 40
0.1872403947
 40
0.2184046103
 40
0.2495734521
 40
0.2651644038
 40
0.2807620532
 40
0.3119739797
 40
0.3432163552
 40
0.3745012181
 40
0.4058274455
 40
0.4215083825
 40
0.437198644
 40
0.4685923326
 40
0.5000000014
 40
0.5314076758
 40
0.562801379
 40
0.5784916501
 40
0.5941725965
 40
0.6254988425
 40
0.6567837247
 40
0.6880261049
 40
0.7192380307
 40
0.7348356808
 40
0.7504266271
 40
0.7815954491
 40
0.8127596538
 40
0.8439196665
 40
0.8751007843
 40
0.9063062628
 40
0.9375295126
 40
1.0
 40
1.0
 40
1.0
 40
1.0
 10
5.9948573446
 20
3.3620736596
 30
0.0
 10
5.9933194166
 20
3.366495085
 30
0.0
 10
5.990708209
 20
3.3730293166
 30
0.0
 10
5.9865325112
 20
3.3814101018
 30
0.0
 10
5.9830324594
 20
3.3874946855
 30
0.0
 10
5.9791504458
 20
3.3933377612
 30
0.0
 10
5.9748748731
 20
3.3988966688
 30
0.0
 10
5.9701982928
 20
3.4041221551
 30
0.0
 10
5.9659720029
 20
3.4081613619
 30
0.0
 10
5.9624011258
 20
3.4111771595
 30
0.0
 10
5.9587039135
 20
3.4140419398
 30
0.0
 10
5.9538536572
 20
3.4173246866
 30
0.0
 10
5.9477063786
 20
3.4207426078
 30
0.0
 10
5.941267183
 20
3.4235945991
 30
0.0
 10
5.9357002767
 20
3.4254746229
 30
0.0
 10
5.9311542715
 20
3.4266668461
 30
0.0
 10
5.9265526529
 20
3.4276467741
 30
0.0
 10
5.920719301
 20
3.4284688541
 30
0.0
 10
5.9136573438
 20
3.4288008619
 30
0.0
 10
5.9065953856
 20
3.4284688536
 30
0.0
 10
5.9007620316
 20
3.4276467726
 30
0.0
 10
5.8961604104
 20
3.4266668446
 30
0.0
 10
5.8916144026
 20
3.4254746203
 30
0.0
 10
5.8860474938
 20
3.4235945925
 30
0.0
 10
5.8796082948
 20
3.4207426012
 30
0.0
 10
5.8734610157
 20
3.417324677
 30
0.0
 10
5.8686107613
 20
3.4140419272
 30
0.0
 10
5.8649135482
 20
3.4111771484
 30
0.0
 10
5.8613426726
 20
3.4081613519
 30
0.0
 10
5.8571163865
 20
3.404122145
 30
0.0
 10
5.8524398092
 20
3.3988966599
 30
0.0
 10
5.8481642379
 20
3.3933377541
 30
0.0
 10
5.8442822263
 20
3.3874946794
 30
0.0
 10
5.8407821756
 20
3.3814100972
 30
0.0
 10
5.8366064788
 20
3.3730293141
 30
0.0
 10
5.8339952722
 20
3.366495084
 30
0.0
 10
5.8324573446
 20
3.3620736596
 30
0.0
 11
5.9948573446
 21
3.3620736596
 31
0.0
 11
5.9896056518
 21
3.3750985493
 31
0.0
 11
5.9864701204
 21
3.3813784852
 31
0.0
 11
5.9829674215
 21
3.3874566574
 31
0.0
 11
5.9790836421
 21
3.393292113
 31
0.0
 11
5.9748081505
 21
3.3988409824
 31
0.0
 11
5.9701328437
 21
3.4040586926
 31
0.0
 11
5.9650641965
 21
3.4088967069
 31
0.0
 11
5.9623860383
 21
3.4111577133
 31
0.0
 11
5.9596140255
 21
3.4133050799
 31
0.0
 11
5.9538019352
 21
3.4172361106
 31
0.0
 11
5.9476618573
 21
3.4206462348
 31
0.0
 11
5.9412310135
 21
3.4234936916
 31
0.0
 11
5.9345585456
 21
3.4257459846
 31
0.0
 11
5.9311486134
 21
3.426639997
 31
0.0
 11
5.9276987082
 21
3.4273747306
 31
0.0
 11
5.9207102592
 21
3.4283596496
 31
0.0
 11
5.9136573442
 21
3.4286901761
 31
0.0
 11
5.9066044281
 21
3.4283596491
 31
0.0
 11
5.8996159759
 21
3.4273747292
 31
0.0
 11
5.8961660685
 21
3.4266399953
 31
0.0
 11
5.8927561343
 21
3.425745982
 31
0.0
 11
5.8860836632
 21
3.4234936858
 31
0.0
 11
5.8796528154
 21
3.4206462271
 31
0.0
 11
5.8735127376
 21
3.4172361006
 31
0.0
 11
5.8677006488
 21
3.413305068
 31
0.0
 11
5.8649286355
 21
3.4111577018
 31
0.0
 11
5.8622504783
 21
3.4088966961
 31
0.0
 11
5.8571818358
 21
3.4040586832
 31
0.0
 11
5.8525065317
 21
3.3988409739
 31
0.0
 11
5.8482310416
 21
3.3932921056
 31
0.0
 11
5.8443472642
 21
3.3874566516
 31
0.0
 11
5.8408445663
 21
3.3813784806
 31
0.0
 11
5.8377090358
 21
3.3750985464
 31
0.0
 11
5.8324573446
 21
3.3620736596
 31
0.0
  0
SPLINE
  5
23C
100
AcDbEntity
  8
0
100
AcDbSpline
 62
6
  6
CONTINUOUS
 70
0
 71
3
 72
41
 73
37
 74
35
 42
0.0000001
 43
0.0000001
 44
0.0000000001
 12
-0.1416516822
 22
0.1838210377
 32
0.0
 13
-0.0601971179
 23
-0.2241242512
 33
0.0
 40
0.0
 40
0.0
 40
0.0
 40
0.0
 40
0.0141851544
 40
0.0280830519
 40
0.0417298434
 40
0.0551589989
 40
0.0684165361
 40
0.08155591
 40
0.1076457409
 40
0.1206864668
 40
0.1337650656
 40
0.1601303317
 40
0.1869160893
 40
0.2142380663
 40
0.2281257208
 40
0.2421685875
 40
0.2707278056
 40
0.2999311946
 40
0.32976488
 40
0.3602047398
 40
0.3912148878
 40
0.4227512054
 40
0.4547703515
 40
0.4872235137
 40
0.5200595839
 40
0.5532366105
 40
0.5867110379
 40
0.6204367563
 40
0.6543796554
 40
0.7227699625
 40
0.7571688648
 40
0.7916757176
 40
0.826274164
 40
0.8609421117
 40
0.9304156074
 40
1.0
 40
1.0
 40
1.0
 40
1.0
 10
6.1572573446
 20
3.4696218624
 30
0.0
 10
6.1565875609
 20
3.470491039
 30
0.0
 10
6.1551991117
 20
3.4721647736
 30
0.0
 10
6.1529602004
 20
3.4744939975
 30
0.0
 10
6.1506001951
 20
3.4766141063
 30
0.0
 10
6.1481303336
 20
3.478525005
 30
0.0
 10
6.1455607023
 20
3.4802295409
 30
0.0
 10
6.1420242684
 20
3.4822295624
 30
0.0
 10
6.1383053168
 20
3.4838523196
 30
0.0
 10
6.1344642808
 20
3.4851064034
 30
0.0
 10
6.1305326675
 20
3.4861285306
 30
0.0
 10
6.1254684504
 20
3.4869780062
 30
0.0
 10
6.1192445585
 20
3.4873525364
 30
0.0
 10
6.1139801794
 20
3.4871589805
 30
0.0
 10
6.1097274685
 20
3.4867217534
 30
0.0
 10
6.1054020707
 20
3.4860922495
 30
0.0
 10
6.0999583476
 20
3.4849574451
 30
0.0
 10
6.0934414078
 20
3.4830807759
 30
0.0
 10
6.0869347011
 20
3.4807049872
 30
0.0
 10
6.0804703644
 20
3.4778515365
 30
0.0
 10
6.0740792467
 20
3.4745413734
 30
0.0
 10
6.0677914361
 20
3.4707949106
 30
0.0
 10
6.0616346461
 20
3.4666345005
 30
0.0
 10
6.0556354791
 20
3.4620818297
 30
0.0
 10
6.0498197464
 20
3.457157558
 30
0.0
 10
6.0442082741
 20
3.4518859427
 30
0.0
 10
6.0388201022
 20
3.4462905924
 30
0.0
 10
6.0336739143
 20
3.4403929506
 30
0.0
 10
6.0271368572
 20
3.432140372
 30
0.0
 10
6.0211478762
 20
3.423401636
 30
0.0
 10
6.0157266884
 20
3.4142661566
 30
0.0
 10
6.0119305001
 20
3.4072139099
 30
0.0
 10
6.0084115589
 20
3.3999965115
 30
0.0
 10
6.0040843832
 20
3.3901726405
 30
0.0
 10
5.9993567983
 20
3.3775801664
 30
0.0
 10
5.9962536045
 20
3.3672721762
 30
0.0
 10
5.9948573446
 20
3.3620736596
 30
0.0
 11
6.1572573446
 21
3.4696218624
 31
0.0
 11
6.1551547321
 21
3.4721547903
 31
0.0
 11
6.1529190621
 21
3.474479447
 31
0.0
 11
6.1505626356
 21
3.4765953405
 31
0.0
 11
6.1480976229
 21
3.478502199
 31
0.0
 11
6.1455340596
 21
3.4802033419
 31
0.0
 11
6.1428802428
 21
3.4817050134
 31
0.0
 11
6.1373347696
 21
3.4841352322
 31
0.0
 11
6.1344583444
 21
3.4850758978
 31
0.0
 11
6.131521228
 21
3.4858409435
 31
0.0
 11
6.1254891355
 21
3.4868657352
 31
0.0
 11
6.1192849534
 21
3.4872505801
 31
0.0
 11
6.112948282
 21
3.4870289586
 31
0.0
 11
6.1097421705
 21
3.4867006747
 31
0.0
 11
6.1065170887
 21
3.4862324435
 31
0.0
 11
6.100027159
 21
3.4848882662
 31
0.0
 11
6.0935125413
 21
3.4830202028
 31
0.0
 11
6.08700689
 21
3.4806515722
 31
0.0
 11
6.0805421753
 21
3.4778039333
 31
0.0
 11
6.0741498549
 21
3.4744983102
 31
0.0
 11
6.0678605335
 21
3.4707558881
 31
0.0
 11
6.0617018574
 21
3.4665984103
 31
0.0
 11
6.055700832
 21
3.4620477411
 31
0.0
 11
6.0498833214
 21
3.4571259693
 31
0.0
 11
6.0442700427
 21
3.4518561947
 31
0.0
 11
6.0388802629
 21
3.4462618022
 31
0.0
 11
6.0337326091
 21
3.4403662057
 31
0.0
 11
6.0288397015
 21
3.4341930923
 31
0.0
 11
6.019855391
 21
3.4211096542
 31
0.0
 11
6.0157791838
 21
3.4142459262
 31
0.0
 11
6.0119815321
 21
3.4071957725
 31
0.0
 11
6.0084609359
 21
3.3999796024
 31
0.0
 11
6.0052158262
 21
3.3926177931
 31
0.0
 11
5.9995297886
 21
3.3775311924
 31
0.0
 11
5.9948573446
 21
3.3620736596
 31
0.0
  0
SPLINE
  5
23D
100
AcDbEntity
  8
0
100
AcDbSpline
 62
6
  6
CONTINUOUS
 70
0
 71
3
 72
31
 73
27
 74
25
 42
0.0000001
 43
0.0000001
 44
0.0000000001
 12
-0.0464354117
 22
0.1359220731
 32
0.0
 13
-0.1136754732
 23
0.0878010998
 33
0.0
 40
0.0
 40
0.0
 40
0.0
 40
0.0
 40
0.1110041168
 40
0.2181744614
 40
0.2700428078
 40
0.3206446863
 40
0.3698913003
 40
0.4176907065
 40
0.5086270276
 40
0.5928224643
 40
0.6697568935
 40
0.7390155655
 40
0.7706737245
 40
0.8003203703
 40
0.8279295255
 40
0.8534816318
 40
0.8769756486
 40
0.8984109299
 40
0.9177845412
 40
0.9350936946
 40
0.9635440637
 40
0.9838184945
 40
0.9909036331
 40
0.9959596722
 40
0.9989905322
 40
1.0
 40
1.0
 40
1.0
 40
1.0
 10
5.6700573446
 20
3.4696218624
 30
0.0
 10
5.6683391706
 20
3.4746511656
 30
0.0
 10
5.664645544
 20
3.4844307865
 30
0.0
 10
5.6593422062
 20
3.4962310425
 30
0.0
 10
5.6548221608
 20
3.5051942961
 30
0.0
 10
5.6513674003
 20
3.5115852244
 30
0.0
 10
5.6478341765
 20
3.5177091181
 30
0.0
 10
5.64312641
 20
3.5253810187
 30
0.0
 10
5.6371945151
 20
3.5342604637
 30
0.0
 10
5.6300062346
 20
3.5439601437
 30
0.0
 10
5.6230395837
 20
3.5525168444
 30
0.0
 10
5.6173913113
 20
3.5588924045
 30
0.0
 10
5.6131097077
 20
3.5634474789
 30
0.0
 10
5.6101380207
 20
3.5664960173
 30
0.0
 10
5.6073225086
 20
3.5692876459
 30
0.0
 10
5.604675604
 20
3.5718302502
 30
0.0
 10
5.6022067767
 20
3.5741309467
 30
0.0
 10
5.5999249062
 20
3.5761978676
 30
0.0
 10
5.5978385573
 20
3.5780391683
 30
0.0
 10
5.5954775916
 20
3.580076563
 30
0.0
 10
5.5930534823
 20
3.5821065496
 30
0.0
 10
5.5909756725
 20
3.5837867716
 30
0.0
 10
5.5897618203
 20
3.5847538802
 30
0.0
 10
5.5891915383
 20
3.5852038322
 30
0.0
 10
5.5888485215
 20
3.5854721949
 30
0.0
 10
5.5886955951
 20
3.5855906612
 30
0.0
 10
5.5886573446
 20
3.5856202054
 30
0.0
 11
5.6700573446
 21
3.4696218624
 31
0.0
 11
5.6644276318
 21
3.4845389817
 31
0.0
 11
5.65811733
 21
3.4985795567
 31
0.0
 11
5.6547630817
 21
3.5052318702
 31
0.0
 11
5.6513068187
 21
3.5116257033
 31
0.0
 11
5.6477717153
 21
3.5177525363
 31
0.0
 11
5.6441809434
 21
3.5236043609
 31
0.0
 11
5.6369250195
 21
3.5344652234
 31
0.0
 11
5.6297234423
 21
3.5441805825
 31
0.0
 11
5.6227459508
 21
3.5527495911
 31
0.0
 11
5.6161479898
 21
3.5601946712
 31
0.0
 11
5.613033464
 21
3.5635078238
 31
0.0
 11
5.6100610436
 21
3.5665570598
 31
0.0
 11
5.6072449762
 21
3.5693492107
 31
0.0
 11
5.6045979075
 21
3.5718915037
 31
0.0
 11
5.602129034
 21
3.5741920176
 31
0.0
 11
5.5998471043
 21
3.5762589417
 31
0.0
 11
5.5977608669
 21
3.5781004653
 31
0.0
 11
5.5958784186
 21
3.5797245321
 31
0.0
 11
5.5927447039
 21
3.5823473351
 31
0.0
 11
5.5904813822
 21
3.5841797715
 31
0.0
 11
5.5896852539
 21
3.5848136817
 31
0.0
 11
5.5891150324
 21
3.5852634039
 31
0.0
 11
5.5887719763
 21
3.5855314184
 31
0.0
 11
5.5886573446
 21
3.5856202054
 31
0.0
  0
ENDSEC
  0
SECTION
  2
OBJECTS
  0
DICTIONARY
  5
C
100
AcDbDictionary
280
0
281
1
  3
ACAD_GROUP
350
D
  3
ACAD_MLINESTYLE
350
17
  3
ACAD_LAYOUT
350
1A
  3
ACAD_PLOTSETTINGS
350
19
  3
ACAD_PLOTSTYLENAME
350
E
  0
DICTIONARY
  5
D
102
{ACAD_REACTORS
330
C
102
}
100
AcDbDictionary
280
0
281
1
  0
ACDBDICTIONARYWDFLT
  5
E
102
{ACAD_REACTORS
330
C
102
}
100
AcDbDictionary
281
1
  3
Normal
350
F
100
AcDbDictionaryWithDefault
340
F
  0
DICTIONARY
  5
17
102
{ACAD_REACTORS
330
C
102
}
100
AcDbDictionary
280
0
281
1
  3
Standard
350
18
  0
DICTIONARY
  5
19
102
{ACAD_REACTORS
330
C
102
}
100
AcDbDictionary
281
1
  0
DICTIONARY
  5
1A
102
{ACAD_REACTORS
330
C
102
}
100
AcDbDictionary
281
1
  3
Model
350
23E
  3
Layout1
350
23F
  0
ACDBPLACEHOLDER
  5
F
102
{ACAD_REACTORS
330
E
102
}
  0
MLINESTYLE
  5
18
102
{ACAD_REACTORS
330
17
102
}
100
AcDbMlineStyle
  2
STANDARD
 70
0
  3

 62
256
 51
90.0
 52
90.0
 71
2
 49
0.5
 62
256
  6
BYLAYER
 49
-0.5
 62
256
  6
BYLAYER
  0
LAYOUT
  5
23E
102
{ACAD_REACTORS
330
1A
102
}
100
AcDbPlotSettings
  1

  2
none_device
  4
ISO_A4_(297.00_x_210.00_MM)
  6

 40
0.0
 41
0.0
 42
0.0
 43
0.0
 44
297.0
 45
210.0
 46
0.0
 47
0.0
 48
0.0
 49
0.0
140
0.0
141
0.0
142
1.0
143
1.0
 70
1024
 72
0
 73
0
 74
0
  7

 75
0
147
1.0
148
0.0
149
0.0
100
AcDbLayout
  1
Model
 70
0
 71
0
 10
0.0
 20
0.0
 11
11.6929133858
 21
8.2677165354
 12
0.0
 22
0.0
 32
0.0
 14
0.0
 24
0.0
 34
0.0
 15
0.0
 25
0.0
 35
0.0
146
0.0
 13
0.0
 23
0.0
 33
0.0
 16
1.0
 26
0.0
 36
0.0
 17
0.0
 27
1.0
 37
0.0
 76
0
330
203
345
0
346
0
  0
LAYOUT
  5
23F
102
{ACAD_REACTORS
330
1A
102
}
100
AcDbPlotSettings
  1

  2
none_device
  4
ISO_A4_(297.00_x_210.00_MM)
  6

 40
0.0
 41
0.0
 42
0.0
 43
0.0
 44
297.0
 45
210.0
 46
0.0
 47
0.0
 48
0.0
 49
0.0
140
0.0
141
0.0
142
1.0
143
1.0
 70
0
 72
0
 73
0
 74
0
  7

 75
0
147
1.0
148
0.0
149
0.0
100
AcDbLayout
  1
Layout1
 70
0
 71
1
 10
0.0
 20
0.0
 11
11.6929133858
 21
8.2677165354
 12
0.0
 22
0.0
 32
0.0
 14
0.0
 24
0.0
 34
0.0
 15
0.0
 25
0.0
 35
0.0
146
0.0
 13
0.0
 23
0.0
 33
0.0
 16
1.0
 26
0.0
 36
0.0
 17
0.0
 27
1.0
 37
0.0
 76
0
330
204
345
0
346
0
  0
ENDSEC
  0
EOF
