999
DXF file: E:\BT Custom\CADOUTPUT\_TOP.dxf
999
Pro/ENGINEER 2018400 by Parametric Technology Corporation
  0
SECTION
  2
HEADER
  9
$ACADVER
  1
AC1018
  9
$DWGCODEPAGE
  3
ANSI_1252
  9
$EXTMAX
 10
22.0
 20
17.0
 30
0.0
  9
$EXTMIN
 10
0.0
 20
0.0
 30
0.0
  9
$LIMMIN
 10
0.0
 20
0.0
  9
$LIMMAX
 10
22.0
 20
17.0
  9
$VIEWCTR
 10
11.0
 20
8.5
  9
$VIEWSIZE
 40
17.0
  9
$CLAYER
  8
0
  9
$LTSCALE
 40
1.21
  9
$CELTYPE
  6
BYLAYER
  9
$DIMSCALE
 40
1.0
  9
$DIMASZ
 40
0.1
  9
$DIMEXO
 40
0.0625
  9
$DIMDLI
 40
0.836
  9
$DIMEXE
 40
0.125
  9
$DIMCEN
 40
0.198
  9
$DIMLFAC
 40
1.0
  9
$DIMBLK
  1
_FILLED
  9
$DIMALT
 70
1
  9
$DIMALTD
 70
2
  9
$DIMALTTD
 70
2
  9
$DIMALTF
 40
25.4
  9
$DIMTXT
 40
0.08
  9
$DIMTOL
 70
1
  9
$DIMLIM
 70
0
  9
$DIMTFAC
 40
1.0
  9
$DIMTP
 40
0.001
  9
$DIMTM
 40
0.001
  9
$DIMGAP
 40
0.09
  9
$DIMDSEP
 70
46
  9
$AUNITS
 70
0
  9
$PDMODE
 70
3
  9
$PDSIZE
 40
0.06
  9
$HANDSEED
  5
2B2
  9
$TILEMODE
 70
1
  9
$MEASUREMENT
 70
0
  9
$INSUNITS
 70
1
  0
ENDSEC
  0
SECTION
  2
CLASSES
  0
CLASS
  1
ACDBDICTIONARYWDFLT
  2
AcDbDictionaryWithDefault
  3
AutoCAD 2000
 90
0
 91
1
280
0
281
0
  0
CLASS
  1
ACDBPLACEHOLDER
  2
AcDbPlaceHolder
  3
AutoCAD 2000
 90
0
 91
1
280
0
281
0
  0
CLASS
  1
LAYOUT
  2
AcDbLayout
  3
AutoCAD 2000
 90
0
 91
0
280
0
281
0
  0
ENDSEC
  0
SECTION
  2
TABLES
  0
TABLE
  2
VPORT
  5
8
100
AcDbSymbolTable
 70
2
  0
VPORT
  5
1F4
100
AcDbSymbolTableRecord
100
AcDbViewportTableRecord
  2
*ACTIVE
 70
0
 10
0.0
 20
0.0
 11
1.0
 21
1.0
 12
11.0
 22
8.5
 13
0.0
 23
0.0
 14
1.0
 24
1.0
 15
0.0
 25
0.0
 16
0.0
 26
0.0
 36
1.0
 17
0.0
 27
0.0
 37
0.0
 40
17.0
 41
1.2941176471
 42
50.0
 43
0.0
 44
0.0
 50
0.0
 51
0.0
 71
0
 72
100
 73
1
 74
1
 75
0
 76
0
 77
0
 78
0
  0
ENDTAB
  0
TABLE
  2
LTYPE
  5
5
100
AcDbSymbolTable
 70
6
  0
LTYPE
  5
14
100
AcDbSymbolTableRecord
100
AcDbLinetypeTableRecord
  2
BYBLOCK
 70
0
  3

 72
65
 73
0
 40
0.0
  0
LTYPE
  5
15
100
AcDbSymbolTableRecord
100
AcDbLinetypeTableRecord
  2
BYLAYER
 70
0
  3

 72
65
 73
0
 40
0.0
  0
LTYPE
  5
16
100
AcDbSymbolTableRecord
100
AcDbLinetypeTableRecord
  2
CONTINUOUS
 70
64
  3
Solid line
 72
65
 73
0
 40
0.0
  0
LTYPE
  5
1F5
100
AcDbSymbolTableRecord
100
AcDbLinetypeTableRecord
  2
CENTER
 70
64
  3
____ _ ____ _ ____ _ ____ _ ____ _ ____ _ ____
 72
65
 73
4
 40
0.6
 49
0.375
 74
0
 49
-0.075
 74
0
 49
0.075
 74
0
 49
-0.075
 74
0
  0
LTYPE
  5
1F6
100
AcDbSymbolTableRecord
100
AcDbLinetypeTableRecord
  2
HIDDEN
 70
64
  3
- - - - - - - - - - - - - - - - - - - -
 72
65
 73
2
 40
0.2
 49
0.1
 74
0
 49
-0.1
 74
0
  0
LTYPE
  5
1F7
100
AcDbSymbolTableRecord
100
AcDbLinetypeTableRecord
  2
PHANTOM
 70
64
  3
_____ _ _ _____ _ _ _____ _ _ _____
 72
65
 73
6
 40
0.8
 49
0.45
 74
0
 49
-0.05
 74
0
 49
0.1
 74
0
 49
-0.05
 74
0
 49
0.1
 74
0
 49
-0.05
 74
0
  0
LTYPE
  5
1F8
100
AcDbSymbolTableRecord
100
AcDbLinetypeTableRecord
  2
DOT
 70
64
  3
. . . . . . . . . . . . . . . . . . . .
 72
65
 73
2
 40
0.2
 49
0.1
 74
0
 49
-0.1
 74
0
  0
LTYPE
  5
1F9
100
AcDbSymbolTableRecord
100
AcDbLinetypeTableRecord
  2
DASHED
 70
64
  3
- - - - - - - - - - - - - - - - - - - -
 72
65
 73
2
 40
0.2
 49
0.1
 74
0
 49
-0.1
 74
0
  0
ENDTAB
  0
TABLE
  2
LAYER
  5
2
100
AcDbSymbolTable
 70
36
  0
LAYER
  5
10
100
AcDbSymbolTableRecord
100
AcDbLayerTableRecord
  2
0
 70
0
 62
7
  6
CONTINUOUS
370
-3
390
F
  0
LAYER
  5
1FA
100
AcDbSymbolTableRecord
100
AcDbLayerTableRecord
  2
DEFAULT_1
 70
0
 62
7
  6
CENTER
370
-3
390
F
  0
LAYER
  5
1FB
100
AcDbSymbolTableRecord
100
AcDbLayerTableRecord
  2
DEFAULT_2
 70
0
 62
8
  6
HIDDEN
370
-3
390
F
  0
LAYER
  5
1FC
100
AcDbSymbolTableRecord
100
AcDbLayerTableRecord
  2
DEFAULT_3
 70
0
 62
7
  6
PHANTOM
370
-3
390
F
  0
LAYER
  5
1FD
100
AcDbSymbolTableRecord
100
AcDbLayerTableRecord
  2
ALL_FEATURES
 70
0
 62
7
  6
CONTINUOUS
370
-3
390
F
  0
LAYER
  5
1FE
100
AcDbSymbolTableRecord
100
AcDbLayerTableRecord
  2
AXES_FEATURES
 70
0
 62
7
  6
CONTINUOUS
370
-3
390
F
  0
LAYER
  5
1FF
100
AcDbSymbolTableRecord
100
AcDbLayerTableRecord
  2
DIMENSIONS
 70
0
 62
7
  6
CONTINUOUS
370
-3
390
F
  0
ENDTAB
  0
TABLE
  2
STYLE
  5
3
100
AcDbSymbolTable
 70
1
  0
STYLE
  5
11
100
AcDbSymbolTableRecord
100
AcDbTextStyleTableRecord
  2
STANDARD
 70
0
 40
0.0
 41
0.8
 50
0.0
 71
0
 42
0.2
  3
txt
  4

  0
STYLE
  5
200
100
AcDbSymbolTableRecord
100
AcDbTextStyleTableRecord
  2
TEXTSTYLE_1
 70
0
 40
0.0
 41
0.8
 50
0.0
 71
0
 42
0.2
  3
gdt
  4

  0
ENDTAB
  0
TABLE
  2
VIEW
  5
6
100
AcDbSymbolTable
 70
0
  0
ENDTAB
  0
TABLE
  2
UCS
  5
7
100
AcDbSymbolTable
 70
0
  0
ENDTAB
  0
TABLE
  2
APPID
  5
9
100
AcDbSymbolTable
 70
1
  0
APPID
  5
201
100
AcDbSymbolTableRecord
100
AcDbRegAppTableRecord
  2
ACAD
 70
0
  0
ENDTAB
  0
TABLE
  2
BLOCK_RECORD
  5
1
100
AcDbSymbolTable
 70
0
  0
BLOCK_RECORD
  5
202
100
AcDbSymbolTableRecord
100
AcDbBlockTableRecord
  2
*Model_Space
  0
BLOCK_RECORD
  5
203
100
AcDbSymbolTableRecord
100
AcDbBlockTableRecord
  2
*Paper_Space
  0
BLOCK_RECORD
  5
204
100
AcDbSymbolTableRecord
100
AcDbBlockTableRecord
  2
_FILLED
  0
ENDTAB
  0
TABLE
  2
DIMSTYLE
  5
A
100
AcDbSymbolTable
 70
1
100
AcDbDimStyleTable
 71
0
  0
DIMSTYLE
105
205
100
AcDbSymbolTableRecord
100
AcDbDimStyleTableRecord
  2
STANDARD
 70
0
  3

  4

 40
1.0
 41
0.1
 42
0.0625
 43
0.38
 44
0.125
 45
0.0
 46
0.0
 47
0.001
 48
0.001
140
0.08
141
0.09
142
0.0
143
25.4
144
1.0
145
0.0
146
1.0
147
0.09
 71
1.0
 72
0.0
 73
1
 74
1
 75
0
 76
0
 77
0
 78
4
 79
1
170
1
171
2
172
0
173
0
174
0
175
0
176
0
177
0
178
0
270
2
179
3
271
3
272
3
273
2
274
2
275
0
280
0
281
0
282
0
283
1
284
4
285
0
286
0
287
3
288
0
340
11
278
46
341
204
342
204
343
204
344
204
  0
ENDTAB
  0
ENDSEC
  0
SECTION
  2
BLOCKS
  0
BLOCK
  5
20
100
AcDbEntity
  8
0
100
AcDbBlockBegin
  2
*Model_Space
 70
0
 10
0.0
 20
0.0
 30
0.0
  3
*Model_Space
  1

  0
ENDBLK
  5
21
100
AcDbEntity
  8
0
100
AcDbBlockEnd
  0
BLOCK
  5
1C
100
AcDbEntity
  8
0
100
AcDbBlockBegin
  2
*Paper_Space
 70
0
 10
0.0
 20
0.0
 30
0.0
  3
*Paper_Space
  1

  0
ENDBLK
  5
1D
100
AcDbEntity
  8
0
100
AcDbBlockEnd
  0
BLOCK
  5
206
100
AcDbEntity
  8
0
100
AcDbBlockBegin
  2
_FILLED
 70
64
 10
0.0
 20
0.0
  3
_FILLED
  1

  0
SOLID
  5
207
100
AcDbEntity
  8
0
  6
BYBLOCK
 62
0
100
AcDbTrace
 10
0.0
 20
0.0
 11
-1.0
 21
0.2
 12
-1.0
 22
-0.2
 13
-1.0
 23
-0.2
  0
ENDBLK
  5
208
100
AcDbEntity
  8
0
  6
BYBLOCK
 62
0
100
AcDbBlockEnd
  0
ENDSEC
  0
SECTION
  2
ENTITIES
  0
LINE
  5
209
100
AcDbEntity
  8
0
100
AcDbLine
 62
7
  6
CONTINUOUS
 10
10.6767502453
 20
-3.0420629129
 11
10.705439388
 21
-3.0508340641
  0
LINE
  5
20A
100
AcDbEntity
  8
0
100
AcDbLine
 62
7
  6
CONTINUOUS
 10
11.3891972885
 20
-3.2598798329
 11
11.4178864312
 21
-3.2686509841
  0
LINE
  5
20B
100
AcDbEntity
  8
0
100
AcDbLine
 62
7
  6
CONTINUOUS
 10
10.7051761461
 20
-2.9734367179
 11
10.7316645738
 21
-2.9875208648
  0
LINE
  5
20C
100
AcDbEntity
  8
0
100
AcDbLine
 62
7
  6
CONTINUOUS
 10
11.3629721027
 20
-3.3231930322
 11
11.3894605305
 21
-3.3372771791
  0
LINE
  5
20D
100
AcDbEntity
  8
0
100
AcDbLine
 62
7
  6
CONTINUOUS
 10
2.9273183383
 20
9.0527182345
 11
2.9273183383
 21
8.9696430515
  0
LINE
  5
20E
100
AcDbEntity
  8
0
100
AcDbLine
 62
7
  6
CONTINUOUS
 10
2.9273183383
 20
8.7196430515
 11
2.9273183383
 21
8.6365678685
  0
LINE
  5
20F
100
AcDbEntity
  8
0
100
AcDbLine
 62
7
  6
CONTINUOUS
 10
2.9273183383
 20
8.4597911732
 11
2.9273183383
 21
8.4253803057
  0
LINE
  5
210
100
AcDbEntity
  8
0
100
AcDbLine
 62
7
  6
CONTINUOUS
 10
2.9273183383
 20
9.2294949298
 11
2.9273183383
 21
9.2639057973
  0
LINE
  5
211
100
AcDbEntity
  8
0
100
AcDbLine
 62
7
  6
CONTINUOUS
 10
5.8673183383
 20
9.1266421897
 11
5.8673183383
 21
8.5626439133
  0
LINE
  5
212
100
AcDbEntity
  8
0
100
AcDbLine
 62
9
  6
CONTINUOUS
 10
5.9857757204
 20
8.5327519364
 11
5.9857757204
 21
9.1565341666
  0
LINE
  5
213
100
AcDbEntity
  8
0
100
AcDbLine
 62
9
  6
CONTINUOUS
 10
6.1218886669
 20
8.6193739319
 11
6.1218886669
 21
9.0699121711
  0
LINE
  5
214
100
AcDbEntity
  8
0
100
AcDbLine
 62
7
  6
CONTINUOUS
 10
6.1313183383
 20
8.6293751244
 11
6.1313183383
 21
9.0599109786
  0
LINE
  5
215
100
AcDbEntity
  8
0
100
AcDbLine
 62
7
  6
CONTINUOUS
 10
10.8653981077
 20
-2.8132147563
 11
10.8794822546
 21
-2.8397031841
  0
LINE
  5
216
100
AcDbEntity
  8
0
100
AcDbLine
 62
7
  6
CONTINUOUS
 10
11.215154422
 20
-3.471010713
 11
11.2292385689
 21
-3.4974991407
  0
LINE
  5
217
100
AcDbEntity
  8
0
100
AcDbLine
 62
9
  6
CONTINUOUS
 10
6.5973183383
 20
8.6496430515
 11
6.5973183383
 21
9.0396430515
  0
LINE
  5
218
100
AcDbEntity
  8
0
100
AcDbLine
 62
7
  6
CONTINUOUS
 10
10.9340243027
 20
-2.7847888556
 11
10.9427954538
 21
-2.8134779982
  0
LINE
  5
219
100
AcDbEntity
  8
0
100
AcDbLine
 62
7
  6
CONTINUOUS
 10
11.1518412227
 20
-3.4972358988
 11
11.1606123739
 21
-3.5259250414
  0
LINE
  5
21A
100
AcDbEntity
  8
0
100
AcDbLine
 62
7
  6
CONTINUOUS
 10
16.392318341
 20
9.0302585817
 11
19.1673183383
 21
9.2294949298
  0
LINE
  5
21B
100
AcDbEntity
  8
0
100
AcDbLine
 62
7
  6
CONTINUOUS
 10
5.7023183355
 20
8.6590275213
 11
2.9273183383
 21
8.4597911732
  0
LINE
  5
21C
100
AcDbEntity
  8
0
100
AcDbLine
 62
7
  6
CONTINUOUS
 10
16.3923183411
 20
9.1071430517
 11
19.2707224775
 21
9.2697472087
  0
LINE
  5
21D
100
AcDbEntity
  8
0
100
AcDbLine
 62
7
  6
CONTINUOUS
 10
2.823914199
 20
8.4195388943
 11
5.7023183354
 21
8.5821430513
  0
LINE
  5
21E
100
AcDbEntity
  8
0
100
AcDbLine
 62
7
  6
CONTINUOUS
 10
16.3923183409
 20
8.8446430515
 11
19.1673183383
 21
8.9696430515
  0
LINE
  5
21F
100
AcDbEntity
  8
0
100
AcDbLine
 62
7
  6
CONTINUOUS
 10
5.7023183357
 20
8.8446430515
 11
2.9273183383
 21
8.7196430515
  0
LINE
  5
220
100
AcDbEntity
  8
0
100
AcDbLine
 62
7
  6
CONTINUOUS
 10
2.9273183383
 20
8.6365678685
 11
5.7023183355
 21
8.6590275213
  0
LINE
  5
221
100
AcDbEntity
  8
0
100
AcDbLine
 62
7
  6
CONTINUOUS
 10
19.1673183383
 20
9.0527182345
 11
16.392318341
 21
9.0302585817
  0
LINE
  5
222
100
AcDbEntity
  8
0
100
AcDbLine
 62
7
  6
CONTINUOUS
 10
5.8673183383
 20
8.5821430515
 11
5.7023183383
 21
8.5821430515
  0
LINE
  5
223
100
AcDbEntity
  8
0
100
AcDbLine
 62
7
  6
CONTINUOUS
 10
16.2273183383
 20
8.5821430515
 11
16.3923183383
 21
8.5821430515
  0
LINE
  5
224
100
AcDbEntity
  8
0
100
AcDbLine
 62
7
  6
CONTINUOUS
 10
15.9633183383
 20
8.6496430515
 11
15.0473183383
 21
8.6496430515
  0
LINE
  5
225
100
AcDbEntity
  8
0
100
AcDbLine
 62
7
  6
CONTINUOUS
 10
6.1313183383
 20
8.6496430515
 11
7.0473183383
 21
8.6496430515
  0
LINE
  5
226
100
AcDbEntity
  8
0
100
AcDbLine
 62
7
  6
CONTINUOUS
 10
15.9633183383
 20
9.0396430515
 11
15.0473183383
 21
9.0396430515
  0
LINE
  5
227
100
AcDbEntity
  8
0
100
AcDbLine
 62
7
  6
CONTINUOUS
 10
6.1313183383
 20
9.0396430515
 11
7.0473183383
 21
9.0396430515
  0
LINE
  5
228
100
AcDbEntity
  8
0
100
AcDbLine
 62
7
  6
CONTINUOUS
 10
5.8673183383
 20
9.1071430515
 11
5.7023183383
 21
9.1071430515
  0
LINE
  5
229
100
AcDbEntity
  8
0
100
AcDbLine
 62
7
  6
CONTINUOUS
 10
16.2273183383
 20
9.1071430515
 11
16.3923183383
 21
9.1071430515
  0
LINE
  5
22A
100
AcDbEntity
  8
0
100
AcDbLine
 62
7
  6
CONTINUOUS
 10
16.3923183411
 20
8.6590275242
 11
19.1673183383
 21
8.6365678685
  0
LINE
  5
22B
100
AcDbEntity
  8
0
100
AcDbLine
 62
7
  6
CONTINUOUS
 10
5.7023183355
 20
9.0302585788
 11
2.9273183383
 21
9.0527182345
  0
LINE
  5
22C
100
AcDbEntity
  8
0
100
AcDbLine
 62
7
  6
CONTINUOUS
 10
2.9273183383
 20
8.9696430515
 11
5.7023183357
 21
8.8446430515
  0
LINE
  5
22D
100
AcDbEntity
  8
0
100
AcDbLine
 62
7
  6
CONTINUOUS
 10
19.1673183383
 20
8.7196430515
 11
16.3923183409
 21
8.8446430515
  0
LINE
  5
22E
100
AcDbEntity
  8
0
100
AcDbLine
 62
7
  6
CONTINUOUS
 10
2.823914199
 20
9.2697472087
 11
5.7023183354
 21
9.1071430517
  0
LINE
  5
22F
100
AcDbEntity
  8
0
100
AcDbLine
 62
7
  6
CONTINUOUS
 10
16.3923183411
 20
8.5821430513
 11
19.2707224775
 21
8.4195388943
  0
LINE
  5
230
100
AcDbEntity
  8
0
100
AcDbLine
 62
7
  6
CONTINUOUS
 10
2.9273183383
 20
9.2294949298
 11
5.7023183355
 21
9.0302585788
  0
LINE
  5
231
100
AcDbEntity
  8
0
100
AcDbLine
 62
7
  6
CONTINUOUS
 10
19.1673183383
 20
8.4597911732
 11
16.3923183411
 21
8.6590275242
  0
LINE
  5
232
100
AcDbEntity
  8
0
100
AcDbLine
 62
7
  6
CONTINUOUS
 10
10.9340243027
 20
-3.5259250414
 11
10.9427954538
 21
-3.4972358988
  0
LINE
  5
233
100
AcDbEntity
  8
0
100
AcDbLine
 62
7
  6
CONTINUOUS
 10
11.1518412227
 20
-2.8134779982
 11
11.1606123739
 21
-2.7847888556
  0
LINE
  5
234
100
AcDbEntity
  8
0
100
AcDbLine
 62
9
  6
CONTINUOUS
 10
15.4973183383
 20
9.0396430515
 11
15.4973183383
 21
8.6496430515
  0
LINE
  5
235
100
AcDbEntity
  8
0
100
AcDbLine
 62
7
  6
CONTINUOUS
 10
15.9633183383
 20
9.0599109786
 11
15.9633183383
 21
8.6293751244
  0
LINE
  5
236
100
AcDbEntity
  8
0
100
AcDbLine
 62
9
  6
CONTINUOUS
 10
15.9727480096
 20
9.0699121711
 11
15.9727480096
 21
8.6193739319
  0
LINE
  5
237
100
AcDbEntity
  8
0
100
AcDbLine
 62
9
  6
CONTINUOUS
 10
16.1088609561
 20
8.5327519364
 11
16.1088609561
 21
9.1565341666
  0
LINE
  5
238
100
AcDbEntity
  8
0
100
AcDbLine
 62
7
  6
CONTINUOUS
 10
16.2273183383
 20
8.5626430515
 11
16.2273183383
 21
9.1266421897
  0
LINE
  5
239
100
AcDbEntity
  8
0
100
AcDbLine
 62
7
  6
CONTINUOUS
 10
10.8653981077
 20
-3.4974991407
 11
10.8794822546
 21
-3.4710107129
  0
LINE
  5
23A
100
AcDbEntity
  8
0
100
AcDbLine
 62
7
  6
CONTINUOUS
 10
11.215154422
 20
-2.8397031841
 11
11.2292385689
 21
-2.8132147563
  0
LINE
  5
23B
100
AcDbEntity
  8
0
100
AcDbLine
 62
7
  6
CONTINUOUS
 10
19.1673183383
 20
8.4597911732
 11
19.1673183383
 21
8.4253803057
  0
LINE
  5
23C
100
AcDbEntity
  8
0
100
AcDbLine
 62
7
  6
CONTINUOUS
 10
19.1673183383
 20
8.6365678685
 11
19.1673183383
 21
8.7196430515
  0
LINE
  5
23D
100
AcDbEntity
  8
0
100
AcDbLine
 62
7
  6
CONTINUOUS
 10
19.1673183383
 20
8.9696430515
 11
19.1673183383
 21
9.0527182345
  0
LINE
  5
23E
100
AcDbEntity
  8
0
100
AcDbLine
 62
7
  6
CONTINUOUS
 10
19.1673183383
 20
9.2294949298
 11
19.1673183383
 21
9.2639057973
  0
LINE
  5
23F
100
AcDbEntity
  8
0
100
AcDbLine
 62
7
  6
CONTINUOUS
 10
10.7051761461
 20
-3.3372771791
 11
10.7316645738
 21
-3.3231930322
  0
LINE
  5
240
100
AcDbEntity
  8
0
100
AcDbLine
 62
7
  6
CONTINUOUS
 10
11.3629721027
 20
-2.9875208648
 11
11.3894605305
 21
-2.9734367179
  0
LINE
  5
241
100
AcDbEntity
  8
0
100
AcDbLine
 62
7
  6
CONTINUOUS
 10
10.6767502453
 20
-3.2686509841
 11
10.705439388
 21
-3.2598798329
  0
LINE
  5
242
100
AcDbEntity
  8
0
100
AcDbLine
 62
7
  6
CONTINUOUS
 10
11.3891972885
 20
-3.0508340641
 11
11.4178864312
 21
-3.0420629129
  0
ARC
  5
243
100
AcDbEntity
  8
0
100
AcDbCircle
 62
7
  6
CONTINUOUS
 10
7.0473183383
 20
8.8446430515
 40
1.18
100
AcDbArc
 50
196.9686516562
 51
163.0270360239
  0
ARC
  5
244
100
AcDbEntity
  8
0
100
AcDbCircle
 62
7
  6
CONTINUOUS
 10
7.0473183383
 20
8.8446430515
 40
1.0000026738
100
AcDbArc
 50
193.5775978411
 51
166.4224021589
  0
ARC
  5
245
100
AcDbEntity
  8
0
100
AcDbCircle
 62
7
  6
CONTINUOUS
 10
7.0473183383
 20
8.8446430515
 40
0.8125
100
AcDbArc
 50
193.9438391686
 51
166.0561608314
  0
ARC
  5
246
100
AcDbEntity
  8
0
100
AcDbCircle
 62
7
  6
CONTINUOUS
 10
2.9273183383
 20
8.8446430515
 40
0.4375
100
AcDbArc
 50
103.6715038208
 51
256.3284961792
  0
ARC
  5
247
100
AcDbEntity
  8
0
100
AcDbCircle
 62
7
  6
CONTINUOUS
 10
7.0473183383
 20
8.8446430515
 40
0.4095
100
AcDbArc
 50
208.6034377231
 51
151.3965622769
  0
ARC
  5
248
100
AcDbEntity
  8
0
100
AcDbCircle
 62
7
  6
CONTINUOUS
 10
7.0473183383
 20
8.8446430515
 40
0.3895
100
AcDbArc
 50
210.2351668457
 51
149.769027847
  0
ARC
  5
249
100
AcDbEntity
  8
0
100
AcDbCircle
 62
7
  6
CONTINUOUS
 10
7.0473183383
 20
8.8446430515
 40
0.3525
100
AcDbArc
 50
213.8045164098
 51
146.1954835902
  0
ARC
  5
24A
100
AcDbEntity
  8
0
100
AcDbCircle
 62
7
  6
CONTINUOUS
 10
7.0473183383
 20
8.8446430515
 40
0.35
100
AcDbArc
 50
214.0724577368
 51
145.9275422632
  0
ARC
  5
24B
100
AcDbEntity
  8
0
100
AcDbCircle
 62
9
  6
CONTINUOUS
 10
7.0473183383
 20
8.8446430515
 40
0.3152848912
100
AcDbArc
 50
218.2632874433
 51
141.736673432
  0
ARC
  5
24C
100
AcDbEntity
  8
0
100
AcDbCircle
 62
7
  6
CONTINUOUS
 10
7.0473183383
 20
8.8446430515
 40
0.3125
100
AcDbArc
 50
218.6128560109
 51
141.3871439891
  0
ARC
  5
24D
100
AcDbEntity
  8
0
100
AcDbCircle
 62
9
  6
CONTINUOUS
 10
7.0473183383
 20
8.8446430515
 40
0.2525
100
AcDbArc
 50
231.0215475621
 51
129.0081750671
  0
ARC
  5
24E
100
AcDbEntity
  8
0
100
AcDbCircle
 62
7
  6
CONTINUOUS
 10
10.1987902009
 20
18.6931711889
 40
0.21
100
AcDbArc
 50
264.870833936
 51
5.1291660639
  0
ARC
  5
24F
100
AcDbEntity
  8
0
100
AcDbCircle
 62
7
  6
CONTINUOUS
 10
10.1987902009
 20
16.9961149141
 40
0.21
100
AcDbArc
 50
354.8708339361
 51
95.129166064
  0
ARC
  5
250
100
AcDbEntity
  8
0
100
AcDbCircle
 62
7
  6
CONTINUOUS
 10
9.8473183383
 20
17.8446430515
 40
0.21
100
AcDbArc
 50
309.8708339358
 51
50.1291660642
  0
ARC
  5
251
100
AcDbEntity
  8
0
100
AcDbCircle
 62
7
  6
CONTINUOUS
 10
7.0473183383
 20
8.8446430515
 40
0.195
100
AcDbArc
 50
270.0
 51
90.0
  0
ARC
  5
252
100
AcDbEntity
  8
0
100
AcDbCircle
 62
7
  6
CONTINUOUS
 10
6.1313183383
 20
8.4543055515
 40
0.1653375
100
AcDbArc
 50
93.2695165906
 51
151.6756638893
  0
ARC
  5
253
100
AcDbEntity
  8
0
100
AcDbCircle
 62
7
  6
CONTINUOUS
 10
6.1313183383
 20
9.2349805515
 40
0.1653375
100
AcDbArc
 50
208.3243361107
 51
266.7304834094
  0
ARC
  5
254
100
AcDbEntity
  8
0
100
AcDbCircle
 62
7
  6
CONTINUOUS
 10
2.9510879311
 20
8.8445575937
 40
0.1271645192
100
AcDbArc
 50
179.9614989169
 51
259.226171938
  0
ARC
  5
255
100
AcDbEntity
  8
0
100
AcDbCircle
 62
7
  6
CONTINUOUS
 10
2.9510879266
 20
8.8447285079
 40
0.127164517
100
AcDbArc
 50
100.7738259258
 51
180.0385004781
  0
ARC
  5
256
100
AcDbEntity
  8
0
100
AcDbCircle
 62
7
  6
CONTINUOUS
 10
5.9303183383
 20
9.1266430515
 40
0.063
100
AcDbArc
 50
28.3243361106
 51
180.0
  0
ARC
  5
257
100
AcDbEntity
  8
0
100
AcDbCircle
 62
7
  6
CONTINUOUS
 10
5.9303183383
 20
8.5626430515
 40
0.063
100
AcDbArc
 50
180.0
 51
331.6756638894
  0
ARC
  5
258
100
AcDbEntity
  8
0
100
AcDbCircle
 62
7
  6
CONTINUOUS
 10
6.1213183383
 20
8.6293576549
 40
0.01
100
AcDbArc
 50
273.2695165912
 51
360.0
  0
ARC
  5
259
100
AcDbEntity
  8
0
100
AcDbCircle
 62
7
  6
CONTINUOUS
 10
6.1213183383
 20
9.0599284481
 40
0.01
100
AcDbArc
 50
0.0
 51
86.7304834088
  0
CIRCLE
  5
25A
100
AcDbEntity
  8
0
100
AcDbCircle
 62
7
  6
CONTINUOUS
 10
11.0473183383
 20
-3.1553569485
 40
0.79
  0
CIRCLE
  5
25B
100
AcDbEntity
  8
0
100
AcDbCircle
 62
7
  6
CONTINUOUS
 10
11.0473183383
 20
0.8446430515
 40
0.656
  0
CIRCLE
  5
25C
100
AcDbEntity
  8
0
100
AcDbCircle
 62
7
  6
CONTINUOUS
 10
11.0473183383
 20
-3.1553569485
 40
0.495
  0
CIRCLE
  5
25D
100
AcDbEntity
  8
0
100
AcDbCircle
 62
9
  6
CONTINUOUS
 10
11.0473183383
 20
-3.1553569485
 40
0.49
  0
CIRCLE
  5
25E
100
AcDbEntity
  8
0
100
AcDbCircle
 62
9
  6
CONTINUOUS
 10
11.0473183383
 20
0.8446430515
 40
0.4795772124
  0
CIRCLE
  5
25F
100
AcDbEntity
  8
0
100
AcDbCircle
 62
7
  6
CONTINUOUS
 10
11.0473183383
 20
-3.1553569485
 40
0.47
  0
CIRCLE
  5
260
100
AcDbEntity
  8
0
100
AcDbCircle
 62
7
  6
CONTINUOUS
 10
11.0473183383
 20
0.8446430515
 40
0.46875
  0
CIRCLE
  5
261
100
AcDbEntity
  8
0
100
AcDbCircle
 62
7
  6
CONTINUOUS
 10
11.0473183383
 20
-3.1553569485
 40
0.4625
  0
CIRCLE
  5
262
100
AcDbEntity
  8
0
100
AcDbCircle
 62
9
  6
CONTINUOUS
 10
11.0473183383
 20
-3.1553569485
 40
0.4272880871
  0
CIRCLE
  5
263
100
AcDbEntity
  8
0
100
AcDbCircle
 62
9
  6
CONTINUOUS
 10
11.0473183383
 20
-3.1553569485
 40
0.4181683849
  0
CIRCLE
  5
264
100
AcDbEntity
  8
0
100
AcDbCircle
 62
7
  6
CONTINUOUS
 10
11.0473183383
 20
-3.1553569485
 40
0.396
  0
CIRCLE
  5
265
100
AcDbEntity
  8
0
100
AcDbCircle
 62
7
  6
CONTINUOUS
 10
11.0473183383
 20
-3.1553569485
 40
0.395
  0
CIRCLE
  5
266
100
AcDbEntity
  8
0
100
AcDbCircle
 62
7
  6
CONTINUOUS
 10
11.0473183383
 20
-3.1553569485
 40
0.3875
  0
CIRCLE
  5
267
100
AcDbEntity
  8
0
100
AcDbCircle
 62
7
  6
CONTINUOUS
 10
11.0473183383
 20
0.8446430515
 40
0.375
  0
ARC
  5
268
100
AcDbEntity
  8
0
100
AcDbCircle
 62
7
  6
CONTINUOUS
 10
11.0473183383
 20
-3.1553569485
 40
0.375
100
AcDbArc
 50
196.9999999999
 51
208.0000000005
  0
ARC
  5
269
100
AcDbEntity
  8
0
100
AcDbCircle
 62
7
  6
CONTINUOUS
 10
11.0473183383
 20
-3.1553569485
 40
0.375
100
AcDbArc
 50
106.9999999998
 51
117.9999999998
  0
ARC
  5
26A
100
AcDbEntity
  8
0
100
AcDbCircle
 62
7
  6
CONTINUOUS
 10
11.0473183383
 20
-3.1553569485
 40
0.375
100
AcDbArc
 50
152.0000000006
 51
162.9999999998
  0
ARC
  5
26B
100
AcDbEntity
  8
0
100
AcDbCircle
 62
7
  6
CONTINUOUS
 10
11.0473183383
 20
-3.1553569485
 40
0.375
100
AcDbArc
 50
286.9999999998
 51
297.9999999998
  0
ARC
  5
26C
100
AcDbEntity
  8
0
100
AcDbCircle
 62
7
  6
CONTINUOUS
 10
11.0473183383
 20
-3.1553569485
 40
0.375
100
AcDbArc
 50
16.9999999999
 51
28.0000000005
  0
ARC
  5
26D
100
AcDbEntity
  8
0
100
AcDbCircle
 62
7
  6
CONTINUOUS
 10
11.0473183383
 20
-3.1553569485
 40
0.375
100
AcDbArc
 50
241.9999999999
 51
253.0000000001
  0
ARC
  5
26E
100
AcDbEntity
  8
0
100
AcDbCircle
 62
7
  6
CONTINUOUS
 10
11.0473183383
 20
-3.1553569485
 40
0.375
100
AcDbArc
 50
332.0000000006
 51
342.9999999998
  0
ARC
  5
26F
100
AcDbEntity
  8
0
100
AcDbCircle
 62
7
  6
CONTINUOUS
 10
11.0473183383
 20
-3.1553569485
 40
0.375
100
AcDbArc
 50
61.9999999999
 51
73.0000000001
  0
ARC
  5
270
100
AcDbEntity
  8
0
100
AcDbCircle
 62
7
  6
CONTINUOUS
 10
11.0473183383
 20
-3.1553569485
 40
0.3575
100
AcDbArc
 50
342.9999999998
 51
16.9999999998
  0
ARC
  5
271
100
AcDbEntity
  8
0
100
AcDbCircle
 62
7
  6
CONTINUOUS
 10
11.0473183383
 20
-3.1553569485
 40
0.3575
100
AcDbArc
 50
297.9999999998
 51
332.0000000007
  0
ARC
  5
272
100
AcDbEntity
  8
0
100
AcDbCircle
 62
7
  6
CONTINUOUS
 10
11.0473183383
 20
-3.1553569485
 40
0.3575
100
AcDbArc
 50
253.0000000001
 51
286.9999999998
  0
ARC
  5
273
100
AcDbEntity
  8
0
100
AcDbCircle
 62
7
  6
CONTINUOUS
 10
11.0473183383
 20
-3.1553569485
 40
0.3575
100
AcDbArc
 50
208.0000000006
 51
241.9999999998
  0
ARC
  5
274
100
AcDbEntity
  8
0
100
AcDbCircle
 62
7
  6
CONTINUOUS
 10
11.0473183383
 20
-3.1553569485
 40
0.3575
100
AcDbArc
 50
162.9999999998
 51
196.9999999998
  0
ARC
  5
275
100
AcDbEntity
  8
0
100
AcDbCircle
 62
7
  6
CONTINUOUS
 10
11.0473183383
 20
-3.1553569485
 40
0.3575
100
AcDbArc
 50
117.9999999998
 51
152.0000000007
  0
ARC
  5
276
100
AcDbEntity
  8
0
100
AcDbCircle
 62
7
  6
CONTINUOUS
 10
11.0473183383
 20
-3.1553569485
 40
0.3575
100
AcDbArc
 50
73.0000000001
 51
106.9999999998
  0
ARC
  5
277
100
AcDbEntity
  8
0
100
AcDbCircle
 62
7
  6
CONTINUOUS
 10
11.0473183383
 20
-3.1553569485
 40
0.3575
100
AcDbArc
 50
28.0000000006
 51
61.9999999998
  0
CIRCLE
  5
278
100
AcDbEntity
  8
0
100
AcDbCircle
 62
7
  6
CONTINUOUS
 10
11.0473183383
 20
-3.1553569485
 40
0.3125
  0
ARC
  5
279
100
AcDbEntity
  8
0
100
AcDbCircle
 62
7
  6
CONTINUOUS
 10
15.0473183383
 20
8.8446430515
 40
1.18
100
AcDbArc
 50
16.9686516562
 51
343.0270360239
  0
ARC
  5
27A
100
AcDbEntity
  8
0
100
AcDbCircle
 62
7
  6
CONTINUOUS
 10
15.0473183383
 20
8.8446430515
 40
1.0000026738
100
AcDbArc
 50
13.5775978411
 51
346.4224021589
  0
ARC
  5
27B
100
AcDbEntity
  8
0
100
AcDbCircle
 62
7
  6
CONTINUOUS
 10
15.0473183383
 20
8.8446430515
 40
0.8125
100
AcDbArc
 50
13.9438391686
 51
346.0561608314
  0
ARC
  5
27C
100
AcDbEntity
  8
0
100
AcDbCircle
 62
7
  6
CONTINUOUS
 10
15.0473183383
 20
8.8446430515
 40
0.4095
100
AcDbArc
 50
28.6034377231
 51
331.3965622769
  0
ARC
  5
27D
100
AcDbEntity
  8
0
100
AcDbCircle
 62
7
  6
CONTINUOUS
 10
15.0473183383
 20
8.8446430515
 40
0.3895
100
AcDbArc
 50
30.2351668457
 51
329.769027847
  0
ARC
  5
27E
100
AcDbEntity
  8
0
100
AcDbCircle
 62
7
  6
CONTINUOUS
 10
15.0473183383
 20
8.8446430515
 40
0.3525
100
AcDbArc
 50
33.8045164098
 51
326.1954835902
  0
ARC
  5
27F
100
AcDbEntity
  8
0
100
AcDbCircle
 62
7
  6
CONTINUOUS
 10
15.0473183383
 20
8.8446430515
 40
0.35
100
AcDbArc
 50
34.0724577368
 51
325.9275422632
  0
ARC
  5
280
100
AcDbEntity
  8
0
100
AcDbCircle
 62
9
  6
CONTINUOUS
 10
15.0473183383
 20
8.8446430515
 40
0.3152848912
100
AcDbArc
 50
38.2632874433
 51
321.736673432
  0
ARC
  5
281
100
AcDbEntity
  8
0
100
AcDbCircle
 62
7
  6
CONTINUOUS
 10
15.0473183383
 20
8.8446430515
 40
0.3125
100
AcDbArc
 50
38.6128560109
 51
321.3871439891
  0
ARC
  5
282
100
AcDbEntity
  8
0
100
AcDbCircle
 62
9
  6
CONTINUOUS
 10
15.0473183383
 20
8.8446430515
 40
0.2525
100
AcDbArc
 50
51.0215475621
 51
309.0081750671
  0
ARC
  5
283
100
AcDbEntity
  8
0
100
AcDbCircle
 62
7
  6
CONTINUOUS
 10
15.0473183383
 20
8.8446430515
 40
0.195
100
AcDbArc
 50
90.0
 51
270.0
  0
ARC
  5
284
100
AcDbEntity
  8
0
100
AcDbCircle
 62
7
  6
CONTINUOUS
 10
11.0473183383
 20
17.8446430515
 40
1.0775
100
AcDbArc
 50
143.6026297633
 51
171.3973702366
  0
ARC
  5
285
100
AcDbEntity
  8
0
100
AcDbCircle
 62
7
  6
CONTINUOUS
 10
11.0473183383
 20
17.8446430515
 40
1.0775
100
AcDbArc
 50
98.6026297633
 51
126.3973702367
  0
ARC
  5
286
100
AcDbEntity
  8
0
100
AcDbCircle
 62
7
  6
CONTINUOUS
 10
11.0473183383
 20
17.8446430515
 40
1.0775
100
AcDbArc
 50
53.6026297633
 51
81.3973702367
  0
ARC
  5
287
100
AcDbEntity
  8
0
100
AcDbCircle
 62
7
  6
CONTINUOUS
 10
11.0473183383
 20
17.8446430515
 40
1.0775
100
AcDbArc
 50
8.6026297634
 51
36.3973702367
  0
ARC
  5
288
100
AcDbEntity
  8
0
100
AcDbCircle
 62
7
  6
CONTINUOUS
 10
11.0473183383
 20
17.8446430515
 40
1.0775
100
AcDbArc
 50
278.6026297634
 51
306.3973702367
  0
ARC
  5
289
100
AcDbEntity
  8
0
100
AcDbCircle
 62
7
  6
CONTINUOUS
 10
11.0473183383
 20
17.8446430515
 40
1.0775
100
AcDbArc
 50
233.6026297633
 51
261.3973702366
  0
ARC
  5
28A
100
AcDbEntity
  8
0
100
AcDbCircle
 62
7
  6
CONTINUOUS
 10
11.0473183383
 20
17.8446430515
 40
1.0775
100
AcDbArc
 50
188.6026297634
 51
216.3973702367
  0
ARC
  5
28B
100
AcDbEntity
  8
0
100
AcDbCircle
 62
7
  6
CONTINUOUS
 10
11.0473183383
 20
17.8446430515
 40
1.0775
100
AcDbArc
 50
323.6026297633
 51
351.3973702366
  0
ARC
  5
28C
100
AcDbEntity
  8
0
100
AcDbCircle
 62
7
  6
CONTINUOUS
 10
11.0473183383
 20
17.8446430515
 40
1.0125
100
AcDbArc
 50
310.3973230526
 51
319.6117730258
  0
ARC
  5
28D
100
AcDbEntity
  8
0
100
AcDbCircle
 62
7
  6
CONTINUOUS
 10
11.0473183383
 20
17.8446430515
 40
1.0125
100
AcDbArc
 50
265.1734325195
 51
274.8507121143
  0
ARC
  5
28E
100
AcDbEntity
  8
0
100
AcDbCircle
 62
7
  6
CONTINUOUS
 10
11.0473183383
 20
17.8446430515
 40
1.0125
100
AcDbArc
 50
220.4263419138
 51
229.6352922597
  0
ARC
  5
28F
100
AcDbEntity
  8
0
100
AcDbCircle
 62
7
  6
CONTINUOUS
 10
11.0473183383
 20
17.8446430515
 40
1.0125
100
AcDbArc
 50
175.4739221177
 51
184.4873382469
  0
ARC
  5
290
100
AcDbEntity
  8
0
100
AcDbCircle
 62
7
  6
CONTINUOUS
 10
11.0473183383
 20
17.8446430515
 40
1.0125
100
AcDbArc
 50
130.3973230526
 51
139.6117730258
  0
ARC
  5
291
100
AcDbEntity
  8
0
100
AcDbCircle
 62
7
  6
CONTINUOUS
 10
11.0473183383
 20
17.8446430515
 40
1.0125
100
AcDbArc
 50
85.1734325194
 51
94.8507121144
  0
ARC
  5
292
100
AcDbEntity
  8
0
100
AcDbCircle
 62
7
  6
CONTINUOUS
 10
11.0473183383
 20
17.8446430515
 40
1.0125
100
AcDbArc
 50
40.4263419138
 51
49.6352922597
  0
ARC
  5
293
100
AcDbEntity
  8
0
100
AcDbCircle
 62
7
  6
CONTINUOUS
 10
11.0473183383
 20
17.8446430515
 40
1.0125
100
AcDbArc
 50
355.4739221177
 51
4.4873382469
  0
CIRCLE
  5
294
100
AcDbEntity
  8
0
100
AcDbCircle
 62
7
  6
CONTINUOUS
 10
11.0473183383
 20
17.8446430515
 40
0.935
  0
CIRCLE
  5
295
100
AcDbEntity
  8
0
100
AcDbCircle
 62
9
  6
CONTINUOUS
 10
11.0473183383
 20
17.8446430515
 40
0.909136433
  0
ARC
  5
296
100
AcDbEntity
  8
0
100
AcDbCircle
 62
7
  6
CONTINUOUS
 10
11.0473183383
 20
19.0446430515
 40
0.21
100
AcDbArc
 50
219.8708339353
 51
320.1291660647
  0
ARC
  5
297
100
AcDbEntity
  8
0
100
AcDbCircle
 62
7
  6
CONTINUOUS
 10
11.8958464757
 20
18.6931711889
 40
0.21
100
AcDbArc
 50
174.8708339361
 51
275.129166064
  0
ARC
  5
298
100
AcDbEntity
  8
0
100
AcDbCircle
 62
7
  6
CONTINUOUS
 10
11.8958464757
 20
16.9961149141
 40
0.21
100
AcDbArc
 50
84.870833936
 51
185.1291660639
  0
ARC
  5
299
100
AcDbEntity
  8
0
100
AcDbCircle
 62
7
  6
CONTINUOUS
 10
11.0473183383
 20
16.6446430515
 40
0.21
100
AcDbArc
 50
39.8708339359
 51
140.1291660641
  0
ARC
  5
29A
100
AcDbEntity
  8
0
100
AcDbCircle
 62
7
  6
CONTINUOUS
 10
12.2473183383
 20
17.8446430515
 40
0.21
100
AcDbArc
 50
129.8708339358
 51
230.1291660642
  0
ARC
  5
29B
100
AcDbEntity
  8
0
100
AcDbCircle
 62
7
  6
CONTINUOUS
 10
19.1673183383
 20
8.8446430515
 40
0.4375
100
AcDbArc
 50
283.6715038208
 51
76.3284961792
  0
ARC
  5
29C
100
AcDbEntity
  8
0
100
AcDbCircle
 62
7
  6
CONTINUOUS
 10
15.9633183383
 20
9.2349805515
 40
0.1653375
100
AcDbArc
 50
273.2695165906
 51
331.6756638893
  0
ARC
  5
29D
100
AcDbEntity
  8
0
100
AcDbCircle
 62
7
  6
CONTINUOUS
 10
15.9633183383
 20
8.4543055515
 40
0.1653375
100
AcDbArc
 50
28.3243361107
 51
86.7304834094
  0
ARC
  5
29E
100
AcDbEntity
  8
0
100
AcDbCircle
 62
7
  6
CONTINUOUS
 10
19.1435487466
 20
8.8447285079
 40
0.1271645192
100
AcDbArc
 50
359.9614995313
 51
79.2261725592
  0
ARC
  5
29F
100
AcDbEntity
  8
0
100
AcDbCircle
 62
7
  6
CONTINUOUS
 10
19.1435487485
 20
8.8445575933
 40
0.127164517
100
AcDbArc
 50
280.7738267318
 51
0.0385012818
  0
ARC
  5
2A0
100
AcDbEntity
  8
0
100
AcDbCircle
 62
7
  6
CONTINUOUS
 10
16.1643183383
 20
8.5626430515
 40
0.063
100
AcDbArc
 50
208.3243361106
 51
360.0
  0
ARC
  5
2A1
100
AcDbEntity
  8
0
100
AcDbCircle
 62
7
  6
CONTINUOUS
 10
16.1643183383
 20
9.1266430515
 40
0.063
100
AcDbArc
 50
0.0
 51
151.6756638894
  0
ARC
  5
2A2
100
AcDbEntity
  8
0
100
AcDbCircle
 62
7
  6
CONTINUOUS
 10
15.9733183383
 20
9.0599284481
 40
0.01
100
AcDbArc
 50
93.2695165912
 51
180.0
  0
ARC
  5
2A3
100
AcDbEntity
  8
0
100
AcDbCircle
 62
7
  6
CONTINUOUS
 10
15.9733183383
 20
8.6293576549
 40
0.01
100
AcDbArc
 50
180.0
 51
266.7304834088
  0
SPLINE
  5
2A4
100
AcDbEntity
  8
0
100
AcDbSpline
 62
7
  6
CONTINUOUS
 70
0
 71
3
 72
15
 73
11
 74
0
 42
0.0000001
 43
0.0000001
 44
0.0000000001
 40
0.0
 40
0.0
 40
0.0
 40
0.0
 40
0.1385443675
 40
0.275894863
 40
0.410540828
 40
0.5411946893
 40
0.6666360976
 40
0.7856968287
 40
0.8972148641
 40
1.0
 40
1.0
 40
1.0
 40
1.0
 10
16.3923183409
 20
8.8446430515
 30
0.0
 10
16.3923183409
 20
8.8532151937
 30
0.0
 10
16.3924532715
 20
8.8702851968
 30
0.0
 10
16.392657029
 20
8.8956862601
 30
0.0
 10
16.3924596768
 20
8.9205990283
 30
0.0
 10
16.3922548326
 20
8.9447749566
 30
0.0
 10
16.3924471948
 20
8.9679865736
 30
0.0
 10
16.3926568826
 20
8.9900141372
 30
0.0
 10
16.3924662141
 20
9.0106400071
 30
0.0
 10
16.392318341
 20
9.0238989668
 30
0.0
 10
16.3923183411
 20
9.0302585816
 30
0.0
  0
SPLINE
  5
2A5
100
AcDbEntity
  8
0
100
AcDbSpline
 62
7
  6
CONTINUOUS
 70
0
 71
3
 72
35
 73
31
 74
0
 42
0.0000001
 43
0.0000001
 44
0.0000000001
 40
0.0
 40
0.0
 40
0.0
 40
0.0
 40
0.000065227
 40
0.0002607264
 40
0.0005862331
 40
0.0010414911
 40
0.0016262539
 40
0.0023402845
 40
0.0041552422
 40
0.0064846607
 40
0.0093269853
 40
0.012680815
 40
0.0165449034
 40
0.0257995327
 40
0.037084113
 40
0.0503943155
 40
0.065728348
 40
0.0830847378
 40
0.1024533852
 40
0.123819063
 40
0.1471648737
 40
0.1997281725
 40
0.2600137206
 40
0.3279021906
 40
0.4032329769
 40
0.4858201592
 40
0.5754797696
 40
0.6720205432
 40
0.7751633644
 40
1.0
 40
1.0
 40
1.0
 40
1.0
 10
16.3923183411
 20
8.5821430515
 30
0.0
 10
16.3923166921
 20
8.582143328
 30
0.0
 10
16.392322384
 20
8.5821532759
 30
0.0
 10
16.3923201578
 20
8.582164902
 30
0.0
 10
16.3923263802
 20
8.582191497
 30
0.0
 10
16.3923302081
 20
8.5822253358
 30
0.0
 10
16.3923367992
 20
8.5822701899
 30
0.0
 10
16.3923471294
 20
8.5823491587
 30
0.0
 10
16.3923627395
 20
8.5824728327
 30
0.0
 10
16.3923832063
 20
8.5826507077
 30
0.0
 10
16.3924061409
 20
8.5828680642
 30
0.0
 10
16.3924306386
 20
8.5831247776
 30
0.0
 10
16.392466585
 20
8.5835455058
 30
0.0
 10
16.3925100016
 20
8.5841695891
 30
0.0
 10
16.3925529873
 20
8.585036266
 30
0.0
 10
16.3925831961
 20
8.5860594127
 30
0.0
 10
16.3925940727
 20
8.5872386143
 30
0.0
 10
16.3925800288
 20
8.5885730644
 30
0.0
 10
16.3925479018
 20
8.5900618079
 30
0.0
 10
16.392503592
 20
8.5917038244
 30
0.0
 10
16.3924336761
 20
8.5941963533
 30
0.0
 10
16.3923491598
 20
8.5976865478
 30
0.0
 10
16.3923047877
 20
8.6023195936
 30
0.0
 10
16.3923593849
 20
8.6075360941
 30
0.0
 10
16.3924602827
 20
8.6133234328
 30
0.0
 10
16.3925594729
 20
8.619669012
 30
0.0
 10
16.3926066898
 20
8.6265590546
 30
0.0
 10
16.3925534521
 20
8.6339759699
 30
0.0
 10
16.3924125019
 20
8.6448569937
 30
0.0
 10
16.3923183418
 20
8.6532641296
 30
0.0
 10
16.3923183411
 20
8.6590275243
 30
0.0
  0
SPLINE
  5
2A6
100
AcDbEntity
  8
0
100
AcDbSpline
 62
7
  6
CONTINUOUS
 70
0
 71
3
 72
35
 73
31
 74
0
 42
0.0000001
 43
0.0000001
 44
0.0000000001
 40
0.0
 40
0.0
 40
0.0
 40
0.0
 40
0.2248366415
 40
0.3279794685
 40
0.4245202498
 40
0.5141798651
 40
0.5967670477
 40
0.6720978327
 40
0.7399863013
 40
0.8002718462
 40
0.8528351404
 40
0.8761809492
 40
0.8975466256
 40
0.9169152722
 40
0.9342716615
 40
0.9496056928
 40
0.9629158931
 40
0.974200471
 40
0.9834550981
 40
0.9873191856
 40
0.9906730147
 40
0.9935153388
 40
0.995844757
 40
0.9976597147
 40
0.9983737453
 40
0.9989585083
 40
0.9994137664
 40
0.9997392732
 40
0.9999347728
 40
1.0
 40
1.0
 40
1.0
 40
1.0
 10
16.3923183411
 20
9.0302585816
 30
0.0
 10
16.392318341
 20
9.0360219762
 30
0.0
 10
16.3924124986
 20
9.0444291122
 30
0.0
 10
16.3925534481
 20
9.0553101361
 30
0.0
 10
16.3926066893
 20
9.0627270517
 30
0.0
 10
16.3925594776
 20
9.0696170944
 30
0.0
 10
16.3924602893
 20
9.0759626736
 30
0.0
 10
16.3923593909
 20
9.0817500121
 30
0.0
 10
16.3923047882
 20
9.0869665121
 30
0.0
 10
16.392349154
 20
9.0915995576
 30
0.0
 10
16.3924336689
 20
9.0950897518
 30
0.0
 10
16.3925035854
 20
9.0975822804
 30
0.0
 10
16.3925478965
 20
9.0992242967
 30
0.0
 10
16.3925800256
 20
9.1007130401
 30
0.0
 10
16.3925940726
 20
9.1020474901
 30
0.0
 10
16.3925831991
 20
9.1032266916
 30
0.0
 10
16.3925529913
 20
9.104249838
 30
0.0
 10
16.3925100074
 20
9.1051165149
 30
0.0
 10
16.3924665873
 20
9.1057405977
 30
0.0
 10
16.3924306457
 20
9.1061613263
 30
0.0
 10
16.3924061349
 20
9.1064180385
 30
0.0
 10
16.3923832369
 20
9.106635398
 30
0.0
 10
16.3923626664
 20
9.1068132642
 30
0.0
 10
16.3923472922
 20
9.1069369579
 30
0.0
 10
16.3923366002
 20
9.1070158965
 30
0.0
 10
16.3923307678
 20
9.107060814
 30
0.0
 10
16.3923249779
 20
9.1070944888
 30
0.0
 10
16.3923231985
 20
9.1071214552
 30
0.0
 10
16.3923176231
 20
9.1071324292
 30
0.0
 10
16.3923200132
 20
9.1071430526
 30
0.0
 10
16.3923183411
 20
9.1071430515
 30
0.0
  0
SPLINE
  5
2A7
100
AcDbEntity
  8
0
100
AcDbSpline
 62
7
  6
CONTINUOUS
 70
0
 71
3
 72
27
 73
23
 74
0
 42
0.0000001
 43
0.0000001
 44
0.0000000001
 40
0.0
 40
0.0
 40
0.0
 40
0.0
 40
0.0722872111
 40
0.1422075511
 40
0.2088232821
 40
0.2717589947
 40
0.3309803221
 40
0.3868879575
 40
0.4139163137
 40
0.4405022756
 40
0.4668277872
 40
0.4930837814
 40
0.519468065
 40
0.546171055
 40
0.5733644784
 40
0.6012018035
 40
0.6591899301
 40
0.720822409
 40
0.7861841565
 40
0.8549716523
 40
0.9266035311
 40
1.0
 40
1.0
 40
1.0
 40
1.0
 10
19.1673183383
 20
8.4597911732
 30
0.0
 10
19.1744135482
 20
8.4604583722
 30
0.0
 10
19.1883075625
 20
8.462643321
 30
0.0
 10
19.2081098225
 20
8.4684957202
 30
0.0
 10
19.2260423985
 20
8.4767496422
 30
0.0
 10
19.2415677375
 20
8.4871723374
 30
0.0
 10
19.2542376485
 20
8.4994731697
 30
0.0
 10
19.2621599545
 20
8.5111806111
 30
0.0
 10
19.2666027777
 20
8.5210450665
 30
0.0
 10
19.2689729882
 20
8.5285815445
 30
0.0
 10
19.2704034755
 20
8.5362735598
 30
0.0
 10
19.2708826819
 20
8.5440634959
 30
0.0
 10
19.2703986804
 20
8.5518901366
 30
0.0
 10
19.2689639257
 20
8.5596921449
 30
0.0
 10
19.2665916221
 20
8.567411739
 30
0.0
 10
19.2621374094
 20
8.5776463714
 30
0.0
 10
19.2542156003
 20
8.5899651641
 30
0.0
 10
19.241580426
 20
8.6032418549
 30
0.0
 10
19.2260886129
 20
8.6148873362
 30
0.0
 10
19.2081833251
 20
8.6245705294
 30
0.0
 10
19.1883994721
 20
8.6320108971
 30
0.0
 10
19.1744471857
 20
8.6353279795
 30
0.0
 10
19.1673183383
 20
8.6365678685
 30
0.0
  0
SPLINE
  5
2A8
100
AcDbEntity
  8
0
100
AcDbSpline
 62
7
  6
CONTINUOUS
 70
0
 71
3
 72
27
 73
23
 74
0
 42
0.0000001
 43
0.0000001
 44
0.0000000001
 40
0.0
 40
0.0
 40
0.0
 40
0.0
 40
0.0733983804
 40
0.1450350438
 40
0.213825197
 40
0.2791877364
 40
0.3408213026
 40
0.3988096119
 40
0.4266471427
 40
0.4538404754
 40
0.4805433584
 40
0.5069276839
 40
0.5331835549
 40
0.5595090248
 40
0.5860949887
 40
0.6131231051
 40
0.669030471
 40
0.7282507483
 40
0.7911857389
 40
0.8577989537
 40
0.9277146311
 40
1.0
 40
1.0
 40
1.0
 40
1.0
 10
19.1673183383
 20
9.0527182345
 30
0.0
 10
19.1744473716
 20
9.0539581558
 30
0.0
 10
19.1884002351
 20
9.0572756571
 30
0.0
 10
19.208184998
 20
9.0647162228
 30
0.0
 10
19.2260908332
 20
9.0744001886
 30
0.0
 10
19.2415826341
 20
9.0860463876
 30
0.0
 10
19.2542178086
 20
9.0993234237
 30
0.0
 10
19.2621388337
 20
9.1116428865
 30
0.0
 10
19.2665928996
 20
9.1218776017
 30
0.0
 10
19.2689648669
 20
9.1295973222
 30
0.0
 10
19.2703988995
 20
9.1373994431
 30
0.0
 10
19.2708826817
 20
9.1452260601
 30
0.0
 10
19.2704032608
 20
9.1530159901
 30
0.0
 10
19.2689720472
 20
9.1607078597
 30
0.0
 10
19.2666014975
 20
9.1682441788
 30
0.0
 10
19.2621585332
 20
9.1781085309
 30
0.0
 10
19.2542354308
 20
9.1898152562
 30
0.0
 10
19.2415655246
 20
9.2021157309
 30
0.0
 10
19.2260401756
 20
9.2125377042
 30
0.0
 10
19.2081081635
 20
9.220790893
 30
0.0
 10
19.1883067944
 20
9.2266431731
 30
0.0
 10
19.1744133676
 20
9.2288277478
 30
0.0
 10
19.1673183383
 20
9.2294949298
 30
0.0
  0
SPLINE
  5
2A9
100
AcDbEntity
  8
0
100
AcDbSpline
 62
7
  6
CONTINUOUS
 70
0
 71
3
 72
15
 73
11
 74
0
 42
0.0000001
 43
0.0000001
 44
0.0000000001
 40
0.0
 40
0.0
 40
0.0
 40
0.0
 40
0.1027851402
 40
0.2143031823
 40
0.3333639161
 40
0.4588053239
 40
0.5894591834
 40
0.7241051448
 40
0.861455635
 40
1.0
 40
1.0
 40
1.0
 40
1.0
 10
16.3923183411
 20
8.6590275243
 30
0.0
 10
16.3923183403
 20
8.6653871392
 30
0.0
 10
16.3924662097
 20
8.6786460994
 30
0.0
 10
16.3926568821
 20
8.6992719698
 30
0.0
 10
16.3924472014
 20
8.7212995337
 30
0.0
 10
16.392254832
 20
8.7445111503
 30
0.0
 10
16.3924596713
 20
8.7686870779
 30
0.0
 10
16.39265703
 20
8.793599845
 30
0.0
 10
16.3924532737
 20
8.8190009073
 30
0.0
 10
16.3923183409
 20
8.8360709096
 30
0.0
 10
16.3923183409
 20
8.8446430515
 30
0.0
  0
SPLINE
  5
2AA
100
AcDbEntity
  8
0
100
AcDbSpline
 62
7
  6
CONTINUOUS
 70
0
 71
3
 72
15
 73
11
 74
0
 42
0.0000001
 43
0.0000001
 44
0.0000000001
 40
0.0
 40
0.0
 40
0.0
 40
0.0
 40
0.1385443675
 40
0.275894863
 40
0.410540828
 40
0.5411946893
 40
0.6666360976
 40
0.7856968287
 40
0.8972148641
 40
1.0
 40
1.0
 40
1.0
 40
1.0
 10
5.7023183357
 20
8.8446430515
 30
0.0
 10
5.7023183357
 20
8.8360709093
 30
0.0
 10
5.7021834051
 20
8.8190009062
 30
0.0
 10
5.7019796475
 20
8.7935998429
 30
0.0
 10
5.7021769997
 20
8.7686870747
 30
0.0
 10
5.702381844
 20
8.7445111464
 30
0.0
 10
5.7021894818
 20
8.7212995294
 30
0.0
 10
5.701979794
 20
8.6992719658
 30
0.0
 10
5.7021704625
 20
8.6786460959
 30
0.0
 10
5.7023183355
 20
8.6653871362
 30
0.0
 10
5.7023183355
 20
8.6590275214
 30
0.0
  0
SPLINE
  5
2AB
100
AcDbEntity
  8
0
100
AcDbSpline
 62
7
  6
CONTINUOUS
 70
0
 71
3
 72
35
 73
31
 74
0
 42
0.0000001
 43
0.0000001
 44
0.0000000001
 40
0.0
 40
0.0
 40
0.0
 40
0.0
 40
0.000065227
 40
0.0002607264
 40
0.0005862331
 40
0.0010414911
 40
0.0016262539
 40
0.0023402845
 40
0.0041552422
 40
0.0064846607
 40
0.0093269853
 40
0.012680815
 40
0.0165449034
 40
0.0257995327
 40
0.037084113
 40
0.0503943155
 40
0.065728348
 40
0.0830847378
 40
0.1024533852
 40
0.123819063
 40
0.1471648737
 40
0.1997281725
 40
0.2600137206
 40
0.3279021906
 40
0.4032329769
 40
0.4858201592
 40
0.5754797696
 40
0.6720205432
 40
0.7751633644
 40
1.0
 40
1.0
 40
1.0
 40
1.0
 10
5.7023183354
 20
9.1071430515
 30
0.0
 10
5.7023199844
 20
9.107142775
 30
0.0
 10
5.7023142926
 20
9.1071328271
 30
0.0
 10
5.7023165188
 20
9.107121201
 30
0.0
 10
5.7023102963
 20
9.107094606
 30
0.0
 10
5.7023064685
 20
9.1070607672
 30
0.0
 10
5.7022998774
 20
9.1070159131
 30
0.0
 10
5.7022895472
 20
9.1069369443
 30
0.0
 10
5.7022739371
 20
9.1068132702
 30
0.0
 10
5.7022534703
 20
9.1066353953
 30
0.0
 10
5.7022305356
 20
9.1064180388
 30
0.0
 10
5.702206038
 20
9.1061613254
 30
0.0
 10
5.7021700915
 20
9.1057405971
 30
0.0
 10
5.702126675
 20
9.1051165139
 30
0.0
 10
5.7020836893
 20
9.104249837
 30
0.0
 10
5.7020534805
 20
9.1032266903
 30
0.0
 10
5.7020426038
 20
9.1020474887
 30
0.0
 10
5.7020566478
 20
9.1007130386
 30
0.0
 10
5.7020887748
 20
9.0992242951
 30
0.0
 10
5.7021330846
 20
9.0975822786
 30
0.0
 10
5.7022030005
 20
9.0950897497
 30
0.0
 10
5.7022875168
 20
9.0915995552
 30
0.0
 10
5.7023318889
 20
9.0869665094
 30
0.0
 10
5.7022772917
 20
9.0817500089
 30
0.0
 10
5.7021763939
 20
9.0759626702
 30
0.0
 10
5.7020772037
 20
9.0696170909
 30
0.0
 10
5.7020299868
 20
9.0627270484
 30
0.0
 10
5.7020832245
 20
9.0553101331
 30
0.0
 10
5.7022241747
 20
9.0444291093
 30
0.0
 10
5.7023183348
 20
9.0360219734
 30
0.0
 10
5.7023183355
 20
9.0302585787
 30
0.0
  0
SPLINE
  5
2AC
100
AcDbEntity
  8
0
100
AcDbSpline
 62
7
  6
CONTINUOUS
 70
0
 71
3
 72
35
 73
31
 74
0
 42
0.0000001
 43
0.0000001
 44
0.0000000001
 40
0.0
 40
0.0
 40
0.0
 40
0.0
 40
0.2248366415
 40
0.3279794685
 40
0.4245202498
 40
0.5141798651
 40
0.5967670477
 40
0.6720978327
 40
0.7399863013
 40
0.8002718462
 40
0.8528351404
 40
0.8761809492
 40
0.8975466256
 40
0.9169152722
 40
0.9342716615
 40
0.9496056928
 40
0.9629158931
 40
0.974200471
 40
0.9834550981
 40
0.9873191856
 40
0.9906730147
 40
0.9935153388
 40
0.995844757
 40
0.9976597147
 40
0.9983737453
 40
0.9989585083
 40
0.9994137664
 40
0.9997392732
 40
0.9999347728
 40
1.0
 40
1.0
 40
1.0
 40
1.0
 10
5.7023183355
 20
8.6590275214
 30
0.0
 10
5.7023183355
 20
8.6532641268
 30
0.0
 10
5.702224178
 20
8.6448569908
 30
0.0
 10
5.7020832285
 20
8.6339759669
 30
0.0
 10
5.7020299872
 20
8.6265590513
 30
0.0
 10
5.702077199
 20
8.6196690086
 30
0.0
 10
5.7021763872
 20
8.6133234294
 30
0.0
 10
5.7022772856
 20
8.6075360909
 30
0.0
 10
5.7023318884
 20
8.6023195909
 30
0.0
 10
5.7022875226
 20
8.5976865454
 30
0.0
 10
5.7022030077
 20
8.5941963512
 30
0.0
 10
5.7021330911
 20
8.5917038226
 30
0.0
 10
5.70208878
 20
8.5900618063
 30
0.0
 10
5.702056651
 20
8.5885730629
 30
0.0
 10
5.7020426039
 20
8.5872386129
 30
0.0
 10
5.7020534774
 20
8.5860594114
 30
0.0
 10
5.7020836853
 20
8.585036265
 30
0.0
 10
5.7021266691
 20
8.5841695881
 30
0.0
 10
5.7021700893
 20
8.5835455053
 30
0.0
 10
5.7022060308
 20
8.5831247767
 30
0.0
 10
5.7022305417
 20
8.5828680645
 30
0.0
 10
5.7022534397
 20
8.582650705
 30
0.0
 10
5.7022740101
 20
8.5824728388
 30
0.0
 10
5.7022893843
 20
8.5823491451
 30
0.0
 10
5.7023000764
 20
8.5822702064
 30
0.0
 10
5.7023059088
 20
8.582225289
 30
0.0
 10
5.7023116987
 20
8.5821916142
 30
0.0
 10
5.702313478
 20
8.5821646478
 30
0.0
 10
5.7023190535
 20
8.5821536738
 30
0.0
 10
5.7023166634
 20
8.5821430504
 30
0.0
 10
5.7023183354
 20
8.5821430515
 30
0.0
  0
SPLINE
  5
2AD
100
AcDbEntity
  8
0
100
AcDbSpline
 62
7
  6
CONTINUOUS
 70
0
 71
3
 72
27
 73
23
 74
0
 42
0.0000001
 43
0.0000001
 44
0.0000000001
 40
0.0
 40
0.0
 40
0.0
 40
0.0
 40
0.0722872111
 40
0.1422075511
 40
0.2088232821
 40
0.2717589947
 40
0.3309803221
 40
0.3868879575
 40
0.4139163137
 40
0.4405022756
 40
0.4668277872
 40
0.4930837814
 40
0.519468065
 40
0.546171055
 40
0.5733644784
 40
0.6012018035
 40
0.6591899301
 40
0.720822409
 40
0.7861841565
 40
0.8549716523
 40
0.9266035311
 40
1.0
 40
1.0
 40
1.0
 40
1.0
 10
2.9273183383
 20
9.2294949298
 30
0.0
 10
2.9202231283
 20
9.2288277308
 30
0.0
 10
2.9063291141
 20
9.226642782
 30
0.0
 10
2.8865268541
 20
9.2207903828
 30
0.0
 10
2.868594278
 20
9.2125364608
 30
0.0
 10
2.8530689391
 20
9.2021137656
 30
0.0
 10
2.840399028
 20
9.1898129333
 30
0.0
 10
2.8324767221
 20
9.1781054919
 30
0.0
 10
2.8280338989
 20
9.1682410364
 30
0.0
 10
2.8256636884
 20
9.1607045585
 30
0.0
 10
2.824233201
 20
9.1530125432
 30
0.0
 10
2.8237539946
 20
9.1452226071
 30
0.0
 10
2.8242379962
 20
9.1373959664
 30
0.0
 10
2.8256727509
 20
9.1295939581
 30
0.0
 10
2.8280450545
 20
9.121874364
 30
0.0
 10
2.8324992672
 20
9.1116397316
 30
0.0
 10
2.8404210762
 20
9.0993209389
 30
0.0
 10
2.8530562506
 20
9.0860442481
 30
0.0
 10
2.8685480637
 20
9.0743987668
 30
0.0
 10
2.8864533515
 20
9.0647155735
 30
0.0
 10
2.9062372045
 20
9.0572752059
 30
0.0
 10
2.9201894908
 20
9.0539581235
 30
0.0
 10
2.9273183383
 20
9.0527182345
 30
0.0
  0
SPLINE
  5
2AE
100
AcDbEntity
  8
0
100
AcDbSpline
 62
7
  6
CONTINUOUS
 70
0
 71
3
 72
27
 73
23
 74
0
 42
0.0000001
 43
0.0000001
 44
0.0000000001
 40
0.0
 40
0.0
 40
0.0
 40
0.0
 40
0.0733983804
 40
0.1450350438
 40
0.213825197
 40
0.2791877364
 40
0.3408213026
 40
0.3988096119
 40
0.4266471427
 40
0.4538404754
 40
0.4805433584
 40
0.5069276839
 40
0.5331835549
 40
0.5595090248
 40
0.5860949887
 40
0.6131231051
 40
0.669030471
 40
0.7282507483
 40
0.7911857389
 40
0.8577989537
 40
0.9277146311
 40
1.0
 40
1.0
 40
1.0
 40
1.0
 10
2.9273183383
 20
8.6365678685
 30
0.0
 10
2.920189305
 20
8.6353279472
 30
0.0
 10
2.9062364415
 20
8.6320104459
 30
0.0
 10
2.8864516786
 20
8.6245698802
 30
0.0
 10
2.8685458434
 20
8.6148859144
 30
0.0
 10
2.8530540424
 20
8.6032397153
 30
0.0
 10
2.8404188679
 20
8.5899626793
 30
0.0
 10
2.8324978428
 20
8.5776432165
 30
0.0
 10
2.8280437769
 20
8.5674085013
 30
0.0
 10
2.8256718096
 20
8.5596887808
 30
0.0
 10
2.8242377771
 20
8.5518866599
 30
0.0
 10
2.8237539948
 20
8.5440600429
 30
0.0
 10
2.8242334157
 20
8.5362701129
 30
0.0
 10
2.8256646294
 20
8.5285782433
 30
0.0
 10
2.828035179
 20
8.5210419242
 30
0.0
 10
2.8324781433
 20
8.5111775721
 30
0.0
 10
2.8404012458
 20
8.4994708468
 30
0.0
 10
2.853071152
 20
8.4871703721
 30
0.0
 10
2.868596501
 20
8.4767483988
 30
0.0
 10
2.886528513
 20
8.46849521
 30
0.0
 10
2.9063298822
 20
8.4626429299
 30
0.0
 10
2.920223309
 20
8.4604583552
 30
0.0
 10
2.9273183383
 20
8.4597911732
 30
0.0
  0
SPLINE
  5
2AF
100
AcDbEntity
  8
0
100
AcDbSpline
 62
7
  6
CONTINUOUS
 70
0
 71
3
 72
15
 73
11
 74
0
 42
0.0000001
 43
0.0000001
 44
0.0000000001
 40
0.0
 40
0.0
 40
0.0
 40
0.0
 40
0.1027851402
 40
0.2143031823
 40
0.3333639161
 40
0.4588053239
 40
0.5894591834
 40
0.7241051448
 40
0.861455635
 40
1.0
 40
1.0
 40
1.0
 40
1.0
 10
5.7023183355
 20
9.0302585787
 30
0.0
 10
5.7023183363
 20
9.0238989638
 30
0.0
 10
5.7021704668
 20
9.0106400035
 30
0.0
 10
5.7019797945
 20
8.9900141332
 30
0.0
 10
5.7021894752
 20
8.9679865693
 30
0.0
 10
5.7023818446
 20
8.9447749527
 30
0.0
 10
5.7021770052
 20
8.9205990251
 30
0.0
 10
5.7019796465
 20
8.895686258
 30
0.0
 10
5.7021834028
 20
8.8702851957
 30
0.0
 10
5.7023183357
 20
8.8532151934
 30
0.0
 10
5.7023183357
 20
8.8446430515
 30
0.0
  0
ENDSEC
  0
SECTION
  2
OBJECTS
  0
DICTIONARY
  5
C
100
AcDbDictionary
280
0
281
1
  3
ACAD_GROUP
350
D
  3
ACAD_MLINESTYLE
350
17
  3
ACAD_LAYOUT
350
1A
  3
ACAD_PLOTSETTINGS
350
19
  3
ACAD_PLOTSTYLENAME
350
E
  0
DICTIONARY
  5
D
102
{ACAD_REACTORS
330
C
102
}
100
AcDbDictionary
280
0
281
1
  0
ACDBDICTIONARYWDFLT
  5
E
102
{ACAD_REACTORS
330
C
102
}
100
AcDbDictionary
281
1
  3
Normal
350
F
100
AcDbDictionaryWithDefault
340
F
  0
DICTIONARY
  5
17
102
{ACAD_REACTORS
330
C
102
}
100
AcDbDictionary
280
0
281
1
  3
Standard
350
18
  0
DICTIONARY
  5
19
102
{ACAD_REACTORS
330
C
102
}
100
AcDbDictionary
281
1
  0
DICTIONARY
  5
1A
102
{ACAD_REACTORS
330
C
102
}
100
AcDbDictionary
281
1
  3
Model
350
2B0
  3
Layout1
350
2B1
  0
ACDBPLACEHOLDER
  5
F
102
{ACAD_REACTORS
330
E
102
}
  0
MLINESTYLE
  5
18
102
{ACAD_REACTORS
330
17
102
}
100
AcDbMlineStyle
  2
STANDARD
 70
0
  3

 62
256
 51
90.0
 52
90.0
 71
2
 49
0.5
 62
256
  6
BYLAYER
 49
-0.5
 62
256
  6
BYLAYER
  0
LAYOUT
  5
2B0
102
{ACAD_REACTORS
330
1A
102
}
100
AcDbPlotSettings
  1

  2
none_device
  4
ANSI_C_(22.00_x_17.00_Inches)
  6

 40
0.0
 41
0.0
 42
0.0
 43
0.0
 44
558.8
 45
431.8
 46
0.0
 47
0.0
 48
0.0
 49
0.0
140
0.0
141
0.0
142
1.0
143
1.0
 70
1024
 72
0
 73
0
 74
0
  7

 75
0
147
1.0
148
0.0
149
0.0
100
AcDbLayout
  1
Model
 70
0
 71
0
 10
0.0
 20
0.0
 11
22.0
 21
17.0
 12
0.0
 22
0.0
 32
0.0
 14
0.0
 24
0.0
 34
0.0
 15
0.0
 25
0.0
 35
0.0
146
0.0
 13
0.0
 23
0.0
 33
0.0
 16
1.0
 26
0.0
 36
0.0
 17
0.0
 27
1.0
 37
0.0
 76
0
330
202
345
0
346
0
  0
LAYOUT
  5
2B1
102
{ACAD_REACTORS
330
1A
102
}
100
AcDbPlotSettings
  1

  2
none_device
  4
ANSI_C_(22.00_x_17.00_Inches)
  6

 40
0.0
 41
0.0
 42
0.0
 43
0.0
 44
558.8
 45
431.8
 46
0.0
 47
0.0
 48
0.0
 49
0.0
140
0.0
141
0.0
142
1.0
143
1.0
 70
0
 72
0
 73
0
 74
0
  7

 75
0
147
1.0
148
0.0
149
0.0
100
AcDbLayout
  1
Layout1
 70
0
 71
1
 10
0.0
 20
0.0
 11
22.0
 21
17.0
 12
0.0
 22
0.0
 32
0.0
 14
0.0
 24
0.0
 34
0.0
 15
0.0
 25
0.0
 35
0.0
146
0.0
 13
0.0
 23
0.0
 33
0.0
 16
1.0
 26
0.0
 36
0.0
 17
0.0
 27
1.0
 37
0.0
 76
0
330
203
345
0
346
0
  0
ENDSEC
  0
EOF
