999
DXF file: E:\BT Custom\CADOUTPUT\_RIGHT.dxf
999
Pro/ENGINEER 2018400 by Parametric Technology Corporation
  0
SECTION
  2
HEADER
  9
$ACADVER
  1
AC1018
  9
$DWGCODEPAGE
  3
ANSI_1252
  9
$EXTMAX
 10
22.0
 20
17.0
 30
0.0
  9
$EXTMIN
 10
0.0
 20
0.0
 30
0.0
  9
$LIMMIN
 10
0.0
 20
0.0
  9
$LIMMAX
 10
22.0
 20
17.0
  9
$VIEWCTR
 10
11.0
 20
8.5
  9
$VIEWSIZE
 40
17.0
  9
$CLAYER
  8
0
  9
$LTSCALE
 40
1.21
  9
$CELTYPE
  6
BYLAYER
  9
$DIMSCALE
 40
1.0
  9
$DIMASZ
 40
0.1
  9
$DIMEXO
 40
0.0625
  9
$DIMDLI
 40
0.836
  9
$DIMEXE
 40
0.125
  9
$DIMCEN
 40
0.198
  9
$DIMLFAC
 40
1.0
  9
$DIMBLK
  1
_FILLED
  9
$DIMALT
 70
1
  9
$DIMALTD
 70
2
  9
$DIMALTTD
 70
2
  9
$DIMALTF
 40
25.4
  9
$DIMTXT
 40
0.08
  9
$DIMTOL
 70
1
  9
$DIMLIM
 70
0
  9
$DIMTFAC
 40
1.0
  9
$DIMTP
 40
0.001
  9
$DIMTM
 40
0.001
  9
$DIMGAP
 40
0.09
  9
$DIMDSEP
 70
46
  9
$AUNITS
 70
0
  9
$PDMODE
 70
3
  9
$PDSIZE
 40
0.06
  9
$HANDSEED
  5
601
  9
$TILEMODE
 70
1
  9
$MEASUREMENT
 70
0
  9
$INSUNITS
 70
1
  0
ENDSEC
  0
SECTION
  2
CLASSES
  0
CLASS
  1
ACDBDICTIONARYWDFLT
  2
AcDbDictionaryWithDefault
  3
AutoCAD 2000
 90
0
 91
1
280
0
281
0
  0
CLASS
  1
ACDBPLACEHOLDER
  2
AcDbPlaceHolder
  3
AutoCAD 2000
 90
0
 91
1
280
0
281
0
  0
CLASS
  1
LAYOUT
  2
AcDbLayout
  3
AutoCAD 2000
 90
0
 91
0
280
0
281
0
  0
ENDSEC
  0
SECTION
  2
TABLES
  0
TABLE
  2
VPORT
  5
8
100
AcDbSymbolTable
 70
2
  0
VPORT
  5
1F4
100
AcDbSymbolTableRecord
100
AcDbViewportTableRecord
  2
*ACTIVE
 70
0
 10
0.0
 20
0.0
 11
1.0
 21
1.0
 12
11.0
 22
8.5
 13
0.0
 23
0.0
 14
1.0
 24
1.0
 15
0.0
 25
0.0
 16
0.0
 26
0.0
 36
1.0
 17
0.0
 27
0.0
 37
0.0
 40
17.0
 41
1.2941176471
 42
50.0
 43
0.0
 44
0.0
 50
0.0
 51
0.0
 71
0
 72
100
 73
1
 74
1
 75
0
 76
0
 77
0
 78
0
  0
ENDTAB
  0
TABLE
  2
LTYPE
  5
5
100
AcDbSymbolTable
 70
6
  0
LTYPE
  5
14
100
AcDbSymbolTableRecord
100
AcDbLinetypeTableRecord
  2
BYBLOCK
 70
0
  3

 72
65
 73
0
 40
0.0
  0
LTYPE
  5
15
100
AcDbSymbolTableRecord
100
AcDbLinetypeTableRecord
  2
BYLAYER
 70
0
  3

 72
65
 73
0
 40
0.0
  0
LTYPE
  5
16
100
AcDbSymbolTableRecord
100
AcDbLinetypeTableRecord
  2
CONTINUOUS
 70
64
  3
Solid line
 72
65
 73
0
 40
0.0
  0
LTYPE
  5
1F5
100
AcDbSymbolTableRecord
100
AcDbLinetypeTableRecord
  2
CENTER
 70
64
  3
____ _ ____ _ ____ _ ____ _ ____ _ ____ _ ____
 72
65
 73
4
 40
0.6
 49
0.375
 74
0
 49
-0.075
 74
0
 49
0.075
 74
0
 49
-0.075
 74
0
  0
LTYPE
  5
1F6
100
AcDbSymbolTableRecord
100
AcDbLinetypeTableRecord
  2
HIDDEN
 70
64
  3
- - - - - - - - - - - - - - - - - - - -
 72
65
 73
2
 40
0.2
 49
0.1
 74
0
 49
-0.1
 74
0
  0
LTYPE
  5
1F7
100
AcDbSymbolTableRecord
100
AcDbLinetypeTableRecord
  2
PHANTOM
 70
64
  3
_____ _ _ _____ _ _ _____ _ _ _____
 72
65
 73
6
 40
0.8
 49
0.45
 74
0
 49
-0.05
 74
0
 49
0.1
 74
0
 49
-0.05
 74
0
 49
0.1
 74
0
 49
-0.05
 74
0
  0
LTYPE
  5
1F8
100
AcDbSymbolTableRecord
100
AcDbLinetypeTableRecord
  2
DOT
 70
64
  3
. . . . . . . . . . . . . . . . . . . .
 72
65
 73
2
 40
0.2
 49
0.1
 74
0
 49
-0.1
 74
0
  0
LTYPE
  5
1F9
100
AcDbSymbolTableRecord
100
AcDbLinetypeTableRecord
  2
DASHED
 70
64
  3
- - - - - - - - - - - - - - - - - - - -
 72
65
 73
2
 40
0.2
 49
0.1
 74
0
 49
-0.1
 74
0
  0
ENDTAB
  0
TABLE
  2
LAYER
  5
2
100
AcDbSymbolTable
 70
36
  0
LAYER
  5
10
100
AcDbSymbolTableRecord
100
AcDbLayerTableRecord
  2
0
 70
0
 62
7
  6
CONTINUOUS
370
-3
390
F
  0
LAYER
  5
1FA
100
AcDbSymbolTableRecord
100
AcDbLayerTableRecord
  2
DEFAULT_1
 70
0
 62
7
  6
CENTER
370
-3
390
F
  0
LAYER
  5
1FB
100
AcDbSymbolTableRecord
100
AcDbLayerTableRecord
  2
DEFAULT_2
 70
0
 62
8
  6
HIDDEN
370
-3
390
F
  0
LAYER
  5
1FC
100
AcDbSymbolTableRecord
100
AcDbLayerTableRecord
  2
DEFAULT_3
 70
0
 62
7
  6
PHANTOM
370
-3
390
F
  0
LAYER
  5
1FD
100
AcDbSymbolTableRecord
100
AcDbLayerTableRecord
  2
ALL_FEATURES
 70
0
 62
7
  6
CONTINUOUS
370
-3
390
F
  0
LAYER
  5
1FE
100
AcDbSymbolTableRecord
100
AcDbLayerTableRecord
  2
AXES_FEATURES
 70
0
 62
7
  6
CONTINUOUS
370
-3
390
F
  0
LAYER
  5
1FF
100
AcDbSymbolTableRecord
100
AcDbLayerTableRecord
  2
DIMENSIONS
 70
0
 62
7
  6
CONTINUOUS
370
-3
390
F
  0
ENDTAB
  0
TABLE
  2
STYLE
  5
3
100
AcDbSymbolTable
 70
1
  0
STYLE
  5
11
100
AcDbSymbolTableRecord
100
AcDbTextStyleTableRecord
  2
STANDARD
 70
0
 40
0.0
 41
0.8
 50
0.0
 71
0
 42
0.2
  3
txt
  4

  0
STYLE
  5
200
100
AcDbSymbolTableRecord
100
AcDbTextStyleTableRecord
  2
TEXTSTYLE_1
 70
0
 40
0.0
 41
0.8
 50
0.0
 71
0
 42
0.2
  3
gdt
  4

  0
ENDTAB
  0
TABLE
  2
VIEW
  5
6
100
AcDbSymbolTable
 70
0
  0
ENDTAB
  0
TABLE
  2
UCS
  5
7
100
AcDbSymbolTable
 70
0
  0
ENDTAB
  0
TABLE
  2
APPID
  5
9
100
AcDbSymbolTable
 70
1
  0
APPID
  5
201
100
AcDbSymbolTableRecord
100
AcDbRegAppTableRecord
  2
ACAD
 70
0
  0
ENDTAB
  0
TABLE
  2
BLOCK_RECORD
  5
1
100
AcDbSymbolTable
 70
0
  0
BLOCK_RECORD
  5
202
100
AcDbSymbolTableRecord
100
AcDbBlockTableRecord
  2
*Model_Space
  0
BLOCK_RECORD
  5
203
100
AcDbSymbolTableRecord
100
AcDbBlockTableRecord
  2
*Paper_Space
  0
BLOCK_RECORD
  5
204
100
AcDbSymbolTableRecord
100
AcDbBlockTableRecord
  2
_FILLED
  0
ENDTAB
  0
TABLE
  2
DIMSTYLE
  5
A
100
AcDbSymbolTable
 70
1
100
AcDbDimStyleTable
 71
0
  0
DIMSTYLE
105
205
100
AcDbSymbolTableRecord
100
AcDbDimStyleTableRecord
  2
STANDARD
 70
0
  3

  4

 40
1.0
 41
0.1
 42
0.0625
 43
0.38
 44
0.125
 45
0.0
 46
0.0
 47
0.001
 48
0.001
140
0.08
141
0.09
142
0.0
143
25.4
144
1.0
145
0.0
146
1.0
147
0.09
 71
1.0
 72
0.0
 73
1
 74
1
 75
0
 76
0
 77
0
 78
4
 79
1
170
1
171
2
172
0
173
0
174
0
175
0
176
0
177
0
178
0
270
2
179
3
271
3
272
3
273
2
274
2
275
0
280
0
281
0
282
0
283
1
284
4
285
0
286
0
287
3
288
0
340
11
278
46
341
204
342
204
343
204
344
204
  0
ENDTAB
  0
ENDSEC
  0
SECTION
  2
BLOCKS
  0
BLOCK
  5
20
100
AcDbEntity
  8
0
100
AcDbBlockBegin
  2
*Model_Space
 70
0
 10
0.0
 20
0.0
 30
0.0
  3
*Model_Space
  1

  0
ENDBLK
  5
21
100
AcDbEntity
  8
0
100
AcDbBlockEnd
  0
BLOCK
  5
1C
100
AcDbEntity
  8
0
100
AcDbBlockBegin
  2
*Paper_Space
 70
0
 10
0.0
 20
0.0
 30
0.0
  3
*Paper_Space
  1

  0
ENDBLK
  5
1D
100
AcDbEntity
  8
0
100
AcDbBlockEnd
  0
BLOCK
  5
206
100
AcDbEntity
  8
0
100
AcDbBlockBegin
  2
_FILLED
 70
64
 10
0.0
 20
0.0
  3
_FILLED
  1

  0
SOLID
  5
207
100
AcDbEntity
  8
0
  6
BYBLOCK
 62
0
100
AcDbTrace
 10
0.0
 20
0.0
 11
-1.0
 21
0.2
 12
-1.0
 22
-0.2
 13
-1.0
 23
-0.2
  0
ENDBLK
  5
208
100
AcDbEntity
  8
0
  6
BYBLOCK
 62
0
100
AcDbBlockEnd
  0
ENDSEC
  0
SECTION
  2
ENTITIES
  0
LINE
  5
209
100
AcDbEntity
  8
0
100
AcDbLine
 62
9
  6
CONTINUOUS
 10
13.3574972687
 20
-1.6049743377
 11
13.8974972687
 21
-1.6049743377
  0
LINE
  5
20A
100
AcDbEntity
  8
0
100
AcDbLine
 62
7
  6
CONTINUOUS
 10
14.0207903726
 20
19.9172062115
 11
14.0207805318
 21
19.9171975602
  0
LINE
  5
20B
100
AcDbEntity
  8
0
100
AcDbLine
 62
7
  6
CONTINUOUS
 10
13.2427383123
 20
18.8266305808
 11
13.2211864868
 21
18.8094902314
  0
LINE
  5
20C
100
AcDbEntity
  8
0
100
AcDbLine
 62
7
  6
CONTINUOUS
 10
13.2554199042
 20
17.412821938
 11
13.3574972687
 21
17.4717563319
  0
LINE
  5
20D
100
AcDbEntity
  8
0
100
AcDbLine
 62
7
  6
CONTINUOUS
 10
13.9980832634
 20
19.8957627424
 11
14.0210400598
 21
19.9174258188
  0
LINE
  5
20E
100
AcDbEntity
  8
0
100
AcDbLine
 62
7
  6
CONTINUOUS
 10
13.2213642711
 20
18.8096395351
 11
13.2167088118
 21
18.8052691523
  0
LINE
  5
20F
100
AcDbEntity
  8
0
100
AcDbLine
 62
7
  6
CONTINUOUS
 10
13.2361509425
 20
18.8190134517
 11
13.2360449865
 21
18.8189212261
  0
LINE
  5
210
100
AcDbEntity
  8
0
100
AcDbLine
 62
7
  6
CONTINUOUS
 10
13.9995746331
 20
16.8032293866
 11
13.8974972687
 21
16.7442949927
  0
LINE
  5
211
100
AcDbEntity
  8
0
100
AcDbLine
 62
7
  6
CONTINUOUS
 10
6.1399972687
 20
9.041538337
 11
6.1399972687
 21
9.0661356445
  0
LINE
  5
212
100
AcDbEntity
  8
0
100
AcDbLine
 62
7
  6
CONTINUOUS
 10
13.9581795087
 20
19.8496426852
 11
13.9980832634
 21
19.8957627424
  0
LINE
  5
213
100
AcDbEntity
  8
0
100
AcDbLine
 62
7
  6
CONTINUOUS
 10
13.2454988048
 20
18.8298168684
 11
13.2361027596
 21
18.8189715201
  0
LINE
  5
214
100
AcDbEntity
  8
0
100
AcDbLine
 62
9
  6
CONTINUOUS
 10
6.6274972687
 20
9.041538337
 11
6.6274972687
 21
9.2684680275
  0
LINE
  5
215
100
AcDbEntity
  8
0
100
AcDbLine
 62
7
  6
CONTINUOUS
 10
7.1149972687
 20
9.041538337
 11
7.1149972687
 21
9.0661374562
  0
LINE
  5
216
100
AcDbEntity
  8
0
100
AcDbLine
 62
7
  6
CONTINUOUS
 10
13.2489576761
 20
18.8349186362
 11
13.2451330736
 21
18.829323707
  0
LINE
  5
217
100
AcDbEntity
  8
0
100
AcDbLine
 62
7
  6
CONTINUOUS
 10
13.9471135578
 20
19.8341954645
 11
13.9580265804
 21
19.8494401274
  0
LINE
  5
218
100
AcDbEntity
  8
0
100
AcDbLine
 62
7
  6
CONTINUOUS
 10
13.9489370371
 20
19.8368484832
 11
13.9581660089
 21
19.8496213269
  0
LINE
  5
219
100
AcDbEntity
  8
0
100
AcDbLine
 62
7
  6
CONTINUOUS
 10
13.9580265804
 20
19.8494401274
 11
13.9581786628
 21
19.8496415607
  0
LINE
  5
21A
100
AcDbEntity
  8
0
100
AcDbLine
 62
7
  6
CONTINUOUS
 10
10.0298604647
 20
12.5216028773
 11
10.0439854558
 21
12.5297579447
  0
LINE
  5
21B
100
AcDbEntity
  8
0
100
AcDbLine
 62
7
  6
CONTINUOUS
 10
13.1101280997
 20
14.6726381597
 11
13.0513187208
 21
14.6452148959
  0
LINE
  5
21C
100
AcDbEntity
  8
0
100
AcDbLine
 62
7
  6
CONTINUOUS
 10
13.2167088118
 20
18.8052691523
 11
13.202183664
 21
18.7796509548
  0
LINE
  5
21D
100
AcDbEntity
  8
0
100
AcDbLine
 62
7
  6
CONTINUOUS
 10
13.9257875048
 20
19.7994462664
 11
13.9471135578
 21
19.8341954645
  0
LINE
  5
21E
100
AcDbEntity
  8
0
100
AcDbLine
 62
7
  6
CONTINUOUS
 10
13.9292265346
 20
19.805552437
 11
13.9489370371
 21
19.8368484832
  0
LWPOLYLINE
  5
21F
100
AcDbEntity
  8
0
100
AcDbPolyline
 62
7
  6
CONTINUOUS
 90
3
 70
0
 10
13.2727693721
 20
18.886210694
 10
13.2494002373
 20
18.8355915669
 10
13.2454988048
 20
18.8298168684
  0
LINE
  5
220
100
AcDbEntity
  8
0
100
AcDbLine
 62
7
  6
CONTINUOUS
 10
13.2720546936
 20
18.8841934157
 11
13.2489576761
 21
18.8349186362
  0
LINE
  5
221
100
AcDbEntity
  8
0
100
AcDbLine
 62
7
  6
CONTINUOUS
 10
13.9081902564
 20
19.7641832757
 11
13.9257875048
 21
19.7994462664
  0
LINE
  5
222
100
AcDbEntity
  8
0
100
AcDbLine
 62
7
  6
CONTINUOUS
 10
13.9078910682
 20
19.7635094553
 11
13.9292265346
 21
19.805552437
  0
LINE
  5
223
100
AcDbEntity
  8
0
100
AcDbLine
 62
7
  6
CONTINUOUS
 10
13.9312261531
 20
17.9708491283
 11
14.0551573857
 21
18.1616864913
  0
LINE
  5
224
100
AcDbEntity
  8
0
100
AcDbLine
 62
7
  6
CONTINUOUS
 10
14.2629697096
 20
13.6297579458
 11
14.3798831391
 21
13.6972579458
  0
LINE
  5
225
100
AcDbEntity
  8
0
100
AcDbLine
 62
9
  6
CONTINUOUS
 10
9.8396739318
 20
13.4462758029
 11
9.8396739318
 21
12.6732400886
  0
LINE
  5
226
100
AcDbEntity
  8
0
100
AcDbLine
 62
7
  6
CONTINUOUS
 10
9.8839854576
 20
13.5144793868
 11
9.8839854576
 21
12.6050223869
  0
LINE
  5
227
100
AcDbEntity
  8
0
100
AcDbLine
 62
9
  6
CONTINUOUS
 10
9.8981441399
 20
13.5303726066
 11
9.8981441399
 21
13.1247326218
  0
LINE
  5
228
100
AcDbEntity
  8
0
100
AcDbLine
 62
9
  6
CONTINUOUS
 10
9.8981441399
 20
12.9911123167
 11
9.8981441399
 21
12.5891286736
  0
LINE
  5
229
100
AcDbEntity
  8
0
100
AcDbLine
 62
7
  6
CONTINUOUS
 10
13.9076729961
 20
19.7630200421
 11
13.9078910682
 21
19.7635094553
  0
LINE
  5
22A
100
AcDbEntity
  8
0
100
AcDbLine
 62
7
  6
CONTINUOUS
 10
14.8429697096
 20
12.4897579458
 11
14.7260562801
 21
12.4222579458
  0
LINE
  5
22B
100
AcDbEntity
  8
0
100
AcDbLine
 62
9
  6
CONTINUOUS
 10
9.9746534513
 20
12.5372579458
 11
9.9746534513
 21
12.8005093997
  0
LINE
  5
22C
100
AcDbEntity
  8
0
100
AcDbLine
 62
9
  6
CONTINUOUS
 10
9.9746534513
 20
13.3190064919
 11
9.9746534513
 21
13.5822579458
  0
LINE
  5
22D
100
AcDbEntity
  8
0
100
AcDbLine
 62
9
  6
CONTINUOUS
 10
10.0298604647
 20
13.5979130143
 11
10.0298604647
 21
13.3827187817
  0
LINE
  5
22E
100
AcDbEntity
  8
0
100
AcDbLine
 62
9
  6
CONTINUOUS
 10
10.0298604647
 20
12.7367971099
 11
10.0298604647
 21
12.5216028773
  0
LINE
  5
22F
100
AcDbEntity
  8
0
100
AcDbLine
 62
7
  6
CONTINUOUS
 10
10.0439854558
 20
12.5297579447
 11
10.0439854558
 21
12.7204960011
  0
LINE
  5
230
100
AcDbEntity
  8
0
100
AcDbLine
 62
7
  6
CONTINUOUS
 10
10.0439854558
 20
13.3990198905
 11
10.0439854558
 21
13.5897579468
  0
LINE
  5
231
100
AcDbEntity
  8
0
100
AcDbLine
 62
9
  6
CONTINUOUS
 10
10.0924555784
 20
13.4317110705
 11
10.09245569
 21
13.6375166777
  0
LINE
  5
232
100
AcDbEntity
  8
0
100
AcDbLine
 62
9
  6
CONTINUOUS
 10
10.0924555812
 20
12.4819992486
 11
10.0924555784
 21
12.687804821
  0
LINE
  5
233
100
AcDbEntity
  8
0
100
AcDbLine
 62
9
  6
CONTINUOUS
 10
10.5902517382
 20
13.6393025853
 11
10.5902517384
 21
13.4350937799
  0
LINE
  5
234
100
AcDbEntity
  8
0
100
AcDbLine
 62
9
  6
CONTINUOUS
 10
10.5902517384
 20
12.6844221117
 11
10.5902517382
 21
12.4802012865
  0
LINE
  5
235
100
AcDbEntity
  8
0
100
AcDbLine
 62
7
  6
CONTINUOUS
 10
10.6439854576
 20
12.555051904
 11
10.6439854576
 21
12.720495999
  0
LINE
  5
236
100
AcDbEntity
  8
0
100
AcDbLine
 62
7
  6
CONTINUOUS
 10
10.6439854576
 20
13.3990198926
 11
10.6439854576
 21
13.5644535202
  0
LINE
  5
237
100
AcDbEntity
  8
0
100
AcDbLine
 62
9
  6
CONTINUOUS
 10
10.7619854576
 20
13.3097579458
 11
10.7619854576
 21
13.225057763
  0
LINE
  5
238
100
AcDbEntity
  8
0
100
AcDbLine
 62
9
  6
CONTINUOUS
 10
10.7619854576
 20
12.8944581286
 11
10.7619854576
 21
12.80981651
  0
LINE
  5
239
100
AcDbEntity
  8
0
100
AcDbLine
 62
7
  6
CONTINUOUS
 10
13.2967437
 20
18.9746485301
 11
13.2720546936
 21
18.8841934157
  0
LINE
  5
23A
100
AcDbEntity
  8
0
100
AcDbLine
 62
7
  6
CONTINUOUS
 10
13.8974972687
 20
19.733950528
 11
13.9077433147
 21
19.7631827401
  0
LINE
  5
23B
100
AcDbEntity
  8
0
100
AcDbLine
 62
7
  6
CONTINUOUS
 10
13.0574972687
 20
14.4980256623
 11
12.9899972687
 21
14.3811122328
  0
LINE
  5
23C
100
AcDbEntity
  8
0
100
AcDbLine
 62
7
  6
CONTINUOUS
 10
6.1399972687
 20
9.041538337
 11
7.1149972687
 21
9.041538337
  0
LINE
  5
23D
100
AcDbEntity
  8
0
100
AcDbLine
 62
9
  6
CONTINUOUS
 10
7.1149972687
 20
9.0661358319
 11
6.1399972687
 21
9.0661356446
  0
LINE
  5
23E
100
AcDbEntity
  8
0
100
AcDbLine
 62
7
  6
CONTINUOUS
 10
11.3569854576
 20
13.34975448
 11
11.3569854576
 21
12.7697614116
  0
LINE
  5
23F
100
AcDbEntity
  8
0
100
AcDbLine
 62
7
  6
CONTINUOUS
 10
11.5569854576
 20
13.5497579458
 11
11.5569854576
 21
12.5697579458
  0
LINE
  5
240
100
AcDbEntity
  8
0
100
AcDbLine
 62
7
  6
CONTINUOUS
 10
12.7872038627
 20
19.6413843598
 11
12.8351822958
 21
20.0676566435
  0
LWPOLYLINE
  5
241
100
AcDbEntity
  8
0
100
AcDbPolyline
 62
7
  6
CONTINUOUS
 90
4
 70
0
 10
13.3574972687
 20
19.2981997559
 10
13.3455944659
 20
19.2259043934
 10
13.320558351
 20
19.0914556548
 10
13.2967437
 20
18.9746485301
  0
LINE
  5
242
100
AcDbEntity
  8
0
100
AcDbLine
 62
7
  6
CONTINUOUS
 10
14.1974972687
 20
13.9180256623
 11
14.263158601
 21
14.031754426
  0
LINE
  5
243
100
AcDbEntity
  8
0
100
AcDbLine
 62
9
  6
CONTINUOUS
 10
7.0480647713
 20
9.1595111879
 11
6.2069297661
 21
9.1595111879
  0
LINE
  5
244
100
AcDbEntity
  8
0
100
AcDbLine
 62
9
  6
CONTINUOUS
 10
6.6346672654
 20
9.2684193631
 11
6.6275258393
 21
9.2684677104
  0
LINE
  5
245
100
AcDbEntity
  8
0
100
AcDbLine
 62
7
  6
CONTINUOUS
 10
11.6769854576
 20
13.5497579458
 11
11.6769854576
 21
12.5697579458
  0
LINE
  5
246
100
AcDbEntity
  8
0
100
AcDbLine
 62
7
  6
CONTINUOUS
 10
12.3739539616
 20
12.5097579458
 11
12.3739539616
 21
12.5436071111
  0
LINE
  5
247
100
AcDbEntity
  8
0
100
AcDbLine
 62
7
  6
CONTINUOUS
 10
12.3739539616
 20
13.5759087804
 11
12.3739539616
 21
13.6097579458
  0
LINE
  5
248
100
AcDbEntity
  8
0
100
AcDbLine
 62
7
  6
CONTINUOUS
 10
12.4125366387
 20
13.6097579458
 11
12.4125366387
 21
13.5817294429
  0
LINE
  5
249
100
AcDbEntity
  8
0
100
AcDbLine
 62
7
  6
CONTINUOUS
 10
12.4125366387
 20
12.5377864486
 11
12.4125366387
 21
12.5097579458
  0
LINE
  5
24A
100
AcDbEntity
  8
0
100
AcDbLine
 62
9
  6
CONTINUOUS
 10
13.0675546207
 20
20.9066460636
 11
13.0675364518
 21
20.906438208
  0
LINE
  5
24B
100
AcDbEntity
  8
0
100
AcDbLine
 62
9
  6
CONTINUOUS
 10
13.0874580855
 20
20.9082026583
 11
13.0874762544
 21
20.9084105139
  0
LINE
  5
24C
100
AcDbEntity
  8
0
100
AcDbLine
 62
7
  6
CONTINUOUS
 10
12.8369854576
 20
13.7247579458
 11
12.840214695
 21
13.7472579458
  0
LINE
  5
24D
100
AcDbEntity
  8
0
100
AcDbLine
 62
7
  6
CONTINUOUS
 10
12.9937562203
 20
12.3722579458
 11
12.9969854576
 21
12.3947579458
  0
LINE
  5
24E
100
AcDbEntity
  8
0
100
AcDbLine
 62
7
  6
CONTINUOUS
 10
12.9839300117
 20
13.9034408865
 11
12.9596450262
 21
13.8049056122
  0
LINE
  5
24F
100
AcDbEntity
  8
0
100
AcDbLine
 62
9
  6
CONTINUOUS
 10
7.5052482642
 20
10.12417702
 11
13.0822725297
 21
11.2519093264
  0
LINE
  5
250
100
AcDbEntity
  8
0
100
AcDbLine
 62
7
  6
CONTINUOUS
 10
7.6041092238
 20
9.8065284309
 11
13.14304035
 21
10.6838089374
  0
LINE
  5
251
100
AcDbEntity
  8
0
100
AcDbLine
 62
7
  6
CONTINUOUS
 10
13.2121402428
 20
18.227662086
 11
13.2030219367
 21
18.7291689176
  0
LINE
  5
252
100
AcDbEntity
  8
0
100
AcDbLine
 62
7
  6
CONTINUOUS
 10
12.5874972687
 20
19.0997579458
 11
12.5874972687
 21
19.1807823535
  0
LINE
  5
253
100
AcDbEntity
  8
0
100
AcDbLine
 62
7
  6
CONTINUOUS
 10
12.8024972687
 20
19.082392219
 11
12.8024972687
 21
19.0877579458
  0
LINE
  5
254
100
AcDbEntity
  8
0
100
AcDbLine
 62
7
  6
CONTINUOUS
 10
12.8369854576
 20
13.7247579458
 11
12.8369854576
 21
12.3947579458
  0
LINE
  5
255
100
AcDbEntity
  8
0
100
AcDbLine
 62
7
  6
CONTINUOUS
 10
12.9899972687
 20
14.3811122328
 11
12.9899972687
 21
14.0349390918
  0
LINE
  5
256
100
AcDbEntity
  8
0
100
AcDbLine
 62
7
  6
CONTINUOUS
 10
12.9900536772
 20
20.8219775089
 11
12.9900536772
 21
20.8170945557
  0
LINE
  5
257
100
AcDbEntity
  8
0
100
AcDbLine
 62
7
  6
CONTINUOUS
 10
12.9969854576
 20
13.7247579458
 11
12.9969854576
 21
12.3947579458
  0
LINE
  5
258
100
AcDbEntity
  8
0
100
AcDbLine
 62
7
  6
CONTINUOUS
 10
12.9973519394
 20
14.3811122328
 11
12.9973519394
 21
14.0349390918
  0
LINE
  5
259
100
AcDbEntity
  8
0
100
AcDbLine
 62
7
  6
CONTINUOUS
 10
12.9974972687
 20
19.0236382191
 11
12.9974972687
 21
19.0312264652
  0
LINE
  5
25A
100
AcDbEntity
  8
0
100
AcDbLine
 62
7
  6
CONTINUOUS
 10
13.0339972687
 20
14.6180256623
 11
13.0339972687
 21
14.5030256623
  0
LINE
  5
25B
100
AcDbEntity
  8
0
100
AcDbLine
 62
9
  6
CONTINUOUS
 10
13.0404800303
 20
12.5410900989
 11
13.040480804
 21
13.5784259101
  0
LINE
  5
25C
100
AcDbEntity
  8
0
100
AcDbLine
 62
7
  6
CONTINUOUS
 10
13.0574972687
 20
11.911902625
 11
13.0574972687
 21
11.8684193631
  0
LINE
  5
25D
100
AcDbEntity
  8
0
100
AcDbLine
 62
9
  6
CONTINUOUS
 10
13.0675364518
 20
20.906438208
 11
13.0675364518
 21
20.9015552548
  0
LINE
  5
25E
100
AcDbEntity
  8
0
100
AcDbLine
 62
9
  6
CONTINUOUS
 10
13.0874580855
 20
20.9033197051
 11
13.0874580855
 21
20.9082026583
  0
LINE
  5
25F
100
AcDbEntity
  8
0
100
AcDbLine
 62
7
  6
CONTINUOUS
 10
13.1724972687
 20
18.9684107588
 11
13.1724972687
 21
18.9759990049
  0
LINE
  5
260
100
AcDbEntity
  8
0
100
AcDbLine
 62
7
  6
CONTINUOUS
 10
13.1774972687
 20
16.9381589968
 11
13.1774972687
 21
17.277910853
  0
LINE
  5
261
100
AcDbEntity
  8
0
100
AcDbLine
 62
9
  6
CONTINUOUS
 10
13.1796422544
 20
20.831240873
 11
13.1796422544
 21
20.8263579198
  0
LINE
  5
262
100
AcDbEntity
  8
0
100
AcDbLine
 62
7
  6
CONTINUOUS
 10
13.2288044183
 20
14.0349390918
 11
13.2288044183
 21
14.3811122328
  0
LINE
  5
263
100
AcDbEntity
  8
0
100
AcDbLine
 62
7
  6
CONTINUOUS
 10
13.3574972687
 20
20.3980256623
 11
13.3574972687
 21
-2.6423551111
  0
LINE
  5
264
100
AcDbEntity
  8
0
100
AcDbLine
 62
7
  6
CONTINUOUS
 10
13.202183664
 20
18.7796509548
 11
13.2007961256
 21
18.7543028856
  0
LINE
  5
265
100
AcDbEntity
  8
0
100
AcDbLine
 62
7
  6
CONTINUOUS
 10
14.0509393121
 20
20.5520630206
 11
14.0753522829
 21
20.831240873
  0
LINE
  5
266
100
AcDbEntity
  8
0
100
AcDbLine
 62
9
  6
CONTINUOUS
 10
14.1600192264
 20
20.8129297058
 11
14.1155772959
 21
20.3135969962
  0
LINE
  5
267
100
AcDbEntity
  8
0
100
AcDbLine
 62
9
  6
CONTINUOUS
 10
14.1354989297
 20
20.3118325459
 11
14.1799408602
 21
20.8111652555
  0
LINE
  5
268
100
AcDbEntity
  8
0
100
AcDbLine
 62
7
  6
CONTINUOUS
 10
14.2646078037
 20
20.8095956419
 11
14.2201658732
 21
20.3102629322
  0
LINE
  5
269
100
AcDbEntity
  8
0
100
AcDbLine
 62
7
  6
CONTINUOUS
 10
12.6529017663
 20
11.3776057714
 11
7.3878118913
 21
10.3541759738
  0
LINE
  5
26A
100
AcDbEntity
  8
0
100
AcDbLine
 62
7
  6
CONTINUOUS
 10
12.8369854576
 20
12.3947579458
 11
12.840214695
 21
12.3722579458
  0
LWPOLYLINE
  5
26B
100
AcDbEntity
  8
0
100
AcDbPolyline
 62
7
  6
CONTINUOUS
 90
3
 70
0
 10
13.2007961275
 20
18.7543029361
 10
13.2028765671
 20
18.7338346462
 10
13.2030219368
 20
18.7291689145
  0
LINE
  5
26C
100
AcDbEntity
  8
0
100
AcDbLine
 62
7
  6
CONTINUOUS
 10
13.0348286641
 20
20.3102629322
 11
12.9903867336
 21
20.8095956419
  0
LINE
  5
26D
100
AcDbEntity
  8
0
100
AcDbLine
 62
9
  6
CONTINUOUS
 10
13.1194956076
 20
20.3118325459
 11
13.0750536772
 21
20.8111652555
  0
LINE
  5
26E
100
AcDbEntity
  8
0
100
AcDbLine
 62
9
  6
CONTINUOUS
 10
13.0949753109
 20
20.8129297058
 11
13.1394172414
 21
20.3135969962
  0
LINE
  5
26F
100
AcDbEntity
  8
0
100
AcDbLine
 62
7
  6
CONTINUOUS
 10
13.2040552252
 20
20.5520630206
 11
13.1796422544
 21
20.831240873
  0
LINE
  5
270
100
AcDbEntity
  8
0
100
AcDbLine
 62
7
  6
CONTINUOUS
 10
12.9903867336
 20
20.8095956419
 11
12.9900536772
 21
20.8170945557
  0
LINE
  5
271
100
AcDbEntity
  8
0
100
AcDbLine
 62
9
  6
CONTINUOUS
 10
13.1796406355
 20
20.8312773968
 11
13.1796422544
 21
20.831240873
  0
LINE
  5
272
100
AcDbEntity
  8
0
100
AcDbLine
 62
7
  6
CONTINUOUS
 10
13.8974972687
 20
20.3980256623
 11
13.8974972687
 21
-2.6423551111
  0
LINE
  5
273
100
AcDbEntity
  8
0
100
AcDbLine
 62
7
  6
CONTINUOUS
 10
14.026190119
 20
14.3811122328
 11
14.026190119
 21
14.0349390918
  0
LINE
  5
274
100
AcDbEntity
  8
0
100
AcDbLine
 62
9
  6
CONTINUOUS
 10
14.0753522829
 20
20.8263579198
 11
14.0753522829
 21
20.831240873
  0
LINE
  5
275
100
AcDbEntity
  8
0
100
AcDbLine
 62
7
  6
CONTINUOUS
 10
14.0774972687
 20
17.2778923278
 11
14.0774972687
 21
16.9381404717
  0
LINE
  5
276
100
AcDbEntity
  8
0
100
AcDbLine
 62
7
  6
CONTINUOUS
 10
14.0824972687
 20
18.9684107588
 11
14.0824972687
 21
18.9759990049
  0
LINE
  5
277
100
AcDbEntity
  8
0
100
AcDbLine
 62
9
  6
CONTINUOUS
 10
14.1675364518
 20
20.9082026583
 11
14.1675364518
 21
20.9033197051
  0
LINE
  5
278
100
AcDbEntity
  8
0
100
AcDbLine
 62
9
  6
CONTINUOUS
 10
14.1874580855
 20
20.9015552548
 11
14.1874580855
 21
20.906438208
  0
LINE
  5
279
100
AcDbEntity
  8
0
100
AcDbLine
 62
9
  6
CONTINUOUS
 10
14.2145145071
 20
13.5784257926
 11
14.2145139872
 21
12.54109002
  0
LINE
  5
27A
100
AcDbEntity
  8
0
100
AcDbLine
 62
7
  6
CONTINUOUS
 10
14.2209972687
 20
14.6180256623
 11
14.2209972687
 21
14.5030256623
  0
LINE
  5
27B
100
AcDbEntity
  8
0
100
AcDbLine
 62
7
  6
CONTINUOUS
 10
14.0428542945
 20
18.227662086
 11
14.0519725984
 21
18.7291688005
  0
LINE
  5
27C
100
AcDbEntity
  8
0
100
AcDbLine
 62
7
  6
CONTINUOUS
 10
14.0541984144
 20
18.7543028493
 11
14.0546691151
 21
18.7695734924
  0
LWPOLYLINE
  5
27D
100
AcDbEntity
  8
0
100
AcDbPolyline
 62
7
  6
CONTINUOUS
 90
3
 70
0
 10
14.0519725984
 20
18.7291687975
 10
14.0521181909
 20
18.7338395749
 10
14.0541984207
 20
18.7543029003
  0
LINE
  5
27E
100
AcDbEntity
  8
0
100
AcDbLine
 62
9
  6
CONTINUOUS
 10
14.0753522829
 20
20.831240873
 11
14.0753539019
 21
20.8312773968
  0
LINE
  5
27F
100
AcDbEntity
  8
0
100
AcDbLine
 62
7
  6
CONTINUOUS
 10
14.2649408602
 20
20.8170945557
 11
14.2646078037
 21
20.8095956419
  0
LINE
  5
280
100
AcDbEntity
  8
0
100
AcDbLine
 62
7
  6
CONTINUOUS
 10
14.1524972687
 20
12.2684193631
 11
13.8974972687
 21
12.2684193631
  0
LINE
  5
281
100
AcDbEntity
  8
0
100
AcDbLine
 62
7
  6
CONTINUOUS
 10
13.3546188512
 20
12.2684193631
 11
13.1024972687
 21
12.2684193631
  0
LINE
  5
282
100
AcDbEntity
  8
0
100
AcDbLine
 62
9
  6
CONTINUOUS
 10
14.154305725
 20
12.2803344649
 11
13.9100679274
 21
12.2803344649
  0
LINE
  5
283
100
AcDbEntity
  8
0
100
AcDbLine
 62
9
  6
CONTINUOUS
 10
13.3449271744
 20
12.2803344999
 11
13.1006887973
 21
12.2803344999
  0
LINE
  5
284
100
AcDbEntity
  8
0
100
AcDbLine
 62
7
  6
CONTINUOUS
 10
14.8429697096
 20
12.3187579458
 11
14.9049697096
 21
12.3187579458
  0
LINE
  5
285
100
AcDbEntity
  8
0
100
AcDbLine
 62
7
  6
CONTINUOUS
 10
12.9937663485
 20
12.3722579458
 11
12.8402060857
 21
12.3722579458
  0
LINE
  5
286
100
AcDbEntity
  8
0
100
AcDbLine
 62
7
  6
CONTINUOUS
 10
14.3798831391
 20
12.4222579458
 11
14.7260562801
 21
12.4222579458
  0
LINE
  5
287
100
AcDbEntity
  8
0
100
AcDbLine
 62
7
  6
CONTINUOUS
 10
14.3798831391
 20
12.4296126165
 11
14.7260562801
 21
12.4296126165
  0
LINE
  5
288
100
AcDbEntity
  8
0
100
AcDbLine
 62
7
  6
CONTINUOUS
 10
12.5201439484
 20
12.5097579458
 11
12.4125366387
 21
12.5097579458
  0
LINE
  5
289
100
AcDbEntity
  8
0
100
AcDbLine
 62
7
  6
CONTINUOUS
 10
11.6169854576
 20
12.5097579458
 11
12.3739539616
 21
12.5097579458
  0
LINE
  5
28A
100
AcDbEntity
  8
0
100
AcDbLine
 62
7
  6
CONTINUOUS
 10
13.0715045828
 20
12.3512810864
 11
13.1006884328
 21
12.2803353485
  0
LINE
  5
28B
100
AcDbEntity
  8
0
100
AcDbLine
 62
7
  6
CONTINUOUS
 10
12.9937562203
 20
13.7472579458
 11
12.9969854576
 21
13.7247579458
  0
LINE
  5
28C
100
AcDbEntity
  8
0
100
AcDbLine
 62
7
  6
CONTINUOUS
 10
14.2574972687
 20
19.0236382191
 11
14.2574972687
 21
19.0312264652
  0
LINE
  5
28D
100
AcDbEntity
  8
0
100
AcDbLine
 62
7
  6
CONTINUOUS
 10
14.257642598
 20
14.0349390918
 11
14.257642598
 21
14.3811122328
  0
LINE
  5
28E
100
AcDbEntity
  8
0
100
AcDbLine
 62
7
  6
CONTINUOUS
 10
14.2580090797
 20
12.5917847346
 11
14.2580090797
 21
13.5277623495
  0
LINE
  5
28F
100
AcDbEntity
  8
0
100
AcDbLine
 62
7
  6
CONTINUOUS
 10
14.2629697096
 20
13.629686229
 11
14.2629697096
 21
12.4898296625
  0
LINE
  5
290
100
AcDbEntity
  8
0
100
AcDbLine
 62
7
  6
CONTINUOUS
 10
14.2649408602
 20
20.8170945557
 11
14.2649408602
 21
20.8219775089
  0
LINE
  5
291
100
AcDbEntity
  8
0
100
AcDbLine
 62
7
  6
CONTINUOUS
 10
14.2649972687
 20
14.3811122328
 11
14.2649972687
 21
14.0349390918
  0
LINE
  5
292
100
AcDbEntity
  8
0
100
AcDbLine
 62
7
  6
CONTINUOUS
 10
14.3798831391
 20
13.6972579458
 11
14.3798831391
 21
13.6899032751
  0
LINE
  5
293
100
AcDbEntity
  8
0
100
AcDbLine
 62
7
  6
CONTINUOUS
 10
14.3798831391
 20
13.4584507962
 11
14.3798831391
 21
13.2912104247
  0
LINE
  5
294
100
AcDbEntity
  8
0
100
AcDbLine
 62
7
  6
CONTINUOUS
 10
14.3798831391
 20
12.8283054669
 11
14.3798831391
 21
12.6610650954
  0
LINE
  5
295
100
AcDbEntity
  8
0
100
AcDbLine
 62
7
  6
CONTINUOUS
 10
14.3798831391
 20
12.4296126165
 11
14.3798831391
 21
12.4222579458
  0
LINE
  5
296
100
AcDbEntity
  8
0
100
AcDbLine
 62
7
  6
CONTINUOUS
 10
14.4524972687
 20
19.082392219
 11
14.4524972687
 21
19.0877579458
  0
LINE
  5
297
100
AcDbEntity
  8
0
100
AcDbLine
 62
7
  6
CONTINUOUS
 10
14.6674972687
 20
19.0997579458
 11
14.6674972687
 21
19.1807823535
  0
LINE
  5
298
100
AcDbEntity
  8
0
100
AcDbLine
 62
7
  6
CONTINUOUS
 10
14.7260562801
 20
12.4222579458
 11
14.7260562801
 21
12.4296126165
  0
LINE
  5
299
100
AcDbEntity
  8
0
100
AcDbLine
 62
7
  6
CONTINUOUS
 10
14.7260562801
 20
12.6610650954
 11
14.7260562801
 21
12.8283054669
  0
LINE
  5
29A
100
AcDbEntity
  8
0
100
AcDbLine
 62
7
  6
CONTINUOUS
 10
14.7260562801
 20
13.2912104247
 11
14.7260562801
 21
13.4584507962
  0
LINE
  5
29B
100
AcDbEntity
  8
0
100
AcDbLine
 62
7
  6
CONTINUOUS
 10
14.7260562801
 20
13.6899032751
 11
14.7260562801
 21
13.6972579458
  0
LINE
  5
29C
100
AcDbEntity
  8
0
100
AcDbLine
 62
7
  6
CONTINUOUS
 10
14.8429697096
 20
13.8007579458
 11
14.8429697096
 21
12.3187579458
  0
LINE
  5
29D
100
AcDbEntity
  8
0
100
AcDbLine
 62
7
  6
CONTINUOUS
 10
14.9049697096
 20
13.8717597767
 11
14.9049697096
 21
12.2477561149
  0
LINE
  5
29E
100
AcDbEntity
  8
0
100
AcDbLine
 62
7
  6
CONTINUOUS
 10
14.2629697096
 20
12.6497579458
 11
14.2580090797
 21
12.6497579458
  0
LINE
  5
29F
100
AcDbEntity
  8
0
100
AcDbLine
 62
7
  6
CONTINUOUS
 10
14.7260562801
 20
12.6610650954
 11
14.3798831391
 21
12.6610650954
  0
LINE
  5
2A0
100
AcDbEntity
  8
0
100
AcDbLine
 62
7
  6
CONTINUOUS
 10
11.6617068172
 20
12.7482616972
 11
11.5722640981
 21
12.7482616972
  0
LINE
  5
2A1
100
AcDbEntity
  8
0
100
AcDbLine
 62
7
  6
CONTINUOUS
 10
11.6617068172
 20
12.7879542273
 11
11.5722640981
 21
12.7879542273
  0
LINE
  5
2A2
100
AcDbEntity
  8
0
100
AcDbLine
 62
7
  6
CONTINUOUS
 10
11.3569854576
 20
12.8097579458
 11
10.7619854576
 21
12.8097579458
  0
LINE
  5
2A3
100
AcDbEntity
  8
0
100
AcDbLine
 62
7
  6
CONTINUOUS
 10
14.3798831391
 20
12.8283054669
 11
14.7260562801
 21
12.8283054669
  0
LINE
  5
2A4
100
AcDbEntity
  8
0
100
AcDbLine
 62
7
  6
CONTINUOUS
 10
11.6617068172
 20
12.8298352826
 11
11.5722640981
 21
12.8298352826
  0
LINE
  5
2A5
100
AcDbEntity
  8
0
100
AcDbLine
 62
7
  6
CONTINUOUS
 10
11.6617068172
 20
12.8735676428
 11
11.5722640981
 21
12.8735676428
  0
LINE
  5
2A6
100
AcDbEntity
  8
0
100
AcDbLine
 62
7
  6
CONTINUOUS
 10
11.6617068172
 20
12.918799181
 11
11.5722640981
 21
12.918799181
  0
LINE
  5
2A7
100
AcDbEntity
  8
0
100
AcDbLine
 62
7
  6
CONTINUOUS
 10
11.6617068172
 20
12.9651656993
 11
11.5722640981
 21
12.9651656993
  0
LINE
  5
2A8
100
AcDbEntity
  8
0
100
AcDbLine
 62
7
  6
CONTINUOUS
 10
11.6617068172
 20
13.0122938611
 11
11.5722640981
 21
13.0122938611
  0
LINE
  5
2A9
100
AcDbEntity
  8
0
100
AcDbLine
 62
7
  6
CONTINUOUS
 10
11.661706793
 20
13.0597926342
 11
11.5722641223
 21
13.0597926342
  0
LINE
  5
2AA
100
AcDbEntity
  8
0
100
AcDbLine
 62
7
  6
CONTINUOUS
 10
11.6617068172
 20
13.1073141605
 11
11.5722640981
 21
13.1073141605
  0
LINE
  5
2AB
100
AcDbEntity
  8
0
100
AcDbLine
 62
7
  6
CONTINUOUS
 10
11.6617068172
 20
13.154441208
 11
11.5722640981
 21
13.154441208
  0
LINE
  5
2AC
100
AcDbEntity
  8
0
100
AcDbLine
 62
7
  6
CONTINUOUS
 10
11.6617068172
 20
13.2008058793
 11
11.5722640981
 21
13.2008058793
  0
LINE
  5
2AD
100
AcDbEntity
  8
0
100
AcDbLine
 62
7
  6
CONTINUOUS
 10
11.6617068172
 20
13.2460348525
 11
11.5722640981
 21
13.2460348525
  0
LINE
  5
2AE
100
AcDbEntity
  8
0
100
AcDbLine
 62
7
  6
CONTINUOUS
 10
11.6617068172
 20
13.2897639503
 11
11.5722640981
 21
13.2897639503
  0
LINE
  5
2AF
100
AcDbEntity
  8
0
100
AcDbLine
 62
7
  6
CONTINUOUS
 10
14.7260562801
 20
13.2912104247
 11
14.3798831391
 21
13.2912104247
  0
LINE
  5
2B0
100
AcDbEntity
  8
0
100
AcDbLine
 62
7
  6
CONTINUOUS
 10
11.3569854576
 20
13.3097579458
 11
10.7619854576
 21
13.3097579458
  0
LINE
  5
2B1
100
AcDbEntity
  8
0
100
AcDbLine
 62
7
  6
CONTINUOUS
 10
11.6617068172
 20
13.3316410721
 11
11.5722640981
 21
13.3316410721
  0
LINE
  5
2B2
100
AcDbEntity
  8
0
100
AcDbLine
 62
7
  6
CONTINUOUS
 10
11.6617068172
 20
13.3713290294
 11
11.5722640981
 21
13.3713290294
  0
LINE
  5
2B3
100
AcDbEntity
  8
0
100
AcDbLine
 62
7
  6
CONTINUOUS
 10
10.0298604647
 20
13.5979130143
 11
10.0439854558
 21
13.5897579468
  0
LINE
  5
2B4
100
AcDbEntity
  8
0
100
AcDbLine
 62
9
  6
CONTINUOUS
 10
14.1675182829
 20
20.9084105139
 11
14.1675364518
 21
20.9082026583
  0
LINE
  5
2B5
100
AcDbEntity
  8
0
100
AcDbLine
 62
9
  6
CONTINUOUS
 10
14.1874580855
 20
20.906438208
 11
14.1874399167
 21
20.9066460636
  0
LINE
  5
2B6
100
AcDbEntity
  8
0
100
AcDbLine
 62
7
  6
CONTINUOUS
 10
15.0921399995
 20
12.0597579458
 11
15.0921399995
 21
14.0597579458
  0
LINE
  5
2B7
100
AcDbEntity
  8
0
100
AcDbLine
 62
7
  6
CONTINUOUS
 10
15.2799697096
 20
11.8797579458
 11
15.2799697096
 21
14.2397579458
  0
LINE
  5
2B8
100
AcDbEntity
  8
0
100
AcDbLine
 62
7
  6
CONTINUOUS
 10
14.3798831391
 20
13.4584507962
 11
14.7260562801
 21
13.4584507962
  0
LINE
  5
2B9
100
AcDbEntity
  8
0
100
AcDbLine
 62
7
  6
CONTINUOUS
 10
14.2629697096
 20
13.4697579458
 11
14.2580090797
 21
13.4697579458
  0
LINE
  5
2BA
100
AcDbEntity
  8
0
100
AcDbLine
 62
7
  6
CONTINUOUS
 10
12.5201439484
 20
13.6097579458
 11
12.4125366387
 21
13.6097579458
  0
LINE
  5
2BB
100
AcDbEntity
  8
0
100
AcDbLine
 62
7
  6
CONTINUOUS
 10
11.6169854576
 20
13.6097579458
 11
12.3739539616
 21
13.6097579458
  0
LINE
  5
2BC
100
AcDbEntity
  8
0
100
AcDbLine
 62
7
  6
CONTINUOUS
 10
14.7260562801
 20
13.6899032751
 11
14.3798831391
 21
13.6899032751
  0
LINE
  5
2BD
100
AcDbEntity
  8
0
100
AcDbLine
 62
7
  6
CONTINUOUS
 10
14.3798831391
 20
13.6972579458
 11
14.7260562801
 21
13.6972579458
  0
LINE
  5
2BE
100
AcDbEntity
  8
0
100
AcDbLine
 62
7
  6
CONTINUOUS
 10
12.8402060857
 20
13.7472579458
 11
12.9937663485
 21
13.7472579458
  0
LINE
  5
2BF
100
AcDbEntity
  8
0
100
AcDbLine
 62
7
  6
CONTINUOUS
 10
14.8429697096
 20
13.8007579458
 11
14.9049697096
 21
13.8007579458
  0
LINE
  5
2C0
100
AcDbEntity
  8
0
100
AcDbLine
 62
9
  6
CONTINUOUS
 10
12.9839300117
 20
13.9034408865
 11
13.3574972687
 21
13.9034408865
  0
LINE
  5
2C1
100
AcDbEntity
  8
0
100
AcDbLine
 62
9
  6
CONTINUOUS
 10
13.8974972687
 20
13.9034415136
 11
14.2710643574
 21
13.9034415136
  0
LINE
  5
2C2
100
AcDbEntity
  8
0
100
AcDbLine
 62
7
  6
CONTINUOUS
 10
14.2519657096
 20
13.9180256623
 11
13.8974972687
 21
13.9180256623
  0
LINE
  5
2C3
100
AcDbEntity
  8
0
100
AcDbLine
 62
7
  6
CONTINUOUS
 10
13.3574972687
 20
13.9180256623
 11
13.003028828
 21
13.9180256623
  0
LINE
  5
2C4
100
AcDbEntity
  8
0
100
AcDbLine
 62
7
  6
CONTINUOUS
 10
12.9899972687
 20
14.0349390918
 11
12.9973519394
 21
14.0349390918
  0
LINE
  5
2C5
100
AcDbEntity
  8
0
100
AcDbLine
 62
7
  6
CONTINUOUS
 10
13.2288044183
 20
14.0349390918
 11
13.3574972687
 21
14.0349390918
  0
LINE
  5
2C6
100
AcDbEntity
  8
0
100
AcDbLine
 62
7
  6
CONTINUOUS
 10
13.8974972687
 20
14.0349390918
 11
14.026190119
 21
14.0349390918
  0
LINE
  5
2C7
100
AcDbEntity
  8
0
100
AcDbLine
 62
7
  6
CONTINUOUS
 10
14.257642598
 20
14.0349390918
 11
14.2649972687
 21
14.0349390918
  0
LINE
  5
2C8
100
AcDbEntity
  8
0
100
AcDbLine
 62
7
  6
CONTINUOUS
 10
14.2629697096
 20
12.4897579458
 11
14.3766984733
 21
12.4240966134
  0
LINE
  5
2C9
100
AcDbEntity
  8
0
100
AcDbLine
 62
7
  6
CONTINUOUS
 10
13.0574972687
 20
13.9180256623
 11
12.9899972687
 21
14.0349390918
  0
LINE
  5
2CA
100
AcDbEntity
  8
0
100
AcDbLine
 62
7
  6
CONTINUOUS
 10
14.4677906746
 20
19.6413843598
 11
14.4198122416
 21
20.0676566435
  0
LINE
  5
2CB
100
AcDbEntity
  8
0
100
AcDbLine
 62
7
  6
CONTINUOUS
 10
14.2649972687
 20
14.3811122328
 11
14.257642598
 21
14.3811122328
  0
LINE
  5
2CC
100
AcDbEntity
  8
0
100
AcDbLine
 62
7
  6
CONTINUOUS
 10
14.026190119
 20
14.3811122328
 11
13.8974972687
 21
14.3811122328
  0
LINE
  5
2CD
100
AcDbEntity
  8
0
100
AcDbLine
 62
7
  6
CONTINUOUS
 10
13.3574972687
 20
14.3811122328
 11
13.2288044183
 21
14.3811122328
  0
LINE
  5
2CE
100
AcDbEntity
  8
0
100
AcDbLine
 62
7
  6
CONTINUOUS
 10
12.9973519394
 20
14.3811122328
 11
12.9899972687
 21
14.3811122328
  0
LINE
  5
2CF
100
AcDbEntity
  8
0
100
AcDbLine
 62
7
  6
CONTINUOUS
 10
14.1974255519
 20
14.4980256623
 11
13.8974972687
 21
14.4980256623
  0
LINE
  5
2D0
100
AcDbEntity
  8
0
100
AcDbLine
 62
7
  6
CONTINUOUS
 10
13.3574972687
 20
14.4980256623
 11
13.0575689854
 21
14.4980256623
  0
LINE
  5
2D1
100
AcDbEntity
  8
0
100
AcDbLine
 62
7
  6
CONTINUOUS
 10
13.0340006698
 20
14.5030256623
 11
13.3574972687
 21
14.5030256623
  0
LINE
  5
2D2
100
AcDbEntity
  8
0
100
AcDbLine
 62
7
  6
CONTINUOUS
 10
13.8974972687
 20
14.5030256623
 11
14.2209938675
 21
14.5030256623
  0
LINE
  5
2D3
100
AcDbEntity
  8
0
100
AcDbLine
 62
9
  6
CONTINUOUS
 10
14.2209972687
 20
14.6180256623
 11
13.8974972687
 21
14.6180256623
  0
LINE
  5
2D4
100
AcDbEntity
  8
0
100
AcDbLine
 62
9
  6
CONTINUOUS
 10
13.3574972687
 20
14.6180256623
 11
13.0339972687
 21
14.6180256623
  0
LINE
  5
2D5
100
AcDbEntity
  8
0
100
AcDbLine
 62
9
  6
CONTINUOUS
 10
13.0513187208
 20
14.6452148959
 11
13.3574972687
 21
14.6452148959
  0
LINE
  5
2D6
100
AcDbEntity
  8
0
100
AcDbLine
 62
9
  6
CONTINUOUS
 10
13.8974972687
 20
14.6452148959
 11
14.2036758165
 21
14.6452148959
  0
LINE
  5
2D7
100
AcDbEntity
  8
0
100
AcDbLine
 62
9
  6
CONTINUOUS
 10
14.1448664376
 20
14.6726381597
 11
13.8974972687
 21
14.6726381597
  0
LINE
  5
2D8
100
AcDbEntity
  8
0
100
AcDbLine
 62
9
  6
CONTINUOUS
 10
13.3574972687
 20
14.6726381597
 11
13.1101280997
 21
14.6726381597
  0
LINE
  5
2D9
100
AcDbEntity
  8
0
100
AcDbLine
 62
9
  6
CONTINUOUS
 10
14.0681249955
 20
14.7659204183
 11
13.8974972687
 21
14.7659204183
  0
LINE
  5
2DA
100
AcDbEntity
  8
0
100
AcDbLine
 62
9
  6
CONTINUOUS
 10
13.1868695418
 20
14.7659204183
 11
13.3574972687
 21
14.7659204183
  0
LINE
  5
2DB
100
AcDbEntity
  8
0
100
AcDbLine
 62
7
  6
CONTINUOUS
 10
14.8429697096
 20
13.6297579458
 11
14.7292409459
 21
13.6954192781
  0
LINE
  5
2DC
100
AcDbEntity
  8
0
100
AcDbLine
 62
7
  6
CONTINUOUS
 10
14.1974972687
 20
14.4980256623
 11
14.263158601
 21
14.3842968986
  0
LINE
  5
2DD
100
AcDbEntity
  8
0
100
AcDbLine
 62
7
  6
CONTINUOUS
 10
13.3472643882
 20
19.7631531764
 11
13.3574972687
 21
19.7341195603
  0
LINE
  5
2DE
100
AcDbEntity
  8
0
100
AcDbLine
 62
9
  6
CONTINUOUS
 10
14.0764409306
 20
15.4651348809
 11
13.8974972687
 21
15.4651348809
  0
LINE
  5
2DF
100
AcDbEntity
  8
0
100
AcDbLine
 62
9
  6
CONTINUOUS
 10
13.1785536067
 20
15.4651348809
 11
13.3574972687
 21
15.4651348809
  0
LINE
  5
2E0
100
AcDbEntity
  8
0
100
AcDbLine
 62
9
  6
CONTINUOUS
 10
14.0594577608
 20
15.5005383254
 11
13.8974972687
 21
15.5005383254
  0
LINE
  5
2E1
100
AcDbEntity
  8
0
100
AcDbLine
 62
9
  6
CONTINUOUS
 10
13.1955367766
 20
15.5005383254
 11
13.3574972687
 21
15.5005383254
  0
LINE
  5
2E2
100
AcDbEntity
  8
0
100
AcDbLine
 62
9
  6
CONTINUOUS
 10
14.0314445502
 20
15.5605719837
 11
13.8974972687
 21
15.5605719837
  0
LINE
  5
2E3
100
AcDbEntity
  8
0
100
AcDbLine
 62
9
  6
CONTINUOUS
 10
13.3574972687
 20
15.5605719837
 11
13.2235499871
 21
15.5605719837
  0
LINE
  5
2E4
100
AcDbEntity
  8
0
100
AcDbLine
 62
7
  6
CONTINUOUS
 10
14.1448664376
 20
14.6726381597
 11
14.2036758165
 21
14.6452148959
  0
LINE
  5
2E5
100
AcDbEntity
  8
0
100
AcDbLine
 62
7
  6
CONTINUOUS
 10
13.3473087485
 20
19.7630488023
 11
13.3468612997
 21
19.7640512853
  0
LINE
  5
2E6
100
AcDbEntity
  8
0
100
AcDbLine
 62
9
  6
CONTINUOUS
 10
14.0343730348
 20
16.5631843029
 11
13.8974972687
 21
16.563166647
  0
LINE
  5
2E7
100
AcDbEntity
  8
0
100
AcDbLine
 62
9
  6
CONTINUOUS
 10
13.2253544115
 20
16.1337725959
 11
13.3574972687
 21
16.1337725959
  0
LINE
  5
2E8
100
AcDbEntity
  8
0
100
AcDbLine
 62
9
  6
CONTINUOUS
 10
13.8974972687
 20
16.1337725959
 11
14.0296401258
 21
16.1337725959
  0
LINE
  5
2E9
100
AcDbEntity
  8
0
100
AcDbLine
 62
9
  6
CONTINUOUS
 10
14.0505741917
 20
16.190385911
 11
13.8974972687
 21
16.190385911
  0
LINE
  5
2EA
100
AcDbEntity
  8
0
100
AcDbLine
 62
9
  6
CONTINUOUS
 10
13.2044203456
 20
16.190385911
 11
13.3574972687
 21
16.190385911
  0
LINE
  5
2EB
100
AcDbEntity
  8
0
100
AcDbLine
 62
9
  6
CONTINUOUS
 10
14.0503304622
 20
16.2158178896
 11
13.8974972687
 21
16.2158178896
  0
LINE
  5
2EC
100
AcDbEntity
  8
0
100
AcDbLine
 62
9
  6
CONTINUOUS
 10
13.2046640752
 20
16.2158178896
 11
13.3574972687
 21
16.2158178896
  0
LINE
  5
2ED
100
AcDbEntity
  8
0
100
AcDbLine
 62
9
  6
CONTINUOUS
 10
13.3574972687
 20
16.5631664226
 11
13.2206184613
 21
16.5631865704
  0
LINE
  5
2EE
100
AcDbEntity
  8
0
100
AcDbLine
 62
7
  6
CONTINUOUS
 10
13.3237683842
 20
17.9708491283
 11
13.1998371516
 21
18.1616864913
  0
LWPOLYLINE
  5
2EF
100
AcDbEntity
  8
0
100
AcDbPolyline
 62
7
  6
CONTINUOUS
 90
6
 70
0
 10
14.0089244362
 20
18.8306186263
 10
13.986957256
 20
18.8734556568
 10
13.9628626125
 20
18.9547901627
 10
13.938577523
 20
19.069921772
 10
13.912778908
 20
19.2073656564
 10
13.8974972687
 20
19.298153917
  0
LINE
  5
2F0
100
AcDbEntity
  8
0
100
AcDbLine
 62
7
  6
CONTINUOUS
 10
13.3257207567
 20
19.8056390704
 11
13.3470460219
 21
19.7636428462
  0
LINE
  5
2F1
100
AcDbEntity
  8
0
100
AcDbLine
 62
9
  6
CONTINUOUS
 10
13.8974972687
 20
17.1080256623
 11
13.3574972687
 21
17.1080256623
  0
LINE
  5
2F2
100
AcDbEntity
  8
0
100
AcDbLine
 62
7
  6
CONTINUOUS
 10
13.3574972687
 20
16.7442949927
 11
13.2553723778
 21
16.8032568259
  0
LINE
  5
2F3
100
AcDbEntity
  8
0
100
AcDbLine
 62
7
  6
CONTINUOUS
 10
13.2968170867
 20
19.8496399617
 11
13.2968133072
 21
19.8496449647
  0
LINE
  5
2F4
100
AcDbEntity
  8
0
100
AcDbLine
 62
7
  6
CONTINUOUS
 10
13.2968173988
 20
19.8496395429
 11
13.3060305472
 21
19.8368911523
  0
LINE
  5
2F5
100
AcDbEntity
  8
0
100
AcDbLine
 62
7
  6
CONTINUOUS
 10
13.2969797523
 20
19.8494210026
 11
13.3079153389
 21
19.8341411896
  0
LINE
  5
2F6
100
AcDbEntity
  8
0
100
AcDbLine
 62
7
  6
CONTINUOUS
 10
13.3060305472
 20
19.8368911523
 11
13.3257207567
 21
19.8056390704
  0
LWPOLYLINE
  5
2F7
100
AcDbEntity
  8
0
100
AcDbPolyline
 62
7
  6
CONTINUOUS
 90
3
 70
0
 10
13.3079153389
 20
19.8341411896
 10
13.3292597063
 20
19.7993466852
 10
13.3468614383
 20
19.7640509657
  0
LINE
  5
2F8
100
AcDbEntity
  8
0
100
AcDbLine
 62
7
  6
CONTINUOUS
 10
12.9201388208
 20
19.0573527413
 11
12.9209225267
 21
19.05751465
  0
LINE
  5
2F9
100
AcDbEntity
  8
0
100
AcDbLine
 62
7
  6
CONTINUOUS
 10
12.9653551147
 20
19.0494036089
 11
12.9661388207
 21
19.0495624667
  0
LINE
  5
2FA
100
AcDbEntity
  8
0
100
AcDbLine
 62
7
  6
CONTINUOUS
 10
13.1714984021
 20
18.9903851185
 11
13.1730506026
 21
18.9906836039
  0
LINE
  5
2FB
100
AcDbEntity
  8
0
100
AcDbLine
 62
7
  6
CONTINUOUS
 10
13.1270506027
 20
18.9982085135
 11
13.1286028032
 21
18.9984961596
  0
LINE
  5
2FC
100
AcDbEntity
  8
0
100
AcDbLine
 62
7
  6
CONTINUOUS
 10
13.0338368544
 20
19.0494036089
 11
13.0369182701
 21
19.0499632582
  0
LINE
  5
2FD
100
AcDbEntity
  8
0
100
AcDbLine
 62
7
  6
CONTINUOUS
 10
13.9640874908
 20
18.9391409239
 11
14.0742337504
 21
18.9585626813
  0
LINE
  5
2FE
100
AcDbEntity
  8
0
100
AcDbLine
 62
7
  6
CONTINUOUS
 10
14.0907607869
 20
18.9858470824
 11
14.1059723093
 21
18.9885292842
  0
LINE
  5
2FF
100
AcDbEntity
  8
0
100
AcDbLine
 62
7
  6
CONTINUOUS
 10
14.1514766109
 20
18.9965529203
 11
14.2492337504
 21
19.0137901416
  0
LINE
  5
300
100
AcDbEntity
  8
0
100
AcDbLine
 62
7
  6
CONTINUOUS
 10
14.2657607869
 20
19.0410745427
 11
14.3129972687
 21
19.0494036089
  0
LINE
  5
301
100
AcDbEntity
  8
0
100
AcDbLine
 62
7
  6
CONTINUOUS
 10
14.3589972687
 20
19.05751465
 11
14.4442337504
 21
19.0725441415
  0
LINE
  5
302
100
AcDbEntity
  8
0
100
AcDbLine
 62
9
  6
CONTINUOUS
 10
13.2610496949
 20
17.6808398443
 11
13.3574972687
 21
17.6808606256
  0
LINE
  5
303
100
AcDbEntity
  8
0
100
AcDbLine
 62
9
  6
CONTINUOUS
 10
13.8974972687
 20
17.6808629562
 11
13.9939068838
 21
17.6808642032
  0
LINE
  5
304
100
AcDbEntity
  8
0
100
AcDbLine
 62
9
  6
CONTINUOUS
 10
13.3237683842
 20
17.9708491283
 11
13.3574972687
 21
17.9708491283
  0
LINE
  5
305
100
AcDbEntity
  8
0
100
AcDbLine
 62
9
  6
CONTINUOUS
 10
13.8974972687
 20
17.9708491283
 11
13.9312261531
 21
17.9708491283
  0
LINE
  5
306
100
AcDbEntity
  8
0
100
AcDbLine
 62
9
  6
CONTINUOUS
 10
14.0551573857
 20
18.1616864913
 11
13.8974972687
 21
18.1616864913
  0
LINE
  5
307
100
AcDbEntity
  8
0
100
AcDbLine
 62
9
  6
CONTINUOUS
 10
13.3574972687
 20
18.1616864913
 11
13.1998371516
 21
18.1616864913
  0
LINE
  5
308
100
AcDbEntity
  8
0
100
AcDbLine
 62
7
  6
CONTINUOUS
 10
14.029943484
 20
18.2080256623
 11
13.8974972687
 21
18.2080256623
  0
LINE
  5
309
100
AcDbEntity
  8
0
100
AcDbLine
 62
7
  6
CONTINUOUS
 10
13.3574972687
 20
18.2080256623
 11
13.2250510533
 21
18.2080256623
  0
LINE
  5
30A
100
AcDbEntity
  8
0
100
AcDbLine
 62
9
  6
CONTINUOUS
 10
13.2121402428
 20
18.227662086
 11
13.3574972687
 21
18.227662086
  0
LINE
  5
30B
100
AcDbEntity
  8
0
100
AcDbLine
 62
9
  6
CONTINUOUS
 10
13.8974972687
 20
18.227662086
 11
14.0428542945
 21
18.227662086
  0
LINE
  5
30C
100
AcDbEntity
  8
0
100
AcDbLine
 62
7
  6
CONTINUOUS
 10
13.8974972687
 20
17.4717563319
 11
13.9996221595
 21
17.4127944987
  0
LINE
  5
30D
100
AcDbEntity
  8
0
100
AcDbLine
 62
7
  6
CONTINUOUS
 10
13.255169017
 20
19.8975152253
 11
13.2968133072
 21
19.8496449647
  0
LINE
  5
30E
100
AcDbEntity
  8
0
100
AcDbLine
 62
7
  6
CONTINUOUS
 10
14.0187857758
 20
18.8190634885
 11
14.0089244362
 21
18.8306186263
  0
LINE
  5
30F
100
AcDbEntity
  8
0
100
AcDbLine
 62
9
  6
CONTINUOUS
 10
14.0742337504
 20
18.9585626813
 11
13.9620055379
 21
18.9585626813
  0
LINE
  5
310
100
AcDbEntity
  8
0
100
AcDbLine
 62
9
  6
CONTINUOUS
 10
13.2923830391
 20
18.9585626813
 11
13.1807860279
 21
18.9585626813
  0
LINE
  5
311
100
AcDbEntity
  8
0
100
AcDbLine
 62
9
  6
CONTINUOUS
 10
13.1724972687
 20
18.9684107588
 11
13.2950527227
 21
18.9684107588
  0
LINE
  5
312
100
AcDbEntity
  8
0
100
AcDbLine
 62
9
  6
CONTINUOUS
 10
13.95992848
 20
18.9684107588
 11
14.0824972687
 21
18.9684107588
  0
LINE
  5
313
100
AcDbEntity
  8
0
100
AcDbLine
 62
9
  6
CONTINUOUS
 10
14.0824972687
 20
18.9759990049
 11
13.9583280431
 21
18.9759990049
  0
LINE
  5
314
100
AcDbEntity
  8
0
100
AcDbLine
 62
9
  6
CONTINUOUS
 10
13.2970190349
 20
18.9759990049
 11
13.1724972687
 21
18.9759990049
  0
LINE
  5
315
100
AcDbEntity
  8
0
100
AcDbLine
 62
9
  6
CONTINUOUS
 10
13.1642337504
 20
18.9858470824
 11
13.2990268622
 21
18.9858470824
  0
LINE
  5
316
100
AcDbEntity
  8
0
100
AcDbLine
 62
9
  6
CONTINUOUS
 10
13.9562509851
 20
18.9858470824
 11
14.0907483197
 21
18.9858470824
  0
LINE
  5
317
100
AcDbEntity
  8
0
100
AcDbLine
 62
9
  6
CONTINUOUS
 10
14.2492337504
 20
19.0137901416
 11
13.952670997
 21
19.0137901416
  0
LINE
  5
318
100
AcDbEntity
  8
0
100
AcDbLine
 62
9
  6
CONTINUOUS
 10
13.3047238966
 20
19.0137901416
 11
13.0057762561
 21
19.0137901416
  0
LINE
  5
319
100
AcDbEntity
  8
0
100
AcDbLine
 62
9
  6
CONTINUOUS
 10
12.9974972687
 20
19.0236382191
 11
13.3067317238
 21
19.0236382191
  0
LINE
  5
31A
100
AcDbEntity
  8
0
100
AcDbLine
 62
9
  6
CONTINUOUS
 10
13.9482804569
 20
19.0236382191
 11
14.2574972687
 21
19.0236382191
  0
LINE
  5
31B
100
AcDbEntity
  8
0
100
AcDbLine
 62
9
  6
CONTINUOUS
 10
14.2574972687
 20
19.0312264652
 11
13.9468372998
 21
19.0312264652
  0
LINE
  5
31C
100
AcDbEntity
  8
0
100
AcDbLine
 62
9
  6
CONTINUOUS
 10
13.3082788164
 20
19.0312264652
 11
12.9974972687
 21
19.0312264652
  0
LINE
  5
31D
100
AcDbEntity
  8
0
100
AcDbLine
 62
9
  6
CONTINUOUS
 10
12.9892337504
 20
19.0410745427
 11
13.307358037
 21
19.0410745427
  0
LINE
  5
31E
100
AcDbEntity
  8
0
100
AcDbLine
 62
9
  6
CONTINUOUS
 10
13.9446109022
 20
19.0410745427
 11
14.2657512353
 21
19.0410745427
  0
LINE
  5
31F
100
AcDbEntity
  8
0
100
AcDbLine
 62
9
  6
CONTINUOUS
 10
14.4442337504
 20
19.0725441415
 11
13.9379943677
 21
19.0725441415
  0
LINE
  5
320
100
AcDbEntity
  8
0
100
AcDbLine
 62
9
  6
CONTINUOUS
 10
13.3167026693
 20
19.0725441415
 11
12.8107720869
 21
19.0725441415
  0
LINE
  5
321
100
AcDbEntity
  8
0
100
AcDbLine
 62
9
  6
CONTINUOUS
 10
12.8024972687
 20
19.082392219
 11
13.3187104966
 21
19.082392219
  0
LINE
  5
322
100
AcDbEntity
  8
0
100
AcDbLine
 62
9
  6
CONTINUOUS
 10
13.9361465515
 20
19.082392219
 11
14.4524972687
 21
19.082392219
  0
LINE
  5
323
100
AcDbEntity
  8
0
100
AcDbLine
 62
9
  6
CONTINUOUS
 10
14.4524972687
 20
19.0877579458
 11
13.9351397686
 21
19.0877579458
  0
LINE
  5
324
100
AcDbEntity
  8
0
100
AcDbLine
 62
9
  6
CONTINUOUS
 10
13.3198044616
 20
19.0877579458
 11
12.8024972687
 21
19.0877579458
  0
LINE
  5
325
100
AcDbEntity
  8
0
100
AcDbLine
 62
7
  6
CONTINUOUS
 10
12.5875657382
 20
19.0997579458
 11
13.3221043463
 21
19.0997579458
  0
LINE
  5
326
100
AcDbEntity
  8
0
100
AcDbLine
 62
7
  6
CONTINUOUS
 10
13.9328881825
 20
19.0997579458
 11
14.6674287992
 21
19.0997579458
  0
LINE
  5
327
100
AcDbEntity
  8
0
100
AcDbLine
 62
9
  6
CONTINUOUS
 10
14.6674972687
 20
19.1807823535
 11
13.9176853969
 21
19.1807823535
  0
LINE
  5
328
100
AcDbEntity
  8
0
100
AcDbLine
 62
9
  6
CONTINUOUS
 10
13.3371921515
 20
19.1807823535
 11
12.5874972687
 21
19.1807823535
  0
LINE
  5
329
100
AcDbEntity
  8
0
100
AcDbLine
 62
9
  6
CONTINUOUS
 10
14.6552865902
 20
19.2135232634
 11
13.9116290425
 21
19.2135232634
  0
LINE
  5
32A
100
AcDbEntity
  8
0
100
AcDbLine
 62
9
  6
CONTINUOUS
 10
13.3432889375
 20
19.2135232634
 11
12.5997079471
 21
19.2135232634
  0
LINE
  5
32B
100
AcDbEntity
  8
0
100
AcDbLine
 62
7
  6
CONTINUOUS
 10
13.2872909086
 20
18.9397785466
 11
13.1807607869
 21
18.9585626813
  0
LINE
  5
32C
100
AcDbEntity
  8
0
100
AcDbLine
 62
7
  6
CONTINUOUS
 10
13.1642337504
 20
18.9858470824
 11
13.0057607869
 21
19.0137901416
  0
LINE
  5
32D
100
AcDbEntity
  8
0
100
AcDbLine
 62
7
  6
CONTINUOUS
 10
12.9892337504
 20
19.0410745427
 11
12.9419972687
 21
19.0494036089
  0
LINE
  5
32E
100
AcDbEntity
  8
0
100
AcDbLine
 62
7
  6
CONTINUOUS
 10
12.8959972687
 20
19.05751465
 11
12.8107607869
 21
19.0725441415
  0
LINE
  5
32F
100
AcDbEntity
  8
0
100
AcDbLine
 62
7
  6
CONTINUOUS
 10
14.0338072739
 20
18.8094908868
 11
14.0126630696
 21
18.8262378397
  0
LINE
  5
330
100
AcDbEntity
  8
0
100
AcDbLine
 62
7
  6
CONTINUOUS
 10
14.0187857758
 20
18.8190634885
 11
14.0188844044
 21
18.8189776569
  0
LINE
  5
331
100
AcDbEntity
  8
0
100
AcDbLine
 62
7
  6
CONTINUOUS
 10
13.2341454297
 20
19.9172578473
 11
13.2341411052
 21
19.9172616498
  0
LINE
  5
332
100
AcDbEntity
  8
0
100
AcDbLine
 62
7
  6
CONTINUOUS
 10
13.2339536291
 20
19.917426567
 11
13.2569256595
 21
19.8957470218
  0
LINE
  5
333
100
AcDbEntity
  8
0
100
AcDbLine
 62
9
  6
CONTINUOUS
 10
12.7872038627
 20
19.6413843598
 11
13.3574972687
 21
19.6413843598
  0
LINE
  5
334
100
AcDbEntity
  8
0
100
AcDbLine
 62
9
  6
CONTINUOUS
 10
13.8974972687
 20
19.6413843598
 11
14.4677747046
 21
19.6413843598
  0
LINE
  5
335
100
AcDbEntity
  8
0
100
AcDbLine
 62
9
  6
CONTINUOUS
 10
14.4198122416
 20
20.0676566435
 11
14.1379398198
 21
20.0676566435
  0
LINE
  5
336
100
AcDbEntity
  8
0
100
AcDbLine
 62
9
  6
CONTINUOUS
 10
13.1170528961
 20
20.0676566435
 11
12.8351822958
 21
20.0676566435
  0
LINE
  5
337
100
AcDbEntity
  8
0
100
AcDbLine
 62
7
  6
CONTINUOUS
 10
14.0807220881
 20
18.9978763723
 11
14.0770485937
 21
18.9984961596
  0
LINE
  5
338
100
AcDbEntity
  8
0
100
AcDbLine
 62
7
  6
CONTINUOUS
 10
14.0383955826
 20
18.9903851185
 11
14.0347220882
 21
18.9910708273
  0
LINE
  5
339
100
AcDbEntity
  8
0
100
AcDbLine
 62
7
  6
CONTINUOUS
 10
14.221157683
 20
19.0494036089
 11
14.2180762673
 21
19.0499813998
  0
LINE
  5
33A
100
AcDbEntity
  8
0
100
AcDbLine
 62
7
  6
CONTINUOUS
 10
14.3348557166
 20
19.0573672874
 11
14.3340720106
 21
19.05751465
  0
LINE
  5
33B
100
AcDbEntity
  8
0
100
AcDbLine
 62
7
  6
CONTINUOUS
 10
14.1516224812
 20
18.9984007275
 11
14.1511339653
 21
18.9984961596
  0
LINE
  5
33C
100
AcDbEntity
  8
0
100
AcDbLine
 62
7
  6
CONTINUOUS
 10
14.2896394226
 20
19.0494036089
 11
14.2888557167
 21
19.049584552
  0
LINE
  5
33D
100
AcDbEntity
  8
0
100
AcDbLine
 62
7
  6
CONTINUOUS
 10
14.106110997
 20
18.9903851185
 11
14.1056224812
 21
18.9905132576
  0
LINE
  5
33E
100
AcDbEntity
  8
0
100
AcDbLine
 62
9
  6
CONTINUOUS
 10
13.0949753109
 20
20.8129297058
 11
13.0750536772
 21
20.8111652555
  0
LINE
  5
33F
100
AcDbEntity
  8
0
100
AcDbLine
 62
9
  6
CONTINUOUS
 10
13.0675364518
 20
20.9015552548
 11
13.0874580855
 21
20.9033197051
  0
LINE
  5
340
100
AcDbEntity
  8
0
100
AcDbLine
 62
9
  6
CONTINUOUS
 10
13.0874580855
 20
20.9082026583
 11
13.0675364518
 21
20.906438208
  0
LINE
  5
341
100
AcDbEntity
  8
0
100
AcDbLine
 62
7
  6
CONTINUOUS
 10
13.0874762544
 20
20.9084105139
 11
13.0675546207
 21
20.9066460636
  0
LINE
  5
342
100
AcDbEntity
  8
0
100
AcDbLine
 62
7
  6
CONTINUOUS
 10
13.4418002388
 20
20.7730256623
 11
13.8131942985
 21
20.7730256623
  0
LINE
  5
343
100
AcDbEntity
  8
0
100
AcDbLine
 62
9
  6
CONTINUOUS
 10
14.1799408602
 20
20.8111652555
 11
14.1600192264
 21
20.8129297058
  0
LINE
  5
344
100
AcDbEntity
  8
0
100
AcDbLine
 62
9
  6
CONTINUOUS
 10
14.1675364518
 20
20.9033197051
 11
14.1874580855
 21
20.9015552548
  0
LINE
  5
345
100
AcDbEntity
  8
0
100
AcDbLine
 62
9
  6
CONTINUOUS
 10
14.1874580855
 20
20.906438208
 11
14.1675364518
 21
20.9082026583
  0
LINE
  5
346
100
AcDbEntity
  8
0
100
AcDbLine
 62
7
  6
CONTINUOUS
 10
14.1874399167
 20
20.9066460636
 11
14.1675182829
 21
20.9084105139
  0
ARC
  5
347
100
AcDbEntity
  8
0
100
AcDbCircle
 62
9
  6
CONTINUOUS
 10
9.9593914614
 20
12.242336874
 40
3.38053984
100
AcDbArc
 50
23.4760513426
 51
24.0753516962
  0
ARC
  5
348
100
AcDbEntity
  8
0
100
AcDbCircle
 62
7
  6
CONTINUOUS
 10
7.6556008908
 20
8.9779477311
 40
1.4020396301
100
AcDbArc
 50
101.0111250739
 51
116.1939332303
  0
ARC
  5
349
100
AcDbEntity
  8
0
100
AcDbCircle
 62
7
  6
CONTINUOUS
 10
7.6549535295
 20
8.9798933434
 40
1.3999987061
100
AcDbArc
 50
116.2050583041
 51
167.7275758417
  0
ARC
  5
34A
100
AcDbEntity
  8
0
100
AcDbCircle
 62
9
  6
CONTINUOUS
 10
7.7292505257
 20
9.0163807894
 40
1.1302193563
100
AcDbArc
 50
101.4313762069
 51
167.1118475277
  0
ARC
  5
34B
100
AcDbEntity
  8
0
100
AcDbCircle
 62
7
  6
CONTINUOUS
 10
7.7292585851
 20
9.0163771695
 40
0.79999589
100
AcDbArc
 50
99.0001199719
 51
159.667444748
  0
ARC
  5
34C
100
AcDbEntity
  8
0
100
AcDbCircle
 62
7
  6
CONTINUOUS
 10
7.0730980238
 20
9.2596232445
 40
0.1001970444
100
AcDbArc
 50
159.7215876261
 51
215.9888606183
  0
ARC
  5
34D
100
AcDbEntity
  8
0
100
AcDbCircle
 62
7
  6
CONTINUOUS
 10
6.3848045583
 20
9.2561983746
 40
0.1001546478
100
AcDbArc
 50
167.7320884138
 51
176.7400623288
  0
ARC
  5
34E
100
AcDbEntity
  8
0
100
AcDbCircle
 62
7
  6
CONTINUOUS
 10
9.8866359178
 20
13.6297228149
 40
0.1
100
AcDbArc
 50
276.6083674465
 51
331.6635211773
  0
ARC
  5
34F
100
AcDbEntity
  8
0
100
AcDbCircle
 62
7
  6
CONTINUOUS
 10
9.8866359178
 20
12.4897930766
 40
0.1
100
AcDbArc
 50
28.3364788227
 51
83.3916325535
  0
ARC
  5
350
100
AcDbEntity
  8
0
100
AcDbCircle
 62
7
  6
CONTINUOUS
 10
9.886866732
 20
13.4297579458
 40
0.05
100
AcDbArc
 50
90.0
 51
160.709545964
  0
ARC
  5
351
100
AcDbEntity
  8
0
100
AcDbCircle
 62
7
  6
CONTINUOUS
 10
9.886866732
 20
12.6897579458
 40
0.05
100
AcDbArc
 50
199.290454036
 51
270.0
  0
ARC
  5
352
100
AcDbEntity
  8
0
100
AcDbCircle
 62
7
  6
CONTINUOUS
 10
10.0098604647
 20
12.5562438934
 40
0.04
100
AcDbArc
 50
208.3364788227
 51
300.0
  0
ARC
  5
353
100
AcDbEntity
  8
0
100
AcDbCircle
 62
7
  6
CONTINUOUS
 10
10.0098604647
 20
13.5632719981
 40
0.04
100
AcDbArc
 50
60.0
 51
151.6635211773
  0
ARC
  5
354
100
AcDbEntity
  8
0
100
AcDbCircle
 62
7
  6
CONTINUOUS
 10
9.8999854576
 20
12.6050223689
 40
0.016
100
AcDbArc
 50
179.9999355791
 51
236.9834013659
  0
ARC
  5
355
100
AcDbEntity
  8
0
100
AcDbCircle
 62
7
  6
CONTINUOUS
 10
9.8999854576
 20
13.5144935227
 40
0.016
100
AcDbArc
 50
123.0165986341
 51
180.0000644209
  0
ARC
  5
356
100
AcDbEntity
  8
0
100
AcDbCircle
 62
9
  6
CONTINUOUS
 10
13.3660042432
 20
-12.3015612981
 40
24.2202453436
100
AcDbArc
 50
88.0675691066
 51
88.5629662062
  0
ARC
  5
357
100
AcDbEntity
  8
0
100
AcDbCircle
 62
7
  6
CONTINUOUS
 10
13.6274972687
 20
-2.6499743377
 40
0.27
100
AcDbArc
 50
180.0
 51
360.0
  0
ARC
  5
358
100
AcDbEntity
  8
0
100
AcDbCircle
 62
7
  6
CONTINUOUS
 10
10.9439854576
 20
13.0597579458
 40
1.17
100
AcDbArc
 50
160.7095459639
 51
199.2904540361
  0
ARC
  5
359
100
AcDbEntity
  8
0
100
AcDbCircle
 62
7
  6
CONTINUOUS
 10
10.3439854576
 20
12.9097579458
 40
0.77
100
AcDbArc
 50
71.347577105
 51
109.0663079413
  0
ARC
  5
35A
100
AcDbEntity
  8
0
100
AcDbCircle
 62
7
  6
CONTINUOUS
 10
10.3439854576
 20
13.2097579458
 40
0.77
100
AcDbArc
 50
250.9336920587
 51
288.652422895
  0
CIRCLE
  5
35B
100
AcDbEntity
  8
0
100
AcDbCircle
 62
7
  6
CONTINUOUS
 10
10.3439854576
 20
13.0597579458
 40
0.4535102805
  0
CIRCLE
  5
35C
100
AcDbEntity
  8
0
100
AcDbCircle
 62
7
  6
CONTINUOUS
 10
10.3439854576
 20
13.0597579458
 40
0.395
  0
CIRCLE
  5
35D
100
AcDbEntity
  8
0
100
AcDbCircle
 62
9
  6
CONTINUOUS
 10
10.3439854576
 20
13.0597579458
 40
0.3445
  0
CIRCLE
  5
35E
100
AcDbEntity
  8
0
100
AcDbCircle
 62
7
  6
CONTINUOUS
 10
10.3439854576
 20
13.0597579458
 40
0.2823809484
  0
ARC
  5
35F
100
AcDbEntity
  8
0
100
AcDbCircle
 62
7
  6
CONTINUOUS
 10
10.7619854576
 20
12.6917579458
 40
0.118
100
AcDbArc
 50
90.0
 51
117.0796815835
  0
ARC
  5
360
100
AcDbEntity
  8
0
100
AcDbCircle
 62
7
  6
CONTINUOUS
 10
10.7619854576
 20
12.6917579458
 40
0.118
100
AcDbArc
 50
161.4143521747
 51
179.9999870546
  0
ARC
  5
361
100
AcDbEntity
  8
0
100
AcDbCircle
 62
7
  6
CONTINUOUS
 10
10.1182618907
 20
12.5566654016
 40
0.079
100
AcDbArc
 50
199.913477348
 51
250.933777462
  0
ARC
  5
362
100
AcDbEntity
  8
0
100
AcDbCircle
 62
7
  6
CONTINUOUS
 10
10.5649854576
 20
12.5550519049
 40
0.079
100
AcDbArc
 50
288.6524227613
 51
359.9999993655
  0
ARC
  5
363
100
AcDbEntity
  8
0
100
AcDbCircle
 62
7
  6
CONTINUOUS
 10
10.7619854576
 20
13.4277579458
 40
0.118
100
AcDbArc
 50
242.9203184165
 51
270.0
  0
ARC
  5
364
100
AcDbEntity
  8
0
100
AcDbCircle
 62
7
  6
CONTINUOUS
 10
10.7619854576
 20
13.4277579458
 40
0.118
100
AcDbArc
 50
180.0000129454
 51
198.5856478253
  0
ARC
  5
365
100
AcDbEntity
  8
0
100
AcDbCircle
 62
7
  6
CONTINUOUS
 10
10.1182618906
 20
13.56285049
 40
0.079
100
AcDbArc
 50
109.0662225134
 51
160.0865226334
  0
ARC
  5
366
100
AcDbEntity
  8
0
100
AcDbCircle
 62
7
  6
CONTINUOUS
 10
10.5649854576
 20
13.5644639867
 40
0.079
100
AcDbArc
 50
0.0000006345
 51
71.3475772387
  0
ARC
  5
367
100
AcDbEntity
  8
0
100
AcDbCircle
 62
7
  6
CONTINUOUS
 10
11.6168388954
 20
11.6038340655
 40
1.8396718941
100
AcDbArc
 50
89.9954353815
 51
90.7266795129
  0
ARC
  5
368
100
AcDbEntity
  8
0
100
AcDbCircle
 62
7
  6
CONTINUOUS
 10
11.6103596406
 20
12.1543419383
 40
1.2891262216
100
AcDbArc
 50
90.7490419283
 51
91.2452192114
  0
ARC
  5
369
100
AcDbEntity
  8
0
100
AcDbCircle
 62
7
  6
CONTINUOUS
 10
11.5997650979
 20
12.6466596086
 40
0.7966945873
100
AcDbArc
 50
91.2528958396
 51
91.9781787553
  0
ARC
  5
36A
100
AcDbEntity
  8
0
100
AcDbCircle
 62
7
  6
CONTINUOUS
 10
11.6169339919
 20
13.0272494897
 40
0.3849511538
100
AcDbArc
 50
268.2510803703
 51
270.0076601193
  0
ARC
  5
36B
100
AcDbEntity
  8
0
100
AcDbCircle
 62
7
  6
CONTINUOUS
 10
11.617036918
 20
13.0929239541
 40
0.3843560934
100
AcDbArc
 50
88.2483701539
 51
90.0076711754
  0
ARC
  5
36C
100
AcDbEntity
  8
0
100
AcDbCircle
 62
7
  6
CONTINUOUS
 10
11.616937942
 20
12.8269499234
 40
0.2150706341
100
AcDbArc
 50
266.8675129077
 51
270.0126583786
  0
ARC
  5
36D
100
AcDbEntity
  8
0
100
AcDbCircle
 62
7
  6
CONTINUOUS
 10
11.6170329636
 20
13.2928042688
 40
0.2148880419
100
AcDbArc
 50
86.8648443787
 51
90.0126665641
  0
ARC
  5
36E
100
AcDbEntity
  8
0
100
AcDbCircle
 62
7
  6
CONTINUOUS
 10
11.5569854576
 20
13.3497579458
 40
0.2
100
AcDbArc
 50
90.0
 51
180.0
  0
ARC
  5
36F
100
AcDbEntity
  8
0
100
AcDbCircle
 62
7
  6
CONTINUOUS
 10
11.5569854576
 20
12.7697579458
 40
0.2
100
AcDbArc
 50
180.0
 51
270.0
  0
ARC
  5
370
100
AcDbEntity
  8
0
100
AcDbCircle
 62
7
  6
CONTINUOUS
 10
11.6152309316
 20
12.7992300167
 40
0.1872989617
100
AcDbArc
 50
263.3396781909
 51
266.9255450339
  0
ARC
  5
371
100
AcDbEntity
  8
0
100
AcDbCircle
 62
7
  6
CONTINUOUS
 10
11.6187397557
 20
13.320497122
 40
0.1871433857
100
AcDbArc
 50
83.3340492088
 51
86.922915021
  0
ARC
  5
372
100
AcDbEntity
  8
0
100
AcDbCircle
 62
7
  6
CONTINUOUS
 10
11.6169440004
 20
12.7353282486
 40
0.1502617487
100
AcDbArc
 50
265.5117849619
 51
270.0158079193
  0
ARC
  5
373
100
AcDbEntity
  8
0
100
AcDbCircle
 62
7
  6
CONTINUOUS
 10
11.638900405
 20
12.7749877424
 40
0.1315715724
100
AcDbArc
 50
278.4413336445
 51
279.9819805413
  0
ARC
  5
374
100
AcDbEntity
  8
0
100
AcDbCircle
 62
7
  6
CONTINUOUS
 10
11.595076075
 20
13.3447532643
 40
0.1314076336
100
AcDbArc
 50
98.4523471104
 51
99.9970251273
  0
ARC
  5
375
100
AcDbEntity
  8
0
100
AcDbCircle
 62
7
  6
CONTINUOUS
 10
11.6169519723
 20
12.6784257503
 40
0.11634989
100
AcDbArc
 50
264.1957075398
 51
270.0164896555
  0
ARC
  5
376
100
AcDbEntity
  8
0
100
AcDbCircle
 62
7
  6
CONTINUOUS
 10
11.6303133141
 20
12.7231842992
 40
0.1103392321
100
AcDbArc
 50
281.1369544246
 51
283.6232764791
  0
ARC
  5
377
100
AcDbEntity
  8
0
100
AcDbCircle
 62
7
  6
CONTINUOUS
 10
11.6169616061
 20
12.638777003
 40
0.0956845159
100
AcDbArc
 50
262.9305878993
 51
270.0142822532
  0
ARC
  5
378
100
AcDbEntity
  8
0
100
AcDbCircle
 62
7
  6
CONTINUOUS
 10
11.6288804446
 20
12.6699372538
 40
0.083657853
100
AcDbArc
 50
285.7765448601
 51
288.5231799728
  0
ARC
  5
379
100
AcDbEntity
  8
0
100
AcDbCircle
 62
7
  6
CONTINUOUS
 10
11.6169725784
 20
12.6101840944
 40
0.0819148619
100
AcDbArc
 50
261.7266838001
 51
270.0090084532
  0
ARC
  5
37A
100
AcDbEntity
  8
0
100
AcDbCircle
 62
7
  6
CONTINUOUS
 10
11.6005140646
 20
12.6568552231
 40
0.0727818588
100
AcDbArc
 50
320.1065529681
 51
327.2214453401
  0
ARC
  5
37B
100
AcDbEntity
  8
0
100
AcDbCircle
 62
7
  6
CONTINUOUS
 10
11.633456828
 20
12.6568552078
 40
0.0727818314
100
AcDbArc
 50
212.7785541474
 51
219.893497713
  0
ARC
  5
37C
100
AcDbEntity
  8
0
100
AcDbCircle
 62
7
  6
CONTINUOUS
 10
11.6320710559
 20
12.6324735724
 40
0.0716279321
100
AcDbArc
 50
213.3876005207
 51
219.8623484876
  0
ARC
  5
37D
100
AcDbEntity
  8
0
100
AcDbCircle
 62
7
  6
CONTINUOUS
 10
11.6275519853
 20
12.6335397409
 40
0.0700787632
100
AcDbArc
 50
290.0918502472
 51
293.6307874226
  0
ARC
  5
37E
100
AcDbEntity
  8
0
100
AcDbCircle
 62
7
  6
CONTINUOUS
 10
11.606616786
 20
12.5947791379
 40
0.0675394494
100
AcDbArc
 50
317.8825807705
 51
324.6538522921
  0
ARC
  5
37F
100
AcDbEntity
  8
0
100
AcDbCircle
 62
7
  6
CONTINUOUS
 10
11.6266743181
 20
12.5942338883
 40
0.0666695315
100
AcDbArc
 50
215.3019195992
 51
222.1618347267
  0
ARC
  5
380
100
AcDbEntity
  8
0
100
AcDbCircle
 62
7
  6
CONTINUOUS
 10
11.6273042323
 20
12.6285257983
 40
0.06543868
100
AcDbArc
 50
219.8842510455
 51
225.2672775311
  0
ARC
  5
381
100
AcDbEntity
  8
0
100
AcDbCircle
 62
7
  6
CONTINUOUS
 10
11.6277204887
 20
12.6521001136
 40
0.0653309621
100
AcDbArc
 50
219.9204961263
 51
226.0088398523
  0
ARC
  5
382
100
AcDbEntity
  8
0
100
AcDbCircle
 62
7
  6
CONTINUOUS
 10
11.6065944384
 20
12.6517903239
 40
0.0648683299
100
AcDbArc
 50
313.0076294496
 51
320.0944220071
  0
ARC
  5
383
100
AcDbEntity
  8
0
100
AcDbCircle
 62
7
  6
CONTINUOUS
 10
11.6240553811
 20
12.581692156
 40
0.0646173044
100
AcDbArc
 50
216.7256569654
 51
222.1490665026
  0
ARC
  5
384
100
AcDbEntity
  8
0
100
AcDbCircle
 62
7
  6
CONTINUOUS
 10
11.6103199045
 20
12.5915016573
 40
0.0625945524
100
AcDbArc
 50
311.2922148976
 51
317.8346520919
  0
ARC
  5
385
100
AcDbEntity
  8
0
100
AcDbCircle
 62
7
  6
CONTINUOUS
 10
11.6231351017
 20
12.5909778243
 40
0.0618605344
100
AcDbArc
 50
222.1266887654
 51
228.7471247555
  0
ARC
  5
386
100
AcDbEntity
  8
0
100
AcDbCircle
 62
7
  6
CONTINUOUS
 10
11.6213364226
 20
12.5791509135
 40
0.0608961629
100
AcDbArc
 50
222.0930921772
 51
230.186334186
  0
ARC
  5
387
100
AcDbEntity
  8
0
100
AcDbCircle
 62
7
  6
CONTINUOUS
 10
11.6169854576
 20
12.5697579458
 40
0.06
100
AcDbArc
 50
180.0
 51
224.3552431419
  0
ARC
  5
388
100
AcDbEntity
  8
0
100
AcDbCircle
 62
7
  6
CONTINUOUS
 10
11.6169854576
 20
12.5697579458
 40
0.06
100
AcDbArc
 50
313.370687982
 51
360.0
  0
ARC
  5
389
100
AcDbEntity
  8
0
100
AcDbCircle
 62
7
  6
CONTINUOUS
 10
11.6166761842
 20
12.5682572697
 40
0.0584236763
100
AcDbArc
 50
220.5821220451
 51
319.4121691393
  0
ARC
  5
38A
100
AcDbEntity
  8
0
100
AcDbCircle
 62
7
  6
CONTINUOUS
 10
11.6153259131
 20
13.0213296779
 40
0.057738348
100
AcDbArc
 50
124.8419403465
 51
138.2286497103
  0
ARC
  5
38B
100
AcDbEntity
  8
0
100
AcDbCircle
 62
7
  6
CONTINUOUS
 10
11.6188414317
 20
13.0981644756
 40
0.0575311864
100
AcDbArc
 50
304.7333078274
 51
318.166008011
  0
ARC
  5
38C
100
AcDbEntity
  8
0
100
AcDbCircle
 62
7
  6
CONTINUOUS
 10
11.6169787039
 20
12.5672761783
 40
0.0548276484
100
AcDbArc
 50
244.9614307778
 51
282.2972905877
  0
ARC
  5
38D
100
AcDbEntity
  8
0
100
AcDbCircle
 62
7
  6
CONTINUOUS
 10
11.627689473
 20
12.5835628468
 40
0.0528990138
100
AcDbArc
 50
305.1407702729
 51
310.020524007
  0
ARC
  5
38E
100
AcDbEntity
  8
0
100
AcDbCircle
 62
7
  6
CONTINUOUS
 10
11.616936429
 20
12.5719365812
 40
0.0524138667
100
AcDbArc
 50
270.0535952906
 51
283.0656693137
  0
ARC
  5
38F
100
AcDbEntity
  8
0
100
AcDbCircle
 62
7
  6
CONTINUOUS
 10
11.616934758
 20
12.5808390836
 40
0.0498922645
100
AcDbArc
 50
270.0582229297
 51
283.7406816339
  0
ARC
  5
390
100
AcDbEntity
  8
0
100
AcDbCircle
 62
7
  6
CONTINUOUS
 10
11.6169257578
 20
12.5946560937
 40
0.0480272713
100
AcDbArc
 50
270.0712210279
 51
284.2963850057
  0
ARC
  5
391
100
AcDbEntity
  8
0
100
AcDbCircle
 62
7
  6
CONTINUOUS
 10
11.6168521122
 20
12.6631498416
 40
0.0453606527
100
AcDbArc
 50
274.3047328044
 51
285.2527890465
  0
ARC
  5
392
100
AcDbEntity
  8
0
100
AcDbCircle
 62
7
  6
CONTINUOUS
 10
11.6168436652
 20
12.6940532425
 40
0.045139831
100
AcDbArc
 50
274.8172187834
 51
285.3403503805
  0
ARC
  5
393
100
AcDbEntity
  8
0
100
AcDbCircle
 62
7
  6
CONTINUOUS
 10
11.6169777721
 20
12.6617397973
 40
0.0439451584
100
AcDbArc
 50
270.0100204045
 51
274.2793530082
  0
ARC
  5
394
100
AcDbEntity
  8
0
100
AcDbCircle
 62
7
  6
CONTINUOUS
 10
11.6169759327
 20
12.6926665586
 40
0.0437469406
100
AcDbArc
 50
270.0124748927
 51
274.797114341
  0
ARC
  5
395
100
AcDbEntity
  8
0
100
AcDbCircle
 62
7
  6
CONTINUOUS
 10
11.6039539616
 20
12.5397579458
 40
0.03
100
AcDbArc
 50
238.2462824584
 51
270.0
  0
ARC
  5
396
100
AcDbEntity
  8
0
100
AcDbCircle
 62
7
  6
CONTINUOUS
 10
11.8731249236
 20
13.2601848616
 40
2.4827188018
100
AcDbArc
 50
9.2965969337
 51
15.0162737825
  0
ARC
  5
397
100
AcDbEntity
  8
0
100
AcDbCircle
 62
7
  6
CONTINUOUS
 10
11.8731249236
 20
13.2601848616
 40
2.4827188018
100
AcDbArc
 50
336.7547341089
 51
344.3390810883
  0
ARC
  5
398
100
AcDbEntity
  8
0
100
AcDbCircle
 62
7
  6
CONTINUOUS
 10
11.6236113617
 20
13.9752880705
 40
1.2991718586
100
AcDbArc
 50
270.7432455884
 51
271.2355852142
  0
ARC
  5
399
100
AcDbEntity
  8
0
100
AcDbCircle
 62
7
  6
CONTINUOUS
 10
11.634206059
 20
13.4791234924
 40
0.8028941967
100
AcDbArc
 50
271.243202409
 51
271.9628808427
  0
ARC
  5
39A
100
AcDbEntity
  8
0
100
AcDbCircle
 62
7
  6
CONTINUOUS
 10
11.6170269013
 20
13.3843228003
 40
0.1501750678
100
AcDbArc
 50
85.5091815703
 51
90.0158118632
  0
ARC
  5
39B
100
AcDbEntity
  8
0
100
AcDbCircle
 62
7
  6
CONTINUOUS
 10
11.6170189259
 20
13.4411810034
 40
0.1162998821
100
AcDbArc
 50
84.1931917495
 51
90.0164883302
  0
ARC
  5
39C
100
AcDbEntity
  8
0
100
AcDbCircle
 62
7
  6
CONTINUOUS
 10
11.6036605765
 20
13.3964621579
 40
0.1102638145
100
AcDbArc
 50
101.1462475332
 51
103.6329165037
  0
ARC
  5
39D
100
AcDbEntity
  8
0
100
AcDbCircle
 62
7
  6
CONTINUOUS
 10
11.6170093032
 20
13.4808039708
 40
0.0956523346
100
AcDbArc
 50
82.9280743481
 51
90.0142834824
  0
ARC
  5
39E
100
AcDbEntity
  8
0
100
AcDbCircle
 62
7
  6
CONTINUOUS
 10
11.6050931005
 20
13.4496621059
 40
0.0836224541
100
AcDbArc
 50
105.7852733355
 51
108.5327810352
  0
ARC
  5
39F
100
AcDbEntity
  8
0
100
AcDbCircle
 62
7
  6
CONTINUOUS
 10
11.6169983145
 20
13.5093786838
 40
0.081892662
100
AcDbArc
 50
81.7244052827
 51
90.0089952671
  0
ARC
  5
3A0
100
AcDbEntity
  8
0
100
AcDbCircle
 62
7
  6
CONTINUOUS
 10
11.6334502021
 20
13.4627147187
 40
0.0727745943
100
AcDbArc
 50
140.0972859864
 51
147.2206588974
  0
ARC
  5
3A1
100
AcDbEntity
  8
0
100
AcDbCircle
 62
7
  6
CONTINUOUS
 10
11.6005207369
 20
13.4627147349
 40
0.0727745656
100
AcDbArc
 50
32.7793405146
 51
39.9027673372
  0
ARC
  5
3A2
100
AcDbEntity
  8
0
100
AcDbCircle
 62
7
  6
CONTINUOUS
 10
11.6018914337
 20
13.4870778528
 40
0.0716395338
100
AcDbArc
 50
33.3894334684
 51
39.8354705407
  0
ARC
  5
3A3
100
AcDbEntity
  8
0
100
AcDbCircle
 62
7
  6
CONTINUOUS
 10
11.6064215229
 20
13.4860360721
 40
0.0700594388
100
AcDbArc
 50
110.0998932503
 51
113.6411176897
  0
ARC
  5
3A4
100
AcDbEntity
  8
0
100
AcDbCircle
 62
7
  6
CONTINUOUS
 10
11.6273443511
 20
13.5247689237
 40
0.0675293978
100
AcDbArc
 50
137.8645463377
 51
144.6515360278
  0
ARC
  5
3A5
100
AcDbEntity
  8
0
100
AcDbCircle
 62
7
  6
CONTINUOUS
 10
11.6062555628
 20
13.467469684
 40
0.0653249556
100
AcDbArc
 50
39.9300715663
 51
46.0100211325
  0
ARC
  5
3A6
100
AcDbEntity
  8
0
100
AcDbCircle
 62
7
  6
CONTINUOUS
 10
11.6273810857
 20
13.4677707335
 40
0.0648754032
100
AcDbArc
 50
133.0348030003
 51
140.0843844365
  0
ARC
  5
3A7
100
AcDbEntity
  8
0
100
AcDbCircle
 62
7
  6
CONTINUOUS
 10
11.6071254352
 20
13.4914409401
 40
0.0648254824
100
AcDbArc
 50
39.8376497161
 51
46.6490569474
  0
ARC
  5
3A8
100
AcDbEntity
  8
0
100
AcDbCircle
 62
7
  6
CONTINUOUS
 10
11.6106275413
 20
13.5384293992
 40
0.063696769
100
AcDbArc
 50
36.6868162512
 51
44.9868142591
  0
ARC
  5
3A9
100
AcDbEntity
  8
0
100
AcDbCircle
 62
7
  6
CONTINUOUS
 10
11.623642518
 20
13.5280467766
 40
0.0625852212
100
AcDbArc
 50
131.289142054
 51
137.8162278578
  0
ARC
  5
3AA
100
AcDbEntity
  8
0
100
AcDbCircle
 62
7
  6
CONTINUOUS
 10
11.6108567592
 20
13.5285967961
 40
0.0618233071
100
AcDbArc
 50
43.4269535408
 51
48.7429629078
  0
ARC
  5
3AB
100
AcDbEntity
  8
0
100
AcDbCircle
 62
7
  6
CONTINUOUS
 10
11.6130333408
 20
13.5408359968
 40
0.0602938907
100
AcDbArc
 50
44.985533849
 51
50.2026896566
  0
ARC
  5
3AC
100
AcDbEntity
  8
0
100
AcDbCircle
 62
7
  6
CONTINUOUS
 10
11.6169854576
 20
13.5497579458
 40
0.06
100
AcDbArc
 50
133.3797580073
 51
180.0
  0
ARC
  5
3AD
100
AcDbEntity
  8
0
100
AcDbCircle
 62
7
  6
CONTINUOUS
 10
11.6169854576
 20
13.5497579458
 40
0.06
100
AcDbArc
 50
0.0
 51
46.6202070689
  0
ARC
  5
3AE
100
AcDbEntity
  8
0
100
AcDbCircle
 62
7
  6
CONTINUOUS
 10
11.6172996339
 20
13.5512604218
 40
0.058421492
100
AcDbArc
 50
40.5866511559
 51
139.4076477435
  0
ARC
  5
3AF
100
AcDbEntity
  8
0
100
AcDbCircle
 62
7
  6
CONTINUOUS
 10
11.6162403598
 20
13.5498953618
 40
0.0573301596
100
AcDbArc
 50
51.8863520818
 51
65.0058205295
  0
ARC
  5
3B0
100
AcDbEntity
  8
0
100
AcDbCircle
 62
7
  6
CONTINUOUS
 10
11.6169922002
 20
13.552242465
 40
0.0548343718
100
AcDbArc
 50
64.9645436877
 51
102.2956889829
  0
ARC
  5
3B1
100
AcDbEntity
  8
0
100
AcDbCircle
 62
7
  6
CONTINUOUS
 10
11.6062866485
 20
13.5359788538
 40
0.052898358
100
AcDbArc
 50
125.1524696613
 51
130.0284842577
  0
ARC
  5
3B2
100
AcDbEntity
  8
0
100
AcDbCircle
 62
7
  6
CONTINUOUS
 10
11.6170344639
 20
13.5475919071
 40
0.0524192699
100
AcDbArc
 50
90.0535652506
 51
103.0642668332
  0
ARC
  5
3B3
100
AcDbEntity
  8
0
100
AcDbCircle
 62
7
  6
CONTINUOUS
 10
11.6170361447
 20
13.5386991118
 40
0.0498963443
100
AcDbArc
 50
90.0582038046
 51
103.7392855093
  0
ARC
  5
3B4
100
AcDbEntity
  8
0
100
AcDbCircle
 62
7
  6
CONTINUOUS
 10
11.6170451414
 20
13.5248912157
 40
0.0480304008
100
AcDbArc
 50
90.0711972038
 51
104.2954065495
  0
ARC
  5
3B5
100
AcDbEntity
  8
0
100
AcDbCircle
 62
7
  6
CONTINUOUS
 10
11.6171187823
 20
13.4564224289
 40
0.0453614015
100
AcDbArc
 50
94.3036435083
 51
105.2524960889
  0
ARC
  5
3B6
100
AcDbEntity
  8
0
100
AcDbCircle
 62
7
  6
CONTINUOUS
 10
11.6171272382
 20
13.4255263506
 40
0.0451399429
100
AcDbArc
 50
94.8163198198
 51
105.3402879054
  0
ARC
  5
3B7
100
AcDbEntity
  8
0
100
AcDbCircle
 62
7
  6
CONTINUOUS
 10
11.6169931395
 20
13.4578325025
 40
0.0439458796
100
AcDbArc
 50
90.0100154764
 51
94.2782542014
  0
ARC
  5
3B8
100
AcDbEntity
  8
0
100
AcDbCircle
 62
7
  6
CONTINUOUS
 10
11.6169949791
 20
13.4269130958
 40
0.0437469923
100
AcDbArc
 50
90.0124703439
 51
94.7962045341
  0
ARC
  5
3B9
100
AcDbEntity
  8
0
100
AcDbCircle
 62
7
  6
CONTINUOUS
 10
11.6039539616
 20
13.5797579458
 40
0.03
100
AcDbArc
 50
90.0
 51
121.7761987396
  0
ARC
  5
3BA
100
AcDbEntity
  8
0
100
AcDbCircle
 62
7
  6
CONTINUOUS
 10
11.6171320219
 20
14.5300967627
 40
1.8540180586
100
AcDbArc
 50
269.995470642
 51
270.7210559664
  0
ARC
  5
3BB
100
AcDbEntity
  8
0
100
AcDbCircle
 62
7
  6
CONTINUOUS
 10
11.8374972687
 20
15.0995286744
 40
1.39
100
AcDbArc
 50
346.1131090765
 51
15.2496931708
  0
ARC
  5
3BC
100
AcDbEntity
  8
0
100
AcDbCircle
 62
7
  6
CONTINUOUS
 10
11.9717568514
 20
10.5915997556
 40
2.0
100
AcDbArc
 50
64.3664148422
 51
98.4754541218
  0
ARC
  5
3BD
100
AcDbEntity
  8
0
100
AcDbCircle
 62
7
  6
CONTINUOUS
 10
12.5574899468
 20
11.8684253988
 40
0.5
100
AcDbArc
 50
281.000691627
 51
359.999308373
  0
ARC
  5
3BE
100
AcDbEntity
  8
0
100
AcDbCircle
 62
7
  6
CONTINUOUS
 10
12.1362005826
 20
14.6094095128
 40
4.5125306193
100
AcDbArc
 50
80.01023631
 51
80.1591670119
  0
ARC
  5
3BF
100
AcDbEntity
  8
0
100
AcDbCircle
 62
7
  6
CONTINUOUS
 10
12.1798493361
 20
14.8598560847
 40
4.2583093057
100
AcDbArc
 50
79.8465111197
 51
80.0040666107
  0
ARC
  5
3C0
100
AcDbEntity
  8
0
100
AcDbCircle
 62
7
  6
CONTINUOUS
 10
12.7142695649
 20
13.8602926111
 40
0.2515491741
100
AcDbArc
 50
336.4078472516
 51
347.2801670129
  0
ARC
  5
3C1
100
AcDbEntity
  8
0
100
AcDbCircle
 62
7
  6
CONTINUOUS
 10
12.7154864032
 20
13.8597269278
 40
0.2502076443
100
AcDbArc
 50
332.9699914582
 51
336.4150364372
  0
ARC
  5
3C2
100
AcDbEntity
  8
0
100
AcDbCircle
 62
7
  6
CONTINUOUS
 10
13.6274972687
 20
9.7134492692
 40
3.9093008025
100
AcDbArc
 50
93.972218819
 51
98.6361306251
  0
ARC
  5
3C3
100
AcDbEntity
  8
0
100
AcDbCircle
 62
7
  6
CONTINUOUS
 10
13.6274972687
 20
9.7134492692
 40
3.9093008025
100
AcDbArc
 50
81.3638693749
 51
86.0277837167
  0
ARC
  5
3C4
100
AcDbEntity
  8
0
100
AcDbCircle
 62
7
  6
CONTINUOUS
 10
12.9474878115
 20
11.9184228483
 40
1.25
100
AcDbArc
 50
319.4790737315
 51
359.7503849747
  0
ARC
  5
3C5
100
AcDbEntity
  8
0
100
AcDbCircle
 62
7
  6
CONTINUOUS
 10
12.9473394182
 20
11.9183383984
 40
1.2499447367
100
AcDbArc
 50
279.0077271476
 51
289.2105087307
  0
ARC
  5
3C6
100
AcDbEntity
  8
0
100
AcDbCircle
 62
9
  6
CONTINUOUS
 10
12.9471783404
 20
11.91890922
 40
0.680582767
100
AcDbArc
 50
281.4409571471
 51
307.3242347711
  0
ARC
  5
3C7
100
AcDbEntity
  8
0
100
AcDbCircle
 62
7
  6
CONTINUOUS
 10
12.8368331417
 20
12.2576231803
 40
0.2529239856
100
AcDbArc
 50
41.6421227284
 51
50.2630129245
  0
ARC
  5
3C8
100
AcDbEntity
  8
0
100
AcDbCircle
 62
7
  6
CONTINUOUS
 10
12.8386303677
 20
12.2596239895
 40
0.2502632414
100
AcDbArc
 50
21.4841388179
 51
38.6264248486
  0
ARC
  5
3C9
100
AcDbEntity
  8
0
100
AcDbCircle
 62
7
  6
CONTINUOUS
 10
12.8072569229
 20
11.9118193272
 40
0.2502375489
100
AcDbArc
 50
0.0190721224
 51
38.1059406229
  0
ARC
  5
3CA
100
AcDbEntity
  8
0
100
AcDbCircle
 62
7
  6
CONTINUOUS
 10
12.8399918942
 20
12.260476247
 40
0.2486676275
100
AcDbArc
 50
38.6688453474
 51
41.6344707724
  0
ARC
  5
3CB
100
AcDbEntity
  8
0
100
AcDbCircle
 62
7
  6
CONTINUOUS
 10
13.1024972687
 20
12.1434193631
 40
0.125
100
AcDbArc
 50
90.0
 51
218.124911622
  0
ARC
  5
3CC
100
AcDbEntity
  8
0
100
AcDbCircle
 62
7
  6
CONTINUOUS
 10
13.0509615431
 20
14.7995212499
 40
0.14
100
AcDbArc
 50
295.0
 51
346.1131090765
  0
ARC
  5
3CD
100
AcDbEntity
  8
0
100
AcDbCircle
 62
7
  6
CONTINUOUS
 10
12.9169854576
 20
12.3947579458
 40
0.08
100
AcDbArc
 50
196.5361875242
 51
343.6404964137
  0
ARC
  5
3CE
100
AcDbEntity
  8
0
100
AcDbCircle
 62
7
  6
CONTINUOUS
 10
12.9169854576
 20
13.7247579458
 40
0.08
100
AcDbArc
 50
61.0535307867
 51
163.4638124758
  0
ARC
  5
3CF
100
AcDbEntity
  8
0
100
AcDbCircle
 62
7
  6
CONTINUOUS
 10
12.9169647382
 20
13.736808638
 40
0.0618416624
100
AcDbArc
 50
72.1134764661
 51
89.9808035955
  0
ARC
  5
3D0
100
AcDbEntity
  8
0
100
AcDbCircle
 62
7
  6
CONTINUOUS
 10
13.04816656
 20
13.527825175
 40
0.0511811024
100
AcDbArc
 50
98.6361306251
 51
180.0
  0
ARC
  5
3D1
100
AcDbEntity
  8
0
100
AcDbCircle
 62
7
  6
CONTINUOUS
 10
13.04816656
 20
12.5916907165
 40
0.0511811024
100
AcDbArc
 50
180.0
 51
261.3638693749
  0
ARC
  5
3D2
100
AcDbEntity
  8
0
100
AcDbCircle
 62
7
  6
CONTINUOUS
 10
13.0639972687
 20
14.6180256623
 40
0.03
100
AcDbArc
 50
115.0
 51
180.0
  0
ARC
  5
3D3
100
AcDbEntity
  8
0
100
AcDbCircle
 62
7
  6
CONTINUOUS
 10
13.1187755159
 20
12.2881044025
 40
0.0196850394
100
AcDbArc
 50
203.2479543564
 51
270.0
  0
ARC
  5
3D4
100
AcDbEntity
  8
0
100
AcDbCircle
 62
7
  6
CONTINUOUS
 10
13.0029428517
 20
13.8983406229
 40
0.0196850394
100
AcDbArc
 50
90.0
 51
164.9837262175
  0
ARC
  5
3D5
100
AcDbEntity
  8
0
100
AcDbCircle
 62
7
  6
CONTINUOUS
 10
11.9717568514
 20
15.527916136
 40
2.0
100
AcDbArc
 50
261.5245458782
 51
295.6335851578
  0
ARC
  5
3D6
100
AcDbEntity
  8
0
100
AcDbCircle
 62
7
  6
CONTINUOUS
 10
12.0041482399
 20
19.7295200028
 40
0.788
100
AcDbArc
 50
319.0941338575
 51
353.5781868592
  0
ARC
  5
3D7
100
AcDbEntity
  8
0
100
AcDbCircle
 62
9
  6
CONTINUOUS
 10
12.7995346804
 20
19.5444555473
 40
0.6369202566
100
AcDbArc
 50
28.7646474551
 51
30.2757661444
  0
ARC
  5
3D8
100
AcDbEntity
  8
0
100
AcDbCircle
 62
9
  6
CONTINUOUS
 10
12.8293748516
 20
18.9856698275
 40
0.4873630738
100
AcDbArc
 50
338.8086146666
 51
340.8832738815
  0
ARC
  5
3D9
100
AcDbEntity
  8
0
100
AcDbCircle
 62
7
  6
CONTINUOUS
 10
12.6374972687
 20
19.1807823535
 40
0.05
100
AcDbArc
 50
139.0941338576
 51
180.0
  0
ARC
  5
3DA
100
AcDbEntity
  8
0
100
AcDbCircle
 62
7
  6
CONTINUOUS
 10
12.8124972687
 20
19.082392219
 40
0.01
100
AcDbArc
 50
180.0
 51
260.0000000007
  0
ARC
  5
3DB
100
AcDbEntity
  8
0
100
AcDbCircle
 62
7
  6
CONTINUOUS
 10
12.7924972687
 20
19.0877579458
 40
0.01
100
AcDbArc
 50
0.0
 51
90.0
  0
ARC
  5
3DC
100
AcDbEntity
  8
0
100
AcDbCircle
 62
7
  6
CONTINUOUS
 10
13.0724972687
 20
15.8441563826
 40
1.0
100
AcDbArc
 50
343.5257501351
 51
16.8349806732
  0
ARC
  5
3DD
100
AcDbEntity
  8
0
100
AcDbCircle
 62
7
  6
CONTINUOUS
 10
13.0950016587
 20
16.3949053281
 40
0.2099956099
100
AcDbArc
 50
301.4808058443
 51
53.250856315
  0
ARC
  5
3DE
100
AcDbEntity
  8
0
100
AcDbCircle
 62
7
  6
CONTINUOUS
 10
13.1774972687
 20
16.1482534066
 40
0.05
100
AcDbArc
 50
343.1650193268
 51
57.4210296069
  0
ARC
  5
3DF
100
AcDbEntity
  8
0
100
AcDbCircle
 62
7
  6
CONTINUOUS
 10
13.1756026231
 20
15.5463927638
 40
0.05
100
AcDbArc
 50
293.4958766063
 51
16.4742498649
  0
ARC
  5
3E0
100
AcDbEntity
  8
0
100
AcDbCircle
 62
7
  6
CONTINUOUS
 10
13.2074972687
 20
15.4730256623
 40
0.03
100
AcDbArc
 50
113.4958766065
 51
195.2496931702
  0
ARC
  5
3E1
100
AcDbEntity
  8
0
100
AcDbCircle
 62
7
  6
CONTINUOUS
 10
13.2124972687
 20
16.2030256623
 40
0.015
100
AcDbArc
 50
121.4808058442
 51
237.421029607
  0
ARC
  5
3E2
100
AcDbEntity
  8
0
100
AcDbCircle
 62
7
  6
CONTINUOUS
 10
13.1484288796
 20
17.8569823226
 40
0.2090683891
100
AcDbArc
 50
302.6049200261
 51
32.9999999999
  0
ARC
  5
3E3
100
AcDbEntity
  8
0
100
AcDbCircle
 62
7
  6
CONTINUOUS
 10
13.6274972687
 20
16.4060666223
 40
3.9093008025
100
AcDbArc
 50
261.3638693749
 51
266.027781181
  0
ARC
  5
3E4
100
AcDbEntity
  8
0
100
AcDbCircle
 62
7
  6
CONTINUOUS
 10
13.6274972687
 20
16.4060666223
 40
3.9093008025
100
AcDbArc
 50
273.9722162833
 51
278.6361306251
  0
ARC
  5
3E5
100
AcDbEntity
  8
0
100
AcDbCircle
 62
7
  6
CONTINUOUS
 10
13.6274951794
 20
17.1080233187
 40
0.6799978141
100
AcDbArc
 50
306.7494028106
 51
57.3950385174
  0
ARC
  5
3E6
100
AcDbEntity
  8
0
100
AcDbCircle
 62
7
  6
CONTINUOUS
 10
13.627493023
 20
17.108029366
 40
0.6799916895
100
AcDbArc
 50
122.6047686727
 51
233.2513393342
  0
ARC
  5
3E7
100
AcDbEntity
  8
0
100
AcDbCircle
 62
7
  6
CONTINUOUS
 10
13.6274972687
 20
17.1080256623
 40
0.5172452508
100
AcDbArc
 50
301.5806607141
 51
58.5379071242
  0
ARC
  5
3E8
100
AcDbEntity
  8
0
100
AcDbCircle
 62
7
  6
CONTINUOUS
 10
13.6274972687
 20
17.1080256623
 40
0.5172452508
100
AcDbArc
 50
121.5109404314
 51
238.549680991
  0
ARC
  5
3E9
100
AcDbEntity
  8
0
100
AcDbCircle
 62
7
  6
CONTINUOUS
 10
13.6274972687
 20
17.1080256623
 40
0.5
100
AcDbArc
 50
303.0595487442
 51
56.9404512558
  0
ARC
  5
3EA
100
AcDbEntity
  8
0
100
AcDbCircle
 62
7
  6
CONTINUOUS
 10
13.6274972687
 20
17.1080256623
 40
0.5
100
AcDbArc
 50
123.0595487442
 51
236.9404512558
  0
ARC
  5
3EB
100
AcDbEntity
  8
0
100
AcDbCircle
 62
7
  6
CONTINUOUS
 10
13.6274972687
 20
17.1080256623
 40
0.481
100
AcDbArc
 50
140.6826645581
 51
159.3173354419
  0
ARC
  5
3EC
100
AcDbEntity
  8
0
100
AcDbCircle
 62
7
  6
CONTINUOUS
 10
13.6274972687
 20
17.1080256623
 40
0.481
100
AcDbArc
 50
200.6826645581
 51
219.317335442
  0
ARC
  5
3ED
100
AcDbEntity
  8
0
100
AcDbCircle
 62
7
  6
CONTINUOUS
 10
13.6274972687
 20
17.1080256623
 40
0.481
100
AcDbArc
 50
320.6826645581
 51
339.3173354419
  0
ARC
  5
3EE
100
AcDbEntity
  8
0
100
AcDbCircle
 62
7
  6
CONTINUOUS
 10
13.6274972687
 20
17.1080256623
 40
0.481
100
AcDbArc
 50
20.6826645581
 51
39.317335442
  0
ARC
  5
3EF
100
AcDbEntity
  8
0
100
AcDbCircle
 62
7
  6
CONTINUOUS
 10
13.6274972687
 20
17.1080256623
 40
0.4165551275
100
AcDbArc
 50
130.9199922388
 51
229.0943347759
  0
ARC
  5
3F0
100
AcDbEntity
  8
0
100
AcDbCircle
 62
7
  6
CONTINUOUS
 10
13.6274972687
 20
17.1080256623
 40
0.4165551275
100
AcDbArc
 50
310.9199922387
 51
49.0943347758
  0
ARC
  5
3F1
100
AcDbEntity
  8
0
100
AcDbCircle
 62
7
  6
CONTINUOUS
 10
13.6274972687
 20
17.1080256623
 40
0.3
100
AcDbArc
 50
155.5552320955
 51
204.4970793227
  0
ARC
  5
3F2
100
AcDbEntity
  8
0
100
AcDbCircle
 62
7
  6
CONTINUOUS
 10
13.6274972687
 20
17.1080256623
 40
0.3
100
AcDbArc
 50
335.5552320955
 51
24.4970793227
  0
ARC
  5
3F3
100
AcDbEntity
  8
0
100
AcDbCircle
 62
9
  6
CONTINUOUS
 10
12.8966992109
 20
18.959796632
 40
0.4152386099
100
AcDbArc
 50
336.702740425
 51
338.7792102209
  0
ARC
  5
3F4
100
AcDbEntity
  8
0
100
AcDbCircle
 62
7
  6
CONTINUOUS
 10
13.2249972687
 20
18.1780256623
 40
0.03
100
AcDbArc
 50
90.0
 51
212.9999999993
  0
ARC
  5
3F5
100
AcDbEntity
  8
0
100
AcDbCircle
 62
7
  6
CONTINUOUS
 10
13.2321369378
 20
18.2280256623
 40
0.02
100
AcDbArc
 50
181.041626676
 51
270.0
  0
ARC
  5
3F6
100
AcDbEntity
  8
0
100
AcDbCircle
 62
7
  6
CONTINUOUS
 10
12.9874972687
 20
19.0312264652
 40
0.01
100
AcDbArc
 50
0.0
 51
79.9999999997
  0
ARC
  5
3F7
100
AcDbEntity
  8
0
100
AcDbCircle
 62
7
  6
CONTINUOUS
 10
13.0074972687
 20
19.0236382191
 40
0.01
100
AcDbArc
 50
180.0
 51
259.9999999997
  0
ARC
  5
3F8
100
AcDbEntity
  8
0
100
AcDbCircle
 62
7
  6
CONTINUOUS
 10
13.1824972687
 20
18.9684107588
 40
0.01
100
AcDbArc
 50
180.0
 51
259.9999999997
  0
ARC
  5
3F9
100
AcDbEntity
  8
0
100
AcDbCircle
 62
7
  6
CONTINUOUS
 10
13.1624972687
 20
18.9759990049
 40
0.01
100
AcDbArc
 50
0.0
 51
79.9999999997
  0
ARC
  5
3FA
100
AcDbEntity
  8
0
100
AcDbCircle
 62
7
  6
CONTINUOUS
 10
12.8920355164
 20
19.5585756231
 40
0.4991068177
100
AcDbArc
 50
28.329851393
 51
33.9036623294
  0
ARC
  5
3FB
100
AcDbEntity
  8
0
100
AcDbCircle
 62
7
  6
CONTINUOUS
 10
12.9022737983
 20
19.563865556
 40
0.4875499451
100
AcDbArc
 50
24.2407501903
 51
28.379588737
  0
ARC
  5
3FC
100
AcDbEntity
  8
0
100
AcDbCircle
 62
7
  6
CONTINUOUS
 10
12.9038193109
 20
19.5648902804
 40
0.4857377657
100
AcDbArc
 50
24.1525093743
 51
28.3338159734
  0
ARC
  5
3FD
100
AcDbEntity
  8
0
100
AcDbCircle
 62
7
  6
CONTINUOUS
 10
12.9159060294
 20
19.5620655532
 40
0.4771362123
100
AcDbArc
 50
35.1559954921
 51
37.0515165341
  0
ARC
  5
3FE
100
AcDbEntity
  8
0
100
AcDbCircle
 62
7
  6
CONTINUOUS
 10
12.9136768696
 20
19.5690112133
 40
0.4750395621
100
AcDbArc
 50
22.0610978995
 51
24.1071205902
  0
ARC
  5
3FF
100
AcDbEntity
  8
0
100
AcDbCircle
 62
7
  6
CONTINUOUS
 10
12.9177385026
 20
19.5633258064
 40
0.4749123464
100
AcDbArc
 50
31.887164348
 51
35.1589849924
  0
ARC
  5
400
100
AcDbEntity
  8
0
100
AcDbCircle
 62
7
  6
CONTINUOUS
 10
12.9164481131
 20
19.5701884567
 40
0.4720290542
100
AcDbArc
 50
20.1030704895
 51
24.0763863022
  0
ARC
  5
401
100
AcDbEntity
  8
0
100
AcDbCircle
 62
7
  6
CONTINUOUS
 10
12.9217239162
 20
19.5657941231
 40
0.4702244879
100
AcDbArc
 50
29.2808855877
 51
31.888317536
  0
ARC
  5
402
100
AcDbEntity
  8
0
100
AcDbCircle
 62
7
  6
CONTINUOUS
 10
12.9311422412
 20
19.5709530794
 40
0.4594863295
100
AcDbArc
 50
24.8802373783
 51
29.2941797724
  0
ARC
  5
403
100
AcDbEntity
  8
0
100
AcDbCircle
 62
7
  6
CONTINUOUS
 10
12.9364826446
 20
19.5735671549
 40
0.4535417889
100
AcDbArc
 50
20.3612253245
 51
24.8644928099
  0
ARC
  5
404
100
AcDbEntity
  8
0
100
AcDbCircle
 62
7
  6
CONTINUOUS
 10
13.0949753446
 20
20.8237420093
 40
0.0849999531
100
AcDbArc
 50
5.1070408717
 51
95.0614800751
  0
ARC
  5
405
100
AcDbEntity
  8
0
100
AcDbCircle
 62
7
  6
CONTINUOUS
 10
13.0750448825
 20
20.8219799048
 40
0.0849912054
100
AcDbArc
 50
95.0645018105
 51
180.0016151876
  0
ARC
  5
406
100
AcDbEntity
  8
0
100
AcDbCircle
 62
9
  6
CONTINUOUS
 10
13.0950536481
 20
20.8187123973
 40
0.084940704
100
AcDbArc
 50
5.1646329295
 51
95.1299370546
  0
ARC
  5
407
100
AcDbEntity
  8
0
100
AcDbCircle
 62
7
  6
CONTINUOUS
 10
13.0749104248
 20
20.817009831
 40
0.0848587779
100
AcDbArc
 50
94.9846702799
 51
179.9427934326
  0
ARC
  5
408
100
AcDbEntity
  8
0
100
AcDbCircle
 62
9
  6
CONTINUOUS
 10
13.0952493723
 20
20.8237079008
 40
0.0847284145
100
AcDbArc
 50
5.1007463736
 51
95.0703096994
  0
ARC
  5
409
100
AcDbEntity
  8
0
100
AcDbCircle
 62
9
  6
CONTINUOUS
 10
13.0746704452
 20
20.8219921525
 40
0.0846115284
100
AcDbArc
 50
95.0470330977
 51
180.0099196875
  0
ARC
  5
40A
100
AcDbEntity
  8
0
100
AcDbCircle
 62
9
  6
CONTINUOUS
 10
13.4932151646
 20
18.7678481326
 40
0.2927642987
100
AcDbArc
 50
188.202562145
 51
192.4874696097
  0
ARC
  5
40B
100
AcDbEntity
  8
0
100
AcDbCircle
 62
7
  6
CONTINUOUS
 10
13.5983634104
 20
19.9817579458
 40
0.768
100
AcDbArc
 50
139.355686794
 51
173.5781868591
  0
ARC
  5
40C
100
AcDbEntity
  8
0
100
AcDbCircle
 62
9
  6
CONTINUOUS
 10
13.544381216
 20
20.5182218691
 40
0.6806122072
100
AcDbArc
 50
248.3878353523
 51
249.6210893716
  0
ARC
  5
40D
100
AcDbEntity
  8
0
100
AcDbCircle
 62
7
  6
CONTINUOUS
 10
13.6267296592
 20
20.3635610894
 40
0.5943937044
100
AcDbArc
 50
228.2558476775
 51
228.6639882772
  0
ARC
  5
40E
100
AcDbEntity
  8
0
100
AcDbCircle
 62
7
  6
CONTINUOUS
 10
13.6256788428
 20
20.3628905004
 40
0.593186622
100
AcDbArc
 50
185.0934832322
 51
228.2884520288
  0
ARC
  5
40F
100
AcDbEntity
  8
0
100
AcDbCircle
 62
9
  6
CONTINUOUS
 10
13.5189648372
 20
20.3818904077
 40
0.5433967624
100
AcDbArc
 50
251.8380906145
 51
252.7016406986
  0
ARC
  5
410
100
AcDbEntity
  8
0
100
AcDbCircle
 62
9
  6
CONTINUOUS
 10
13.6257971096
 20
20.3570213592
 40
0.5083154615
100
AcDbArc
 50
185.1002928094
 51
237.7914195808
  0
ARC
  5
411
100
AcDbEntity
  8
0
100
AcDbCircle
 62
9
  6
CONTINUOUS
 10
13.6260538728
 20
20.357103733
 40
0.4885851841
100
AcDbArc
 50
185.1088275724
 51
236.367190388
  0
ARC
  5
412
100
AcDbEntity
  8
0
100
AcDbCircle
 62
7
  6
CONTINUOUS
 10
13.6566311269
 20
19.9817579458
 40
0.768
100
AcDbArc
 50
6.4218131409
 51
40.644313206
  0
ARC
  5
413
100
AcDbEntity
  8
0
100
AcDbCircle
 62
9
  6
CONTINUOUS
 10
13.7196475314
 20
20.4946912359
 40
0.6554087194
100
AcDbArc
 50
290.3365727475
 51
291.5569067949
  0
ARC
  5
414
100
AcDbEntity
  8
0
100
AcDbCircle
 62
7
  6
CONTINUOUS
 10
13.6282650533
 20
20.3635608142
 40
0.5943933718
100
AcDbArc
 50
311.3272151015
 51
311.744065981
  0
ARC
  5
415
100
AcDbEntity
  8
0
100
AcDbCircle
 62
7
  6
CONTINUOUS
 10
13.6292328546
 20
20.3629328392
 40
0.5932769471
100
AcDbArc
 50
311.7147079575
 51
354.9031543142
  0
ARC
  5
416
100
AcDbEntity
  8
0
100
AcDbCircle
 62
9
  6
CONTINUOUS
 10
13.7360163023
 20
20.3819325562
 40
0.5434409872
100
AcDbArc
 50
287.2982449661
 51
288.1618664376
  0
ARC
  5
417
100
AcDbEntity
  8
0
100
AcDbCircle
 62
7
  6
CONTINUOUS
 10
13.6274972687
 20
20.3997579458
 40
0.54
100
AcDbArc
 50
35.642329588
 51
144.2885993734
  0
ARC
  5
418
100
AcDbEntity
  8
0
100
AcDbCircle
 62
9
  6
CONTINUOUS
 10
13.6292026025
 20
20.3570185087
 40
0.5083097383
100
AcDbArc
 50
302.208562842
 51
354.8999753669
  0
ARC
  5
419
100
AcDbEntity
  8
0
100
AcDbCircle
 62
9
  6
CONTINUOUS
 10
13.6289463988
 20
20.357100271
 40
0.4885787378
100
AcDbArc
 50
303.6324745883
 51
354.8915169259
  0
ARC
  5
41A
100
AcDbEntity
  8
0
100
AcDbCircle
 62
7
  6
CONTINUOUS
 10
13.6274972687
 20
20.3980256623
 40
0.45
100
AcDbArc
 50
307.2240652511
 51
232.7816773979
  0
ARC
  5
41B
100
AcDbEntity
  8
0
100
AcDbCircle
 62
7
  6
CONTINUOUS
 10
13.6274972687
 20
20.3997579458
 40
0.45
100
AcDbArc
 50
19.7362337178
 51
160.2637662822
  0
ARC
  5
41C
100
AcDbEntity
  8
0
100
AcDbCircle
 62
7
  6
CONTINUOUS
 10
13.6274972687
 20
20.3980256623
 40
0.4290186125
100
AcDbArc
 50
309.4716690468
 51
230.5345767392
  0
ARC
  5
41D
100
AcDbEntity
  8
0
100
AcDbCircle
 62
7
  6
CONTINUOUS
 10
13.6274972687
 20
20.3980256623
 40
0.4262436548
100
AcDbArc
 50
309.7787508711
 51
230.2132620092
  0
ARC
  5
41E
100
AcDbEntity
  8
0
100
AcDbCircle
 62
7
  6
CONTINUOUS
 10
13.6274972687
 20
20.3980256623
 40
0.4184602369
100
AcDbArc
 50
63.6555586134
 51
116.3444413866
  0
ARC
  5
41F
100
AcDbEntity
  8
0
100
AcDbCircle
 62
9
  6
CONTINUOUS
 10
13.6274972687
 20
20.3980256623
 40
0.4106539279
100
AcDbArc
 50
311.1953930252
 51
65.9480598959
  0
ARC
  5
420
100
AcDbEntity
  8
0
100
AcDbCircle
 62
9
  6
CONTINUOUS
 10
13.6274972687
 20
20.3980256623
 40
0.4106539279
100
AcDbArc
 50
114.0519401025
 51
228.8046069749
  0
ARC
  5
421
100
AcDbEntity
  8
0
100
AcDbCircle
 62
9
  6
CONTINUOUS
 10
13.6274972687
 20
20.3980256623
 40
0.3906653701
100
AcDbArc
 50
106.2804921621
 51
225.7982183496
  0
ARC
  5
422
100
AcDbEntity
  8
0
100
AcDbCircle
 62
9
  6
CONTINUOUS
 10
13.6274972687
 20
20.3980256623
 40
0.3906653701
100
AcDbArc
 50
314.2019388065
 51
73.7195078379
  0
ARC
  5
423
100
AcDbEntity
  8
0
100
AcDbCircle
 62
7
  6
CONTINUOUS
 10
13.6274972687
 20
20.3980256623
 40
0.27
100
AcDbArc
 50
0.0
 51
180.0
  0
ARC
  5
424
100
AcDbEntity
  8
0
100
AcDbCircle
 62
9
  6
CONTINUOUS
 10
1.0092239489
 20
21.9837788327
 40
13.2028142495
100
AcDbArc
 50
354.9122243463
 51
355.0549952705
  0
ARC
  5
425
100
AcDbEntity
  8
0
100
AcDbCircle
 62
9
  6
CONTINUOUS
 10
12.9721584801
 20
21.9714700106
 40
1.1648581658
100
AcDbArc
 50
273.4695299525
 51
275.0677022161
  0
ARC
  5
426
100
AcDbEntity
  8
0
100
AcDbCircle
 62
7
  6
CONTINUOUS
 10
14.1824972687
 20
15.8441563826
 40
1.0
100
AcDbArc
 50
163.1650193268
 51
196.4742498649
  0
ARC
  5
427
100
AcDbEntity
  8
0
100
AcDbCircle
 62
7
  6
CONTINUOUS
 10
14.4477201364
 20
11.9118018699
 40
0.2502347192
100
AcDbArc
 50
141.890204353
 51
179.7317050736
  0
ARC
  5
428
100
AcDbEntity
  8
0
100
AcDbCircle
 62
7
  6
CONTINUOUS
 10
14.2040329943
 20
14.7995212499
 40
0.14
100
AcDbArc
 50
193.8868909235
 51
245.0
  0
ARC
  5
429
100
AcDbEntity
  8
0
100
AcDbCircle
 62
7
  6
CONTINUOUS
 10
14.1524972687
 20
12.1434193631
 40
0.125
100
AcDbArc
 50
321.8715656423
 51
90.0
  0
ARC
  5
42A
100
AcDbEntity
  8
0
100
AcDbCircle
 62
7
  6
CONTINUOUS
 10
14.2068279773
 20
13.527825175
 40
0.0511811024
100
AcDbArc
 50
0.0
 51
81.3638693749
  0
ARC
  5
42B
100
AcDbEntity
  8
0
100
AcDbCircle
 62
7
  6
CONTINUOUS
 10
14.2068279773
 20
12.5916907165
 40
0.0511811024
100
AcDbArc
 50
278.6361306251
 51
360.0
  0
ARC
  5
42C
100
AcDbEntity
  8
0
100
AcDbCircle
 62
7
  6
CONTINUOUS
 10
14.0774972687
 20
16.1482534066
 40
0.05
100
AcDbArc
 50
122.5789703931
 51
196.8349806732
  0
ARC
  5
42D
100
AcDbEntity
  8
0
100
AcDbCircle
 62
7
  6
CONTINUOUS
 10
14.0793919143
 20
15.5463927638
 40
0.05
100
AcDbArc
 50
163.5257501351
 51
246.5041233937
  0
ARC
  5
42E
100
AcDbEntity
  8
0
100
AcDbCircle
 62
7
  6
CONTINUOUS
 10
14.0474972687
 20
15.4730256623
 40
0.03
100
AcDbArc
 50
344.7503068298
 51
66.5041233935
  0
ARC
  5
42F
100
AcDbEntity
  8
0
100
AcDbCircle
 62
7
  6
CONTINUOUS
 10
14.1909972687
 20
14.6180256623
 40
0.03
100
AcDbArc
 50
0.0
 51
65.0
  0
ARC
  5
430
100
AcDbEntity
  8
0
100
AcDbCircle
 62
7
  6
CONTINUOUS
 10
14.2520516856
 20
13.8983406229
 40
0.0196850394
100
AcDbArc
 50
15.0181637319
 51
90.0
  0
ARC
  5
431
100
AcDbEntity
  8
0
100
AcDbCircle
 62
7
  6
CONTINUOUS
 10
14.1362190214
 20
12.2881044025
 40
0.0196850394
100
AcDbArc
 50
270.0
 51
336.7519347987
  0
ARC
  5
432
100
AcDbEntity
  8
0
100
AcDbCircle
 62
7
  6
CONTINUOUS
 10
14.0424972687
 20
16.2030256623
 40
0.015
100
AcDbArc
 50
302.578970393
 51
58.5191941558
  0
ARC
  5
433
100
AcDbEntity
  8
0
100
AcDbCircle
 62
7
  6
CONTINUOUS
 10
14.210744511
 20
18.5133359545
 40
0.4889697613
100
AcDbArc
 50
99.4015800438
 51
101.0539436121
  0
ARC
  5
434
100
AcDbEntity
  8
0
100
AcDbCircle
 62
7
  6
CONTINUOUS
 10
14.1599928786
 20
16.3949053281
 40
0.2099956099
100
AcDbArc
 50
126.749143685
 51
238.5191941557
  0
ARC
  5
435
100
AcDbEntity
  8
0
100
AcDbCircle
 62
7
  6
CONTINUOUS
 10
14.1065656577
 20
17.8569823226
 40
0.2090683891
100
AcDbArc
 50
147.0000000001
 51
237.3950799739
  0
ARC
  5
436
100
AcDbEntity
  8
0
100
AcDbCircle
 62
7
  6
CONTINUOUS
 10
14.0299972687
 20
18.1780256623
 40
0.03
100
AcDbArc
 50
327.0000000007
 51
90.0
  0
ARC
  5
437
100
AcDbEntity
  8
0
100
AcDbCircle
 62
7
  6
CONTINUOUS
 10
14.0228575995
 20
18.2280256623
 40
0.02
100
AcDbArc
 50
270.0
 51
358.958373324
  0
ARC
  5
438
100
AcDbEntity
  8
0
100
AcDbCircle
 62
7
  6
CONTINUOUS
 10
14.3183913379
 20
19.5735697099
 40
0.4534301876
100
AcDbArc
 50
155.193624997
 51
159.6330670713
  0
ARC
  5
439
100
AcDbEntity
  8
0
100
AcDbCircle
 62
7
  6
CONTINUOUS
 10
14.1600188463
 20
20.8237422975
 40
0.0849995914
100
AcDbArc
 50
84.9420871768
 51
174.914130136
  0
ARC
  5
43A
100
AcDbEntity
  8
0
100
AcDbCircle
 62
7
  6
CONTINUOUS
 10
14.1799450477
 20
20.8219807245
 40
0.0849947662
100
AcDbArc
 50
0.0179041357
 51
84.9384599978
  0
ARC
  5
43B
100
AcDbEntity
  8
0
100
AcDbCircle
 62
9
  6
CONTINUOUS
 10
14.15994089
 20
20.8187123979
 40
0.084940704
100
AcDbArc
 50
84.8700634299
 51
174.8353675541
  0
ARC
  5
43C
100
AcDbEntity
  8
0
100
AcDbCircle
 62
7
  6
CONTINUOUS
 10
14.1800841172
 20
20.8170098332
 40
0.0848587836
100
AcDbArc
 50
0.0572051225
 51
85.0153327687
  0
ARC
  5
43D
100
AcDbEntity
  8
0
100
AcDbCircle
 62
9
  6
CONTINUOUS
 10
14.1801523243
 20
20.8219033955
 40
0.0848001927
100
AcDbArc
 50
0.0548681727
 51
84.9533596737
  0
ARC
  5
43E
100
AcDbEntity
  8
0
100
AcDbCircle
 62
9
  6
CONTINUOUS
 10
14.1597450747
 20
20.8237083664
 40
0.0847282831
100
AcDbArc
 50
84.9308217575
 51
174.899561835
  0
ARC
  5
43F
100
AcDbEntity
  8
0
100
AcDbCircle
 62
7
  6
CONTINUOUS
 10
14.2474972687
 20
19.0236382191
 40
0.01
100
AcDbArc
 50
280.0000000003
 51
360.0
  0
ARC
  5
440
100
AcDbEntity
  8
0
100
AcDbCircle
 62
7
  6
CONTINUOUS
 10
14.2674972687
 20
19.0312264652
 40
0.01
100
AcDbArc
 50
100.0000000003
 51
180.0
  0
ARC
  5
441
100
AcDbEntity
  8
0
100
AcDbCircle
 62
7
  6
CONTINUOUS
 10
14.0924972687
 20
18.9759990049
 40
0.01
100
AcDbArc
 50
100.0000000003
 51
180.0
  0
ARC
  5
442
100
AcDbEntity
  8
0
100
AcDbCircle
 62
7
  6
CONTINUOUS
 10
14.0724972687
 20
18.9684107588
 40
0.01
100
AcDbArc
 50
280.0000000003
 51
360.0
  0
ARC
  5
443
100
AcDbEntity
  8
0
100
AcDbCircle
 62
9
  6
CONTINUOUS
 10
14.455181699
 20
19.5446231134
 40
0.6365964425
100
AcDbArc
 50
149.7247666827
 51
151.2365306744
  0
ARC
  5
444
100
AcDbEntity
  8
0
100
AcDbCircle
 62
7
  6
CONTINUOUS
 10
14.3660993344
 20
19.5566855501
 40
0.5027350381
100
AcDbArc
 50
146.1146992743
 51
151.6136076037
  0
ARC
  5
445
100
AcDbEntity
  8
0
100
AcDbCircle
 62
7
  6
CONTINUOUS
 10
14.3527714221
 20
19.5638372246
 40
0.4876096407
100
AcDbArc
 50
151.6083757375
 51
155.7417256903
  0
ARC
  5
446
100
AcDbEntity
  8
0
100
AcDbCircle
 62
7
  6
CONTINUOUS
 10
14.3511289948
 20
19.5649168663
 40
0.4856828083
100
AcDbArc
 50
151.6781794859
 51
155.8652518768
  0
ARC
  5
447
100
AcDbEntity
  8
0
100
AcDbCircle
 62
7
  6
CONTINUOUS
 10
14.3391067162
 20
19.562061936
 40
0.4771509076
100
AcDbArc
 50
142.9520042215
 51
144.8404591061
  0
ARC
  5
448
100
AcDbEntity
  8
0
100
AcDbCircle
 62
7
  6
CONTINUOUS
 10
14.3421273648
 20
19.5690551931
 40
0.4757759542
100
AcDbArc
 50
155.9413303497
 51
156.5261244106
  0
ARC
  5
449
100
AcDbEntity
  8
0
100
AcDbCircle
 62
7
  6
CONTINUOUS
 10
14.3375071642
 20
19.5631660756
 40
0.4752057403
100
AcDbArc
 50
144.8400960389
 51
148.1117619029
  0
ARC
  5
44A
100
AcDbEntity
  8
0
100
AcDbCircle
 62
7
  6
CONTINUOUS
 10
14.3395899918
 20
19.5702243675
 40
0.472984172
100
AcDbArc
 50
158.0034799018
 51
159.59062238
  0
ARC
  5
44B
100
AcDbEntity
  8
0
100
AcDbCircle
 62
7
  6
CONTINUOUS
 10
14.3383573467
 20
19.5702665058
 40
0.4718265861
100
AcDbArc
 50
155.8674925346
 51
159.5432888055
  0
ARC
  5
44C
100
AcDbEntity
  8
0
100
AcDbCircle
 62
7
  6
CONTINUOUS
 10
14.3336086168
 20
19.5655811082
 40
0.4706197863
100
AcDbArc
 50
148.1106776155
 51
150.6774520314
  0
ARC
  5
44D
100
AcDbEntity
  8
0
100
AcDbCircle
 62
7
  6
CONTINUOUS
 10
14.3252041104
 20
19.5702278189
 40
0.461016485
100
AcDbArc
 50
150.6694304607
 51
155.1718486902
  0
ARC
  5
44E
100
AcDbEntity
  8
0
100
AcDbCircle
 62
7
  6
CONTINUOUS
 10
14.6174972687
 20
19.1807823535
 40
0.05
100
AcDbArc
 50
0.0
 51
40.9058661424
  0
ARC
  5
44F
100
AcDbEntity
  8
0
100
AcDbCircle
 62
7
  6
CONTINUOUS
 10
14.4624972687
 20
19.0877579458
 40
0.01
100
AcDbArc
 50
90.0
 51
180.0
  0
ARC
  5
450
100
AcDbEntity
  8
0
100
AcDbCircle
 62
7
  6
CONTINUOUS
 10
14.4424972687
 20
19.082392219
 40
0.01
100
AcDbArc
 50
279.9999999993
 51
360.0
  0
ARC
  5
451
100
AcDbEntity
  8
0
100
AcDbCircle
 62
7
  6
CONTINUOUS
 10
15.0938372778
 20
14.7521720331
 40
4.3676032692
100
AcDbArc
 50
99.8384512132
 51
99.9922162076
  0
ARC
  5
452
100
AcDbEntity
  8
0
100
AcDbCircle
 62
7
  6
CONTINUOUS
 10
15.0655308429
 20
14.9139526696
 40
4.2033650598
100
AcDbArc
 50
99.9948633872
 51
100.154132203
  0
ARC
  5
453
100
AcDbEntity
  8
0
100
AcDbCircle
 62
7
  6
CONTINUOUS
 10
15.4174972687
 20
15.0995286744
 40
1.39
100
AcDbArc
 50
164.7503068292
 51
193.8868909235
  0
ARC
  5
454
100
AcDbEntity
  8
0
100
AcDbCircle
 62
7
  6
CONTINUOUS
 10
15.0929697096
 20
13.8717597767
 40
0.188
100
AcDbArc
 50
90.2528672439
 51
180.0
  0
ARC
  5
455
100
AcDbEntity
  8
0
100
AcDbCircle
 62
7
  6
CONTINUOUS
 10
15.0929697096
 20
12.2477561149
 40
0.188
100
AcDbArc
 50
180.0
 51
269.7471327561
  0
ARC
  5
456
100
AcDbEntity
  8
0
100
AcDbCircle
 62
7
  6
CONTINUOUS
 10
15.2799697096
 20
12.0677579458
 40
0.188
100
AcDbArc
 50
182.4388546909
 51
270.0
  0
ARC
  5
457
100
AcDbEntity
  8
0
100
AcDbCircle
 62
7
  6
CONTINUOUS
 10
15.2799697096
 20
14.0517579458
 40
0.188
100
AcDbArc
 50
90.0
 51
177.5611453091
  0
ARC
  5
458
100
AcDbEntity
  8
0
100
AcDbCircle
 62
7
  6
CONTINUOUS
 10
15.2508462975
 20
19.7295200028
 40
0.788
100
AcDbArc
 50
186.4218131409
 51
220.9058661425
  0
ARC
  5
459
100
AcDbEntity
  8
0
100
AcDbCircle
 62
9
  6
CONTINUOUS
 10
14.0133692605
 20
55.1860990617
 40
43.1210600526
100
AcDbArc
 50
269.8464216431
 51
269.9915060434
  0
ARC
  5
45A
100
AcDbEntity
  8
0
100
AcDbCircle
 62
9
  6
CONTINUOUS
 10
13.9486077595
 20
40.3264331429
 40
28.4153725746
100
AcDbArc
 50
269.8997603969
 51
270.0500052246
  0
ARC
  5
45B
100
AcDbEntity
  8
0
100
AcDbCircle
 62
9
  6
CONTINUOUS
 10
26.5624331689
 20
22.0115744997
 40
13.5206941574
100
AcDbArc
 50
184.9466830469
 51
185.0860973364
  0
ARC
  5
45C
100
AcDbEntity
  8
0
100
AcDbCircle
 62
9
  6
CONTINUOUS
 10
14.2795220129
 20
21.9270693634
 40
1.1203385132
100
AcDbArc
 50
264.900541772
 51
266.5622260593
  0
SPLINE
  5
45D
100
AcDbEntity
  8
0
100
AcDbSpline
 62
7
  6
CONTINUOUS
 70
0
 71
3
 72
13
 73
9
 74
0
 42
0.0000001
 43
0.0000001
 44
0.0000000001
 40
0.0
 40
0.0
 40
0.0
 40
0.0
 40
0.057459502
 40
0.1427119722
 40
0.2523214702
 40
0.3821857631
 40
0.68245523
 40
1.0
 40
1.0
 40
1.0
 40
1.0
 10
12.9653949299
 20
19.0499498134
 30
0.0
 10
12.9648821412
 20
19.0501326004
 30
0.0
 10
12.9635792472
 20
19.0505005757
 30
0.0
 10
12.9612589604
 20
19.0510740044
 30
0.0
 10
12.9582544844
 20
19.0517385689
 30
0.0
 10
12.9532448696
 20
19.0527651735
 30
0.0
 10
12.946278886
 20
19.0540554448
 30
0.0
 10
12.9405046141
 20
19.0550166634
 30
0.0
 10
12.9375321942
 20
19.0554814357
 30
0.0
  0
LINE
  5
45E
100
AcDbEntity
  8
0
100
AcDbLine
 62
7
  6
CONTINUOUS
 10
12.9375321942
 20
19.0554814357
 11
12.926967251
 21
19.0569761795
  0
LINE
  5
45F
100
AcDbEntity
  8
0
100
AcDbLine
 62
7
  6
CONTINUOUS
 10
12.926967251
 20
19.0569761795
 11
12.9209225267
 21
19.05751465
  0
LINE
  5
460
100
AcDbEntity
  8
0
100
AcDbLine
 62
7
  6
CONTINUOUS
 10
14.2888776996
 20
19.0495503934
 11
14.290381174
 21
19.0502008469
  0
SPLINE
  5
461
100
AcDbEntity
  8
0
100
AcDbSpline
 62
7
  6
CONTINUOUS
 70
0
 71
3
 72
11
 73
7
 74
0
 42
0.0000001
 43
0.0000001
 44
0.0000000001
 40
0.0
 40
0.0
 40
0.0
 40
0.0
 40
0.1614423903
 40
0.3977473483
 40
0.6864523516
 40
1.0
 40
1.0
 40
1.0
 40
1.0
 10
14.290381174
 20
19.0502008469
 30
0.0
 10
14.2915637348
 20
19.050553381
 30
0.0
 10
14.2945228665
 20
19.0512618987
 30
0.0
 10
14.2996540793
 20
19.0523542983
 30
0.0
 10
14.3059518964
 20
19.0535501705
 30
0.0
 10
14.310486603
 20
19.0543424605
 30
0.0
 10
14.3128505912
 20
19.0547365449
 30
0.0
  0
LINE
  5
462
100
AcDbEntity
  8
0
100
AcDbLine
 62
7
  6
CONTINUOUS
 10
14.3128505912
 20
19.0547365449
 11
14.3262862504
 21
19.0567565862
  0
LINE
  5
463
100
AcDbEntity
  8
0
100
AcDbLine
 62
7
  6
CONTINUOUS
 10
14.3262862504
 20
19.0567565862
 11
14.3340720106
 21
19.05751465
  0
SPLINE
  5
464
100
AcDbEntity
  8
0
100
AcDbSpline
 62
7
  6
CONTINUOUS
 70
0
 71
3
 72
15
 73
11
 74
0
 42
0.0000001
 43
0.0000001
 44
0.0000000001
 40
0.0
 40
0.0
 40
0.0
 40
0.0
 40
0.0108436962
 40
0.0281843414
 40
0.086922513
 40
0.1774632609
 40
0.2975152157
 40
0.444260116
 40
0.6135329659
 40
1.0
 40
1.0
 40
1.0
 40
1.0
 10
14.2180872288
 20
19.0499657156
 30
0.0
 10
14.2180834088
 20
19.0500335368
 30
0.0
 10
14.2181759667
 20
19.0502045376
 30
0.0
 10
14.2186122144
 20
19.0505281914
 30
0.0
 10
14.219574974
 20
19.0509593928
 30
0.0
 10
14.2211684033
 20
19.0515036305
 30
0.0
 10
14.2233253654
 20
19.052111784
 30
0.0
 10
14.2259789067
 20
19.0527593335
 30
0.0
 10
14.2302798262
 20
19.0536935057
 30
0.0
 10
14.233703508
 20
19.0543293036
 30
0.0
 10
14.2360899759
 20
19.0547365449
 30
0.0
  0
SPLINE
  5
465
100
AcDbEntity
  8
0
100
AcDbSpline
 62
7
  6
CONTINUOUS
 70
0
 71
3
 72
9
 73
5
 74
0
 42
0.0000001
 43
0.0000001
 44
0.0000000001
 40
0.0
 40
0.0
 40
0.0
 40
0.0
 40
0.2524947202
 40
1.0
 40
1.0
 40
1.0
 40
1.0
 10
14.2360899759
 20
19.0547365449
 30
0.0
 10
14.2372874093
 20
19.0549408821
 30
0.0
 10
14.2420360687
 20
19.0557126836
 30
0.0
 10
14.2468052499
 20
19.0563615159
 30
0.0
 10
14.2503797042
 20
19.0567565862
 30
0.0
  0
LINE
  5
466
100
AcDbEntity
  8
0
100
AcDbLine
 62
7
  6
CONTINUOUS
 10
14.2503797042
 20
19.0567565862
 11
14.2563792773
 21
19.057313515
  0
LINE
  5
467
100
AcDbEntity
  8
0
100
AcDbLine
 62
7
  6
CONTINUOUS
 10
14.2563792773
 20
19.057313515
 11
14.2609948515
 21
19.05751465
  0
SPLINE
  5
468
100
AcDbEntity
  8
0
100
AcDbSpline
 62
7
  6
CONTINUOUS
 70
0
 71
3
 72
10
 73
6
 74
0
 42
0.0000001
 43
0.0000001
 44
0.0000000001
 40
0.0
 40
0.0
 40
0.0
 40
0.0
 40
0.3021916596
 40
0.5989549185
 40
1.0
 40
1.0
 40
1.0
 40
1.0
 10
14.2640760353
 20
19.0569873128
 30
0.0
 10
14.2640725181
 20
19.0571478828
 30
0.0
 10
14.2636689393
 20
19.0573082038
 30
0.0
 10
14.263193455
 20
19.057400277
 30
0.0
 10
14.2628111846
 20
19.0574433561
 30
0.0
 10
14.2625987339
 20
19.0574605699
 30
0.0
  0
LINE
  5
469
100
AcDbEntity
  8
0
100
AcDbLine
 62
7
  6
CONTINUOUS
 10
14.2625987339
 20
19.0574605699
 11
14.2609948515
 21
19.05751465
  0
SPLINE
  5
46A
100
AcDbEntity
  8
0
100
AcDbSpline
 62
7
  6
CONTINUOUS
 70
0
 71
3
 72
15
 73
11
 74
0
 42
0.0000001
 43
0.0000001
 44
0.0000000001
 40
0.0
 40
0.0
 40
0.0
 40
0.0
 40
0.0130699851
 40
0.0326822378
 40
0.0964944263
 40
0.1936239727
 40
0.3201276162
 40
0.4706039912
 40
0.6391702025
 40
1.0
 40
1.0
 40
1.0
 40
1.0
 10
14.1054792352
 20
19.0506245891
 30
0.0
 10
14.1054798386
 20
19.0507447633
 30
0.0
 10
14.1056331149
 20
19.0510319766
 30
0.0
 10
14.1063318413
 20
19.0515805521
 30
0.0
 10
14.1078670684
 20
19.0522626439
 30
0.0
 10
14.1103793411
 20
19.0530680302
 30
0.0
 10
14.113719554
 20
19.0539082765
 30
0.0
 10
14.1177310959
 20
19.054738983
 30
0.0
 10
14.1238936671
 20
19.0557951357
 30
0.0
 10
14.1287241932
 20
19.0564192205
 30
0.0
 10
14.1320247494
 20
19.0567565862
 30
0.0
  0
SPLINE
  5
46B
100
AcDbEntity
  8
0
100
AcDbSpline
 62
7
  6
CONTINUOUS
 70
0
 71
3
 72
9
 73
5
 74
0
 42
0.0000001
 43
0.0000001
 44
0.0000000001
 40
0.0
 40
0.0
 40
0.0
 40
0.0
 40
0.5420431694
 40
1.0
 40
1.0
 40
1.0
 40
1.0
 10
14.1320247494
 20
19.0567565862
 30
0.0
 10
14.1343160089
 20
19.0569907868
 30
0.0
 10
14.1385514922
 20
19.0573408317
 30
0.0
 10
14.1427999729
 20
19.05751465
 30
0.0
 10
14.1447458791
 20
19.05751465
 30
0.0
  0
SPLINE
  5
46C
100
AcDbEntity
  8
0
100
AcDbSpline
 62
7
  6
CONTINUOUS
 70
0
 71
3
 72
10
 73
6
 74
0
 42
0.0000001
 43
0.0000001
 44
0.0000000001
 40
0.0
 40
0.0
 40
0.0
 40
0.0
 40
0.3393110467
 40
0.6227752823
 40
1.0
 40
1.0
 40
1.0
 40
1.0
 10
14.1514814692
 20
19.056358849
 30
0.0
 10
14.1514820791
 20
19.056541997
 30
0.0
 10
14.1511735354
 20
19.0568188921
 30
0.0
 10
14.1506858779
 20
19.0569999454
 30
0.0
 10
14.1503352668
 20
19.0570928292
 30
0.0
 10
14.1501361939
 20
19.0571355899
 30
0.0
  0
SPLINE
  5
46D
100
AcDbEntity
  8
0
100
AcDbSpline
 62
7
  6
CONTINUOUS
 70
0
 71
3
 72
9
 73
5
 74
0
 42
0.0000001
 43
0.0000001
 44
0.0000000001
 40
0.0
 40
0.0
 40
0.0
 40
0.0
 40
0.4169709861
 40
1.0
 40
1.0
 40
1.0
 40
1.0
 10
14.1501361939
 20
19.0571355899
 30
0.0
 10
14.1494010871
 20
19.0572934904
 30
0.0
 10
14.1475990378
 20
19.0574704201
 30
0.0
 10
14.1457971858
 20
19.05751465
 30
0.0
 10
14.1447458791
 20
19.05751465
 30
0.0
  0
SPLINE
  5
46E
100
AcDbEntity
  8
0
100
AcDbSpline
 62
7
  6
CONTINUOUS
 70
0
 71
3
 72
15
 73
11
 74
0
 42
0.0000001
 43
0.0000001
 44
0.0000000001
 40
0.0
 40
0.0
 40
0.0
 40
0.0
 40
0.0361324866
 40
0.0637476331
 40
0.0987754268
 40
0.1909533823
 40
0.3111464349
 40
0.4567419863
 40
0.6237223832
 40
1.0
 40
1.0
 40
1.0
 40
1.0
 10
13.9587474
 20
19.0514814598
 30
0.0
 10
13.9587470528
 20
19.0517416566
 30
0.0
 10
13.9590722004
 20
19.0521574543
 30
0.0
 10
13.9596427141
 20
19.0525564385
 30
0.0
 10
13.9606328348
 20
19.05308866
 30
0.0
 10
13.9623019403
 20
19.0537139831
 30
0.0
 10
13.9647823202
 20
19.0544258178
 30
0.0
 10
13.9678245758
 20
19.0551067069
 30
0.0
 10
13.9727076312
 20
19.0559857134
 30
0.0
 10
13.9765912833
 20
19.0564829645
 30
0.0
 10
13.9792870805
 20
19.0567565862
 30
0.0
  0
SPLINE
  5
46F
100
AcDbEntity
  8
0
100
AcDbSpline
 62
7
  6
CONTINUOUS
 70
0
 71
3
 72
9
 73
5
 74
0
 42
0.0000001
 43
0.0000001
 44
0.0000000001
 40
0.0
 40
0.0
 40
0.0
 40
0.0
 40
0.5189046781
 40
1.0
 40
1.0
 40
1.0
 40
1.0
 10
13.9792870805
 20
19.0567565862
 30
0.0
 10
13.9816936481
 20
19.0570008512
 30
0.0
 10
13.986343012
 20
19.0573599459
 30
0.0
 10
13.991004589
 20
19.05751465
 30
0.0
 10
13.9932472687
 20
19.05751465
 30
0.0
  0
SPLINE
  5
470
100
AcDbEntity
  8
0
100
AcDbSpline
 62
7
  6
CONTINUOUS
 70
0
 71
3
 72
10
 73
6
 74
0
 42
0.0000001
 43
0.0000001
 44
0.0000000001
 40
0.0
 40
0.0
 40
0.0
 40
0.0
 40
0.3227177624
 40
0.6128286455
 40
1.0
 40
1.0
 40
1.0
 40
1.0
 10
14.0047473959
 20
19.0555354304
 30
0.0
 10
14.0047479465
 20
19.0559075843
 30
0.0
 10
14.0039889554
 20
19.0564058241
 30
0.0
 10
14.0029529662
 20
19.056729472
 30
0.0
 10
14.0021702083
 20
19.0568996898
 30
0.0
 10
14.0017303277
 20
19.0569761795
 30
0.0
  0
SPLINE
  5
471
100
AcDbEntity
  8
0
100
AcDbSpline
 62
7
  6
CONTINUOUS
 70
0
 71
3
 72
9
 73
5
 74
0
 42
0.0000001
 43
0.0000001
 44
0.0000000001
 40
0.0
 40
0.0
 40
0.0
 40
0.0
 40
0.4366891714
 40
1.0
 40
1.0
 40
1.0
 40
1.0
 10
14.0017303277
 20
19.0569761795
 30
0.0
 10
14.0005103723
 20
19.0571883145
 30
0.0
 10
13.9976795515
 20
19.0574448297
 30
0.0
 10
13.9948445747
 20
19.05751465
 30
0.0
 10
13.9932472687
 20
19.05751465
 30
0.0
  0
SPLINE
  5
472
100
AcDbEntity
  8
0
100
AcDbSpline
 62
7
  6
CONTINUOUS
 70
0
 71
3
 72
10
 73
6
 74
0
 42
0.0000001
 43
0.0000001
 44
0.0000000001
 40
0.0
 40
0.0
 40
0.0
 40
0.0
 40
0.3449411235
 40
0.6274073059
 40
1.0
 40
1.0
 40
1.0
 40
1.0
 10
13.2502493856
 20
19.0555352318
 30
0.0
 10
13.2502501421
 20
19.0558118913
 30
0.0
 10
13.2506964873
 20
19.0562319069
 30
0.0
 10
13.2514114089
 20
19.0565310805
 30
0.0
 10
13.2519228094
 20
19.0566846755
 30
0.0
 10
13.2522128668
 20
19.0567565862
 30
0.0
  0
SPLINE
  5
473
100
AcDbEntity
  8
0
100
AcDbSpline
 62
7
  6
CONTINUOUS
 70
0
 71
3
 72
10
 73
6
 74
0
 42
0.0000001
 43
0.0000001
 44
0.0000000001
 40
0.0
 40
0.0
 40
0.0
 40
0.0
 40
0.1846963925
 40
0.4175876315
 40
1.0
 40
1.0
 40
1.0
 40
1.0
 10
13.2522128668
 20
19.0567565862
 30
0.0
 10
13.2527853632
 20
19.0568985187
 30
0.0
 10
13.2541024698
 20
19.0571248387
 30
0.0
 10
13.2572803359
 20
19.057447005
 30
0.0
 10
13.2598873347
 20
19.05751465
 30
0.0
 10
13.2617472687
 20
19.05751465
 30
0.0
  0
SPLINE
  5
474
100
AcDbEntity
  8
0
100
AcDbSpline
 62
7
  6
CONTINUOUS
 70
0
 71
3
 72
14
 73
10
 74
0
 42
0.0000001
 43
0.0000001
 44
0.0000000001
 40
0.0
 40
0.0
 40
0.0
 40
0.0
 40
0.0355967164
 40
0.0633042001
 40
0.0985764768
 40
0.1921717703
 40
0.3147363813
 40
0.6293747209
 40
1.0
 40
1.0
 40
1.0
 40
1.0
 10
13.2962471742
 20
19.0514815799
 30
0.0
 10
13.2962463629
 20
19.0517656195
 30
0.0
 10
13.2958626466
 20
19.0522098425
 30
0.0
 10
13.2952249275
 20
19.0526346715
 30
0.0
 10
13.2941017469
 20
19.0532082699
 30
0.0
 10
13.2922095072
 20
19.0538744963
 30
0.0
 10
13.2881127149
 20
19.054967597
 30
0.0
 10
13.2817580547
 20
19.0560953419
 30
0.0
 10
13.2763232566
 20
19.0567217512
 30
0.0
 10
13.2733768504
 20
19.0569761795
 30
0.0
  0
SPLINE
  5
475
100
AcDbEntity
  8
0
100
AcDbSpline
 62
7
  6
CONTINUOUS
 70
0
 71
3
 72
9
 73
5
 74
0
 42
0.0000001
 43
0.0000001
 44
0.0000000001
 40
0.0
 40
0.0
 40
0.0
 40
0.0
 40
0.2617752805
 40
1.0
 40
1.0
 40
1.0
 40
1.0
 10
13.2733768504
 20
19.0569761795
 30
0.0
 10
13.2723645904
 20
19.0570635903
 30
0.0
 10
13.2684945356
 20
19.05735742
 30
0.0
 10
13.2646125364
 20
19.05751465
 30
0.0
 10
13.2617472687
 20
19.05751465
 30
0.0
  0
SPLINE
  5
476
100
AcDbEntity
  8
0
100
AcDbSpline
 62
7
  6
CONTINUOUS
 70
0
 71
3
 72
10
 73
6
 74
0
 42
0.0000001
 43
0.0000001
 44
0.0000000001
 40
0.0
 40
0.0
 40
0.0
 40
0.0
 40
0.3361483576
 40
0.622157874
 40
1.0
 40
1.0
 40
1.0
 40
1.0
 10
13.1035102097
 20
19.0563591215
 30
0.0
 10
13.1035087158
 20
19.0565473014
 30
0.0
 10
13.1038391376
 20
19.0568282455
 30
0.0
 10
13.104345917
 20
19.0570061836
 30
0.0
 10
13.1047123979
 20
19.057100612
 30
0.0
 10
13.104919497
 20
19.0571436667
 30
0.0
  0
SPLINE
  5
477
100
AcDbEntity
  8
0
100
AcDbSpline
 62
7
  6
CONTINUOUS
 70
0
 71
3
 72
9
 73
5
 74
0
 42
0.0000001
 43
0.0000001
 44
0.0000000001
 40
0.0
 40
0.0
 40
0.0
 40
0.0
 40
0.419443199
 40
1.0
 40
1.0
 40
1.0
 40
1.0
 10
13.104919497
 20
19.0571436667
 30
0.0
 10
13.1056515255
 20
19.057295851
 30
0.0
 10
13.1074322394
 20
19.0574711122
 30
0.0
 10
13.1092137842
 20
19.05751465
 30
0.0
 10
13.1102486582
 20
19.05751465
 30
0.0
  0
SPLINE
  5
478
100
AcDbEntity
  8
0
100
AcDbSpline
 62
7
  6
CONTINUOUS
 70
0
 71
3
 72
16
 73
12
 74
0
 42
0.0000001
 43
0.0000001
 44
0.0000000001
 40
0.0
 40
0.0
 40
0.0
 40
0.0
 40
0.0128627121
 40
0.0326187312
 40
0.060964738
 40
0.0980619336
 40
0.1970925556
 40
0.3259645707
 40
0.4785391971
 40
0.6472930476
 40
1.0
 40
1.0
 40
1.0
 40
1.0
 10
13.1495109206
 20
19.0506252481
 30
0.0
 10
13.1495106165
 20
19.0507533539
 30
0.0
 10
13.1493376879
 20
19.051061955
 30
0.0
 10
13.1488519664
 20
19.0514254904
 30
0.0
 10
13.148101464
 20
19.051829455
 30
0.0
 10
13.1465856001
 20
19.0524523904
 30
0.0
 10
13.1440577814
 20
19.0532272664
 30
0.0
 10
13.1403728704
 20
19.0541133198
 30
0.0
 10
13.1359715975
 20
19.054976726
 30
0.0
 10
13.1293444533
 20
19.0560507015
 30
0.0
 10
13.1241833989
 20
19.0566637162
 30
0.0
 10
13.1206845369
 20
19.0569761795
 30
0.0
  0
SPLINE
  5
479
100
AcDbEntity
  8
0
100
AcDbSpline
 62
7
  6
CONTINUOUS
 70
0
 71
3
 72
9
 73
5
 74
0
 42
0.0000001
 43
0.0000001
 44
0.0000000001
 40
0.0
 40
0.0
 40
0.0
 40
0.0
 40
0.5394470595
 40
1.0
 40
1.0
 40
1.0
 40
1.0
 10
13.1206845369
 20
19.0569761795
 30
0.0
 10
13.1188125352
 20
19.0571433573
 30
0.0
 10
13.1153370426
 20
19.0573956122
 30
0.0
 10
13.1118532402
 20
19.05751465
 30
0.0
 10
13.1102486582
 20
19.05751465
 30
0.0
  0
SPLINE
  5
47A
100
AcDbEntity
  8
0
100
AcDbSpline
 62
7
  6
CONTINUOUS
 70
0
 71
3
 72
10
 73
6
 74
0
 42
0.0000001
 43
0.0000001
 44
0.0000000001
 40
0.0
 40
0.0
 40
0.0
 40
0.0
 40
0.3094150997
 40
0.603802596
 40
1.0
 40
1.0
 40
1.0
 40
1.0
 10
12.9909289912
 20
19.0569858397
 30
0.0
 10
12.9909376039
 20
19.057134787
 30
0.0
 10
12.9912907088
 20
19.0572911067
 30
0.0
 10
12.9917261471
 20
19.057384583
 30
0.0
 10
12.9920670699
 20
19.0574287143
 30
0.0
 10
12.9922572359
 20
19.0574469829
 30
0.0
  0
LINE
  5
47B
100
AcDbEntity
  8
0
100
AcDbLine
 62
7
  6
CONTINUOUS
 10
12.9922572359
 20
19.0574469829
 11
12.9939996858
 21
19.05751465
  0
SPLINE
  5
47C
100
AcDbEntity
  8
0
100
AcDbSpline
 62
7
  6
CONTINUOUS
 70
0
 71
3
 72
14
 73
10
 74
0
 42
0.0000001
 43
0.0000001
 44
0.0000000001
 40
0.0
 40
0.0
 40
0.0
 40
0.0
 40
0.0302029755
 40
0.0873523932
 40
0.1739094949
 40
0.2893162463
 40
0.4322115284
 40
0.6001376865
 40
1.0
 40
1.0
 40
1.0
 40
1.0
 10
13.036918503
 20
19.0499638234
 30
0.0
 10
13.0369203252
 20
19.0500817928
 30
0.0
 10
13.0366438759
 20
19.05036459
 30
0.0
 10
13.0360679895
 20
19.0506701687
 30
0.0
 10
13.0351201699
 20
19.0510664822
 30
0.0
 10
13.0338461548
 20
19.0514888139
 30
0.0
 10
13.0322444043
 20
19.0519517365
 30
0.0
 10
13.0295558376
 20
19.0526412117
 30
0.0
 10
13.0273888291
 20
19.0531190984
 30
0.0
 10
13.0258590269
 20
19.053434634
 30
0.0
  0
LINE
  5
47D
100
AcDbEntity
  8
0
100
AcDbLine
 62
7
  6
CONTINUOUS
 10
13.0258590269
 20
19.053434634
 11
13.0142759493
 21
19.0554814357
  0
LINE
  5
47E
100
AcDbEntity
  8
0
100
AcDbLine
 62
7
  6
CONTINUOUS
 10
13.0142759493
 20
19.0554814357
 11
13.0025306736
 21
19.0569761795
  0
LINE
  5
47F
100
AcDbEntity
  8
0
100
AcDbLine
 62
7
  6
CONTINUOUS
 10
13.0025306736
 20
19.0569761795
 11
12.9986383454
 21
19.0573131962
  0
LINE
  5
480
100
AcDbEntity
  8
0
100
AcDbLine
 62
7
  6
CONTINUOUS
 10
12.9986383454
 20
19.0573131962
 11
12.9939996858
 21
19.05751465
  0
SPLINE
  5
481
100
AcDbEntity
  8
0
100
AcDbSpline
 62
7
  6
CONTINUOUS
 70
0
 71
3
 72
18
 73
14
 74
0
 42
0.0000001
 43
0.0000001
 44
0.0000000001
 40
0.0
 40
0.0
 40
0.0
 40
0.0
 40
0.0084042813
 40
0.0254101796
 40
0.051819123
 40
0.0873567998
 40
0.1315970578
 40
0.1840708258
 40
0.3114562414
 40
0.4636364284
 40
0.63411767
 40
0.8156027758
 40
1.0
 40
1.0
 40
1.0
 40
1.0
 10
13.1730425294
 20
18.990672693
 30
0.0
 10
13.1730449407
 20
18.9907477987
 30
0.0
 10
13.1728481965
 20
18.9909296996
 30
0.0
 10
13.1724550674
 20
18.9911257879
 30
0.0
 10
13.1717881367
 20
18.9913944147
 30
0.0
 10
13.1708903533
 20
18.991688315
 30
0.0
 10
13.1697534994
 20
18.992020858
 30
0.0
 10
13.1678169836
 20
18.9925328396
 30
0.0
 10
13.1649250593
 20
18.9932087043
 30
0.0
 10
13.1609867526
 20
18.9940345413
 30
0.0
 10
13.1565583135
 20
18.9948776338
 30
0.0
 10
13.1518336722
 20
18.9957010907
 30
0.0
 10
13.148603184
 20
18.9962178659
 30
0.0
 10
13.1469732883
 20
18.9964663744
 30
0.0
  0
LINE
  5
482
100
AcDbEntity
  8
0
100
AcDbLine
 62
7
  6
CONTINUOUS
 10
13.1469732883
 20
18.9964663744
 11
13.1357719441
 21
18.9979591777
  0
LINE
  5
483
100
AcDbEntity
  8
0
100
AcDbLine
 62
7
  6
CONTINUOUS
 10
13.1357719441
 20
18.9979591777
 11
13.1286028032
 21
18.9984961596
  0
LINE
  5
484
100
AcDbEntity
  8
0
100
AcDbLine
 62
7
  6
CONTINUOUS
 10
14.105640243
 20
18.990478674
 11
14.1076400442
 21
18.9911926372
  0
LINE
  5
485
100
AcDbEntity
  8
0
100
AcDbLine
 62
7
  6
CONTINUOUS
 10
14.1076400442
 20
18.9911926372
 11
14.1169928197
 21
18.9932339102
  0
LINE
  5
486
100
AcDbEntity
  8
0
100
AcDbLine
 62
7
  6
CONTINUOUS
 10
14.130869751
 20
18.9957377064
 11
14.1440118316
 21
18.9977450767
  0
LINE
  5
487
100
AcDbEntity
  8
0
100
AcDbLine
 62
7
  6
CONTINUOUS
 10
14.1440118316
 20
18.9977450767
 11
14.1511339653
 21
18.9984961596
  0
SPLINE
  5
488
100
AcDbEntity
  8
0
100
AcDbSpline
 62
7
  6
CONTINUOUS
 70
0
 71
3
 72
17
 73
13
 74
0
 42
0.0000001
 43
0.0000001
 44
0.0000000001
 40
0.0
 40
0.0
 40
0.0
 40
0.0
 40
0.0106627646
 40
0.0298097835
 40
0.0584696846
 40
0.0964553025
 40
0.1986048056
 40
0.3311391995
 40
0.4862813227
 40
0.6557937605
 40
0.8303869764
 40
1.0
 40
1.0
 40
1.0
 40
1.0
 10
14.0347274881
 20
18.9910615987
 30
0.0
 10
14.0347218242
 20
18.9911758937
 30
0.0
 10
14.0349493853
 20
18.9914621243
 30
0.0
 10
14.0354777276
 20
18.9917684773
 30
0.0
 10
14.0363241052
 20
18.9921553364
 30
0.0
 10
14.0380274788
 20
18.9927620972
 30
0.0
 10
14.0408509386
 20
18.9935522863
 30
0.0
 10
14.0449282424
 20
18.9944865281
 30
0.0
 10
14.0497445884
 20
18.9954300532
 30
0.0
 10
14.0550287933
 20
18.9963188943
 30
0.0
 10
14.060486123
 20
18.997106149
 30
0.0
 10
14.0641537899
 20
18.9975509052
 30
0.0
 10
14.06596373
 20
18.9977450767
 30
0.0
  0
SPLINE
  5
489
100
AcDbEntity
  8
0
100
AcDbSpline
 62
7
  6
CONTINUOUS
 70
0
 71
3
 72
9
 73
5
 74
0
 42
0.0000001
 43
0.0000001
 44
0.0000000001
 40
0.0
 40
0.0
 40
0.0
 40
0.0
 40
0.5658820468
 40
1.0
 40
1.0
 40
1.0
 40
1.0
 10
14.06596373
 20
18.9977450767
 30
0.0
 10
14.0680480763
 20
18.9979686867
 30
0.0
 10
14.0717374771
 20
18.9983033407
 30
0.0
 10
14.0754404065
 20
18.9984961596
 30
0.0
 10
14.0770485937
 20
18.9984961596
 30
0.0
  0
SPLINE
  5
48A
100
AcDbEntity
  8
0
100
AcDbSpline
 62
7
  6
CONTINUOUS
 70
0
 71
3
 72
13
 73
9
 74
0
 42
0.0000001
 43
0.0000001
 44
0.0000000001
 40
0.0
 40
0.0
 40
0.0
 40
0.0
 40
0.1198509663
 40
0.2440493942
 40
0.4979249524
 40
0.752964865
 40
0.8784517169
 40
1.0
 40
1.0
 40
1.0
 40
1.0
 10
6.2069297661
 20
9.1595111879
 30
0.0
 10
6.2120795728
 20
9.1612575693
 30
0.0
 10
6.2223038493
 20
9.1656390051
 30
0.0
 10
6.2416498395
 20
9.1773984261
 30
0.0
 10
6.2628856255
 20
9.1974620115
 30
0.0
 10
6.2766769593
 20
9.2232864067
 30
0.0
 10
6.2829713399
 20
9.2452304681
 30
0.0
 10
6.2844990361
 20
9.2563877765
 30
0.0
 10
6.284811974
 20
9.2618937644
 30
0.0
  0
SPLINE
  5
48B
100
AcDbEntity
  8
0
100
AcDbSpline
 62
7
  6
CONTINUOUS
 70
0
 71
3
 72
10
 73
6
 74
0
 42
0.0000001
 43
0.0000001
 44
0.0000000001
 40
0.0
 40
0.0
 40
0.0
 40
0.0
 40
0.3261239547
 40
0.6158327541
 40
1.0
 40
1.0
 40
1.0
 40
1.0
 10
13.2250226203
 20
18.9974863817
 30
0.0
 10
13.2250221382
 20
18.9976783098
 30
0.0
 10
13.2254026043
 20
18.9979428149
 30
0.0
 10
13.2259356186
 20
18.9981030682
 30
0.0
 10
13.2263323257
 20
18.9981889211
 30
0.0
 10
13.2265551629
 20
18.9982271236
 30
0.0
  0
LINE
  5
48C
100
AcDbEntity
  8
0
100
AcDbLine
 62
7
  6
CONTINUOUS
 10
13.2265551629
 20
18.9982271236
 11
13.230978698
 21
18.9984961596
  0
SPLINE
  5
48D
100
AcDbEntity
  8
0
100
AcDbSpline
 62
7
  6
CONTINUOUS
 70
0
 71
3
 72
15
 73
11
 74
0
 42
0.0000001
 43
0.0000001
 44
0.0000000001
 40
0.0
 40
0.0
 40
0.0
 40
0.0
 40
0.0124586102
 40
0.0321556028
 40
0.0981050104
 40
0.1983384512
 40
0.3284855606
 40
0.4820785414
 40
0.6510594282
 40
1.0
 40
1.0
 40
1.0
 40
1.0
 10
13.2710247054
 20
18.9914773412
 30
0.0
 10
13.2710241136
 20
18.9916056829
 30
0.0
 10
13.2708353296
 20
18.9919157658
 30
0.0
 10
13.2700129532
 20
18.9924968109
 30
0.0
 10
13.2682186563
 20
18.9932293382
 30
0.0
 10
13.2653024714
 20
18.9941079054
 30
0.0
 10
13.261447064
 20
18.9950161771
 30
0.0
 10
13.2568689902
 20
18.9959039677
 30
0.0
 10
13.2500381964
 20
18.9970040853
 30
0.0
 10
13.2447369565
 20
18.9976371648
 30
0.0
 10
13.2411567765
 20
18.9979591777
 30
0.0
  0
SPLINE
  5
48E
100
AcDbEntity
  8
0
100
AcDbSpline
 62
7
  6
CONTINUOUS
 70
0
 71
3
 72
9
 73
5
 74
0
 42
0.0000001
 43
0.0000001
 44
0.0000000001
 40
0.0
 40
0.0
 40
0.0
 40
0.0
 40
0.5439844925
 40
1.0
 40
1.0
 40
1.0
 40
1.0
 10
13.2411567765
 20
18.9979591777
 30
0.0
 10
13.2393156546
 20
18.9981247741
 30
0.0
 10
13.2359261735
 20
18.9983748068
 30
0.0
 10
13.2325283181
 20
18.9984961596
 30
0.0
 10
13.230978698
 20
18.9984961596
 30
0.0
  0
SPLINE
  5
48F
100
AcDbEntity
  8
0
100
AcDbSpline
 62
7
  6
CONTINUOUS
 70
0
 71
3
 72
13
 73
9
 74
0
 42
0.0000001
 43
0.0000001
 44
0.0000000001
 40
0.0
 40
0.0
 40
0.0
 40
0.0
 40
0.1203098419
 40
0.2451730329
 40
0.5000000695
 40
0.7548270667
 40
0.8796902146
 40
1.0
 40
1.0
 40
1.0
 40
1.0
 10
7.1149972687
 20
9.0661374571
 30
0.0
 10
7.1149972418
 20
9.0710396152
 30
0.0
 10
7.1141652137
 20
9.0810460349
 30
0.0
 10
7.109483166
 20
9.1009209741
 30
0.0
 10
7.0979963809
 20
9.1246270912
 30
0.0
 10
7.0792349368
 20
9.1431185579
 30
0.0
 10
7.0619164146
 20
9.1539353658
 30
0.0
 10
7.0527072481
 20
9.15793685
 30
0.0
 10
7.0480647713
 20
9.1595111879
 30
0.0
  0
SPLINE
  5
490
100
AcDbEntity
  8
0
100
AcDbSpline
 62
7
  6
CONTINUOUS
 70
0
 71
3
 72
13
 73
9
 74
0
 42
0.0000001
 43
0.0000001
 44
0.0000000001
 40
0.0
 40
0.0
 40
0.0
 40
0.0
 40
0.1203093095
 40
0.2451721992
 40
0.4999990731
 40
0.7548264725
 40
0.8796899372
 40
1.0
 40
1.0
 40
1.0
 40
1.0
 10
6.1399972687
 20
9.0661356446
 30
0.0
 10
6.1399972054
 20
9.0710378528
 30
0.0
 10
6.1408290697
 20
9.0810444007
 30
0.0
 10
6.1455108619
 20
9.1009196665
 30
0.0
 10
6.1569975112
 20
9.1246262926
 30
0.0
 10
6.1757591263
 20
9.1431181917
 30
0.0
 10
6.193077892
 20
9.1539352535
 30
0.0
 10
6.2022872105
 20
9.1579368233
 30
0.0
 10
6.2069297661
 20
9.1595111879
 30
0.0
  0
SPLINE
  5
491
100
AcDbEntity
  8
0
100
AcDbSpline
 62
7
  6
CONTINUOUS
 70
0
 71
3
 72
10
 73
6
 74
0
 42
0.0000001
 43
0.0000001
 44
0.0000000001
 40
0.0
 40
0.0
 40
0.0
 40
0.0
 40
0.240246672
 40
0.4892397956
 40
1.0
 40
1.0
 40
1.0
 40
1.0
 10
7.0480647713
 20
9.1595111879
 30
0.0
 10
7.0427206595
 20
9.1613234613
 30
0.0
 10
7.032116769
 20
9.1659002414
 30
0.0
 10
7.0121049143
 20
9.1782794375
 30
0.0
 10
6.9990809245
 20
9.1910416547
 30
0.0
 10
6.9920206161
 20
9.2007411386
 30
0.0
  0
SPLINE
  5
492
100
AcDbEntity
  8
0
100
AcDbSpline
 62
7
  6
CONTINUOUS
 70
0
 71
3
 72
9
 73
5
 74
0
 42
0.0000001
 43
0.0000001
 44
0.0000000001
 40
0.0
 40
0.0
 40
0.0
 40
0.0
 40
0.252697834
 40
1.0
 40
1.0
 40
1.0
 40
1.0
 10
13.9582928126
 20
19.8495553837
 30
0.0
 10
13.9629730102
 20
19.8557550912
 30
0.0
 10
13.9820890572
 20
19.8798330107
 30
0.0
 10
14.0035477103
 20
19.9020604629
 30
0.0
 10
14.0207212925
 20
19.9173176848
 30
0.0
  0
SPLINE
  5
493
100
AcDbEntity
  8
0
100
AcDbSpline
 62
7
  6
CONTINUOUS
 70
0
 71
3
 72
9
 73
5
 74
0
 42
0.0000001
 43
0.0000001
 44
0.0000000001
 40
0.0
 40
0.0
 40
0.0
 40
0.0
 40
0.2528543317
 40
1.0
 40
1.0
 40
1.0
 40
1.0
 10
13.2967018366
 20
19.8495608024
 30
0.0
 10
13.2920146972
 20
19.8557690658
 30
0.0
 10
13.2728811637
 20
19.8798644625
 30
0.0
 10
13.2514016028
 20
19.9021061201
 30
0.0
 10
13.234215204
 20
19.9173692571
 30
0.0
  0
SPLINE
  5
494
100
AcDbEntity
  8
0
100
AcDbSpline
 62
7
  6
CONTINUOUS
 70
0
 71
3
 72
9
 73
5
 74
0
 42
0.0000001
 43
0.0000001
 44
0.0000000001
 40
0.0
 40
0.0
 40
0.0
 40
0.0
 40
0.2592748654
 40
1.0
 40
1.0
 40
1.0
 40
1.0
 10
11.593507054
 20
13.5978309601
 30
0.0
 10
11.5925024124
 20
13.5974746933
 30
0.0
 10
11.5886617035
 20
13.596006635
 30
0.0
 10
11.5849609745
 20
13.594169598
 30
0.0
 10
11.5823450401
 20
13.5926105168
 30
0.0
  0
SPLINE
  5
495
100
AcDbEntity
  8
0
100
AcDbSpline
 62
7
  6
CONTINUOUS
 70
0
 71
3
 72
9
 73
5
 74
0
 42
0.0000001
 43
0.0000001
 44
0.0000000001
 40
0.0
 40
0.0
 40
0.0
 40
0.0
 40
0.2613139537
 40
1.0
 40
1.0
 40
1.0
 40
1.0
 10
11.5823450401
 20
13.5926105168
 30
0.0
 10
11.5813974467
 20
13.5920457568
 30
0.0
 10
11.5778321649
 20
13.589784135
 30
0.0
 10
11.5745158745
 20
13.5871275595
 30
0.0
 10
11.5722640981
 20
13.5849703619
 30
0.0
  0
SPLINE
  5
496
100
AcDbEntity
  8
0
100
AcDbSpline
 62
7
  6
CONTINUOUS
 70
0
 71
3
 72
9
 73
5
 74
0
 42
0.0000001
 43
0.0000001
 44
0.0000000001
 40
0.0
 40
0.0
 40
0.0
 40
0.0
 40
0.2393523267
 40
1.0
 40
1.0
 40
1.0
 40
1.0
 10
11.6617068172
 20
13.5849703619
 30
0.0
 10
11.6609772122
 20
13.5856693221
 30
0.0
 10
11.657845799
 20
13.5885017789
 30
0.0
 10
11.6543842014
 20
13.5909665623
 30
0.0
 10
11.6516259925
 20
13.5926104469
 30
0.0
  0
SPLINE
  5
497
100
AcDbEntity
  8
0
100
AcDbSpline
 62
7
  6
CONTINUOUS
 70
0
 71
3
 72
9
 73
5
 74
0
 42
0.0000001
 43
0.0000001
 44
0.0000000001
 40
0.0
 40
0.0
 40
0.0
 40
0.0
 40
0.2344541183
 40
1.0
 40
1.0
 40
1.0
 40
1.0
 10
11.6516259925
 20
13.5926104469
 30
0.0
 10
11.6499910348
 20
13.5935848769
 30
0.0
 10
11.6428213662
 20
13.5974059884
 30
0.0
 10
11.6349162034
 20
13.5998171191
 30
0.0
 10
11.62878551
 20
13.6008357953
 30
0.0
  0
SPLINE
  5
498
100
AcDbEntity
  8
0
100
AcDbSpline
 62
7
  6
CONTINUOUS
 70
0
 71
3
 72
9
 73
5
 74
0
 42
0.0000001
 43
0.0000001
 44
0.0000000001
 40
0.0
 40
0.0
 40
0.0
 40
0.0
 40
0.2583747116
 40
1.0
 40
1.0
 40
1.0
 40
1.0
 10
11.6169854576
 20
13.5912713447
 30
0.0
 10
11.6149368197
 20
13.5912713447
 30
0.0
 10
11.6070117619
 20
13.5909738133
 30
0.0
 10
11.5991213556
 20
13.5895281438
 30
0.0
 10
11.593507054
 20
13.5877795486
 30
0.0
  0
SPLINE
  5
499
100
AcDbEntity
  8
0
100
AcDbSpline
 62
7
  6
CONTINUOUS
 70
0
 71
3
 72
9
 73
5
 74
0
 42
0.0000001
 43
0.0000001
 44
0.0000000001
 40
0.0
 40
0.0
 40
0.0
 40
0.0
 40
0.2609124061
 40
1.0
 40
1.0
 40
1.0
 40
1.0
 10
11.593507054
 20
13.5877795486
 30
0.0
 10
11.5925042881
 20
13.5874672333
 30
0.0
 10
11.5886878369
 20
13.586186291
 30
0.0
 10
11.5849808916
 20
13.5845743001
 30
0.0
 10
11.5823450401
 20
13.5831945764
 30
0.0
  0
SPLINE
  5
49A
100
AcDbEntity
  8
0
100
AcDbSpline
 62
7
  6
CONTINUOUS
 70
0
 71
3
 72
9
 73
5
 74
0
 42
0.0000001
 43
0.0000001
 44
0.0000000001
 40
0.0
 40
0.0
 40
0.0
 40
0.0
 40
0.2583880373
 40
1.0
 40
1.0
 40
1.0
 40
1.0
 10
11.5823450401
 20
13.5831945764
 30
0.0
 10
11.5817628468
 20
13.5828898301
 30
0.0
 10
11.5795287316
 20
13.5816744619
 30
0.0
 10
11.5773719803
 20
13.5803160892
 30
0.0
 10
11.5758301942
 20
13.5792297575
 30
0.0
  0
SPLINE
  5
49B
100
AcDbEntity
  8
0
100
AcDbSpline
 62
7
  6
CONTINUOUS
 70
0
 71
3
 72
9
 73
5
 74
0
 42
0.0000001
 43
0.0000001
 44
0.0000000001
 40
0.0
 40
0.0
 40
0.0
 40
0.0
 40
0.2368112656
 40
1.0
 40
1.0
 40
1.0
 40
1.0
 10
11.6617068172
 20
13.5764844379
 30
0.0
 10
11.6609745612
 20
13.5771005459
 30
0.0
 10
11.6578089439
 20
13.579614189
 30
0.0
 10
11.6543583827
 20
13.581764251
 30
0.0
 10
11.6516259925
 20
13.583194515
 30
0.0
  0
SPLINE
  5
49C
100
AcDbEntity
  8
0
100
AcDbSpline
 62
7
  6
CONTINUOUS
 70
0
 71
3
 72
9
 73
5
 74
0
 42
0.0000001
 43
0.0000001
 44
0.0000000001
 40
0.0
 40
0.0
 40
0.0
 40
0.0
 40
0.239256379
 40
1.0
 40
1.0
 40
1.0
 40
1.0
 10
11.6516259925
 20
13.583194515
 30
0.0
 10
11.6507726841
 20
13.5836411775
 30
0.0
 10
11.6471627317
 20
13.5854242335
 30
0.0
 10
11.6433873506
 20
13.5868690361
 30
0.0
 10
11.6404634543
 20
13.5877796753
 30
0.0
  0
SPLINE
  5
49D
100
AcDbEntity
  8
0
100
AcDbSpline
 62
7
  6
CONTINUOUS
 70
0
 71
3
 72
9
 73
5
 74
0
 42
0.0000001
 43
0.0000001
 44
0.0000000001
 40
0.0
 40
0.0
 40
0.0
 40
0.0
 40
0.2426991128
 40
1.0
 40
1.0
 40
1.0
 40
1.0
 10
11.6404634543
 20
13.5877796753
 30
0.0
 10
11.6395381739
 20
13.5880678513
 30
0.0
 10
11.6357020506
 20
13.5891780828
 30
0.0
 10
11.6317777808
 20
13.5899819395
 30
0.0
 10
11.62878551
 20
13.5904186129
 30
0.0
  0
SPLINE
  5
49E
100
AcDbEntity
  8
0
100
AcDbSpline
 62
7
  6
CONTINUOUS
 70
0
 71
3
 72
9
 73
5
 74
0
 42
0.0000001
 43
0.0000001
 44
0.0000000001
 40
0.0
 40
0.0
 40
0.0
 40
0.0
 40
0.2592329046
 40
1.0
 40
1.0
 40
1.0
 40
1.0
 10
11.6169854576
 20
13.5764563025
 30
0.0
 10
11.6149372508
 20
13.5764563025
 30
0.0
 10
11.607039384
 20
13.5762027189
 30
0.0
 10
11.5991639284
 20
13.5749800276
 30
0.0
 10
11.5935074703
 20
13.5734766922
 30
0.0
  0
SPLINE
  5
49F
100
AcDbEntity
  8
0
100
AcDbSpline
 62
7
  6
CONTINUOUS
 70
0
 71
3
 72
9
 73
5
 74
0
 42
0.0000001
 43
0.0000001
 44
0.0000000001
 40
0.0
 40
0.0
 40
0.0
 40
0.0
 40
0.2625366295
 40
1.0
 40
1.0
 40
1.0
 40
1.0
 10
11.5935074703
 20
13.5734766922
 30
0.0
 10
11.5925065008
 20
13.5732106612
 30
0.0
 10
11.5887137662
 20
13.5721245783
 30
0.0
 10
11.5850016525
 20
13.5707506451
 30
0.0
 10
11.5823452832
 20
13.5695641066
 30
0.0
  0
LINE
  5
4A0
100
AcDbEntity
  8
0
100
AcDbLine
 62
7
  6
CONTINUOUS
 10
11.5823452832
 20
13.5695641066
 11
11.5773364143
 21
13.5670548634
  0
LINE
  5
4A1
100
AcDbEntity
  8
0
100
AcDbLine
 62
7
  6
CONTINUOUS
 10
11.5773364143
 20
13.5670548634
 11
11.5722640981
 21
13.563837905
  0
SPLINE
  5
4A2
100
AcDbEntity
  8
0
100
AcDbSpline
 62
7
  6
CONTINUOUS
 70
0
 71
3
 72
9
 73
5
 74
0
 42
0.0000001
 43
0.0000001
 44
0.0000000001
 40
0.0
 40
0.0
 40
0.0
 40
0.0
 40
0.2340148246
 40
1.0
 40
1.0
 40
1.0
 40
1.0
 10
11.6617068172
 20
13.563837905
 30
0.0
 10
11.6609714991
 20
13.5643658591
 30
0.0
 10
11.6577676625
 20
13.5665355504
 30
0.0
 10
11.6543313972
 20
13.5683554831
 30
0.0
 10
11.6516260227
 20
13.5695639321
 30
0.0
  0
SPLINE
  5
4A3
100
AcDbEntity
  8
0
100
AcDbSpline
 62
7
  6
CONTINUOUS
 70
0
 71
3
 72
9
 73
5
 74
0
 42
0.0000001
 43
0.0000001
 44
0.0000000001
 40
0.0
 40
0.0
 40
0.0
 40
0.0
 40
0.2288641668
 40
1.0
 40
1.0
 40
1.0
 40
1.0
 10
11.6516260227
 20
13.5695639321
 30
0.0
 10
11.6499748007
 20
13.5703015075
 30
0.0
 10
11.6426287796
 20
13.5732272261
 30
0.0
 10
11.6348323097
 20
13.5749755995
 30
0.0
 10
11.6287855623
 20
13.575728619
 30
0.0
  0
SPLINE
  5
4A4
100
AcDbEntity
  8
0
100
AcDbSpline
 62
7
  6
CONTINUOUS
 70
0
 71
3
 72
9
 73
5
 74
0
 42
0.0000001
 43
0.0000001
 44
0.0000000001
 40
0.0
 40
0.0
 40
0.0
 40
0.0
 40
0.2599949055
 40
1.0
 40
1.0
 40
1.0
 40
1.0
 10
11.6169854576
 20
13.5574808806
 30
0.0
 10
11.6149375543
 20
13.5574808806
 30
0.0
 10
11.6070631862
 20
13.5572730736
 30
0.0
 10
11.5992021438
 20
13.556278549
 30
0.0
 10
11.593507054
 20
13.5550372244
 30
0.0
  0
SPLINE
  5
4A5
100
AcDbEntity
  8
0
100
AcDbSpline
 62
7
  6
CONTINUOUS
 70
0
 71
3
 72
9
 73
5
 74
0
 42
0.0000001
 43
0.0000001
 44
0.0000000001
 40
0.0
 40
0.0
 40
0.0
 40
0.0
 40
0.2640699209
 40
1.0
 40
1.0
 40
1.0
 40
1.0
 10
11.593507054
 20
13.5550372244
 30
0.0
 10
11.5925077673
 20
13.5548194159
 30
0.0
 10
11.5887372637
 20
13.5539340529
 30
0.0
 10
11.5850213926
 20
13.5528089387
 30
0.0
 10
11.5823450401
 20
13.5518285332
 30
0.0
  0
SPLINE
  5
4A6
100
AcDbEntity
  8
0
100
AcDbSpline
 62
7
  6
CONTINUOUS
 70
0
 71
3
 72
9
 73
5
 74
0
 42
0.0000001
 43
0.0000001
 44
0.0000000001
 40
0.0
 40
0.0
 40
0.0
 40
0.0
 40
0.2625598759
 40
1.0
 40
1.0
 40
1.0
 40
1.0
 10
11.5783272293
 20
13.5502157856
 30
0.0
 10
11.5777819446
 20
13.5499764247
 30
0.0
 10
11.5757178863
 20
13.5490362429
 30
0.0
 10
11.5737053768
 20
13.5479812503
 30
0.0
 10
11.5722640981
 20
13.5471325914
 30
0.0
  0
SPLINE
  5
4A7
100
AcDbEntity
  8
0
100
AcDbSpline
 62
7
  6
CONTINUOUS
 70
0
 71
3
 72
9
 73
5
 74
0
 42
0.0000001
 43
0.0000001
 44
0.0000000001
 40
0.0
 40
0.0
 40
0.0
 40
0.0
 40
0.2310788988
 40
1.0
 40
1.0
 40
1.0
 40
1.0
 10
11.6617068172
 20
13.5471325914
 30
0.0
 10
11.660968103
 20
13.5475675637
 30
0.0
 10
11.6577235062
 20
13.5493684176
 30
0.0
 10
11.6543044947
 20
13.5508472921
 30
0.0
 10
11.6516259925
 20
13.5518284902
 30
0.0
  0
SPLINE
  5
4A8
100
AcDbEntity
  8
0
100
AcDbSpline
 62
7
  6
CONTINUOUS
 70
0
 71
3
 72
9
 73
5
 74
0
 42
0.0000001
 43
0.0000001
 44
0.0000000001
 40
0.0
 40
0.0
 40
0.0
 40
0.0
 40
0.4689855577
 40
1.0
 40
1.0
 40
1.0
 40
1.0
 10
11.6516259925
 20
13.5518284902
 30
0.0
 10
11.6481855665
 20
13.5530887989
 30
0.0
 10
11.6406490428
 20
13.5552402907
 30
0.0
 10
11.6329126517
 20
13.5564626162
 30
0.0
 10
11.62878551
 20
13.5568841151
 30
0.0
  0
SPLINE
  5
4A9
100
AcDbEntity
  8
0
100
AcDbSpline
 62
7
  6
CONTINUOUS
 70
0
 71
3
 72
9
 73
5
 74
0
 42
0.0000001
 43
0.0000001
 44
0.0000000001
 40
0.0
 40
0.0
 40
0.0
 40
0.0
 40
0.2606316651
 40
1.0
 40
1.0
 40
1.0
 40
1.0
 10
11.6169854576
 20
13.5344978625
 30
0.0
 10
11.6149378387
 20
13.5344978625
 30
0.0
 10
11.6070829722
 20
13.5343373889
 30
0.0
 10
11.5992351587
 20
13.5335745275
 30
0.0
 10
11.593507054
 20
13.5326099484
 30
0.0
  0
SPLINE
  5
4AA
100
AcDbEntity
  8
0
100
AcDbSpline
 62
7
  6
CONTINUOUS
 70
0
 71
3
 72
9
 73
5
 74
0
 42
0.0000001
 43
0.0000001
 44
0.0000000001
 40
0.0
 40
0.0
 40
0.0
 40
0.0
 40
0.2654246038
 40
1.0
 40
1.0
 40
1.0
 40
1.0
 10
11.593507054
 20
13.5326099484
 30
0.0
 10
11.592509207
 20
13.5324419168
 30
0.0
 10
11.5887580654
 20
13.5317614857
 30
0.0
 10
11.5850396751
 20
13.5308935989
 30
0.0
 10
11.5823450401
 20
13.5301309854
 30
0.0
  0
LINE
  5
4AB
100
AcDbEntity
  8
0
100
AcDbLine
 62
7
  6
CONTINUOUS
 10
11.5785139397
 20
13.5289480632
 11
11.5722640981
 21
13.5265030059
  0
SPLINE
  5
4AC
100
AcDbEntity
  8
0
100
AcDbSpline
 62
7
  6
CONTINUOUS
 70
0
 71
3
 72
9
 73
5
 74
0
 42
0.0000001
 43
0.0000001
 44
0.0000000001
 40
0.0
 40
0.0
 40
0.0
 40
0.0
 40
0.2282047862
 40
1.0
 40
1.0
 40
1.0
 40
1.0
 10
11.6617068172
 20
13.5265030059
 30
0.0
 10
11.6609645906
 20
13.5268406536
 30
0.0
 10
11.6576795354
 20
13.5282483805
 30
0.0
 10
11.6542795362
 20
13.5293799641
 30
0.0
 10
11.6516259925
 20
13.5301309522
 30
0.0
  0
SPLINE
  5
4AD
100
AcDbEntity
  8
0
100
AcDbSpline
 62
7
  6
CONTINUOUS
 70
0
 71
3
 72
9
 73
5
 74
0
 42
0.0000001
 43
0.0000001
 44
0.0000000001
 40
0.0
 40
0.0
 40
0.0
 40
0.0
 40
0.2344107705
 40
1.0
 40
1.0
 40
1.0
 40
1.0
 10
11.6516259925
 20
13.5301309522
 30
0.0
 10
11.6507660617
 20
13.530374324
 30
0.0
 10
11.647081992
 20
13.5313571224
 30
0.0
 10
11.6433417898
 20
13.5321253324
 30
0.0
 10
11.6404634543
 20
13.5326100169
 30
0.0
  0
SPLINE
  5
4AE
100
AcDbEntity
  8
0
100
AcDbSpline
 62
7
  6
CONTINUOUS
 70
0
 71
3
 72
9
 73
5
 74
0
 42
0.0000001
 43
0.0000001
 44
0.0000000001
 40
0.0
 40
0.0
 40
0.0
 40
0.0
 40
0.2402135857
 40
1.0
 40
1.0
 40
1.0
 40
1.0
 10
11.6404634543
 20
13.5326100169
 30
0.0
 10
11.6395343444
 20
13.5327664703
 30
0.0
 10
11.6356589562
 20
13.5333724392
 30
0.0
 10
11.6317563891
 20
13.5338024059
 30
0.0
 10
11.62878551
 20
13.5340368148
 30
0.0
  0
SPLINE
  5
4AF
100
AcDbEntity
  8
0
100
AcDbSpline
 62
7
  6
CONTINUOUS
 70
0
 71
3
 72
9
 73
5
 74
0
 42
0.0000001
 43
0.0000001
 44
0.0000000001
 40
0.0
 40
0.0
 40
0.0
 40
0.0
 40
0.2611194368
 40
1.0
 40
1.0
 40
1.0
 40
1.0
 10
11.6169854576
 20
13.5076923055
 30
0.0
 10
11.6149380548
 20
13.5076923055
 30
0.0
 10
11.6070979617
 20
13.507580387
 30
0.0
 10
11.5992609559
 20
13.5070512359
 30
0.0
 10
11.593507054
 20
13.5063753347
 30
0.0
  0
SPLINE
  5
4B0
100
AcDbEntity
  8
0
100
AcDbSpline
 62
7
  6
CONTINUOUS
 70
0
 71
3
 72
9
 73
5
 74
0
 42
0.0000001
 43
0.0000001
 44
0.0000000001
 40
0.0
 40
0.0
 40
0.0
 40
0.0
 40
0.2665107405
 40
1.0
 40
1.0
 40
1.0
 40
1.0
 10
11.593507054
 20
13.5063753347
 30
0.0
 10
11.5925103391
 20
13.5062582523
 30
0.0
 10
11.588774562
 20
13.505785571
 30
0.0
 10
11.5850547521
 20
13.5051810205
 30
0.0
 10
11.5823450402
 20
13.5046460602
 30
0.0
  0
LINE
  5
4B1
100
AcDbEntity
  8
0
100
AcDbLine
 62
7
  6
CONTINUOUS
 10
11.5776713439
 20
13.5036193723
 11
11.5722640981
 21
13.5021152549
  0
SPLINE
  5
4B2
100
AcDbEntity
  8
0
100
AcDbSpline
 62
7
  6
CONTINUOUS
 70
0
 71
3
 72
9
 73
5
 74
0
 42
0.0000001
 43
0.0000001
 44
0.0000000001
 40
0.0
 40
0.0
 40
0.0
 40
0.0
 40
0.2256803616
 40
1.0
 40
1.0
 40
1.0
 40
1.0
 10
11.6617068172
 20
13.5021152549
 30
0.0
 10
11.6609613389
 20
13.502351823
 30
0.0
 10
11.6576403253
 20
13.5033439762
 30
0.0
 10
11.6542586463
 20
13.504126287
 30
0.0
 10
11.6516259925
 20
13.504646037
 30
0.0
  0
SPLINE
  5
4B3
100
AcDbEntity
  8
0
100
AcDbSpline
 62
7
  6
CONTINUOUS
 70
0
 71
3
 72
9
 73
5
 74
0
 42
0.0000001
 43
0.0000001
 44
0.0000000001
 40
0.0
 40
0.0
 40
0.0
 40
0.0
 40
0.233226002
 40
1.0
 40
1.0
 40
1.0
 40
1.0
 10
11.6516259925
 20
13.504646037
 30
0.0
 10
11.650764348
 20
13.5048161466
 30
0.0
 10
11.6470619205
 20
13.505504954
 30
0.0
 10
11.6433312328
 20
13.5060385165
 30
0.0
 10
11.6404634543
 20
13.5063753825
 30
0.0
  0
SPLINE
  5
4B4
100
AcDbEntity
  8
0
100
AcDbSpline
 62
7
  6
CONTINUOUS
 70
0
 71
3
 72
9
 73
5
 74
0
 42
0.0000001
 43
0.0000001
 44
0.0000000001
 40
0.0
 40
0.0
 40
0.0
 40
0.0
 40
0.2614393719
 40
1.0
 40
1.0
 40
1.0
 40
1.0
 10
11.6169854576
 20
13.4772800441
 30
0.0
 10
11.6149381958
 20
13.4772800441
 30
0.0
 10
11.6071077134
 20
13.4772175517
 30
0.0
 10
11.5992781219
 20
13.4769231839
 30
0.0
 10
11.593507054
 20
13.4765446208
 30
0.0
  0
LINE
  5
4B5
100
AcDbEntity
  8
0
100
AcDbLine
 62
7
  6
CONTINUOUS
 10
11.593507054
 20
13.4765446208
 11
11.5823450401
 21
13.4755789586
  0
LINE
  5
4B6
100
AcDbEntity
  8
0
100
AcDbLine
 62
7
  6
CONTINUOUS
 10
11.5823450401
 20
13.4755789586
 11
11.575760888
 21
13.4747336078
  0
SPLINE
  5
4B7
100
AcDbEntity
  8
0
100
AcDbSpline
 62
7
  6
CONTINUOUS
 70
0
 71
3
 72
9
 73
5
 74
0
 42
0.0000001
 43
0.0000001
 44
0.0000000001
 40
0.0
 40
0.0
 40
0.0
 40
0.0
 40
0.4281882878
 40
1.0
 40
1.0
 40
1.0
 40
1.0
 10
11.6617068172
 20
13.4741657052
 30
0.0
 10
11.6570589967
 20
13.4749893347
 30
0.0
 10
11.646097678
 20
13.4762933543
 30
0.0
 10
11.6350860341
 20
13.4769067947
 30
0.0
 10
11.62878551
 20
13.4771004463
 30
0.0
  0
SPLINE
  5
4B8
100
AcDbEntity
  8
0
100
AcDbSpline
 62
7
  6
CONTINUOUS
 70
0
 71
3
 72
9
 73
5
 74
0
 42
0.0000001
 43
0.0000001
 44
0.0000000001
 40
0.0
 40
0.0
 40
0.0
 40
0.0
 40
0.4213342896
 40
1.0
 40
1.0
 40
1.0
 40
1.0
 10
11.6617068172
 20
13.4428794027
 30
0.0
 10
11.6554290975
 20
13.4431032104
 30
0.0
 10
11.6405219142
 20
13.4434099774
 30
0.0
 10
11.6256128328
 20
13.4435059537
 30
0.0
 10
11.6169854576
 20
13.4435059537
 30
0.0
  0
SPLINE
  5
4B9
100
AcDbEntity
  8
0
100
AcDbSpline
 62
7
  6
CONTINUOUS
 70
0
 71
3
 72
9
 73
5
 74
0
 42
0.0000001
 43
0.0000001
 44
0.0000000001
 40
0.0
 40
0.0
 40
0.0
 40
0.0
 40
0.4213333332
 40
1.0
 40
1.0
 40
1.0
 40
1.0
 10
11.5722640981
 20
12.6767004123
 30
0.0
 10
11.5785418522
 20
12.6764783354
 30
0.0
 10
11.5934490346
 20
12.6761739435
 30
0.0
 10
11.6083580857
 20
12.67607871
 30
0.0
 10
11.6169854576
 20
12.67607871
 30
0.0
  0
SPLINE
  5
4BA
100
AcDbEntity
  8
0
100
AcDbSpline
 62
7
  6
CONTINUOUS
 70
0
 71
3
 72
9
 73
5
 74
0
 42
0.0000001
 43
0.0000001
 44
0.0000000001
 40
0.0
 40
0.0
 40
0.0
 40
0.0
 40
0.2614398134
 40
1.0
 40
1.0
 40
1.0
 40
1.0
 10
11.6169854576
 20
12.6422983393
 30
0.0
 10
11.6190327185
 20
12.6422983393
 30
0.0
 10
11.626863185
 20
12.642360735
 30
0.0
 10
11.6346927634
 20
12.6426546455
 30
0.0
 10
11.6404638538
 20
12.6430326241
 30
0.0
  0
LINE
  5
4BB
100
AcDbEntity
  8
0
100
AcDbLine
 62
7
  6
CONTINUOUS
 10
11.6404638538
 20
12.6430326241
 11
11.6516258705
 21
12.643996792
  0
LINE
  5
4BC
100
AcDbEntity
  8
0
100
AcDbLine
 62
7
  6
CONTINUOUS
 10
11.6516258705
 20
12.643996792
 11
11.6582146723
 21
12.6448415256
  0
SPLINE
  5
4BD
100
AcDbEntity
  8
0
100
AcDbSpline
 62
7
  6
CONTINUOUS
 70
0
 71
3
 72
9
 73
5
 74
0
 42
0.0000001
 43
0.0000001
 44
0.0000000001
 40
0.0
 40
0.0
 40
0.0
 40
0.0
 40
0.4281834004
 40
1.0
 40
1.0
 40
1.0
 40
1.0
 10
11.5722640981
 20
12.6454078588
 30
0.0
 10
11.5769120203
 20
12.644585486
 30
0.0
 10
11.5878733822
 20
12.6432834941
 30
0.0
 10
11.598884911
 20
12.6426710101
 30
0.0
 10
11.6051854112
 20
12.642477659
 30
0.0
  0
SPLINE
  5
4BE
100
AcDbEntity
  8
0
100
AcDbSpline
 62
7
  6
CONTINUOUS
 70
0
 71
3
 72
9
 73
5
 74
0
 42
0.0000001
 43
0.0000001
 44
0.0000000001
 40
0.0
 40
0.0
 40
0.0
 40
0.0
 40
0.2611202193
 40
1.0
 40
1.0
 40
1.0
 40
1.0
 10
11.6169854576
 20
12.6118792946
 30
0.0
 10
11.6190328594
 20
12.6118792946
 30
0.0
 10
11.6268729262
 20
12.6119911176
 30
0.0
 10
11.6347099115
 20
12.6125198126
 30
0.0
 10
11.6404638538
 20
12.6131951425
 30
0.0
  0
SPLINE
  5
4BF
100
AcDbEntity
  8
0
100
AcDbSpline
 62
7
  6
CONTINUOUS
 70
0
 71
3
 72
9
 73
5
 74
0
 42
0.0000001
 43
0.0000001
 44
0.0000000001
 40
0.0
 40
0.0
 40
0.0
 40
0.0
 40
0.2665125348
 40
1.0
 40
1.0
 40
1.0
 40
1.0
 10
11.6404638538
 20
12.6131951425
 30
0.0
 10
11.6414605671
 20
12.6133121249
 30
0.0
 10
11.6451963199
 20
12.6137844002
 30
0.0
 10
11.6489161326
 20
12.6143884342
 30
0.0
 10
11.6516258705
 20
12.6149229438
 30
0.0
  0
LINE
  5
4C0
100
AcDbEntity
  8
0
100
AcDbLine
 62
7
  6
CONTINUOUS
 10
11.6563022808
 20
12.615949418
 11
11.6617068172
 21
12.6174515939
  0
SPLINE
  5
4C1
100
AcDbEntity
  8
0
100
AcDbSpline
 62
7
  6
CONTINUOUS
 70
0
 71
3
 72
9
 73
5
 74
0
 42
0.0000001
 43
0.0000001
 44
0.0000000001
 40
0.0
 40
0.0
 40
0.0
 40
0.0
 40
0.4451718229
 40
1.0
 40
1.0
 40
1.0
 40
1.0
 10
11.5722640981
 20
12.6174515939
 30
0.0
 10
11.5753319975
 20
12.6164788641
 30
0.0
 10
11.5823687976
 20
12.6147529795
 30
0.0
 10
11.5895236053
 20
12.6136626642
 30
0.0
 10
11.5935074505
 20
12.6131950968
 30
0.0
  0
SPLINE
  5
4C2
100
AcDbEntity
  8
0
100
AcDbSpline
 62
7
  6
CONTINUOUS
 70
0
 71
3
 72
9
 73
5
 74
0
 42
0.0000001
 43
0.0000001
 44
0.0000000001
 40
0.0
 40
0.0
 40
0.0
 40
0.0
 40
0.2606327579
 40
1.0
 40
1.0
 40
1.0
 40
1.0
 10
11.6169854576
 20
12.5850665056
 30
0.0
 10
11.6190330754
 20
12.5850665056
 30
0.0
 10
11.6268879059
 20
12.5852268857
 30
0.0
 10
11.6347356931
 20
12.5859892938
 30
0.0
 10
11.6404638538
 20
12.5869533216
 30
0.0
  0
SPLINE
  5
4C3
100
AcDbEntity
  8
0
100
AcDbSpline
 62
7
  6
CONTINUOUS
 70
0
 71
3
 72
9
 73
5
 74
0
 42
0.0000001
 43
0.0000001
 44
0.0000000001
 40
0.0
 40
0.0
 40
0.0
 40
0.0
 40
0.2654270043
 40
1.0
 40
1.0
 40
1.0
 40
1.0
 10
11.6404638538
 20
12.5869533216
 30
0.0
 10
11.6414616986
 20
12.587121255
 30
0.0
 10
11.6452128069
 20
12.5878012844
 30
0.0
 10
11.6489312019
 20
12.5886686645
 30
0.0
 10
11.6516258705
 20
12.5894308442
 30
0.0
  0
LINE
  5
4C4
100
AcDbEntity
  8
0
100
AcDbLine
 62
7
  6
CONTINUOUS
 10
11.6554575649
 20
12.5906132785
 11
11.6617068172
 21
12.5930567173
  0
SPLINE
  5
4C5
100
AcDbEntity
  8
0
100
AcDbSpline
 62
7
  6
CONTINUOUS
 70
0
 71
3
 72
9
 73
5
 74
0
 42
0.0000001
 43
0.0000001
 44
0.0000000001
 40
0.0
 40
0.0
 40
0.0
 40
0.0
 40
0.2281994363
 40
1.0
 40
1.0
 40
1.0
 40
1.0
 10
11.5722640981
 20
12.5930567173
 30
0.0
 10
11.5730063313
 20
12.5927192627
 30
0.0
 10
11.5762914618
 20
12.5913123232
 30
0.0
 10
11.5796914231
 20
12.5901814181
 30
0.0
 10
11.5823449211
 20
12.5894308792
 30
0.0
  0
SPLINE
  5
4C6
100
AcDbEntity
  8
0
100
AcDbSpline
 62
7
  6
CONTINUOUS
 70
0
 71
3
 72
9
 73
5
 74
0
 42
0.0000001
 43
0.0000001
 44
0.0000000001
 40
0.0
 40
0.0
 40
0.0
 40
0.0
 40
0.2344081672
 40
1.0
 40
1.0
 40
1.0
 40
1.0
 10
11.5823449211
 20
12.5894308792
 30
0.0
 10
11.583204855
 20
12.5891876479
 30
0.0
 10
11.5868889622
 20
12.588205411
 30
0.0
 10
11.5906291408
 20
12.5874376549
 30
0.0
 10
11.5935074505
 20
12.5869532561
 30
0.0
  0
SPLINE
  5
4C7
100
AcDbEntity
  8
0
100
AcDbSpline
 62
7
  6
CONTINUOUS
 70
0
 71
3
 72
9
 73
5
 74
0
 42
0.0000001
 43
0.0000001
 44
0.0000000001
 40
0.0
 40
0.0
 40
0.0
 40
0.0
 40
0.2402123302
 40
1.0
 40
1.0
 40
1.0
 40
1.0
 10
11.5935074505
 20
12.5869532561
 30
0.0
 10
11.5944365636
 20
12.586796893
 30
0.0
 10
11.5983119769
 20
12.5861912722
 30
0.0
 10
11.6022145383
 20
12.5857615571
 30
0.0
 10
11.6051854112
 20
12.5855272849
 30
0.0
  0
SPLINE
  5
4C8
100
AcDbEntity
  8
0
100
AcDbSpline
 62
7
  6
CONTINUOUS
 70
0
 71
3
 72
9
 73
5
 74
0
 42
0.0000001
 43
0.0000001
 44
0.0000000001
 40
0.0
 40
0.0
 40
0.0
 40
0.0
 40
0.2599962665
 40
1.0
 40
1.0
 40
1.0
 40
1.0
 10
11.6169854576
 20
12.5620758651
 30
0.0
 10
11.6190333596
 20
12.5620758651
 30
0.0
 10
11.6269076831
 20
12.5622835814
 30
0.0
 10
11.6347686955
 20
12.5632776578
 30
0.0
 10
11.6404638538
 20
12.5645184568
 30
0.0
  0
SPLINE
  5
4C9
100
AcDbEntity
  8
0
100
AcDbSpline
 62
7
  6
CONTINUOUS
 70
0
 71
3
 72
9
 73
5
 74
0
 42
0.0000001
 43
0.0000001
 44
0.0000000001
 40
0.0
 40
0.0
 40
0.0
 40
0.0
 40
0.2640727574
 40
1.0
 40
1.0
 40
1.0
 40
1.0
 10
11.6404638538
 20
12.5645184568
 30
0.0
 10
11.6414631377
 20
12.5647361699
 30
0.0
 10
11.6452336015
 20
12.5656211379
 30
0.0
 10
11.6489494797
 20
12.5667457594
 30
0.0
 10
11.6516258705
 20
12.5677257523
 30
0.0
  0
SPLINE
  5
4CA
100
AcDbEntity
  8
0
100
AcDbSpline
 62
7
  6
CONTINUOUS
 70
0
 71
3
 72
9
 73
5
 74
0
 42
0.0000001
 43
0.0000001
 44
0.0000000001
 40
0.0
 40
0.0
 40
0.0
 40
0.0
 40
0.2625660024
 40
1.0
 40
1.0
 40
1.0
 40
1.0
 10
11.6556424531
 20
12.5693372591
 30
0.0
 10
11.6561878527
 20
12.5695765529
 30
0.0
 10
11.6582523061
 20
12.5705164592
 30
0.0
 10
11.6602652331
 20
12.5715711837
 30
0.0
 10
11.6617068172
 20
12.5724196532
 30
0.0
  0
SPLINE
  5
4CB
100
AcDbEntity
  8
0
100
AcDbSpline
 62
7
  6
CONTINUOUS
 70
0
 71
3
 72
9
 73
5
 74
0
 42
0.0000001
 43
0.0000001
 44
0.0000000001
 40
0.0
 40
0.0
 40
0.0
 40
0.0
 40
0.2310731732
 40
1.0
 40
1.0
 40
1.0
 40
1.0
 10
11.5722640981
 20
12.5724196532
 30
0.0
 10
11.5730028189
 20
12.5719848661
 30
0.0
 10
11.5762474954
 20
12.5701847536
 30
0.0
 10
11.5796664704
 20
12.5687065501
 30
0.0
 10
11.5823449211
 20
12.5677257975
 30
0.0
  0
SPLINE
  5
4CC
100
AcDbEntity
  8
0
100
AcDbSpline
 62
7
  6
CONTINUOUS
 70
0
 71
3
 72
9
 73
5
 74
0
 42
0.0000001
 43
0.0000001
 44
0.0000000001
 40
0.0
 40
0.0
 40
0.0
 40
0.0
 40
0.468979822
 40
1.0
 40
1.0
 40
1.0
 40
1.0
 10
11.5823449211
 20
12.5677257975
 30
0.0
 10
11.5857854082
 20
12.5664660146
 30
0.0
 10
11.5933220039
 20
12.5643154541
 30
0.0
 10
11.6010582951
 20
12.5630936832
 30
0.0
 10
11.6051854112
 20
12.5626723705
 30
0.0
  0
SPLINE
  5
4CD
100
AcDbEntity
  8
0
100
AcDbSpline
 62
7
  6
CONTINUOUS
 70
0
 71
3
 72
9
 73
5
 74
0
 42
0.0000001
 43
0.0000001
 44
0.0000000001
 40
0.0
 40
0.0
 40
0.0
 40
0.0
 40
0.2592341176
 40
1.0
 40
1.0
 40
1.0
 40
1.0
 10
11.6169854576
 20
12.5430924901
 30
0.0
 10
11.6190336226
 20
12.5430924901
 30
0.0
 10
11.6269312923
 20
12.5433459778
 30
0.0
 10
11.6348065723
 20
12.5445681845
 30
0.0
 10
11.6404630149
 20
12.5460709677
 30
0.0
  0
SPLINE
  5
4CE
100
AcDbEntity
  8
0
100
AcDbSpline
 62
7
  6
CONTINUOUS
 70
0
 71
3
 72
9
 73
5
 74
0
 42
0.0000001
 43
0.0000001
 44
0.0000000001
 40
0.0
 40
0.0
 40
0.0
 40
0.0
 40
0.2625397917
 40
1.0
 40
1.0
 40
1.0
 40
1.0
 10
11.6404630149
 20
12.5460709677
 30
0.0
 10
11.6414639995
 20
12.5463369057
 30
0.0
 10
11.6452567585
 20
12.5474226017
 30
0.0
 10
11.6489689497
 20
12.5487960675
 30
0.0
 10
11.6516254075
 20
12.5499822273
 30
0.0
  0
LINE
  5
4CF
100
AcDbEntity
  8
0
100
AcDbLine
 62
7
  6
CONTINUOUS
 10
11.6516254075
 20
12.5499822273
 11
11.65663201
 21
12.5524893166
  0
LINE
  5
4D0
100
AcDbEntity
  8
0
100
AcDbLine
 62
7
  6
CONTINUOUS
 10
11.65663201
 20
12.5524893166
 11
11.6617068172
 21
12.5557065683
  0
SPLINE
  5
4D1
100
AcDbEntity
  8
0
100
AcDbSpline
 62
7
  6
CONTINUOUS
 70
0
 71
3
 72
9
 73
5
 74
0
 42
0.0000001
 43
0.0000001
 44
0.0000000001
 40
0.0
 40
0.0
 40
0.0
 40
0.0
 40
0.2340089478
 40
1.0
 40
1.0
 40
1.0
 40
1.0
 10
11.5722640981
 20
12.5557065683
 30
0.0
 10
11.5729994345
 20
12.5551787818
 30
0.0
 10
11.5762034058
 20
12.5530097471
 30
0.0
 10
11.5796397049
 20
12.5511904439
 30
0.0
 10
11.5823450784
 20
12.5499824191
 30
0.0
  0
SPLINE
  5
4D2
100
AcDbEntity
  8
0
100
AcDbSpline
 62
7
  6
CONTINUOUS
 70
0
 71
3
 72
9
 73
5
 74
0
 42
0.0000001
 43
0.0000001
 44
0.0000000001
 40
0.0
 40
0.0
 40
0.0
 40
0.0
 40
0.2288591085
 40
1.0
 40
1.0
 40
1.0
 40
1.0
 10
11.5823450784
 20
12.5499824191
 30
0.0
 10
11.5839963197
 20
12.5492450937
 30
0.0
 10
11.5913425142
 20
12.5463203409
 30
0.0
 10
11.5991388792
 20
12.5445726416
 30
0.0
 10
11.6051855507
 20
12.5438199016
 30
0.0
  0
SPLINE
  5
4D3
100
AcDbEntity
  8
0
100
AcDbSpline
 62
7
  6
CONTINUOUS
 70
0
 71
3
 72
9
 73
5
 74
0
 42
0.0000001
 43
0.0000001
 44
0.0000000001
 40
0.0
 40
0.0
 40
0.0
 40
0.0
 40
0.2583764498
 40
1.0
 40
1.0
 40
1.0
 40
1.0
 10
11.6169854576
 20
12.5282692336
 30
0.0
 10
11.619034094
 20
12.5282692336
 30
0.0
 10
11.6269590939
 20
12.5285666814
 30
0.0
 10
11.6348494692
 20
12.5300119229
 30
0.0
 10
11.6404638538
 20
12.5317600577
 30
0.0
  0
SPLINE
  5
4D4
100
AcDbEntity
  8
0
100
AcDbSpline
 62
7
  6
CONTINUOUS
 70
0
 71
3
 72
9
 73
5
 74
0
 42
0.0000001
 43
0.0000001
 44
0.0000000001
 40
0.0
 40
0.0
 40
0.0
 40
0.0
 40
0.2609156003
 40
1.0
 40
1.0
 40
1.0
 40
1.0
 10
11.6404638538
 20
12.5317600577
 30
0.0
 10
11.6414666164
 20
12.5320722851
 30
0.0
 10
11.6452830215
 20
12.5333528553
 30
0.0
 10
11.6489899788
 20
12.5349643952
 30
0.0
 10
11.6516258705
 20
12.5363437565
 30
0.0
  0
SPLINE
  5
4D5
100
AcDbEntity
  8
0
100
AcDbSpline
 62
7
  6
CONTINUOUS
 70
0
 71
3
 72
9
 73
5
 74
0
 42
0.0000001
 43
0.0000001
 44
0.0000000001
 40
0.0
 40
0.0
 40
0.0
 40
0.0
 40
0.2583864305
 40
1.0
 40
1.0
 40
1.0
 40
1.0
 10
11.6516258705
 20
12.5363437565
 30
0.0
 10
11.6522077488
 20
12.5366482532
 30
0.0
 10
11.6544406872
 20
12.5378626186
 30
0.0
 10
11.6565963792
 20
12.5392198144
 30
0.0
 10
11.6581374725
 20
12.5403051887
 30
0.0
  0
SPLINE
  5
4D6
100
AcDbEntity
  8
0
100
AcDbSpline
 62
7
  6
CONTINUOUS
 70
0
 71
3
 72
9
 73
5
 74
0
 42
0.0000001
 43
0.0000001
 44
0.0000000001
 40
0.0
 40
0.0
 40
0.0
 40
0.0
 40
0.2368060526
 40
1.0
 40
1.0
 40
1.0
 40
1.0
 10
11.5722640981
 20
12.543052034
 30
0.0
 10
11.5729963595
 20
12.5424360925
 30
0.0
 10
11.5761620471
 20
12.5399230942
 30
0.0
 10
11.5796125831
 20
12.5377736608
 30
0.0
 10
11.5823449211
 20
12.5363438212
 30
0.0
  0
SPLINE
  5
4D7
100
AcDbEntity
  8
0
100
AcDbSpline
 62
7
  6
CONTINUOUS
 70
0
 71
3
 72
9
 73
5
 74
0
 42
0.0000001
 43
0.0000001
 44
0.0000000001
 40
0.0
 40
0.0
 40
0.0
 40
0.0
 40
0.2392529972
 40
1.0
 40
1.0
 40
1.0
 40
1.0
 10
11.5823449211
 20
12.5363438212
 30
0.0
 10
11.5831982333
 20
12.5358972807
 30
0.0
 10
11.5868082341
 20
12.534114697
 30
0.0
 10
11.5905835899
 20
12.5326703123
 30
0.0
 10
11.5935074505
 20
12.5317599366
 30
0.0
  0
SPLINE
  5
4D8
100
AcDbEntity
  8
0
100
AcDbSpline
 62
7
  6
CONTINUOUS
 70
0
 71
3
 72
9
 73
5
 74
0
 42
0.0000001
 43
0.0000001
 44
0.0000000001
 40
0.0
 40
0.0
 40
0.0
 40
0.0
 40
0.2426972264
 40
1.0
 40
1.0
 40
1.0
 40
1.0
 10
11.5935074505
 20
12.5317599366
 30
0.0
 10
11.594432735
 20
12.5314718392
 30
0.0
 10
11.5982688931
 20
12.5303619061
 30
0.0
 10
11.6021931526
 20
12.5295582779
 30
0.0
 10
11.6051854112
 20
12.5291217278
 30
0.0
  0
SPLINE
  5
4D9
100
AcDbEntity
  8
0
100
AcDbSpline
 62
7
  6
CONTINUOUS
 70
0
 71
3
 72
9
 73
5
 74
0
 42
0.0000001
 43
0.0000001
 44
0.0000000001
 40
0.0
 40
0.0
 40
0.0
 40
0.0
 40
0.2592780192
 40
1.0
 40
1.0
 40
1.0
 40
1.0
 10
11.6404638538
 20
12.5217002894
 30
0.0
 10
11.641468492
 20
12.5220564733
 30
0.0
 10
11.6453091548
 20
12.5235241764
 30
0.0
 10
11.6490098978
 20
12.5253607898
 30
0.0
 10
11.6516258705
 20
12.5269195362
 30
0.0
  0
SPLINE
  5
4DA
100
AcDbEntity
  8
0
100
AcDbSpline
 62
7
  6
CONTINUOUS
 70
0
 71
3
 72
9
 73
5
 74
0
 42
0.0000001
 43
0.0000001
 44
0.0000000001
 40
0.0
 40
0.0
 40
0.0
 40
0.0
 40
0.2613186474
 40
1.0
 40
1.0
 40
1.0
 40
1.0
 10
11.6516258705
 20
12.5269195362
 30
0.0
 10
11.6525734589
 20
12.5274841637
 30
0.0
 10
11.6561386784
 20
12.5297452258
 30
0.0
 10
11.6594549958
 20
12.5324011967
 30
0.0
 10
11.6617068172
 20
12.5345579429
 30
0.0
  0
SPLINE
  5
4DB
100
AcDbEntity
  8
0
100
AcDbSpline
 62
7
  6
CONTINUOUS
 70
0
 71
3
 72
9
 73
5
 74
0
 42
0.0000001
 43
0.0000001
 44
0.0000000001
 40
0.0
 40
0.0
 40
0.0
 40
0.0
 40
0.2393476768
 40
1.0
 40
1.0
 40
1.0
 40
1.0
 10
11.5722640981
 20
12.5345579429
 30
0.0
 10
11.5729937077
 20
12.5338591384
 30
0.0
 10
11.5761251826
 20
12.5310272774
 30
0.0
 10
11.5795867611
 20
12.5285630887
 30
0.0
 10
11.5823449211
 20
12.5269196099
 30
0.0
  0
SPLINE
  5
4DC
100
AcDbEntity
  8
0
100
AcDbSpline
 62
7
  6
CONTINUOUS
 70
0
 71
3
 72
9
 73
5
 74
0
 42
0.0000001
 43
0.0000001
 44
0.0000000001
 40
0.0
 40
0.0
 40
0.0
 40
0.0
 40
0.2344486191
 40
1.0
 40
1.0
 40
1.0
 40
1.0
 10
11.5823449211
 20
12.5269196099
 30
0.0
 10
11.5839798944
 20
12.5259453938
 30
0.0
 10
11.5911497369
 20
12.5221250757
 30
0.0
 10
11.5990548018
 20
12.5197145728
 30
0.0
 10
11.6051854112
 20
12.5186961446
 30
0.0
  0
LINE
  5
4DD
100
AcDbEntity
  8
0
100
AcDbLine
 62
7
  6
CONTINUOUS
 10
12.8959972687
 20
19.05751465
 11
12.8990452381
 21
19.0569931103
  0
LINE
  5
4DE
100
AcDbEntity
  8
0
100
AcDbLine
 62
7
  6
CONTINUOUS
 10
12.8990452381
 20
19.0569931103
 11
12.9074449821
 21
19.0555443135
  0
LINE
  5
4DF
100
AcDbEntity
  8
0
100
AcDbLine
 62
7
  6
CONTINUOUS
 10
12.9305285409
 20
19.0514761623
 11
12.9340375616
 21
19.0508457454
  0
LINE
  5
4E0
100
AcDbEntity
  8
0
100
AcDbLine
 62
7
  6
CONTINUOUS
 10
12.9340375616
 20
19.0508457454
 11
12.9389771069
 21
19.049952658
  0
LINE
  5
4E1
100
AcDbEntity
  8
0
100
AcDbLine
 62
7
  6
CONTINUOUS
 10
12.9389771069
 20
19.049952658
 11
12.9419972687
 21
19.0494036089
  0
LINE
  5
4E2
100
AcDbEntity
  8
0
100
AcDbLine
 62
7
  6
CONTINUOUS
 10
14.3129972687
 20
19.0494036089
 11
14.3159841076
 21
19.0499466263
  0
LINE
  5
4E3
100
AcDbEntity
  8
0
100
AcDbLine
 62
7
  6
CONTINUOUS
 10
14.3159841076
 20
19.0499466263
 11
14.3209581451
 21
19.0508459626
  0
LINE
  5
4E4
100
AcDbEntity
  8
0
100
AcDbLine
 62
7
  6
CONTINUOUS
 10
14.3209581451
 20
19.0508459626
 11
14.3244910685
 21
19.0514806609
  0
LINE
  5
4E5
100
AcDbEntity
  8
0
100
AcDbLine
 62
7
  6
CONTINUOUS
 10
14.3475415516
 20
19.0555429218
 11
14.3559479545
 21
19.0569928819
  0
LINE
  5
4E6
100
AcDbEntity
  8
0
100
AcDbLine
 62
7
  6
CONTINUOUS
 10
14.3559479545
 20
19.0569928819
 11
14.3589972687
 21
19.05751465
  0
SPLINE
  5
4E7
100
AcDbEntity
  8
0
100
AcDbSpline
 62
7
  6
CONTINUOUS
 70
0
 71
3
 72
11
 73
7
 74
0
 42
0.0000001
 43
0.0000001
 44
0.0000000001
 40
0.0
 40
0.0
 40
0.0
 40
0.0
 40
0.2711244314
 40
0.5308454114
 40
0.7737502743
 40
1.0
 40
1.0
 40
1.0
 40
1.0
 10
11.6169854576
 20
13.0794548173
 30
0.0
 10
11.6215251473
 20
13.0794548173
 30
0.0
 10
11.6304454109
 20
13.0784745554
 30
0.0
 10
11.642805039
 20
13.0742794493
 30
0.0
 10
11.6533560668
 20
13.0679747312
 30
0.0
 10
11.659181466
 20
13.0626164651
 30
0.0
 10
11.661706793
 20
13.0597926342
 30
0.0
  0
LINE
  5
4E8
100
AcDbEntity
  8
0
100
AcDbLine
 62
9
  6
CONTINUOUS
 10
6.2869369648
 20
9.2774795516
 11
6.3125998974
 21
9.2773339405
  0
SPLINE
  5
4E9
100
AcDbEntity
  8
0
100
AcDbSpline
 62
9
  6
CONTINUOUS
 70
0
 71
3
 72
29
 73
25
 74
0
 42
0.0000001
 43
0.0000001
 44
0.0000000001
 40
0.0
 40
0.0
 40
0.0
 40
0.0
 40
0.1064608336
 40
0.1810044791
 40
0.273674112
 40
0.3282872516
 40
0.3897501218
 40
0.4592709439
 40
0.5385630133
 40
0.5826129641
 40
0.6300707121
 40
0.6812450389
 40
0.7366438025
 40
0.7966750263
 40
0.8283719376
 40
0.8446235314
 40
0.8611335586
 40
0.8778861736
 40
0.8948612222
 40
0.9120397858
 40
0.9294013998
 40
0.9469219008
 40
0.9645613206
 40
1.0
 40
1.0
 40
1.0
 40
1.0
 10
6.3125998974
 20
9.2773339405
 30
0.0
 10
6.3237860063
 20
9.2772861229
 30
0.0
 10
6.3428046803
 20
9.2772232263
 30
0.0
 10
6.3715604455
 20
9.2771378481
 30
0.0
 10
6.3948683827
 20
9.2770566351
 30
0.0
 10
6.4168017781
 20
9.2769521405
 30
0.0
 10
6.4363026177
 20
9.2768157082
 30
0.0
 10
6.458396202
 20
9.2766209469
 30
0.0
 10
6.4786591872
 20
9.2763430343
 30
0.0
 10
6.4966026707
 20
9.2760086894
 30
0.0
 10
6.5115904911
 20
9.2756501628
 30
0.0
 10
6.5277693833
 20
9.2752147016
 30
0.0
 10
6.5452618984
 20
9.2745237625
 30
0.0
 10
6.5607027537
 20
9.2737707189
 30
0.0
 10
6.5720329268
 20
9.2731738612
 30
0.0
 10
6.5787934825
 20
9.2727644665
 30
0.0
 10
6.5839844275
 20
9.272415833
 30
0.0
 10
6.5892510907
 20
9.2720598565
 30
0.0
 10
6.5945902732
 20
9.2717379127
 30
0.0
 10
6.5999919185
 20
9.2713866722
 30
0.0
 10
6.6054459433
 20
9.2709699634
 30
0.0
 10
6.6109419418
 20
9.2704465613
 30
0.0
 10
6.6183227241
 20
9.2698182024
 30
0.0
 10
6.6239342635
 20
9.2694111638
 30
0.0
 10
6.6275364086
 20
9.2684676404
 30
0.0
  0
LINE
  5
4EA
100
AcDbEntity
  8
0
100
AcDbLine
 62
9
  6
CONTINUOUS
 10
6.284811974
 20
9.2618937644
 11
6.3483481794
 21
9.2621060902
  0
SPLINE
  5
4EB
100
AcDbEntity
  8
0
100
AcDbSpline
 62
9
  6
CONTINUOUS
 70
0
 71
3
 72
23
 73
19
 74
0
 42
0.0000001
 43
0.0000001
 44
0.0000000001
 40
0.0
 40
0.0
 40
0.0
 40
0.0
 40
0.1345661911
 40
0.2197072473
 40
0.3205860462
 40
0.4417337079
 40
0.5120067171
 40
0.5902519837
 40
0.6327487158
 40
0.6777566812
 40
0.7255107211
 40
0.77598162
 40
0.8291234733
 40
0.8845670764
 40
0.9129964638
 40
0.9417896531
 40
0.97085083
 40
1.0
 40
1.0
 40
1.0
 40
1.0
 10
6.3483481794
 20
9.2621060902
 30
0.0
 10
6.3608762663
 20
9.2621356206
 30
0.0
 10
6.3813309668
 20
9.2621839349
 30
0.0
 10
6.411177426
 20
9.2622744313
 30
0.0
 10
6.4397743844
 20
9.2624176545
 30
0.0
 10
6.4669868663
 20
9.2626191759
 30
0.0
 10
6.4920908091
 20
9.2629378841
 30
0.0
 10
6.5098720964
 20
9.2632236286
 30
0.0
 10
6.5253000917
 20
9.2635467347
 30
0.0
 10
6.5378884355
 20
9.2638771068
 30
0.0
 10
6.5512165858
 20
9.2643054034
 30
0.0
 10
6.5653003317
 20
9.2647963463
 30
0.0
 10
6.5800961673
 20
9.2654028011
 30
0.0
 10
6.5928380641
 20
9.2660068743
 30
0.0
 10
6.6033131052
 20
9.266551391
 30
0.0
 10
6.6113327828
 20
9.2670196601
 30
0.0
 10
6.6194172456
 20
9.2675040297
 30
0.0
 10
6.624815884
 20
9.2680459461
 30
0.0
 10
6.6274972687
 20
9.268464074
 30
0.0
  0
SPLINE
  5
4EC
100
AcDbEntity
  8
0
100
AcDbSpline
 62
7
  6
CONTINUOUS
 70
0
 71
3
 72
11
 73
7
 74
0
 42
0.0000001
 43
0.0000001
 44
0.0000000001
 40
0.0
 40
0.0
 40
0.0
 40
0.0
 40
0.2511607924
 40
0.5012021995
 40
0.7506813147
 40
1.0
 40
1.0
 40
1.0
 40
1.0
 10
12.975037808
 20
12.5306538384
 30
0.0
 10
12.9784643113
 20
12.5411825101
 30
0.0
 10
12.9837117054
 20
12.5627146831
 30
0.0
 10
12.9885326014
 20
12.5954759053
 30
0.0
 10
12.9913987795
 20
12.6283770222
 30
0.0
 10
12.9924605152
 20
12.6503439992
 30
0.0
 10
12.9928483994
 20
12.6613281558
 30
0.0
  0
SPLINE
  5
4ED
100
AcDbEntity
  8
0
100
AcDbSpline
 62
7
  6
CONTINUOUS
 70
0
 71
3
 72
11
 73
7
 74
0
 42
0.0000001
 43
0.0000001
 44
0.0000000001
 40
0.0
 40
0.0
 40
0.0
 40
0.0
 40
0.2499298281
 40
0.4998501997
 40
0.7498172261
 40
1.0
 40
1.0
 40
1.0
 40
1.0
 10
12.9928483994
 20
12.6613281558
 30
0.0
 10
12.9933943
 20
12.6767870417
 30
0.0
 10
12.9939329126
 20
12.7077241093
 30
0.0
 10
12.9935644796
 20
12.754135428
 30
0.0
 10
12.9917882304
 20
12.8005305891
 30
0.0
 10
12.9890160933
 20
12.8313949869
 30
0.0
 10
12.9869041024
 20
12.8467344532
 30
0.0
  0
SPLINE
  5
4EE
100
AcDbEntity
  8
0
100
AcDbSpline
 62
7
  6
CONTINUOUS
 70
0
 71
3
 72
10
 73
6
 74
0
 42
0.0000001
 43
0.0000001
 44
0.0000000001
 40
0.0
 40
0.0
 40
0.0
 40
0.0
 40
0.4978005324
 40
0.7480441766
 40
1.0
 40
1.0
 40
1.0
 40
1.0
 10
12.9869041024
 20
12.8467344532
 30
0.0
 10
12.9852026086
 20
12.8590924634
 30
0.0
 10
12.9819377605
 20
12.8775981243
 30
0.0
 10
12.9752022299
 20
12.9017540047
 30
0.0
 10
12.9707573589
 20
12.9135583945
 30
0.0
 10
12.96817545
 20
12.9193202231
 30
0.0
  0
SPLINE
  5
4EF
100
AcDbEntity
  8
0
100
AcDbSpline
 62
7
  6
CONTINUOUS
 70
0
 71
3
 72
13
 73
9
 74
0
 42
0.0000001
 43
0.0000001
 44
0.0000000001
 40
0.0
 40
0.0
 40
0.0
 40
0.0
 40
0.2388307168
 40
0.4823611207
 40
0.6072998928
 40
0.7351221366
 40
0.8663055158
 40
1.0
 40
1.0
 40
1.0
 40
1.0
 10
12.96817545
 20
12.9193202231
 30
0.0
 10
12.9658303285
 20
12.9245536331
 30
0.0
 10
12.9605007729
 20
12.9348715256
 30
0.0
 10
12.9517861197
 20
12.94669959
 30
0.0
 10
12.9430628178
 20
12.9548724267
 30
0.0
 10
12.935379775
 20
12.9600590836
 30
0.0
 10
12.9265863162
 20
12.9636744538
 30
0.0
 10
12.9201957397
 20
12.9645570393
 30
0.0
 10
12.9169854577
 20
12.9645570393
 30
0.0
  0
SPLINE
  5
4F0
100
AcDbEntity
  8
0
100
AcDbSpline
 62
9
  6
CONTINUOUS
 70
0
 71
3
 72
34
 73
30
 74
0
 42
0.0000001
 43
0.0000001
 44
0.0000000001
 40
0.0
 40
0.0
 40
0.0
 40
0.0
 40
0.0000415399
 40
0.0001683879
 40
0.0003807763
 40
0.0006789233
 40
0.0015333594
 40
0.0027334263
 40
0.0042808521
 40
0.0061773651
 40
0.0084246928
 40
0.0110245632
 40
0.0172888429
 40
0.0249840268
 40
0.0341239375
 40
0.0447223984
 40
0.0568025795
 40
0.0704250376
 40
0.1025764073
 40
0.1417357934
 40
0.1884625382
 40
0.2434571891
 40
0.3079849292
 40
0.3836474285
 40
0.4728279202
 40
0.5783133872
 40
0.7030911919
 40
0.8462192261
 40
1.0
 40
1.0
 40
1.0
 40
1.0
 10
6.9791052704
 20
9.2943509132
 30
0.0
 10
6.979107724
 20
9.2943550209
 30
0.0
 10
6.9790705178
 20
9.2943442544
 30
0.0
 10
6.9790441166
 20
9.2943516924
 30
0.0
 10
6.9789608994
 20
9.2943421102
 30
0.0
 10
6.9788099977
 20
9.2943365358
 30
0.0
 10
6.9785349534
 20
9.2943181609
 30
0.0
 10
6.9781229974
 20
9.294294838
 30
0.0
 10
6.9775881848
 20
9.2942625098
 30
0.0
 10
6.9769341381
 20
9.2942235417
 30
0.0
 10
6.9761586704
 20
9.2941770467
 30
0.0
 10
6.9748811705
 20
9.2941005543
 30
0.0
 10
6.9729772198
 20
9.2939866225
 30
0.0
 10
6.9703213351
 20
9.2938281904
 30
0.0
 10
6.9671670614
 20
9.2936407288
 30
0.0
 10
6.9635085578
 20
9.2934242306
 30
0.0
 10
6.9593345793
 20
9.2931783941
 30
0.0
 10
6.9526822271
 20
9.2927895772
 30
0.0
 10
6.9429156623
 20
9.2922274464
 30
0.0
 10
6.9293413558
 20
9.2914645413
 30
0.0
 10
6.9131387938
 20
9.2905770447
 30
0.0
 10
6.8940171845
 20
9.2895567063
 30
0.0
 10
6.8715659706
 20
9.2883868505
 30
0.0
 10
6.8451813514
 20
9.2870347561
 30
0.0
 10
6.8140894866
 20
9.2853610161
 30
0.0
 10
6.7773576624
 20
9.2832214043
 30
0.0
 10
6.7344514133
 20
9.28023307
 30
0.0
 10
6.6861087507
 20
9.2754092599
 30
0.0
 10
6.6522278822
 20
9.2707353686
 30
0.0
 10
6.6346673924
 20
9.2684183973
 30
0.0
  0
SPLINE
  5
4F1
100
AcDbEntity
  8
0
100
AcDbSpline
 62
7
  6
CONTINUOUS
 70
0
 71
3
 72
20
 73
16
 74
0
 42
0.0000001
 43
0.0000001
 44
0.0000000001
 40
0.0
 40
0.0
 40
0.0
 40
0.0
 40
0.1217195308
 40
0.2435042392
 40
0.3654308726
 40
0.4876597149
 40
0.5490021761
 40
0.6105841077
 40
0.6725276185
 40
0.7350284676
 40
0.7984130769
 40
0.863231885
 40
0.930270848
 40
0.964913458
 40
1.0
 40
1.0
 40
1.0
 40
1.0
 10
12.8413395619
 20
12.6555728823
 30
0.0
 10
12.8416938392
 20
12.6467444956
 30
0.0
 10
12.8426005694
 20
12.6290898666
 30
0.0
 10
12.8447812625
 20
12.6026473293
 30
0.0
 10
12.8481184122
 20
12.576284394
 30
0.0
 10
12.8522646698
 20
12.5544749794
 30
0.0
 10
12.8567686678
 20
12.5372516472
 30
0.0
 10
12.8608880335
 20
12.5244711223
 30
0.0
 10
12.8659214696
 20
12.5119260501
 30
0.0
 10
12.8721156142
 20
12.4997544765
 30
0.0
 10
12.8798321994
 20
12.488207874
 30
0.0
 10
12.8895675284
 20
12.4778008229
 30
0.0
 10
12.8998649023
 20
12.4710927662
 30
0.0
 10
12.9093615428
 20
12.4680140072
 30
0.0
 10
12.9144385628
 20
12.4674542395
 30
0.0
 10
12.9169854579
 20
12.4674542395
 30
0.0
  0
SPLINE
  5
4F2
100
AcDbEntity
  8
0
100
AcDbSpline
 62
7
  6
CONTINUOUS
 70
0
 71
3
 72
9
 73
5
 74
0
 42
0.0000001
 43
0.0000001
 44
0.0000000001
 40
0.0
 40
0.0
 40
0.0
 40
0.0
 40
0.4811273645
 40
1.0
 40
1.0
 40
1.0
 40
1.0
 10
11.6516202488
 20
13.0508846008
 30
0.0
 10
11.6467892638
 20
13.0475284423
 30
0.0
 10
11.6356369345
 20
13.0420460164
 30
0.0
 10
11.6233293041
 20
13.040157006
 30
0.0
 10
11.6169854576
 20
13.040157006
 30
0.0
  0
SPLINE
  5
4F3
100
AcDbEntity
  8
0
100
AcDbSpline
 62
7
  6
CONTINUOUS
 70
0
 71
3
 72
9
 73
5
 74
0
 42
0.0000001
 43
0.0000001
 44
0.0000000001
 40
0.0
 40
0.0
 40
0.0
 40
0.0
 40
0.2409767189
 40
1.0
 40
1.0
 40
1.0
 40
1.0
 10
12.8520735222
 20
13.7472724779
 30
0.0
 10
12.8528646649
 20
13.74939383
 30
0.0
 10
12.8563908829
 20
13.7580991368
 30
0.0
 10
12.8610890025
 20
13.7663732857
 30
0.0
 10
12.8654169479
 20
13.7720411675
 30
0.0
  0
SPLINE
  5
4F4
100
AcDbEntity
  8
0
100
AcDbSpline
 62
7
  6
CONTINUOUS
 70
0
 71
3
 72
11
 73
7
 74
0
 42
0.0000001
 43
0.0000001
 44
0.0000000001
 40
0.0
 40
0.0
 40
0.0
 40
0.0
 40
0.1999987414
 40
0.4239250649
 40
0.6875557138
 40
1.0
 40
1.0
 40
1.0
 40
1.0
 10
12.8654169479
 20
13.7720411675
 30
0.0
 10
12.8678453722
 20
13.7752214344
 30
0.0
 10
12.8735182787
 20
13.7815829625
 30
0.0
 10
12.8844549363
 20
13.7900781952
 30
0.0
 10
12.8991267362
 20
13.7968635562
 30
0.0
 10
12.9107343181
 20
13.7986502969
 30
0.0
 10
12.9169854577
 20
13.7986502969
 30
0.0
  0
SPLINE
  5
4F5
100
AcDbEntity
  8
0
100
AcDbSpline
 62
7
  6
CONTINUOUS
 70
0
 71
3
 72
21
 73
17
 74
0
 42
0.0000001
 43
0.0000001
 44
0.0000000001
 40
0.0
 40
0.0
 40
0.0
 40
0.0
 40
0.1418035853
 40
0.2085172607
 40
0.2721412267
 40
0.3326750859
 40
0.3903572622
 40
0.4458028752
 40
0.500000212
 40
0.5541975979
 40
0.6096432465
 40
0.6673253488
 40
0.7278590269
 40
0.7914828669
 40
0.8581964202
 40
1.0
 40
1.0
 40
1.0
 40
1.0
 10
14.3798831391
 20
12.6610650954
 30
0.0
 10
14.3693269037
 20
12.6526717171
 30
0.0
 10
14.3543212168
 20
12.639611102
 30
0.0
 10
14.3367110989
 20
12.6206112628
 30
0.0
 10
14.3255638608
 20
12.6062474627
 30
0.0
 10
14.3164686787
 20
12.5914905275
 30
0.0
 10
14.3096939701
 20
12.5763658969
 30
0.0
 10
14.3054921593
 20
12.5609408924
 30
0.0
 10
14.3040707706
 20
12.5453387914
 30
0.0
 10
14.3054921496
 20
12.5297366778
 30
0.0
 10
14.309694068
 20
12.5143117056
 30
0.0
 10
14.3164686858
 20
12.4991870597
 30
0.0
 10
14.3255639234
 20
12.484430196
 30
0.0
 10
14.3367111233
 20
12.470066423
 30
0.0
 10
14.3543212266
 20
12.4510666008
 30
0.0
 10
14.3693269041
 20
12.4380059945
 30
0.0
 10
14.3798831391
 20
12.4296126165
 30
0.0
  0
SPLINE
  5
4F6
100
AcDbEntity
  8
0
100
AcDbSpline
 62
7
  6
CONTINUOUS
 70
0
 71
3
 72
11
 73
7
 74
0
 42
0.0000001
 43
0.0000001
 44
0.0000000001
 40
0.0
 40
0.0
 40
0.0
 40
0.0
 40
0.2710929665
 40
0.5307782445
 40
0.7736874146
 40
1.0
 40
1.0
 40
1.0
 40
1.0
 10
11.6169854576
 20
13.040157006
 30
0.0
 10
11.6124478362
 20
13.040157006
 30
0.0
 10
11.6035319015
 20
13.0411360309
 30
0.0
 10
11.591176122
 20
13.0453270687
 30
0.0
 10
11.5806292747
 20
13.0516285313
 30
0.0
 10
11.5747914362
 20
13.0569708961
 30
0.0
 10
11.5722641223
 20
13.0597926342
 30
0.0
  0
SPLINE
  5
4F7
100
AcDbEntity
  8
0
100
AcDbSpline
 62
7
  6
CONTINUOUS
 70
0
 71
3
 72
21
 73
17
 74
0
 42
0.0000001
 43
0.0000001
 44
0.0000000001
 40
0.0
 40
0.0
 40
0.0
 40
0.0
 40
0.1418035858
 40
0.2085172615
 40
0.2721412274
 40
0.3326750861
 40
0.390357262
 40
0.4458028749
 40
0.5000002116
 40
0.5541975975
 40
0.6096432469
 40
0.6673253495
 40
0.7278590277
 40
0.7914828677
 40
0.8581964207
 40
1.0
 40
1.0
 40
1.0
 40
1.0
 10
14.7260562801
 20
12.4296126165
 30
0.0
 10
14.7366125156
 20
12.4380059948
 30
0.0
 10
14.7516182026
 20
12.4510666099
 30
0.0
 10
14.7692283204
 20
12.4700664492
 30
0.0
 10
14.7803755585
 20
12.4844302492
 30
0.0
 10
14.7894707406
 20
12.4991871844
 30
0.0
 10
14.7962454491
 20
12.5143118149
 30
0.0
 10
14.8004472599
 20
12.5297368194
 30
0.0
 10
14.8018686486
 20
12.5453389204
 30
0.0
 10
14.8004472696
 20
12.560941034
 30
0.0
 10
14.7962453511
 20
12.5763660063
 30
0.0
 10
14.7894707334
 20
12.5914906524
 30
0.0
 10
14.7803754957
 20
12.606247516
 30
0.0
 10
14.7692282958
 20
12.620611289
 30
0.0
 10
14.7516181925
 20
12.6396111111
 30
0.0
 10
14.7366125151
 20
12.6526717174
 30
0.0
 10
14.7260562801
 20
12.6610650954
 30
0.0
  0
LINE
  5
4F8
100
AcDbEntity
  8
0
100
AcDbLine
 62
9
  6
CONTINUOUS
 10
13.2030219375
 20
18.7291688763
 11
13.203445888
 21
18.7260785149
  0
SPLINE
  5
4F9
100
AcDbEntity
  8
0
100
AcDbSpline
 62
9
  6
CONTINUOUS
 70
0
 71
3
 72
10
 73
6
 74
0
 42
0.0000001
 43
0.0000001
 44
0.0000000001
 40
0.0
 40
0.0
 40
0.0
 40
0.0
 40
0.2359496976
 40
0.4860157029
 40
1.0
 40
1.0
 40
1.0
 40
1.0
 10
13.2073766977
 20
18.7045448511
 30
0.0
 10
13.2095883392
 20
18.6945616722
 30
0.0
 10
13.2153060119
 20
18.6742268077
 30
0.0
 10
13.2318005208
 20
18.6341100512
 30
0.0
 10
13.2507748611
 20
18.6061083473
 30
0.0
 10
13.2662895726
 20
18.5901259699
 30
0.0
  0
SPLINE
  5
4FA
100
AcDbEntity
  8
0
100
AcDbSpline
 62
7
  6
CONTINUOUS
 70
0
 71
3
 72
11
 73
7
 74
0
 42
0.0000001
 43
0.0000001
 44
0.0000000001
 40
0.0
 40
0.0
 40
0.0
 40
0.0
 40
0.2500737118
 40
0.500106586
 40
0.7500742784
 40
1.0
 40
1.0
 40
1.0
 40
1.0
 10
14.7260562801
 20
12.8283054669
 30
0.0
 10
14.7369947814
 20
12.8457001109
 30
0.0
 10
14.7573624843
 20
12.8814784169
 30
0.0
 10
14.7816686426
 20
12.9382961047
 30
0.0
 10
14.797649169
 20
12.9980592727
 30
0.0
 10
14.8014004902
 20
13.0392220049
 30
0.0
 10
14.8014004902
 20
13.0597579458
 30
0.0
  0
SPLINE
  5
4FB
100
AcDbEntity
  8
0
100
AcDbSpline
 62
9
  6
CONTINUOUS
 70
0
 71
3
 72
34
 73
30
 74
0
 42
0.0000001
 43
0.0000001
 44
0.0000000001
 40
0.0
 40
0.0
 40
0.0
 40
0.0
 40
0.0002540689
 40
0.0007940878
 40
0.001634365
 40
0.0027822787
 40
0.0042439963
 40
0.0060253278
 40
0.0105695081
 40
0.0164598909
 40
0.0237413804
 40
0.0324463574
 40
0.0425854115
 40
0.0541669016
 40
0.0671991667
 40
0.097695598
 40
0.1345172046
 40
0.1782766147
 40
0.2297475812
 40
0.289969234
 40
0.3605207025
 40
0.443886822
 40
0.4914537759
 40
0.5437526623
 40
0.6016101801
 40
0.6661289852
 40
0.8188602835
 40
0.9071459308
 40
1.0
 40
1.0
 40
1.0
 40
1.0
 10
6.9920206154
 20
9.2007411395
 30
0.0
 10
6.9920024478
 20
9.200766131
 30
0.0
 10
6.9918996573
 20
9.2007933308
 30
0.0
 10
6.9917144958
 20
9.2008413214
 30
0.0
 10
6.9914069003
 20
9.2008913526
 30
0.0
 10
6.9909938148
 20
9.2009537928
 30
0.0
 10
6.9904639248
 20
9.201025164
 30
0.0
 10
6.9895250615
 20
9.2011465321
 30
0.0
 10
6.9880506871
 20
9.2013303164
 30
0.0
 10
6.9859133835
 20
9.2016007607
 30
0.0
 10
6.9832755752
 20
9.2019473317
 30
0.0
 10
6.9801275901
 20
9.2023764791
 30
0.0
 10
6.9764623104
 20
9.2028824053
 30
0.0
 10
6.9722759113
 20
9.203461533
 30
0.0
 10
6.9656364873
 20
9.2043746323
 30
0.0
 10
6.9559527306
 20
9.2056801935
 30
0.0
 10
6.9425611826
 20
9.2074505829
 30
0.0
 10
6.9266375329
 20
9.209529402
 30
0.0
 10
6.9078860073
 20
9.2119290438
 30
0.0
 10
6.8858967735
 20
9.2146957243
 30
0.0
 10
6.8600609355
 20
9.2179604798
 30
0.0
 10
6.8357551184
 20
9.2210594881
 30
0.0
 10
6.8136749202
 20
9.2240584873
 30
0.0
 10
6.7946831579
 20
9.2267424867
 30
0.0
 10
6.7736694453
 20
9.2298585188
 30
0.0
 10
6.7407108327
 20
9.2356183645
 30
0.0
 10
6.7044869549
 20
9.2441598052
 30
0.0
 10
6.6657766609
 20
9.2564579598
 30
0.0
 10
6.6451316151
 20
9.2641761379
 30
0.0
 10
6.6346672654
 20
9.2684193631
 30
0.0
  0
SPLINE
  5
4FC
100
AcDbEntity
  8
0
100
AcDbSpline
 62
9
  6
CONTINUOUS
 70
0
 71
3
 72
11
 73
7
 74
0
 42
0.0000001
 43
0.0000001
 44
0.0000000001
 40
0.0
 40
0.0
 40
0.0
 40
0.0
 40
0.0687611572
 40
0.2693204662
 40
0.5870688961
 40
1.0
 40
1.0
 40
1.0
 40
1.0
 10
14.1952446342
 20
11.8434092849
 30
0.0
 10
14.1884305527
 20
11.8436918399
 30
0.0
 10
14.1617401246
 20
11.8447643211
 30
0.0
 10
14.1035505125
 20
11.846860876
 30
0.0
 10
14.011237646
 20
11.8499031126
 30
0.0
 10
13.9387981377
 20
11.8520410723
 30
0.0
 10
13.8978585168
 20
11.8531875261
 30
0.0
  0
SPLINE
  5
4FD
100
AcDbEntity
  8
0
100
AcDbSpline
 62
7
  6
CONTINUOUS
 70
0
 71
3
 72
21
 73
17
 74
0
 42
0.0000001
 43
0.0000001
 44
0.0000000001
 40
0.0
 40
0.0
 40
0.0
 40
0.0
 40
0.1418035858
 40
0.2085172615
 40
0.2721412274
 40
0.3326750861
 40
0.390357262
 40
0.4458028749
 40
0.5000002116
 40
0.5541975975
 40
0.6096432469
 40
0.6673253495
 40
0.7278590277
 40
0.7914828677
 40
0.8581964207
 40
1.0
 40
1.0
 40
1.0
 40
1.0
 10
12.9973519394
 20
14.0349390918
 30
0.0
 10
13.0057453177
 20
14.0243828563
 30
0.0
 10
13.0188059328
 20
14.0093771694
 30
0.0
 10
13.0378057721
 20
13.9917670515
 30
0.0
 10
13.0521695721
 20
13.9806198134
 30
0.0
 10
13.0669265073
 20
13.9715246314
 30
0.0
 10
13.0820511378
 20
13.9647499229
 30
0.0
 10
13.0974761423
 20
13.9605481121
 30
0.0
 10
13.1130782433
 20
13.9591267233
 30
0.0
 10
13.1286803569
 20
13.9605481024
 30
0.0
 10
13.1441053292
 20
13.9647500209
 30
0.0
 10
13.1592299752
 20
13.9715246385
 30
0.0
 10
13.1739868389
 20
13.9806198763
 30
0.0
 10
13.1883506119
 20
13.9917670761
 30
0.0
 10
13.207350434
 20
14.0093771794
 30
0.0
 10
13.2204110403
 20
14.0243828568
 30
0.0
 10
13.2288044183
 20
14.0349390918
 30
0.0
  0
SPLINE
  5
4FE
100
AcDbEntity
  8
0
100
AcDbSpline
 62
7
  6
CONTINUOUS
 70
0
 71
3
 72
21
 73
17
 74
0
 42
0.0000001
 43
0.0000001
 44
0.0000000001
 40
0.0
 40
0.0
 40
0.0
 40
0.0
 40
0.1418035858
 40
0.2085172615
 40
0.2721412274
 40
0.3326750861
 40
0.390357262
 40
0.4458028749
 40
0.5000002116
 40
0.5541975975
 40
0.6096432469
 40
0.6673253495
 40
0.7278590277
 40
0.7914828677
 40
0.8581964207
 40
1.0
 40
1.0
 40
1.0
 40
1.0
 10
14.026190119
 20
14.0349390918
 30
0.0
 10
14.0345834974
 20
14.0243828563
 30
0.0
 10
14.0476441125
 20
14.0093771694
 30
0.0
 10
14.0666439518
 20
13.9917670515
 30
0.0
 10
14.0810077518
 20
13.9806198134
 30
0.0
 10
14.095764687
 20
13.9715246314
 30
0.0
 10
14.1108893175
 20
13.9647499229
 30
0.0
 10
14.126314322
 20
13.9605481121
 30
0.0
 10
14.141916423
 20
13.9591267233
 30
0.0
 10
14.1575185366
 20
13.9605481024
 30
0.0
 10
14.1729435089
 20
13.9647500209
 30
0.0
 10
14.1880681549
 20
13.9715246385
 30
0.0
 10
14.2028250186
 20
13.9806198763
 30
0.0
 10
14.2171887916
 20
13.9917670761
 30
0.0
 10
14.2361886137
 20
14.0093771794
 30
0.0
 10
14.24924922
 20
14.0243828568
 30
0.0
 10
14.257642598
 20
14.0349390918
 30
0.0
  0
SPLINE
  5
4FF
100
AcDbEntity
  8
0
100
AcDbSpline
 62
9
  6
CONTINUOUS
 70
0
 71
3
 72
11
 73
7
 74
0
 42
0.0000001
 43
0.0000001
 44
0.0000000001
 40
0.0
 40
0.0
 40
0.0
 40
0.0
 40
0.3064210966
 40
0.4496987943
 40
0.5838598329
 40
1.0
 40
1.0
 40
1.0
 40
1.0
 10
13.910062909
 20
12.2803352397
 30
0.0
 10
13.9096937521
 20
12.2787331615
 30
0.0
 10
13.9089053081
 20
12.2764319076
 30
0.0
 10
13.9073996772
 20
12.2736629469
 30
0.0
 10
13.9052992537
 20
12.2706624995
 30
0.0
 10
13.9025950772
 20
12.2684206219
 30
0.0
 10
13.9003623355
 20
12.2684203445
 30
0.0
  0
LINE
  5
500
100
AcDbEntity
  8
0
100
AcDbLine
 62
9
  6
CONTINUOUS
 10
13.3574973961
 20
12.279704624
 11
13.3512705592
 21
12.2800175169
  0
LINE
  5
501
100
AcDbEntity
  8
0
100
AcDbLine
 62
9
  6
CONTINUOUS
 10
13.3512705592
 20
12.2800175169
 11
13.3449303043
 21
12.2803361515
  0
SPLINE
  5
502
100
AcDbEntity
  8
0
100
AcDbSpline
 62
9
  6
CONTINUOUS
 70
0
 71
3
 72
9
 73
5
 74
0
 42
0.0000001
 43
0.0000001
 44
0.0000000001
 40
0.0
 40
0.0
 40
0.0
 40
0.0
 40
0.3009385095
 40
1.0
 40
1.0
 40
1.0
 40
1.0
 10
13.2360011988
 20
18.8188694074
 30
0.0
 10
13.2351514558
 20
18.818129815
 30
0.0
 10
13.2322763336
 20
18.8157332626
 30
0.0
 10
13.2292086621
 20
18.813559057
 30
0.0
 10
13.2269509685
 20
18.8122359096
 30
0.0
  0
SPLINE
  5
503
100
AcDbEntity
  8
0
100
AcDbSpline
 62
9
  6
CONTINUOUS
 70
0
 71
3
 72
16
 73
12
 74
0
 42
0.0000001
 43
0.0000001
 44
0.0000000001
 40
0.0
 40
0.0
 40
0.0
 40
0.0
 40
0.4365441392
 40
0.6078901647
 40
0.7482562669
 40
0.8577367262
 40
0.9363047913
 40
0.9639563279
 40
0.9838150053
 40
0.9958440132
 40
1.0
 40
1.0
 40
1.0
 40
1.0
 10
13.2269509685
 20
18.8122359096
 30
0.0
 10
13.2261759268
 20
18.8117816874
 30
0.0
 10
13.2250766117
 20
18.8111816596
 30
0.0
 10
13.2236849216
 20
18.8105222093
 30
0.0
 10
13.2228885866
 20
18.8101794152
 30
0.0
 10
13.2222593467
 20
18.8099328943
 30
0.0
 10
13.2218394504
 20
18.8097875193
 30
0.0
 10
13.2215937824
 20
18.8097058272
 30
0.0
 10
13.2214742145
 20
18.8096743357
 30
0.0
 10
13.2214070767
 20
18.8096465359
 30
0.0
 10
13.2213706153
 20
18.8096452814
 30
0.0
 10
13.2213642765
 20
18.8096395401
 30
0.0
  0
SPLINE
  5
504
100
AcDbEntity
  8
0
100
AcDbSpline
 62
7
  6
CONTINUOUS
 70
0
 71
3
 72
21
 73
17
 74
0
 42
0.0000001
 43
0.0000001
 44
0.0000000001
 40
0.0
 40
0.0
 40
0.0
 40
0.0
 40
0.1418035853
 40
0.2085172607
 40
0.2721412267
 40
0.3326750859
 40
0.3903572622
 40
0.4458028752
 40
0.500000212
 40
0.5541975979
 40
0.6096432465
 40
0.6673253488
 40
0.7278590269
 40
0.7914828669
 40
0.8581964202
 40
1.0
 40
1.0
 40
1.0
 40
1.0
 10
14.257642598
 20
14.3811122328
 30
0.0
 10
14.2492492197
 20
14.3916684683
 30
0.0
 10
14.2361886045
 20
14.4066741551
 30
0.0
 10
14.2171887654
 20
14.424284273
 30
0.0
 10
14.2028249653
 20
14.4354315111
 30
0.0
 10
14.1880680301
 20
14.4445266932
 30
0.0
 10
14.1729433995
 20
14.4513014018
 30
0.0
 10
14.157518395
 20
14.4555032126
 30
0.0
 10
14.141916294
 20
14.4569246013
 30
0.0
 10
14.1263141804
 20
14.4555032223
 30
0.0
 10
14.1108892081
 20
14.4513013039
 30
0.0
 10
14.0957645623
 20
14.4445266861
 30
0.0
 10
14.0810076986
 20
14.4354314485
 30
0.0
 10
14.0666439256
 20
14.4242842486
 30
0.0
 10
14.0476441033
 20
14.4066741453
 30
0.0
 10
14.034583497
 20
14.3916684679
 30
0.0
 10
14.026190119
 20
14.3811122328
 30
0.0
  0
SPLINE
  5
505
100
AcDbEntity
  8
0
100
AcDbSpline
 62
7
  6
CONTINUOUS
 70
0
 71
3
 72
21
 73
17
 74
0
 42
0.0000001
 43
0.0000001
 44
0.0000000001
 40
0.0
 40
0.0
 40
0.0
 40
0.0
 40
0.1418035853
 40
0.2085172607
 40
0.2721412267
 40
0.3326750859
 40
0.3903572622
 40
0.4458028752
 40
0.500000212
 40
0.5541975979
 40
0.6096432465
 40
0.6673253488
 40
0.7278590269
 40
0.7914828669
 40
0.8581964202
 40
1.0
 40
1.0
 40
1.0
 40
1.0
 10
13.2288044183
 20
14.3811122328
 30
0.0
 10
13.22041104
 20
14.3916684683
 30
0.0
 10
13.2073504249
 20
14.4066741551
 30
0.0
 10
13.1883505857
 20
14.424284273
 30
0.0
 10
13.1739867856
 20
14.4354315111
 30
0.0
 10
13.1592298504
 20
14.4445266932
 30
0.0
 10
13.1441052198
 20
14.4513014018
 30
0.0
 10
13.1286802153
 20
14.4555032126
 30
0.0
 10
13.1130781143
 20
14.4569246013
 30
0.0
 10
13.0974760007
 20
14.4555032223
 30
0.0
 10
13.0820510284
 20
14.4513013039
 30
0.0
 10
13.0669263826
 20
14.4445266861
 30
0.0
 10
13.0521695189
 20
14.4354314485
 30
0.0
 10
13.0378057459
 20
14.4242842486
 30
0.0
 10
13.0188059237
 20
14.4066741453
 30
0.0
 10
13.0057453173
 20
14.3916684679
 30
0.0
 10
12.9973519394
 20
14.3811122328
 30
0.0
  0
SPLINE
  5
506
100
AcDbEntity
  8
0
100
AcDbSpline
 62
9
  6
CONTINUOUS
 70
0
 71
3
 72
21
 73
17
 74
0
 42
0.0000001
 43
0.0000001
 44
0.0000000001
 40
0.0
 40
0.0
 40
0.0
 40
0.0
 40
0.2370873736
 40
0.4404840895
 40
0.6115549
 40
0.751293106
 40
0.8095210096
 40
0.859990982
 40
0.9027048139
 40
0.9376642933
 40
0.9648712202
 40
0.9843274482
 40
0.9911496954
 40
0.9960351221
 40
0.9989843145
 40
1.0
 40
1.0
 40
1.0
 40
1.0
 10
14.0191266806
 20
18.8191276013
 30
0.0
 10
14.0201745493
 20
18.8182227861
 30
0.0
 10
14.0221582126
 20
18.8165838213
 30
0.0
 10
14.0250003402
 20
18.8144203724
 30
0.0
 10
14.0274434114
 20
18.812674379
 30
0.0
 10
14.0292061436
 20
18.8114347707
 30
0.0
 10
14.0303933631
 20
18.8106010652
 30
0.0
 10
14.0311176935
 20
18.8100939509
 30
0.0
 10
14.0317313066
 20
18.8096659264
 30
0.0
 10
14.0322341999
 20
18.8093157196
 30
0.0
 10
14.0326260542
 20
18.8090460704
 30
0.0
 10
14.0328836934
 20
18.8088660048
 30
0.0
 10
14.0330338845
 20
18.8087679839
 30
0.0
 10
14.033105463
 20
18.8087132165
 30
0.0
 10
14.0331477085
 20
18.8086973848
 30
0.0
 10
14.0331683723
 20
18.8086719114
 30
0.0
 10
14.0331734112
 20
18.8086750397
 30
0.0
  0
SPLINE
  5
507
100
AcDbEntity
  8
0
100
AcDbSpline
 62
9
  6
CONTINUOUS
 70
0
 71
3
 72
9
 73
5
 74
0
 42
0.0000001
 43
0.0000001
 44
0.0000000001
 40
0.0
 40
0.0
 40
0.0
 40
0.0
 40
0.5063734437
 40
1.0
 40
1.0
 40
1.0
 40
1.0
 10
14.0381473432
 20
12.5248162061
 30
0.0
 10
14.0186627861
 20
12.4980708195
 30
0.0
 10
13.9761579972
 20
12.4480388411
 30
0.0
 10
13.9258419615
 20
12.4057398417
 30
0.0
 10
13.8993426289
 20
12.3873464712
 30
0.0
  0
SPLINE
  5
508
100
AcDbEntity
  8
0
100
AcDbSpline
 62
9
  6
CONTINUOUS
 70
0
 71
3
 72
9
 73
5
 74
0
 42
0.0000001
 43
0.0000001
 44
0.0000000001
 40
0.0
 40
0.0
 40
0.0
 40
0.0
 40
0.493527545
 40
1.0
 40
1.0
 40
1.0
 40
1.0
 10
13.3564094846
 20
12.386826326
 30
0.0
 10
13.3294884208
 20
12.4054525794
 30
0.0
 10
13.2784201606
 20
12.4484139139
 30
0.0
 10
13.2353721713
 20
12.499286997
 30
0.0
 10
13.2156590548
 20
12.5264904955
 30
0.0
  0
LINE
  5
509
100
AcDbEntity
  8
0
100
AcDbLine
 62
9
  6
CONTINUOUS
 10
13.9100637825
 20
12.2803360121
 11
13.8974972305
 21
12.2797045143
  0
SPLINE
  5
50A
100
AcDbEntity
  8
0
100
AcDbSpline
 62
7
  6
CONTINUOUS
 70
0
 71
3
 72
10
 73
6
 74
0
 42
0.0000001
 43
0.0000001
 44
0.0000000001
 40
0.0
 40
0.0
 40
0.0
 40
0.0
 40
0.1877328958
 40
0.4218480527
 40
1.0
 40
1.0
 40
1.0
 40
1.0
 10
11.6617068172
 20
13.4085082603
 30
0.0
 10
11.6589205277
 20
13.4082123772
 30
0.0
 10
11.6526449728
 20
13.407684533
 30
0.0
 10
11.6377412623
 20
13.406863735
 30
0.0
 10
11.6256145056
 20
13.4066419785
 30
0.0
 10
11.6169854576
 20
13.4066419785
 30
0.0
  0
SPLINE
  5
50B
100
AcDbEntity
  8
0
100
AcDbSpline
 62
9
  6
CONTINUOUS
 70
0
 71
3
 72
9
 73
5
 74
0
 42
0.0000001
 43
0.0000001
 44
0.0000000001
 40
0.0
 40
0.0
 40
0.0
 40
0.0
 40
0.4777985251
 40
1.0
 40
1.0
 40
1.0
 40
1.0
 10
14.0675867627
 20
20.3188914367
 30
0.0
 10
14.0752060048
 20
20.3178495624
 30
0.0
 10
14.0911874322
 20
20.3159238148
 30
0.0
 10
14.1072052593
 20
20.3143385036
 30
0.0
 10
14.1155772959
 20
20.313596996
 30
0.0
  0
SPLINE
  5
50C
100
AcDbEntity
  8
0
100
AcDbSpline
 62
9
  6
CONTINUOUS
 70
0
 71
3
 72
9
 73
5
 74
0
 42
0.0000001
 43
0.0000001
 44
0.0000000001
 40
0.0
 40
0.0
 40
0.0
 40
0.0
 40
0.5226999108
 40
1.0
 40
1.0
 40
1.0
 40
1.0
 10
13.1394172414
 20
20.313596996
 30
0.0
 10
13.1478694224
 20
20.314345602
 30
0.0
 10
13.1640250365
 20
20.315946039
 30
0.0
 10
13.1801435084
 20
20.3178935172
 30
0.0
 10
13.1878197027
 20
20.318947891
 30
0.0
  0
SPLINE
  5
50D
100
AcDbEntity
  8
0
100
AcDbSpline
 62
7
  6
CONTINUOUS
 70
0
 71
3
 72
9
 73
5
 74
0
 42
0.0000001
 43
0.0000001
 44
0.0000000001
 40
0.0
 40
0.0
 40
0.0
 40
0.0
 40
0.2554137734
 40
1.0
 40
1.0
 40
1.0
 40
1.0
 10
11.6516258705
 20
13.5950020447
 30
0.0
 10
11.6525806893
 20
13.5942548492
 30
0.0
 10
11.6562278699
 20
13.5912141755
 30
0.0
 10
11.6595072961
 20
13.5877370758
 30
0.0
 10
11.6617068172
 20
13.5849703619
 30
0.0
  0
SPLINE
  5
50E
100
AcDbEntity
  8
0
100
AcDbSpline
 62
7
  6
CONTINUOUS
 70
0
 71
3
 72
9
 73
5
 74
0
 42
0.0000001
 43
0.0000001
 44
0.0000000001
 40
0.0
 40
0.0
 40
0.0
 40
0.0
 40
0.2457498228
 40
1.0
 40
1.0
 40
1.0
 40
1.0
 10
11.5722640981
 20
13.5849703619
 30
0.0
 10
11.5728908408
 20
13.5857587234
 30
0.0
 10
11.5755176497
 20
13.5889049376
 30
0.0
 10
11.5784592757
 20
13.5917900921
 30
0.0
 10
11.5808291292
 20
13.5937746701
 30
0.0
  0
SPLINE
  5
50F
100
AcDbEntity
  8
0
100
AcDbSpline
 62
7
  6
CONTINUOUS
 70
0
 71
3
 72
9
 73
5
 74
0
 42
0.0000001
 43
0.0000001
 44
0.0000000001
 40
0.0
 40
0.0
 40
0.0
 40
0.0
 40
0.487891093
 40
1.0
 40
1.0
 40
1.0
 40
1.0
 10
11.5808291292
 20
13.5937746701
 30
0.0
 10
11.5842408819
 20
13.5966317619
 30
0.0
 10
11.5919230505
 20
13.6017132269
 30
0.0
 10
11.6006218091
 20
13.6048063533
 30
0.0
 10
11.6051854112
 20
13.6058020007
 30
0.0
  0
SPLINE
  5
510
100
AcDbEntity
  8
0
100
AcDbSpline
 62
7
  6
CONTINUOUS
 70
0
 71
3
 72
9
 73
5
 74
0
 42
0.0000001
 43
0.0000001
 44
0.0000000001
 40
0.0
 40
0.0
 40
0.0
 40
0.0
 40
0.5048687374
 40
1.0
 40
1.0
 40
1.0
 40
1.0
 10
11.6169854576
 20
13.6000111541
 30
0.0
 10
11.621072879
 20
13.6000111541
 30
0.0
 10
11.629198104
 20
13.5990445202
 30
0.0
 10
11.6368720778
 20
13.5962353967
 30
0.0
 10
11.6404638538
 20
13.5944555336
 30
0.0
  0
SPLINE
  5
511
100
AcDbEntity
  8
0
100
AcDbSpline
 62
7
  6
CONTINUOUS
 70
0
 71
3
 72
9
 73
5
 74
0
 42
0.0000001
 43
0.0000001
 44
0.0000000001
 40
0.0
 40
0.0
 40
0.0
 40
0.0
 40
0.253642129
 40
1.0
 40
1.0
 40
1.0
 40
1.0
 10
11.6404638538
 20
13.5944555336
 30
0.0
 10
11.6414753489
 20
13.5939542988
 30
0.0
 10
11.6454015535
 20
13.5918552655
 30
0.0
 10
11.6490733694
 20
13.5892864046
 30
0.0
 10
11.6516258705
 20
13.5871606113
 30
0.0
  0
SPLINE
  5
512
100
AcDbEntity
  8
0
100
AcDbSpline
 62
9
  6
CONTINUOUS
 70
0
 71
3
 72
9
 73
5
 74
0
 42
0.0000001
 43
0.0000001
 44
0.0000000001
 40
0.0
 40
0.0
 40
0.0
 40
0.0
 40
0.2737961646
 40
1.0
 40
1.0
 40
1.0
 40
1.0
 10
13.3495862718
 20
19.8655659722
 30
0.0
 10
13.3457117544
 20
19.8668377067
 30
0.0
 10
13.3315772348
 20
19.8715321002
 30
0.0
 10
13.3175116525
 20
19.8764398365
 30
0.0
 10
13.3073736485
 20
19.8802090247
 30
0.0
  0
SPLINE
  5
513
100
AcDbEntity
  8
0
100
AcDbSpline
 62
9
  6
CONTINUOUS
 70
0
 71
3
 72
9
 73
5
 74
0
 42
0.0000001
 43
0.0000001
 44
0.0000000001
 40
0.0
 40
0.0
 40
0.0
 40
0.0
 40
0.5392478745
 40
1.0
 40
1.0
 40
1.0
 40
1.0
 10
13.2936968019
 20
19.8854578522
 30
0.0
 10
13.2871431181
 20
19.8880607207
 30
0.0
 10
13.2750754873
 20
19.8931095118
 30
0.0
 10
13.2632907847
 20
19.8988015221
 30
0.0
 10
13.2579717165
 20
19.9016317507
 30
0.0
  0
SPLINE
  5
514
100
AcDbEntity
  8
0
100
AcDbSpline
 62
9
  6
CONTINUOUS
 70
0
 71
3
 72
9
 73
5
 74
0
 42
0.0000001
 43
0.0000001
 44
0.0000000001
 40
0.0
 40
0.0
 40
0.0
 40
0.0
 40
0.5512452446
 40
1.0
 40
1.0
 40
1.0
 40
1.0
 10
13.2579717165
 20
19.9016317507
 30
0.0
 10
13.2533198064
 20
19.9041069905
 30
0.0
 10
13.2450285742
 20
19.9088841784
 30
0.0
 10
13.2372677685
 20
19.9145266253
 30
0.0
 10
13.2340403237
 20
19.9173524577
 30
0.0
  0
SPLINE
  5
515
100
AcDbEntity
  8
0
100
AcDbSpline
 62
7
  6
CONTINUOUS
 70
0
 71
3
 72
9
 73
5
 74
0
 42
0.0000001
 43
0.0000001
 44
0.0000000001
 40
0.0
 40
0.0
 40
0.0
 40
0.0
 40
0.246453362
 40
1.0
 40
1.0
 40
1.0
 40
1.0
 10
11.5722640981
 20
13.5764844379
 30
0.0
 10
11.5729869023
 20
13.5774520441
 30
0.0
 10
11.5760256966
 20
13.5812973188
 30
0.0
 10
11.5795073099
 20
13.5847972544
 30
0.0
 10
11.5823449211
 20
13.5871605083
 30
0.0
  0
SPLINE
  5
516
100
AcDbEntity
  8
0
100
AcDbSpline
 62
7
  6
CONTINUOUS
 70
0
 71
3
 72
9
 73
5
 74
0
 42
0.0000001
 43
0.0000001
 44
0.0000000001
 40
0.0
 40
0.0
 40
0.0
 40
0.0
 40
0.4916617992
 40
1.0
 40
1.0
 40
1.0
 40
1.0
 10
11.5823449211
 20
13.5871605083
 30
0.0
 10
11.5855870133
 20
13.5898606269
 30
0.0
 10
11.5927909737
 20
13.5946645695
 30
0.0
 10
11.6009361224
 20
13.5976677824
 30
0.0
 10
11.6051854112
 20
13.5986544159
 30
0.0
  0
SPLINE
  5
517
100
AcDbEntity
  8
0
100
AcDbSpline
 62
9
  6
CONTINUOUS
 70
0
 71
3
 72
18
 73
14
 74
0
 42
0.0000001
 43
0.0000001
 44
0.0000000001
 40
0.0
 40
0.0
 40
0.0
 40
0.0
 40
0.1934199013
 40
0.3800575379
 40
0.551719337
 40
0.7021078413
 40
0.8256909838
 40
0.9180823079
 40
0.9514160311
 40
0.9759040624
 40
0.9848659372
 40
0.9917160208
 40
1.0
 40
1.0
 40
1.0
 40
1.0
 10
14.1354989297
 20
20.3118325457
 30
0.0
 10
14.140968696
 20
20.311348091
 30
0.0
 10
14.1517230489
 20
20.3104694723
 30
0.0
 10
14.1673507848
 20
20.3094065052
 30
0.0
 10
14.181773468
 20
20.3086556273
 30
0.0
 10
14.1944191429
 20
20.3082328645
 30
0.0
 10
14.2048210389
 20
20.3081636864
 30
0.0
 10
14.2118991243
 20
20.3083707907
 30
0.0
 10
14.2161484446
 20
20.3087892638
 30
0.0
 10
14.2180160027
 20
20.3090954459
 30
0.0
 10
14.219126797
 20
20.3094215
 30
0.0
 10
14.2197369877
 20
20.3096720646
 30
0.0
 10
14.2201428577
 20
20.309992202
 30
0.0
 10
14.2201642143
 20
20.310226412
 30
0.0
  0
SPLINE
  5
518
100
AcDbEntity
  8
0
100
AcDbSpline
 62
7
  6
CONTINUOUS
 70
0
 71
3
 72
9
 73
5
 74
0
 42
0.0000001
 43
0.0000001
 44
0.0000000001
 40
0.0
 40
0.0
 40
0.0
 40
0.0
 40
0.5034971417
 40
1.0
 40
1.0
 40
1.0
 40
1.0
 10
11.6169854576
 20
13.5885954303
 30
0.0
 10
11.6210757678
 20
13.5885954303
 30
0.0
 10
11.6292317377
 20
13.5875713832
 30
0.0
 10
11.6368865447
 20
13.584614518
 30
0.0
 10
11.6404630139
 20
13.5827496026
 30
0.0
  0
SPLINE
  5
519
100
AcDbEntity
  8
0
100
AcDbSpline
 62
7
  6
CONTINUOUS
 70
0
 71
3
 72
9
 73
5
 74
0
 42
0.0000001
 43
0.0000001
 44
0.0000000001
 40
0.0
 40
0.0
 40
0.0
 40
0.0
 40
0.2526085646
 40
1.0
 40
1.0
 40
1.0
 40
1.0
 10
11.6404630139
 20
13.5827496026
 30
0.0
 10
11.6414758725
 20
13.5822214572
 30
0.0
 10
11.6454182206
 20
13.5800031727
 30
0.0
 10
11.6490836773
 20
13.577300531
 30
0.0
 10
11.6516254066
 20
13.5750730126
 30
0.0
  0
SPLINE
  5
51A
100
AcDbEntity
  8
0
100
AcDbSpline
 62
7
  6
CONTINUOUS
 70
0
 71
3
 72
9
 73
5
 74
0
 42
0.0000001
 43
0.0000001
 44
0.0000000001
 40
0.0
 40
0.0
 40
0.0
 40
0.0
 40
0.2517476586
 40
1.0
 40
1.0
 40
1.0
 40
1.0
 10
11.6557560205
 20
13.5710959449
 30
0.0
 10
11.6562979378
 20
13.5705238939
 30
0.0
 10
11.6584082194
 20
13.5682117177
 30
0.0
 10
11.6603511138
 20
13.5657477078
 30
0.0
 10
11.6617068172
 20
13.563837905
 30
0.0
  0
SPLINE
  5
51B
100
AcDbEntity
  8
0
100
AcDbSpline
 62
7
  6
CONTINUOUS
 70
0
 71
3
 72
9
 73
5
 74
0
 42
0.0000001
 43
0.0000001
 44
0.0000000001
 40
0.0
 40
0.0
 40
0.0
 40
0.0
 40
0.2478671038
 40
1.0
 40
1.0
 40
1.0
 40
1.0
 10
11.5823450786
 20
13.5750726356
 30
0.0
 10
11.5831879806
 20
13.5758113515
 30
0.0
 10
11.5866706778
 20
13.5786960299
 30
0.0
 10
11.5904920795
 20
13.5811770147
 30
0.0
 10
11.5935076884
 20
13.5827494915
 30
0.0
  0
SPLINE
  5
51C
100
AcDbEntity
  8
0
100
AcDbSpline
 62
7
  6
CONTINUOUS
 70
0
 71
3
 72
9
 73
5
 74
0
 42
0.0000001
 43
0.0000001
 44
0.0000000001
 40
0.0
 40
0.0
 40
0.0
 40
0.0
 40
0.2482466032
 40
1.0
 40
1.0
 40
1.0
 40
1.0
 10
11.5935076884
 20
13.5827494915
 30
0.0
 10
11.5944250237
 20
13.5832278322
 30
0.0
 10
11.5981748526
 20
13.5850476044
 30
0.0
 10
11.6021421682
 20
13.5864241513
 30
0.0
 10
11.6051855512
 20
13.5871677471
 30
0.0
  0
SPLINE
  5
51D
100
AcDbEntity
  8
0
100
AcDbSpline
 62
9
  6
CONTINUOUS
 70
0
 71
3
 72
15
 73
11
 74
0
 42
0.0000001
 43
0.0000001
 44
0.0000000001
 40
0.0
 40
0.0
 40
0.0
 40
0.0
 40
0.0269765821
 40
0.0493930359
 40
0.0789518389
 40
0.115924337
 40
0.1604073887
 40
0.2719427828
 40
0.5827436083
 40
1.0
 40
1.0
 40
1.0
 40
1.0
 10
14.2646078037
 20
20.8095956419
 30
0.0
 10
14.2646078037
 20
20.8093688715
 30
0.0
 10
14.2642292176
 20
20.8090296097
 30
0.0
 10
14.2636403747
 20
20.808781211
 30
0.0
 10
14.2629165158
 20
20.8085571637
 30
0.0
 10
14.2620065342
 20
20.8083617963
 30
0.0
 10
14.2604031966
 20
20.8081019824
 30
0.0
 10
14.2564964908
 20
20.8077160701
 30
0.0
 10
14.2494364333
 20
20.8074956667
 30
0.0
 10
14.243316366
 20
20.8075343605
 30
0.0
 10
14.2398094301
 20
20.8075993745
 30
0.0
  0
SPLINE
  5
51E
100
AcDbEntity
  8
0
100
AcDbSpline
 62
9
  6
CONTINUOUS
 70
0
 71
3
 72
9
 73
5
 74
0
 42
0.0000001
 43
0.0000001
 44
0.0000000001
 40
0.0
 40
0.0
 40
0.0
 40
0.0
 40
0.2238782924
 40
1.0
 40
1.0
 40
1.0
 40
1.0
 10
14.2398094301
 20
20.8075993745
 30
0.0
 10
14.237758088
 20
20.8076374037
 30
0.0
 10
14.2285965842
 20
20.8078737847
 30
0.0
 10
14.2194415305
 20
20.8083236815
 30
0.0
 10
14.2123414967
 20
20.8087468865
 30
0.0
  0
SPLINE
  5
51F
100
AcDbEntity
  8
0
100
AcDbSpline
 62
9
  6
CONTINUOUS
 70
0
 71
3
 72
16
 73
12
 74
0
 42
0.0000001
 43
0.0000001
 44
0.0000000001
 40
0.0
 40
0.0
 40
0.0
 40
0.0
 40
0.3627062917
 40
0.5304161065
 40
0.6801089259
 40
0.80615858
 40
0.903889909
 40
0.940801988
 40
0.9692842086
 40
0.9890960717
 40
1.0
 40
1.0
 40
1.0
 40
1.0
 10
14.1799408602
 20
20.8111652555
 30
0.0
 10
14.1809130517
 20
20.8220884316
 30
0.0
 10
14.1823165108
 20
20.8380639561
 30
0.0
 10
14.1840752328
 20
20.858551568
 30
0.0
 10
14.1852014591
 20
20.8719119006
 30
0.0
 10
14.1861262301
 20
20.8831658437
 30
0.0
 10
14.1867506122
 20
20.891023192
 30
0.0
 10
14.1871173769
 20
20.8959415002
 30
0.0
 10
14.1873001017
 20
20.8985114312
 30
0.0
 10
14.187407725
 20
20.9002976336
 30
0.0
 10
14.1874580855
 20
20.9012255766
 30
0.0
 10
14.1874580855
 20
20.9015552548
 30
0.0
  0
SPLINE
  5
520
100
AcDbEntity
  8
0
100
AcDbSpline
 62
7
  6
CONTINUOUS
 70
0
 71
3
 72
9
 73
5
 74
0
 42
0.0000001
 43
0.0000001
 44
0.0000000001
 40
0.0
 40
0.0
 40
0.0
 40
0.0
 40
0.502309883
 40
1.0
 40
1.0
 40
1.0
 40
1.0
 10
11.6169854576
 20
13.5729215794
 30
0.0
 10
11.6210786007
 20
13.5729215794
 30
0.0
 10
11.6292619388
 20
13.5718484381
 30
0.0
 10
11.63690016
 20
13.5687675004
 30
0.0
 10
11.6404638538
 20
13.5668317439
 30
0.0
  0
SPLINE
  5
521
100
AcDbEntity
  8
0
100
AcDbSpline
 62
7
  6
CONTINUOUS
 70
0
 71
3
 72
9
 73
5
 74
0
 42
0.0000001
 43
0.0000001
 44
0.0000000001
 40
0.0
 40
0.0
 40
0.0
 40
0.0
 40
0.2517513948
 40
1.0
 40
1.0
 40
1.0
 40
1.0
 10
11.6404638538
 20
13.5668317439
 30
0.0
 10
11.6414777989
 20
13.5662809809
 30
0.0
 10
11.6454333635
 20
13.5639620411
 30
0.0
 10
11.6490930577
 20
13.5611475905
 30
0.0
 10
11.6516258705
 20
13.5588353597
 30
0.0
  0
SPLINE
  5
522
100
AcDbEntity
  8
0
100
AcDbSpline
 62
7
  6
CONTINUOUS
 70
0
 71
3
 72
9
 73
5
 74
0
 42
0.0000001
 43
0.0000001
 44
0.0000000001
 40
0.0
 40
0.0
 40
0.0
 40
0.0
 40
0.2519729771
 40
1.0
 40
1.0
 40
1.0
 40
1.0
 10
11.6516258705
 20
13.5588353597
 30
0.0
 10
11.6525852506
 20
13.5579595318
 30
0.0
 10
11.656281292
 20
13.5543624463
 30
0.0
 10
11.6595351088
 20
13.5503193741
 30
0.0
 10
11.6617068172
 20
13.5471325914
 30
0.0
  0
SPLINE
  5
523
100
AcDbEntity
  8
0
100
AcDbSpline
 62
7
  6
CONTINUOUS
 70
0
 71
3
 72
9
 73
5
 74
0
 42
0.0000001
 43
0.0000001
 44
0.0000000001
 40
0.0
 40
0.0
 40
0.0
 40
0.0
 40
0.2483964145
 40
1.0
 40
1.0
 40
1.0
 40
1.0
 10
11.5722640981
 20
13.5471325914
 30
0.0
 10
11.5729851835
 20
13.548190718
 30
0.0
 10
11.5759994645
 20
13.5523727813
 30
0.0
 10
11.5794835009
 20
13.5562230126
 30
0.0
 10
11.5823449211
 20
13.5588352468
 30
0.0
  0
SPLINE
  5
524
100
AcDbEntity
  8
0
100
AcDbSpline
 62
7
  6
CONTINUOUS
 70
0
 71
3
 72
9
 73
5
 74
0
 42
0.0000001
 43
0.0000001
 44
0.0000000001
 40
0.0
 40
0.0
 40
0.0
 40
0.0
 40
0.2487342435
 40
1.0
 40
1.0
 40
1.0
 40
1.0
 10
11.5823449211
 20
13.5588352468
 30
0.0
 10
11.5831868538
 20
13.55960386
 30
0.0
 10
11.5866570632
 20
13.5625983777
 30
0.0
 10
11.5904817648
 20
13.5651884715
 30
0.0
 10
11.5935074505
 20
13.5668319553
 30
0.0
  0
SPLINE
  5
525
100
AcDbEntity
  8
0
100
AcDbSpline
 62
7
  6
CONTINUOUS
 70
0
 71
3
 72
9
 73
5
 74
0
 42
0.0000001
 43
0.0000001
 44
0.0000000001
 40
0.0
 40
0.0
 40
0.0
 40
0.0
 40
0.2489072329
 40
1.0
 40
1.0
 40
1.0
 40
1.0
 10
11.5935074505
 20
13.5668319553
 30
0.0
 10
11.5944238988
 20
13.5673297492
 30
0.0
 10
11.5981636201
 20
13.5692205707
 30
0.0
 10
11.6021355756
 20
13.5706581531
 30
0.0
 10
11.6051854112
 20
13.5714343806
 30
0.0
  0
SPLINE
  5
526
100
AcDbEntity
  8
0
100
AcDbSpline
 62
7
  6
CONTINUOUS
 70
0
 71
3
 72
9
 73
5
 74
0
 42
0.0000001
 43
0.0000001
 44
0.0000000001
 40
0.0
 40
0.0
 40
0.0
 40
0.0
 40
0.5013373689
 40
1.0
 40
1.0
 40
1.0
 40
1.0
 10
11.6169854576
 20
13.5531158084
 30
0.0
 10
11.6210808125
 20
13.5531158084
 30
0.0
 10
11.6292864037
 20
13.5520029511
 30
0.0
 10
11.6369105142
 20
13.5488232258
 30
0.0
 10
11.6404638538
 20
13.5468314366
 30
0.0
  0
SPLINE
  5
527
100
AcDbEntity
  8
0
100
AcDbSpline
 62
7
  6
CONTINUOUS
 70
0
 71
3
 72
9
 73
5
 74
0
 42
0.0000001
 43
0.0000001
 44
0.0000000001
 40
0.0
 40
0.0
 40
0.0
 40
0.0
 40
0.2510741628
 40
1.0
 40
1.0
 40
1.0
 40
1.0
 10
11.6404638538
 20
13.5468314366
 30
0.0
 10
11.6414786958
 20
13.546262577
 30
0.0
 10
11.6454448523
 20
13.543862816
 30
0.0
 10
11.6490999291
 20
13.5409592326
 30
0.0
 10
11.6516258705
 20
13.5385796124
 30
0.0
  0
SPLINE
  5
528
100
AcDbEntity
  8
0
100
AcDbSpline
 62
7
  6
CONTINUOUS
 70
0
 71
3
 72
9
 73
5
 74
0
 42
0.0000001
 43
0.0000001
 44
0.0000000001
 40
0.0
 40
0.0
 40
0.0
 40
0.0
 40
0.2490492246
 40
1.0
 40
1.0
 40
1.0
 40
1.0
 10
11.5722640981
 20
13.5265030059
 30
0.0
 10
11.5729846187
 20
13.5275940785
 30
0.0
 10
11.5759907499
 20
13.5318983976
 30
0.0
 10
11.5794752808
 20
13.5358760714
 30
0.0
 10
11.5823449211
 20
13.5385794959
 30
0.0
  0
SPLINE
  5
529
100
AcDbEntity
  8
0
100
AcDbSpline
 62
7
  6
CONTINUOUS
 70
0
 71
3
 72
9
 73
5
 74
0
 42
0.0000001
 43
0.0000001
 44
0.0000000001
 40
0.0
 40
0.0
 40
0.0
 40
0.0
 40
0.497809834
 40
1.0
 40
1.0
 40
1.0
 40
1.0
 10
11.5823449211
 20
13.5385794959
 30
0.0
 10
11.5855441578
 20
13.5415934258
 30
0.0
 10
11.5926434342
 20
13.5469845123
 30
0.0
 10
11.6008968606
 20
13.5504547361
 30
0.0
 10
11.6051854112
 20
13.5515811019
 30
0.0
  0
SPLINE
  5
52A
100
AcDbEntity
  8
0
100
AcDbSpline
 62
7
  6
CONTINUOUS
 70
0
 71
3
 72
8
 73
4
 74
0
 42
0.0000001
 43
0.0000001
 44
0.0000000001
 40
0.0
 40
0.0
 40
0.0
 40
0.0
 40
1.0
 40
1.0
 40
1.0
 40
1.0
 10
11.6051854112
 20
13.5515811019
 30
0.0
 10
11.6090217736
 20
13.5525887027
 30
0.0
 10
11.6130189812
 20
13.5531158084
 30
0.0
 10
11.6169854576
 20
13.5531158084
 30
0.0
  0
SPLINE
  5
52B
100
AcDbEntity
  8
0
100
AcDbSpline
 62
7
  6
CONTINUOUS
 70
0
 71
3
 72
9
 73
5
 74
0
 42
0.0000001
 43
0.0000001
 44
0.0000000001
 40
0.0
 40
0.0
 40
0.0
 40
0.0
 40
0.5006045457
 40
1.0
 40
1.0
 40
1.0
 40
1.0
 10
11.6169854576
 20
13.5293375894
 30
0.0
 10
11.621082493
 20
13.5293375894
 30
0.0
 10
11.6293049101
 20
13.5281950121
 30
0.0
 10
11.6369182046
 20
13.5249422812
 30
0.0
 10
11.6404638538
 20
13.5229092822
 30
0.0
  0
SPLINE
  5
52C
100
AcDbEntity
  8
0
100
AcDbSpline
 62
7
  6
CONTINUOUS
 70
0
 71
3
 72
9
 73
5
 74
0
 42
0.0000001
 43
0.0000001
 44
0.0000000001
 40
0.0
 40
0.0
 40
0.0
 40
0.0
 40
0.2505778626
 40
1.0
 40
1.0
 40
1.0
 40
1.0
 10
11.6404638538
 20
13.5229092822
 30
0.0
 10
11.6414793599
 20
13.5223270128
 30
0.0
 10
11.6454533031
 20
13.5198672112
 30
0.0
 10
11.6491049061
 20
13.5168977869
 30
0.0
 10
11.6516258705
 20
13.5144684606
 30
0.0
  0
SPLINE
  5
52D
100
AcDbEntity
  8
0
100
AcDbSpline
 62
7
  6
CONTINUOUS
 70
0
 71
3
 72
9
 73
5
 74
0
 42
0.0000001
 43
0.0000001
 44
0.0000000001
 40
0.0
 40
0.0
 40
0.0
 40
0.0
 40
0.4990336362
 40
1.0
 40
1.0
 40
1.0
 40
1.0
 10
11.5831073548
 20
13.5151907155
 30
0.0
 10
11.586223352
 20
13.5180931276
 30
0.0
 10
11.5930953601
 20
13.5232823918
 30
0.0
 10
11.6010569781
 20
13.5266585859
 30
0.0
 10
11.6051854112
 20
13.5277677324
 30
0.0
  0
SPLINE
  5
52E
100
AcDbEntity
  8
0
100
AcDbSpline
 62
7
  6
CONTINUOUS
 70
0
 71
3
 72
8
 73
4
 74
0
 42
0.0000001
 43
0.0000001
 44
0.0000000001
 40
0.0
 40
0.0
 40
0.0
 40
0.0
 40
1.0
 40
1.0
 40
1.0
 40
1.0
 10
11.6051854112
 20
13.5277677324
 30
0.0
 10
11.6090175272
 20
13.5287972703
 30
0.0
 10
11.613017453
 20
13.5293375894
 30
0.0
 10
11.6169854576
 20
13.5293375894
 30
0.0
  0
SPLINE
  5
52F
100
AcDbEntity
  8
0
100
AcDbSpline
 62
9
  6
CONTINUOUS
 70
0
 71
3
 72
12
 73
8
 74
0
 42
0.0000001
 43
0.0000001
 44
0.0000000001
 40
0.0
 40
0.0
 40
0.0
 40
0.0
 40
0.3080769542
 40
0.5790798828
 40
0.8103134703
 40
0.9103810317
 40
1.0
 40
1.0
 40
1.0
 40
1.0
 10
13.3571336203
 20
19.1127713828
 30
0.0
 10
13.3512285919
 20
19.0830926748
 30
0.0
 10
13.3398745218
 20
19.0273569363
 30
0.0
 10
13.3233655821
 20
18.9494961119
 30
0.0
 10
13.3096207576
 20
18.8919353942
 30
0.0
 10
13.2984156886
 20
18.852132897
 30
0.0
 10
13.2927463385
 20
18.8343780356
 30
0.0
 10
13.2898614839
 20
18.8260614717
 30
0.0
  0
SPLINE
  5
530
100
AcDbEntity
  8
0
100
AcDbSpline
 62
9
  6
CONTINUOUS
 70
0
 71
3
 72
11
 73
7
 74
0
 42
0.0000001
 43
0.0000001
 44
0.0000000001
 40
0.0
 40
0.0
 40
0.0
 40
0.0
 40
0.3707522903
 40
0.6531796792
 40
0.8596397622
 40
1.0
 40
1.0
 40
1.0
 40
1.0
 10
13.2780814649
 20
18.7955691085
 30
0.0
 10
13.2737679609
 20
18.7855719308
 30
0.0
 10
13.2654262003
 20
18.7682513762
 30
0.0
 10
13.2518944532
 20
18.7468662028
 30
0.0
 10
13.2400837178
 20
18.7325850869
 30
0.0
 10
13.232638595
 20
18.7256000098
 30
0.0
 10
13.2294762494
 20
18.7229560214
 30
0.0
  0
SPLINE
  5
531
100
AcDbEntity
  8
0
100
AcDbSpline
 62
7
  6
CONTINUOUS
 70
0
 71
3
 72
9
 73
5
 74
0
 42
0.0000001
 43
0.0000001
 44
0.0000000001
 40
0.0
 40
0.0
 40
0.0
 40
0.0
 40
0.500129479
 40
1.0
 40
1.0
 40
1.0
 40
1.0
 10
11.6169854576
 20
13.5017783814
 30
0.0
 10
11.6210835888
 20
13.5017783814
 30
0.0
 10
11.6293169393
 20
13.500616619
 30
0.0
 10
11.6369231395
 20
13.4973171786
 30
0.0
 10
11.6404638538
 20
13.4952578985
 30
0.0
  0
SPLINE
  5
532
100
AcDbEntity
  8
0
100
AcDbSpline
 62
7
  6
CONTINUOUS
 70
0
 71
3
 72
8
 73
4
 74
0
 42
0.0000001
 43
0.0000001
 44
0.0000000001
 40
0.0
 40
0.0
 40
0.0
 40
0.0
 40
1.0
 40
1.0
 40
1.0
 40
1.0
 10
11.6404638538
 20
13.4952578985
 30
0.0
 10
11.6445173257
 20
13.4929003984
 30
0.0
 10
11.6482725528
 20
13.4899738025
 30
0.0
 10
11.6516258705
 20
13.4866960438
 30
0.0
  0
SPLINE
  5
533
100
AcDbEntity
  8
0
100
AcDbSpline
 62
7
  6
CONTINUOUS
 70
0
 71
3
 72
9
 73
5
 74
0
 42
0.0000001
 43
0.0000001
 44
0.0000000001
 40
0.0
 40
0.0
 40
0.0
 40
0.0
 40
0.2504774134
 40
1.0
 40
1.0
 40
1.0
 40
1.0
 10
11.6516258705
 20
13.4866960438
 30
0.0
 10
11.6525873202
 20
13.4857562581
 30
0.0
 10
11.6563048263
 20
13.4818812431
 30
0.0
 10
11.6595466455
 20
13.4775597176
 30
0.0
 10
11.6617068172
 20
13.4741657052
 30
0.0
  0
SPLINE
  5
534
100
AcDbEntity
  8
0
100
AcDbSpline
 62
7
  6
CONTINUOUS
 70
0
 71
3
 72
10
 73
6
 74
0
 42
0.0000001
 43
0.0000001
 44
0.0000000001
 40
0.0
 40
0.0
 40
0.0
 40
0.0
 40
0.4988099087
 40
0.7492532464
 40
1.0
 40
1.0
 40
1.0
 40
1.0
 10
11.5722640981
 20
13.4741657052
 30
0.0
 10
11.5760853785
 20
13.4801696135
 30
0.0
 10
11.5831514981
 20
13.488513242
 30
0.0
 10
11.595034659
 20
13.4965411896
 30
0.0
 10
11.6017337294
 20
13.4992453869
 30
0.0
 10
11.6051854112
 20
13.5001860142
 30
0.0
  0
SPLINE
  5
535
100
AcDbEntity
  8
0
100
AcDbSpline
 62
9
  6
CONTINUOUS
 70
0
 71
3
 72
13
 73
9
 74
0
 42
0.0000001
 43
0.0000001
 44
0.0000000001
 40
0.0
 40
0.0
 40
0.0
 40
0.0
 40
0.1580586331
 40
0.3073051534
 40
0.5782113058
 40
0.6990450742
 40
0.8097388504
 40
1.0
 40
1.0
 40
1.0
 40
1.0
 10
13.8978574801
 20
19.1128675562
 30
0.0
 10
13.9008886375
 20
19.0977457587
 30
0.0
 10
13.9068489875
 20
19.068358631
 30
0.0
 10
13.9181603484
 20
19.0130853883
 30
0.0
 10
13.9290795849
 20
18.9614375283
 30
0.0
 10
13.9401605448
 20
18.9136773495
 30
0.0
 10
13.9502143538
 20
18.8737706128
 30
0.0
 10
13.958442172
 20
18.8455460213
 30
0.0
 10
13.9645093162
 20
18.828000639
 30
0.0
  0
SPLINE
  5
536
100
AcDbEntity
  8
0
100
AcDbSpline
 62
9
  6
CONTINUOUS
 70
0
 71
3
 72
12
 73
8
 74
0
 42
0.0000001
 43
0.0000001
 44
0.0000000001
 40
0.0
 40
0.0
 40
0.0
 40
0.0
 40
0.2080178915
 40
0.3884621155
 40
0.6736418706
 40
0.8725793084
 40
1.0
 40
1.0
 40
1.0
 40
1.0
 10
13.9645093162
 20
18.828000639
 30
0.0
 10
13.9672929427
 20
18.8199507574
 30
0.0
 10
13.9728262351
 20
18.8050278091
 30
0.0
 10
13.9837945871
 20
18.7797122153
 30
0.0
 10
13.9967597263
 20
18.7556828964
 30
0.0
 10
14.0117571582
 20
18.7355238115
 30
0.0
 10
14.0213897226
 20
18.7261460656
 30
0.0
 10
14.025518288
 20
18.7229560215
 30
0.0
  0
SPLINE
  5
537
100
AcDbEntity
  8
0
100
AcDbSpline
 62
9
  6
CONTINUOUS
 70
0
 71
3
 72
11
 73
7
 74
0
 42
0.0000001
 43
0.0000001
 44
0.0000000001
 40
0.0
 40
0.0
 40
0.0
 40
0.0
 40
0.2851559658
 40
0.545847153
 40
0.7827872011
 40
1.0
 40
1.0
 40
1.0
 40
1.0
 10
13.3558105594
 20
18.6527513804
 30
0.0
 10
13.3431585122
 20
18.6581635821
 30
0.0
 10
13.319246383
 20
18.6692554263
 30
0.0
 10
13.2858785412
 20
18.6869974621
 30
0.0
 10
13.2562661501
 20
18.7047215448
 30
0.0
 10
13.2380456862
 20
18.7169192867
 30
0.0
 10
13.2294762495
 20
18.7229560216
 30
0.0
  0
SPLINE
  5
538
100
AcDbEntity
  8
0
100
AcDbSpline
 62
7
  6
CONTINUOUS
 70
0
 71
3
 72
9
 73
5
 74
0
 42
0.0000001
 43
0.0000001
 44
0.0000000001
 40
0.0
 40
0.0
 40
0.0
 40
0.0
 40
0.4999236416
 40
1.0
 40
1.0
 40
1.0
 40
1.0
 10
11.6169854576
 20
13.4706600871
 30
0.0
 10
11.6210840652
 20
13.4706600871
 30
0.0
 10
11.6293221591
 20
13.46949003
 30
0.0
 10
11.6369252656
 20
13.4661704963
 30
0.0
 10
11.6404638538
 20
13.4640999306
 30
0.0
  0
SPLINE
  5
539
100
AcDbEntity
  8
0
100
AcDbSpline
 62
7
  6
CONTINUOUS
 70
0
 71
3
 72
8
 73
4
 74
0
 42
0.0000001
 43
0.0000001
 44
0.0000000001
 40
0.0
 40
0.0
 40
0.0
 40
0.0
 40
1.0
 40
1.0
 40
1.0
 40
1.0
 10
11.6404638538
 20
13.4640999306
 30
0.0
 10
11.6445202265
 20
13.461726389
 30
0.0
 10
11.648274958
 20
13.4587813184
 30
0.0
 10
11.6516258705
 20
13.4554859816
 30
0.0
  0
SPLINE
  5
53A
100
AcDbEntity
  8
0
100
AcDbSpline
 62
7
  6
CONTINUOUS
 70
0
 71
3
 72
9
 73
5
 74
0
 42
0.0000001
 43
0.0000001
 44
0.0000000001
 40
0.0
 40
0.0
 40
0.0
 40
0.0
 40
0.2503462559
 40
1.0
 40
1.0
 40
1.0
 40
1.0
 10
11.6516258705
 20
13.4554859816
 30
0.0
 10
11.6525875043
 20
13.4545402968
 30
0.0
 10
11.656306899
 20
13.4506396164
 30
0.0
 10
11.6595476419
 20
13.4462924906
 30
0.0
 10
11.6617068172
 20
13.4428794027
 30
0.0
  0
SPLINE
  5
53B
100
AcDbEntity
  8
0
100
AcDbSpline
 62
7
  6
CONTINUOUS
 70
0
 71
3
 72
10
 73
6
 74
0
 42
0.0000001
 43
0.0000001
 44
0.0000000001
 40
0.0
 40
0.0
 40
0.0
 40
0.0
 40
0.4993323372
 40
0.749645713
 40
1.0
 40
1.0
 40
1.0
 40
1.0
 10
11.5722640981
 20
13.4428794027
 30
0.0
 10
11.5760820388
 20
13.4489145624
 30
0.0
 10
11.583141129
 20
13.4573058022
 30
0.0
 10
11.5950295232
 20
13.465388352
 30
0.0
 10
11.6017322951
 20
13.4681112875
 30
0.0
 10
11.6051854112
 20
13.4690580312
 30
0.0
  0
SPLINE
  5
53C
100
AcDbEntity
  8
0
100
AcDbSpline
 62
7
  6
CONTINUOUS
 70
0
 71
3
 72
9
 73
5
 74
0
 42
0.0000001
 43
0.0000001
 44
0.0000000001
 40
0.0
 40
0.0
 40
0.0
 40
0.0
 40
0.4999919462
 40
1.0
 40
1.0
 40
1.0
 40
1.0
 10
11.6169854576
 20
13.4362332667
 30
0.0
 10
11.621083907
 20
13.4362332667
 30
0.0
 10
11.6293204265
 20
13.435065961
 30
0.0
 10
11.6369245609
 20
13.4317530854
 30
0.0
 10
11.6404638538
 20
13.4296862581
 30
0.0
  0
SPLINE
  5
53D
100
AcDbEntity
  8
0
100
AcDbSpline
 62
7
  6
CONTINUOUS
 70
0
 71
3
 72
8
 73
4
 74
0
 42
0.0000001
 43
0.0000001
 44
0.0000000001
 40
0.0
 40
0.0
 40
0.0
 40
0.0
 40
1.0
 40
1.0
 40
1.0
 40
1.0
 10
11.6404638538
 20
13.4296862581
 30
0.0
 10
11.6445192654
 20
13.4273180347
 30
0.0
 10
11.6482741623
 20
13.4243790863
 30
0.0
 10
11.6516258705
 20
13.4210895731
 30
0.0
  0
SPLINE
  5
53E
100
AcDbEntity
  8
0
100
AcDbSpline
 62
7
  6
CONTINUOUS
 70
0
 71
3
 72
9
 73
5
 74
0
 42
0.0000001
 43
0.0000001
 44
0.0000000001
 40
0.0
 40
0.0
 40
0.0
 40
0.0
 40
0.2503896004
 40
1.0
 40
1.0
 40
1.0
 40
1.0
 10
11.6516258705
 20
13.4210895731
 30
0.0
 10
11.6525874434
 20
13.4201458434
 30
0.0
 10
11.6563062139
 20
13.4162536695
 30
0.0
 10
11.6595473129
 20
13.4119150267
 30
0.0
 10
11.6617068172
 20
13.4085082603
 30
0.0
  0
SPLINE
  5
53F
100
AcDbEntity
  8
0
100
AcDbSpline
 62
7
  6
CONTINUOUS
 70
0
 71
3
 72
10
 73
6
 74
0
 42
0.0000001
 43
0.0000001
 44
0.0000000001
 40
0.0
 40
0.0
 40
0.0
 40
0.0
 40
0.4991594025
 40
0.7495157699
 40
1.0
 40
1.0
 40
1.0
 40
1.0
 10
11.5722640981
 20
13.4085082603
 30
0.0
 10
11.5760831418
 20
13.4145330642
 30
0.0
 10
11.5831445601
 20
13.4229085326
 30
0.0
 10
11.5950312257
 20
13.4309729833
 30
0.0
 10
11.6017327711
 20
13.4336897056
 30
0.0
 10
11.6051854112
 20
13.4346344216
 30
0.0
  0
SPLINE
  5
540
100
AcDbEntity
  8
0
100
AcDbSpline
 62
7
  6
CONTINUOUS
 70
0
 71
3
 72
8
 73
4
 74
0
 42
0.0000001
 43
0.0000001
 44
0.0000000001
 40
0.0
 40
0.0
 40
0.0
 40
0.0
 40
1.0
 40
1.0
 40
1.0
 40
1.0
 10
11.6051854112
 20
13.4346344216
 30
0.0
 10
11.6090139688
 20
13.4356819967
 30
0.0
 10
11.6130161672
 20
13.4362332667
 30
0.0
 10
11.6169854576
 20
13.4362332667
 30
0.0
  0
SPLINE
  5
541
100
AcDbEntity
  8
0
100
AcDbSpline
 62
7
  6
CONTINUOUS
 70
0
 71
3
 72
11
 73
7
 74
0
 42
0.0000001
 43
0.0000001
 44
0.0000000001
 40
0.0
 40
0.0
 40
0.0
 40
0.0
 40
0.250694673
 40
0.5009807368
 40
0.7507997906
 40
1.0
 40
1.0
 40
1.0
 40
1.0
 10
11.6169854576
 20
13.3987751214
 30
0.0
 10
11.6215500809
 20
13.3987751214
 30
0.0
 10
11.6307292817
 20
13.3973338978
 30
0.0
 10
11.6431827554
 20
13.3913040698
 30
0.0
 10
11.653675905
 20
13.3823978776
 30
0.0
 10
11.6592600178
 20
13.3751501918
 30
0.0
 10
11.6617068172
 20
13.3713290294
 30
0.0
  0
SPLINE
  5
542
100
AcDbEntity
  8
0
100
AcDbSpline
 62
7
  6
CONTINUOUS
 70
0
 71
3
 72
11
 73
7
 74
0
 42
0.0000001
 43
0.0000001
 44
0.0000000001
 40
0.0
 40
0.0
 40
0.0
 40
0.0
 40
0.2492001667
 40
0.4990192216
 40
0.7493053825
 40
1.0
 40
1.0
 40
1.0
 40
1.0
 10
11.5722640981
 20
13.3713290294
 30
0.0
 10
11.574710897
 20
13.3751501911
 30
0.0
 10
11.5802950094
 20
13.3823978762
 30
0.0
 10
11.5907881589
 20
13.3913040703
 30
0.0
 10
11.6032416341
 20
13.3973338973
 30
0.0
 10
11.6124208354
 20
13.3987751214
 30
0.0
 10
11.6169854576
 20
13.3987751214
 30
0.0
  0
SPLINE
  5
543
100
AcDbEntity
  8
0
100
AcDbSpline
 62
7
  6
CONTINUOUS
 70
0
 71
3
 72
10
 73
6
 74
0
 42
0.0000001
 43
0.0000001
 44
0.0000000001
 40
0.0
 40
0.0
 40
0.0
 40
0.0
 40
0.5756470647
 40
0.8101772396
 40
1.0
 40
1.0
 40
1.0
 40
1.0
 10
11.6169854576
 20
13.3669849424
 30
0.0
 10
11.6083480857
 20
13.3669849424
 30
0.0
 10
11.5961731709
 20
13.367506428
 30
0.0
 10
11.5812848751
 20
13.3694176996
 30
0.0
 10
11.5750291021
 20
13.3706455728
 30
0.0
 10
11.5722640981
 20
13.3713290294
 30
0.0
  0
SPLINE
  5
544
100
AcDbEntity
  8
0
100
AcDbSpline
 62
7
  6
CONTINUOUS
 70
0
 71
3
 72
10
 73
6
 74
0
 42
0.0000001
 43
0.0000001
 44
0.0000000001
 40
0.0
 40
0.0
 40
0.0
 40
0.0
 40
0.1898227268
 40
0.4243529054
 40
1.0
 40
1.0
 40
1.0
 40
1.0
 10
11.6617068172
 20
13.3713290294
 30
0.0
 10
11.6589418137
 20
13.3706455729
 30
0.0
 10
11.6526860411
 20
13.3694176998
 30
0.0
 10
11.6377977453
 20
13.3675064279
 30
0.0
 10
11.62562283
 20
13.3669849424
 30
0.0
 10
11.6169854576
 20
13.3669849424
 30
0.0
  0
SPLINE
  5
545
100
AcDbEntity
  8
0
100
AcDbSpline
 62
7
  6
CONTINUOUS
 70
0
 71
3
 72
11
 73
7
 74
0
 42
0.0000001
 43
0.0000001
 44
0.0000000001
 40
0.0
 40
0.0
 40
0.0
 40
0.0
 40
0.2520041893
 40
0.5028648856
 40
0.7522200982
 40
1.0
 40
1.0
 40
1.0
 40
1.0
 10
11.6169854576
 20
13.358587255
 30
0.0
 10
11.6215481645
 20
13.358587255
 30
0.0
 10
11.63070861
 20
13.3571776126
 30
0.0
 10
11.6431582905
 20
13.3512681091
 30
0.0
 10
11.6536577188
 20
13.3425276369
 30
0.0
 10
11.6592560481
 20
13.3353987217
 30
0.0
 10
11.6617068172
 20
13.3316410721
 30
0.0
  0
SPLINE
  5
546
100
AcDbEntity
  8
0
100
AcDbSpline
 62
7
  6
CONTINUOUS
 70
0
 71
3
 72
11
 73
7
 74
0
 42
0.0000001
 43
0.0000001
 44
0.0000000001
 40
0.0
 40
0.0
 40
0.0
 40
0.0
 40
0.2477798856
 40
0.4971351476
 40
0.7479959201
 40
1.0
 40
1.0
 40
1.0
 40
1.0
 10
11.5722640981
 20
13.3316410721
 30
0.0
 10
11.574714867
 20
13.3353987215
 30
0.0
 10
11.5803131967
 20
13.342527637
 30
0.0
 10
11.5908126262
 20
13.3512681111
 30
0.0
 10
11.6032623081
 20
13.3571776125
 30
0.0
 10
11.6124227528
 20
13.358587255
 30
0.0
 10
11.6169854576
 20
13.358587255
 30
0.0
  0
SPLINE
  5
547
100
AcDbEntity
  8
0
100
AcDbSpline
 62
7
  6
CONTINUOUS
 70
0
 71
3
 72
11
 73
7
 74
0
 42
0.0000001
 43
0.0000001
 44
0.0000000001
 40
0.0
 40
0.0
 40
0.0
 40
0.0
 40
0.2979969177
 40
0.5715579339
 40
0.8067132433
 40
1.0
 40
1.0
 40
1.0
 40
1.0
 10
11.6169854576
 20
13.3248541569
 30
0.0
 10
11.6124709744
 20
13.3248541569
 30
0.0
 10
11.6038084096
 20
13.3251763427
 30
0.0
 10
11.5916534986
 20
13.3265688846
 30
0.0
 10
11.5812153162
 20
13.3286718922
 30
0.0
 10
11.5749956719
 20
13.3305861947
 30
0.0
 10
11.5722640981
 20
13.3316410721
 30
0.0
  0
SPLINE
  5
548
100
AcDbEntity
  8
0
100
AcDbSpline
 62
7
  6
CONTINUOUS
 70
0
 71
3
 72
11
 73
7
 74
0
 42
0.0000001
 43
0.0000001
 44
0.0000000001
 40
0.0
 40
0.0
 40
0.0
 40
0.0
 40
0.1932867427
 40
0.4284420998
 40
0.7020032106
 40
1.0
 40
1.0
 40
1.0
 40
1.0
 10
11.6617068172
 20
13.3316410721
 30
0.0
 10
11.6589752436
 20
13.3305861948
 30
0.0
 10
11.6527555988
 20
13.3286718921
 30
0.0
 10
11.6423174145
 20
13.3265688841
 30
0.0
 10
11.6301625032
 20
13.3251763428
 30
0.0
 10
11.621499939
 20
13.3248541569
 30
0.0
 10
11.6169854576
 20
13.3248541569
 30
0.0
  0
SPLINE
  5
549
100
AcDbEntity
  8
0
100
AcDbSpline
 62
7
  6
CONTINUOUS
 70
0
 71
3
 72
11
 73
7
 74
0
 42
0.0000001
 43
0.0000001
 44
0.0000000001
 40
0.0
 40
0.0
 40
0.0
 40
0.0
 40
0.2538864573
 40
0.5055802411
 40
0.7542732748
 40
1.0
 40
1.0
 40
1.0
 40
1.0
 10
11.6169854576
 20
13.3159932585
 30
0.0
 10
11.6215454748
 20
13.3159932585
 30
0.0
 10
11.6306794624
 20
13.3146283873
 30
0.0
 10
11.6431230521
 20
13.3088909203
 30
0.0
 10
11.6536309465
 20
13.3003885038
 30
0.0
 10
11.6592501297
 20
13.2934304647
 30
0.0
 10
11.6617068172
 20
13.2897639503
 30
0.0
  0
SPLINE
  5
54A
100
AcDbEntity
  8
0
100
AcDbSpline
 62
7
  6
CONTINUOUS
 70
0
 71
3
 72
11
 73
7
 74
0
 42
0.0000001
 43
0.0000001
 44
0.0000000001
 40
0.0
 40
0.0
 40
0.0
 40
0.0
 40
0.245726709
 40
0.4944197919
 40
0.7461136529
 40
1.0
 40
1.0
 40
1.0
 40
1.0
 10
11.5722640981
 20
13.2897639503
 30
0.0
 10
11.5747207854
 20
13.2934304644
 30
0.0
 10
11.580339969
 20
13.3003885039
 30
0.0
 10
11.5908478647
 20
13.3088909222
 30
0.0
 10
11.6032914558
 20
13.3146283872
 30
0.0
 10
11.6124254425
 20
13.3159932585
 30
0.0
 10
11.6169854576
 20
13.3159932585
 30
0.0
  0
SPLINE
  5
54B
100
AcDbEntity
  8
0
100
AcDbSpline
 62
9
  6
CONTINUOUS
 70
0
 71
3
 72
9
 73
5
 74
0
 42
0.0000001
 43
0.0000001
 44
0.0000000001
 40
0.0
 40
0.0
 40
0.0
 40
0.0
 40
0.2265312002
 40
1.0
 40
1.0
 40
1.0
 40
1.0
 10
13.2662896024
 20
18.5901260394
 30
0.0
 10
13.2725771329
 20
18.5836490451
 30
0.0
 10
13.3008569033
 20
18.5555787391
 30
0.0
 10
13.3316215903
 20
18.5299379582
 30
0.0
 10
13.3568085471
 20
18.512173514
 30
0.0
  0
SPLINE
  5
54C
100
AcDbEntity
  8
0
100
AcDbSpline
 62
7
  6
CONTINUOUS
 70
0
 71
3
 72
11
 73
7
 74
0
 42
0.0000001
 43
0.0000001
 44
0.0000000001
 40
0.0
 40
0.0
 40
0.0
 40
0.0
 40
0.2943949109
 40
0.5660051433
 40
0.8020892956
 40
1.0
 40
1.0
 40
1.0
 40
1.0
 10
11.6169854576
 20
13.2805888545
 30
0.0
 10
11.6124682575
 20
13.2805888545
 30
0.0
 10
11.6037764739
 20
13.281026781
 30
0.0
 10
11.5915917121
 20
13.2829191673
 30
0.0
 10
11.5811248986
 20
13.2857788262
 30
0.0
 10
11.5749560668
 20
13.288358559
 30
0.0
 10
11.5722640981
 20
13.2897639503
 30
0.0
  0
SPLINE
  5
54D
100
AcDbEntity
  8
0
100
AcDbSpline
 62
7
  6
CONTINUOUS
 70
0
 71
3
 72
11
 73
7
 74
0
 42
0.0000001
 43
0.0000001
 44
0.0000000001
 40
0.0
 40
0.0
 40
0.0
 40
0.0
 40
0.1979106902
 40
0.4339948905
 40
0.7056052159
 40
1.0
 40
1.0
 40
1.0
 40
1.0
 10
11.6617068172
 20
13.2897639503
 30
0.0
 10
11.6590148487
 20
13.2883585591
 30
0.0
 10
11.6528460164
 20
13.2857788261
 30
0.0
 10
11.6423792011
 20
13.2829191666
 30
0.0
 10
11.6301944389
 20
13.2810267811
 30
0.0
 10
11.6215026558
 20
13.2805888545
 30
0.0
 10
11.6169854576
 20
13.2805888545
 30
0.0
  0
SPLINE
  5
54E
100
AcDbEntity
  8
0
100
AcDbSpline
 62
7
  6
CONTINUOUS
 70
0
 71
3
 72
11
 73
7
 74
0
 42
0.0000001
 43
0.0000001
 44
0.0000000001
 40
0.0
 40
0.0
 40
0.0
 40
0.0
 40
0.2563288611
 40
0.5091161408
 40
0.7569580701
 40
1.0
 40
1.0
 40
1.0
 40
1.0
 10
11.6169854576
 20
13.2713360913
 30
0.0
 10
11.6215420981
 20
13.2713360913
 30
0.0
 10
11.6306426296
 20
13.2700283021
 30
0.0
 10
11.6430772368
 20
13.2645125922
 30
0.0
 10
11.6535950765
 20
13.2563190241
 30
0.0
 10
11.6592420552
 20
13.2495832593
 30
0.0
 10
11.6617068172
 20
13.2460348525
 30
0.0
  0
SPLINE
  5
54F
100
AcDbEntity
  8
0
100
AcDbSpline
 62
7
  6
CONTINUOUS
 70
0
 71
3
 72
11
 73
7
 74
0
 42
0.0000001
 43
0.0000001
 44
0.0000000001
 40
0.0
 40
0.0
 40
0.0
 40
0.0
 40
0.2430419138
 40
0.4908838921
 40
0.74367125
 40
1.0
 40
1.0
 40
1.0
 40
1.0
 10
11.5722640981
 20
13.2460348525
 30
0.0
 10
11.5747288599
 20
13.2495832591
 30
0.0
 10
11.580375839
 20
13.2563190242
 30
0.0
 10
11.5908936801
 20
13.264512594
 30
0.0
 10
11.6033282885
 20
13.270028302
 30
0.0
 10
11.6124288192
 20
13.2713360913
 30
0.0
 10
11.6169854576
 20
13.2713360913
 30
0.0
  0
SPLINE
  5
550
100
AcDbEntity
  8
0
100
AcDbSpline
 62
7
  6
CONTINUOUS
 70
0
 71
3
 72
11
 73
7
 74
0
 42
0.0000001
 43
0.0000001
 44
0.0000000001
 40
0.0
 40
0.0
 40
0.0
 40
0.0
 40
0.2901299561
 40
0.559467803
 40
0.7966998678
 40
1.0
 40
1.0
 40
1.0
 40
1.0
 10
11.6169854576
 20
13.2345454528
 30
0.0
 10
11.6124648514
 20
13.2345454528
 30
0.0
 10
11.603736586
 20
13.235097637
 30
0.0
 10
11.5915172425
 20
13.2374820227
 30
0.0
 10
11.5810219805
 20
13.2410864649
 30
0.0
 10
11.5749154655
 20
13.244301512
 30
0.0
 10
11.5722640981
 20
13.2460348525
 30
0.0
  0
SPLINE
  5
551
100
AcDbEntity
  8
0
100
AcDbSpline
 62
7
  6
CONTINUOUS
 70
0
 71
3
 72
11
 73
7
 74
0
 42
0.0000001
 43
0.0000001
 44
0.0000000001
 40
0.0
 40
0.0
 40
0.0
 40
0.0
 40
0.2033001179
 40
0.4405322309
 40
0.7098701689
 40
1.0
 40
1.0
 40
1.0
 40
1.0
 10
11.6617068172
 20
13.2460348525
 30
0.0
 10
11.65905545
 20
13.2443015121
 30
0.0
 10
11.6529489346
 20
13.2410864648
 30
0.0
 10
11.6424536707
 20
13.2374820217
 30
0.0
 10
11.6302343268
 20
13.2350976371
 30
0.0
 10
11.6215060619
 20
13.2345454528
 30
0.0
 10
11.6169854576
 20
13.2345454528
 30
0.0
  0
SPLINE
  5
552
100
AcDbEntity
  8
0
100
AcDbSpline
 62
9
  6
CONTINUOUS
 70
0
 71
3
 72
9
 73
5
 74
0
 42
0.0000001
 43
0.0000001
 44
0.0000000001
 40
0.0
 40
0.0
 40
0.0
 40
0.0
 40
0.2716943228
 40
1.0
 40
1.0
 40
1.0
 40
1.0
 10
13.8981817679
 20
18.5121705325
 30
0.0
 10
13.9070309889
 20
18.5184117978
 30
0.0
 10
13.9389500767
 20
18.5423049886
 30
0.0
 10
13.9684861718
 20
18.5692980174
 30
0.0
 10
13.9887049352
 20
18.5901260381
 30
0.0
  0
SPLINE
  5
553
100
AcDbEntity
  8
0
100
AcDbSpline
 62
9
  6
CONTINUOUS
 70
0
 71
3
 72
27
 73
23
 74
0
 42
0.0000001
 43
0.0000001
 44
0.0000000001
 40
0.0
 40
0.0
 40
0.0
 40
0.0
 40
0.1448915469
 40
0.2881062525
 40
0.4296282177
 40
0.4997034583
 40
0.5692414514
 40
0.6380885472
 40
0.7057439162
 40
0.7716010799
 40
0.8350349426
 40
0.8655598987
 40
0.8947269019
 40
0.9219408387
 40
0.9466037807
 40
0.9679945221
 40
0.9770940407
 40
0.984908723
 40
0.9912726994
 40
0.9960199792
 40
0.9989844711
 40
1.0
 40
1.0
 40
1.0
 40
1.0
 10
13.9887049472
 20
18.5901259977
 30
0.0
 10
13.9939292996
 20
18.5955077294
 30
0.0
 10
14.0036891243
 20
18.6068364972
 30
0.0
 10
14.016316359
 20
18.6251876921
 30
0.0
 10
14.0252198094
 20
18.6412863211
 30
0.0
 10
14.0313830718
 20
18.6544741351
 30
0.0
 10
14.0355226795
 20
18.6644435619
 30
0.0
 10
14.0391953843
 20
18.6744602588
 30
0.0
 10
14.042414704
 20
18.6844313375
 30
0.0
 10
14.0451846849
 20
18.6942452625
 30
0.0
 10
14.0471426928
 20
18.7022852849
 30
0.0
 10
14.0484798075
 20
18.7085175187
 30
0.0
 10
14.0493539212
 20
18.7129305523
 30
0.0
 10
14.0501106269
 20
18.717057801
 30
0.0
 10
14.0507453042
 20
18.7207952614
 30
0.0
 10
14.0511871828
 20
18.7236210613
 30
0.0
 10
14.0514770111
 20
18.7255741469
 30
0.0
 10
14.0516493481
 20
18.7267864133
 30
0.0
 10
14.051780113
 20
18.7277033934
 30
0.0
 10
14.0518872551
 20
18.7285535394
 30
0.0
 10
14.0519284684
 20
18.7287661336
 30
0.0
 10
14.0519737514
 20
18.7292213181
 30
0.0
 10
14.0519725977
 20
18.7291687608
 30
0.0
  0
SPLINE
  5
554
100
AcDbEntity
  8
0
100
AcDbSpline
 62
9
  6
CONTINUOUS
 70
0
 71
3
 72
10
 73
6
 74
0
 42
0.0000001
 43
0.0000001
 44
0.0000000001
 40
0.0
 40
0.0
 40
0.0
 40
0.0
 40
0.2846550519
 40
0.5477012343
 40
1.0
 40
1.0
 40
1.0
 40
1.0
 10
13.8992013608
 20
18.6527315291
 30
0.0
 10
13.9118342193
 20
18.6581200387
 30
0.0
 10
13.9358360454
 20
18.6692242148
 30
0.0
 10
13.9783825948
 20
18.6920160368
 30
0.0
 10
14.007579442
 20
18.7105293081
 30
0.0
 10
14.0255182886
 20
18.7229560231
 30
0.0
  0
SPLINE
  5
555
100
AcDbEntity
  8
0
100
AcDbSpline
 62
9
  6
CONTINUOUS
 70
0
 71
3
 72
11
 73
7
 74
0
 42
0.0000001
 43
0.0000001
 44
0.0000000001
 40
0.0
 40
0.0
 40
0.0
 40
0.0
 40
0.2413841008
 40
0.491272015
 40
0.7461987633
 40
1.0
 40
1.0
 40
1.0
 40
1.0
 10
14.0255182886
 20
18.7229560231
 30
0.0
 10
14.0171524263
 20
18.7150274402
 30
0.0
 10
14.002642939
 20
18.6961061556
 30
0.0
 10
13.9891279698
 20
18.662707506
 30
0.0
 10
13.9845392726
 20
18.6264368512
 30
0.0
 10
13.9865512955
 20
18.6020521216
 30
0.0
 10
13.9887049377
 20
18.5901260392
 30
0.0
  0
SPLINE
  5
556
100
AcDbEntity
  8
0
100
AcDbSpline
 62
7
  6
CONTINUOUS
 70
0
 71
3
 72
11
 73
7
 74
0
 42
0.0000001
 43
0.0000001
 44
0.0000000001
 40
0.0
 40
0.0
 40
0.0
 40
0.0
 40
0.2593110613
 40
0.513452558
 40
0.7602682542
 40
1.0
 40
1.0
 40
1.0
 40
1.0
 10
11.6169854576
 20
13.2249753267
 30
0.0
 10
11.6215381416
 20
13.2249753267
 30
0.0
 10
11.6305991374
 20
13.2237358511
 30
0.0
 10
11.6430212097
 20
13.2184889886
 30
0.0
 10
11.6535494946
 20
13.210672938
 30
0.0
 10
11.6592315427
 20
13.2042100139
 30
0.0
 10
11.6617068172
 20
13.2008058793
 30
0.0
  0
SPLINE
  5
557
100
AcDbEntity
  8
0
100
AcDbSpline
 62
9
  6
CONTINUOUS
 70
0
 71
3
 72
11
 73
7
 74
0
 42
0.0000001
 43
0.0000001
 44
0.0000000001
 40
0.0
 40
0.0
 40
0.0
 40
0.0
 40
0.2306862983
 40
0.4761252825
 40
0.7347106718
 40
1.0
 40
1.0
 40
1.0
 40
1.0
 10
13.2294762553
 20
18.7229560211
 30
0.0
 10
13.2374716709
 20
18.7153785171
 30
0.0
 10
13.2516662368
 20
18.6971837512
 30
0.0
 10
13.265409896
 20
18.6644748017
 30
0.0
 10
13.2704643307
 20
18.6277353565
 30
0.0
 10
13.2685407935
 20
18.6025924523
 30
0.0
 10
13.266289579
 20
18.5901260489
 30
0.0
  0
SPLINE
  5
558
100
AcDbEntity
  8
0
100
AcDbSpline
 62
9
  6
CONTINUOUS
 70
0
 71
3
 72
13
 73
9
 74
0
 42
0.0000001
 43
0.0000001
 44
0.0000000001
 40
0.0
 40
0.0
 40
0.0
 40
0.0
 40
0.3124732025
 40
0.5722897996
 40
0.6910431511
 40
0.8053775282
 40
0.9108102148
 40
1.0
 40
1.0
 40
1.0
 40
1.0
 10
14.0255182853
 20
18.7229560243
 30
0.0
 10
14.0293851989
 20
18.7247538689
 30
0.0
 10
14.036272624
 20
18.7285382896
 30
0.0
 10
14.0434654833
 20
18.7347750836
 30
0.0
 10
14.0476522288
 20
18.7400594211
 30
0.0
 10
14.0500949541
 20
18.7439909244
 30
0.0
 10
14.0519845478
 20
18.7477651525
 30
0.0
 10
14.0529755443
 20
18.7502342086
 30
0.0
 10
14.0533654485
 20
18.7513872706
 30
0.0
  0
LINE
  5
559
100
AcDbEntity
  8
0
100
AcDbLine
 62
9
  6
CONTINUOUS
 10
14.0533654485
 20
18.7513872706
 11
14.0541984206
 21
18.7543029003
  0
SPLINE
  5
55A
100
AcDbEntity
  8
0
100
AcDbSpline
 62
7
  6
CONTINUOUS
 70
0
 71
3
 72
11
 73
7
 74
0
 42
0.0000001
 43
0.0000001
 44
0.0000000001
 40
0.0
 40
0.0
 40
0.0
 40
0.0
 40
0.2397317299
 40
0.4865474748
 40
0.7406890511
 40
1.0
 40
1.0
 40
1.0
 40
1.0
 10
11.5722640981
 20
13.2008058793
 30
0.0
 10
11.5747393724
 20
13.2042100137
 30
0.0
 10
11.5804214209
 20
13.2106729381
 30
0.0
 10
11.5909497072
 20
13.2184889904
 30
0.0
 10
11.6033717806
 20
13.2237358509
 30
0.0
 10
11.6124327756
 20
13.2249753267
 30
0.0
 10
11.6169854576
 20
13.2249753267
 30
0.0
  0
SPLINE
  5
55B
100
AcDbEntity
  8
0
100
AcDbSpline
 62
7
  6
CONTINUOUS
 70
0
 71
3
 72
10
 73
6
 74
0
 42
0.0000001
 43
0.0000001
 44
0.0000000001
 40
0.0
 40
0.0
 40
0.0
 40
0.0
 40
0.2859339656
 40
0.553275795
 40
1.0
 40
1.0
 40
1.0
 40
1.0
 10
11.6169854576
 20
13.1870946868
 30
0.0
 10
11.6124608669
 20
13.1870946868
 30
0.0
 10
11.6036827415
 20
13.1877622601
 30
0.0
 10
11.5882507845
 20
13.1913617292
 30
0.0
 10
11.5778374853
 20
13.1964576636
 30
0.0
 10
11.5722640981
 20
13.2008058793
 30
0.0
  0
SPLINE
  5
55C
100
AcDbEntity
  8
0
100
AcDbSpline
 62
7
  6
CONTINUOUS
 70
0
 71
3
 72
10
 73
6
 74
0
 42
0.0000001
 43
0.0000001
 44
0.0000000001
 40
0.0
 40
0.0
 40
0.0
 40
0.0
 40
0.446724239
 40
0.7140661576
 40
1.0
 40
1.0
 40
1.0
 40
1.0
 10
11.6617068172
 20
13.2008058793
 30
0.0
 10
11.6561334296
 20
13.1964576632
 30
0.0
 10
11.6457201286
 20
13.1913617277
 30
0.0
 10
11.6302881712
 20
13.1877622603
 30
0.0
 10
11.6215100465
 20
13.1870946868
 30
0.0
 10
11.6169854576
 20
13.1870946868
 30
0.0
  0
SPLINE
  5
55D
100
AcDbEntity
  8
0
100
AcDbSpline
 62
7
  6
CONTINUOUS
 70
0
 71
3
 72
11
 73
7
 74
0
 42
0.0000001
 43
0.0000001
 44
0.0000000001
 40
0.0
 40
0.0
 40
0.0
 40
0.0
 40
0.2628018534
 40
0.5185549785
 40
0.7641884655
 40
1.0
 40
1.0
 40
1.0
 40
1.0
 10
11.6169854576
 20
13.1772842551
 30
0.0
 10
11.6215337312
 20
13.1772842551
 30
0.0
 10
11.6305502394
 20
13.1761231019
 30
0.0
 10
11.6429555975
 20
13.1711889041
 30
0.0
 10
11.6534935584
 20
13.1638162359
 30
0.0
 10
11.6592182308
 20
13.1576758289
 30
0.0
 10
11.6617068172
 20
13.154441208
 30
0.0
  0
SPLINE
  5
55E
100
AcDbEntity
  8
0
100
AcDbSpline
 62
7
  6
CONTINUOUS
 70
0
 71
3
 72
11
 73
7
 74
0
 42
0.0000001
 43
0.0000001
 44
0.0000000001
 40
0.0
 40
0.0
 40
0.0
 40
0.0
 40
0.2358115187
 40
0.4814450541
 40
0.7371982604
 40
1.0
 40
1.0
 40
1.0
 40
1.0
 10
11.5722640981
 20
13.154441208
 30
0.0
 10
11.5747526843
 20
13.1576758287
 30
0.0
 10
11.5804773571
 20
13.163816236
 30
0.0
 10
11.5910153194
 20
13.1711889058
 30
0.0
 10
11.6034206787
 20
13.1761231017
 30
0.0
 10
11.6124371861
 20
13.1772842551
 30
0.0
 10
11.6169854576
 20
13.1772842551
 30
0.0
  0
SPLINE
  5
55F
100
AcDbEntity
  8
0
100
AcDbSpline
 62
7
  6
CONTINUOUS
 70
0
 71
3
 72
9
 73
5
 74
0
 42
0.0000001
 43
0.0000001
 44
0.0000000001
 40
0.0
 40
0.0
 40
0.0
 40
0.0
 40
0.545099293
 40
1.0
 40
1.0
 40
1.0
 40
1.0
 10
11.6169854576
 20
13.1386186232
 30
0.0
 10
11.6082238166
 20
13.1386186232
 30
0.0
 10
11.5919924787
 20
13.1413202195
 30
0.0
 10
11.5776980942
 20
13.1495489045
 30
0.0
 10
11.5722640981
 20
13.154441208
 30
0.0
  0
SPLINE
  5
560
100
AcDbEntity
  8
0
100
AcDbSpline
 62
7
  6
CONTINUOUS
 70
0
 71
3
 72
9
 73
5
 74
0
 42
0.0000001
 43
0.0000001
 44
0.0000000001
 40
0.0
 40
0.0
 40
0.0
 40
0.0
 40
0.4549007406
 40
1.0
 40
1.0
 40
1.0
 40
1.0
 10
11.6617068172
 20
13.154441208
 30
0.0
 10
11.6562728207
 20
13.1495489041
 30
0.0
 10
11.6419784361
 20
13.1413202191
 30
0.0
 10
11.6257470982
 20
13.1386186232
 30
0.0
 10
11.6169854576
 20
13.1386186232
 30
0.0
  0
SPLINE
  5
561
100
AcDbEntity
  8
0
100
AcDbSpline
 62
7
  6
CONTINUOUS
 70
0
 71
3
 72
11
 73
7
 74
0
 42
0.0000001
 43
0.0000001
 44
0.0000000001
 40
0.0
 40
0.0
 40
0.0
 40
0.0
 40
0.2667550243
 40
0.5243674938
 40
0.7686884267
 40
1.0
 40
1.0
 40
1.0
 40
1.0
 10
11.6169854576
 20
13.1286468782
 30
0.0
 10
11.6215290074
 20
13.1286468782
 30
0.0
 10
11.6304973966
 20
13.1275727519
 30
0.0
 10
11.6428813941
 20
13.1229911449
 30
0.0
 10
11.6534267208
 20
13.116124106
 30
0.0
 10
11.6592016807
 20
13.110355005
 30
0.0
 10
11.6617068172
 20
13.1073141605
 30
0.0
  0
SPLINE
  5
562
100
AcDbEntity
  8
0
100
AcDbSpline
 62
7
  6
CONTINUOUS
 70
0
 71
3
 72
11
 73
7
 74
0
 42
0.0000001
 43
0.0000001
 44
0.0000000001
 40
0.0
 40
0.0
 40
0.0
 40
0.0
 40
0.2313115577
 40
0.4756325386
 40
0.7332450912
 40
1.0
 40
1.0
 40
1.0
 40
1.0
 10
11.5722640981
 20
13.1073141605
 30
0.0
 10
11.5747692344
 20
13.1103550048
 30
0.0
 10
11.5805441947
 20
13.1161241061
 30
0.0
 10
11.5910895229
 20
13.1229911465
 30
0.0
 10
11.6034735214
 20
13.1275727517
 30
0.0
 10
11.6124419098
 20
13.1286468782
 30
0.0
 10
11.6169854576
 20
13.1286468782
 30
0.0
  0
SPLINE
  5
563
100
AcDbEntity
  8
0
100
AcDbSpline
 62
7
  6
CONTINUOUS
 70
0
 71
3
 72
11
 73
7
 74
0
 42
0.0000001
 43
0.0000001
 44
0.0000000001
 40
0.0
 40
0.0
 40
0.0
 40
0.0
 40
0.2757668898
 40
0.5377527267
 40
0.7791952904
 40
1.0
 40
1.0
 40
1.0
 40
1.0
 10
11.6169854576
 20
13.0895075846
 30
0.0
 10
11.6124516945
 20
13.0895075846
 30
0.0
 10
11.6035844766
 20
13.0903865928
 30
0.0
 10
11.5912574071
 20
13.0941605776
 30
0.0
 10
11.5807111905
 20
13.0998478725
 30
0.0
 10
11.5748141136
 20
13.1047304736
 30
0.0
 10
11.5722640981
 20
13.1073141605
 30
0.0
  0
SPLINE
  5
564
100
AcDbEntity
  8
0
100
AcDbSpline
 62
7
  6
CONTINUOUS
 70
0
 71
3
 72
11
 73
7
 74
0
 42
0.0000001
 43
0.0000001
 44
0.0000000001
 40
0.0
 40
0.0
 40
0.0
 40
0.0
 40
0.2208046947
 40
0.4622473078
 40
0.7242332293
 40
1.0
 40
1.0
 40
1.0
 40
1.0
 10
11.6617068172
 20
13.1073141605
 30
0.0
 10
11.6591568018
 20
13.1047304738
 30
0.0
 10
11.6532597246
 20
13.0998478723
 30
0.0
 10
11.6427135063
 20
13.0941605762
 30
0.0
 10
11.630386436
 20
13.0903865929
 30
0.0
 10
11.6215192188
 20
13.0895075846
 30
0.0
 10
11.6169854576
 20
13.0895075846
 30
0.0
  0
SPLINE
  5
565
100
AcDbEntity
  8
0
100
AcDbSpline
 62
7
  6
CONTINUOUS
 70
0
 71
3
 72
11
 73
7
 74
0
 42
0.0000001
 43
0.0000001
 44
0.0000000001
 40
0.0
 40
0.0
 40
0.0
 40
0.0
 40
0.2757576199
 40
0.5377388626
 40
0.7791843006
 40
1.0
 40
1.0
 40
1.0
 40
1.0
 10
11.6169854576
 20
13.03010416
 30
0.0
 10
11.6215192302
 20
13.03010416
 30
0.0
 10
11.6303865463
 20
13.0292249512
 30
0.0
 10
11.6427136795
 20
13.0254501257
 30
0.0
 10
11.6532599074
 20
13.0197615884
 30
0.0
 10
11.6591568538
 20
13.0148780354
 30
0.0
 10
11.6617068172
 20
13.0122938611
 30
0.0
  0
SPLINE
  5
566
100
AcDbEntity
  8
0
100
AcDbSpline
 62
7
  6
CONTINUOUS
 70
0
 71
3
 72
11
 73
7
 74
0
 42
0.0000001
 43
0.0000001
 44
0.0000000001
 40
0.0
 40
0.0
 40
0.0
 40
0.0
 40
0.2208156841
 40
0.4622611694
 40
0.7242424993
 40
1.0
 40
1.0
 40
1.0
 40
1.0
 10
11.5722640981
 20
13.0122938611
 30
0.0
 10
11.5748140613
 20
13.0148780352
 30
0.0
 10
11.5807110081
 20
13.0197615885
 30
0.0
 10
11.5912572377
 20
13.0254501271
 30
0.0
 10
11.6035843716
 20
13.029224951
 30
0.0
 10
11.6124516871
 20
13.03010416
 30
0.0
 10
11.6169854576
 20
13.03010416
 30
0.0
  0
SPLINE
  5
567
100
AcDbEntity
  8
0
100
AcDbSpline
 62
7
  6
CONTINUOUS
 70
0
 71
3
 72
11
 73
7
 74
0
 42
0.0000001
 43
0.0000001
 44
0.0000000001
 40
0.0
 40
0.0
 40
0.0
 40
0.0
 40
0.2667631225
 40
0.5243794383
 40
0.7686977117
 40
1.0
 40
1.0
 40
1.0
 40
1.0
 10
11.6169854576
 20
12.9909642516
 30
0.0
 10
11.6124419172
 20
12.9909642516
 30
0.0
 10
11.6034736242
 20
12.992038201
 30
0.0
 10
11.5910896729
 20
12.9966190864
 30
0.0
 10
11.5805443353
 20
13.0034850843
 30
0.0
 10
11.5747692702
 20
13.0092534164
 30
0.0
 10
11.5722640981
 20
13.0122938611
 30
0.0
  0
SPLINE
  5
568
100
AcDbEntity
  8
0
100
AcDbSpline
 62
7
  6
CONTINUOUS
 70
0
 71
3
 72
11
 73
7
 74
0
 42
0.0000001
 43
0.0000001
 44
0.0000000001
 40
0.0
 40
0.0
 40
0.0
 40
0.0
 40
0.2313022731
 40
0.4756205966
 40
0.7332369929
 40
1.0
 40
1.0
 40
1.0
 40
1.0
 10
11.6617068172
 20
13.0122938611
 30
0.0
 10
11.6592016453
 20
13.0092534166
 30
0.0
 10
11.6534265798
 20
13.0034850842
 30
0.0
 10
11.6428812406
 20
12.9966190848
 30
0.0
 10
11.6304972883
 20
12.9920382012
 30
0.0
 10
11.6215289961
 20
12.9909642516
 30
0.0
 10
11.6169854576
 20
12.9909642516
 30
0.0
  0
SPLINE
  5
569
100
AcDbEntity
  8
0
100
AcDbSpline
 62
7
  6
CONTINUOUS
 70
0
 71
3
 72
9
 73
5
 74
0
 42
0.0000001
 43
0.0000001
 44
0.0000000001
 40
0.0
 40
0.0
 40
0.0
 40
0.0
 40
0.5450848046
 40
1.0
 40
1.0
 40
1.0
 40
1.0
 10
11.6169854576
 20
12.9809922708
 30
0.0
 10
11.6257471659
 20
12.9809922708
 30
0.0
 10
11.6419791431
 20
12.9782897968
 30
0.0
 10
11.6562730748
 20
12.970059007
 30
0.0
 10
11.6617068172
 20
12.9651656993
 30
0.0
  0
SPLINE
  5
56A
100
AcDbEntity
  8
0
100
AcDbSpline
 62
7
  6
CONTINUOUS
 70
0
 71
3
 72
9
 73
5
 74
0
 42
0.0000001
 43
0.0000001
 44
0.0000000001
 40
0.0
 40
0.0
 40
0.0
 40
0.0
 40
0.4549152265
 40
1.0
 40
1.0
 40
1.0
 40
1.0
 10
11.5722640981
 20
12.9651656993
 30
0.0
 10
11.5776978408
 20
12.9700590074
 30
0.0
 10
11.5919917726
 20
12.9782897972
 30
0.0
 10
11.6082237498
 20
12.9809922708
 30
0.0
 10
11.6169854576
 20
12.9809922708
 30
0.0
  0
SPLINE
  5
56B
100
AcDbEntity
  8
0
100
AcDbSpline
 62
7
  6
CONTINUOUS
 70
0
 71
3
 72
11
 73
7
 74
0
 42
0.0000001
 43
0.0000001
 44
0.0000000001
 40
0.0
 40
0.0
 40
0.0
 40
0.0
 40
0.2628091097
 40
0.5185656147
 40
0.764196666
 40
1.0
 40
1.0
 40
1.0
 40
1.0
 10
11.6169854576
 20
12.9423254142
 30
0.0
 10
11.612437193
 20
12.9423254142
 30
0.0
 10
11.6034207753
 20
12.9434864062
 30
0.0
 10
11.5910154541
 20
12.9484199558
 30
0.0
 10
11.5804774761
 20
12.9557916999
 30
0.0
 10
11.5747527133
 20
12.961931432
 30
0.0
 10
11.5722640981
 20
12.9651656993
 30
0.0
  0
SPLINE
  5
56C
100
AcDbEntity
  8
0
100
AcDbSpline
 62
7
  6
CONTINUOUS
 70
0
 71
3
 72
11
 73
7
 74
0
 42
0.0000001
 43
0.0000001
 44
0.0000000001
 40
0.0
 40
0.0
 40
0.0
 40
0.0
 40
0.2358033186
 40
0.4814344204
 40
0.7371910041
 40
1.0
 40
1.0
 40
1.0
 40
1.0
 10
11.6617068172
 20
12.9651656993
 30
0.0
 10
11.6592182021
 20
12.9619314322
 30
0.0
 10
11.6534934389
 20
12.9557916998
 30
0.0
 10
11.6429554595
 20
12.9484199541
 30
0.0
 10
11.6305501372
 20
12.9434864063
 30
0.0
 10
11.6215337203
 20
12.9423254142
 30
0.0
 10
11.6169854576
 20
12.9423254142
 30
0.0
  0
SPLINE
  5
56D
100
AcDbEntity
  8
0
100
AcDbSpline
 62
7
  6
CONTINUOUS
 70
0
 71
3
 72
10
 73
6
 74
0
 42
0.0000001
 43
0.0000001
 44
0.0000000001
 40
0.0
 40
0.0
 40
0.0
 40
0.0
 40
0.2859247982
 40
0.5532619599
 40
1.0
 40
1.0
 40
1.0
 40
1.0
 10
11.6169854576
 20
12.9325145917
 30
0.0
 10
11.6215100566
 20
12.9325145917
 30
0.0
 10
11.6302882688
 20
12.9318467991
 30
0.0
 10
11.6457205329
 20
12.9282461376
 30
0.0
 10
11.6561337174
 20
12.9231485102
 30
0.0
 10
11.6617068172
 20
12.918799181
 30
0.0
  0
SPLINE
  5
56E
100
AcDbEntity
  8
0
100
AcDbSpline
 62
7
  6
CONTINUOUS
 70
0
 71
3
 72
10
 73
6
 74
0
 42
0.0000001
 43
0.0000001
 44
0.0000000001
 40
0.0
 40
0.0
 40
0.0
 40
0.0
 40
0.4467380716
 40
0.7140753251
 40
1.0
 40
1.0
 40
1.0
 40
1.0
 10
11.5722640981
 20
12.918799181
 30
0.0
 10
11.5778371983
 20
12.9231485105
 30
0.0
 10
11.5882503845
 20
12.9282461391
 30
0.0
 10
11.6036826491
 20
12.931846799
 30
0.0
 10
11.6124608606
 20
12.9325145917
 30
0.0
 10
11.6169854576
 20
12.9325145917
 30
0.0
  0
SPLINE
  5
56F
100
AcDbEntity
  8
0
100
AcDbSpline
 62
7
  6
CONTINUOUS
 70
0
 71
3
 72
11
 73
7
 74
0
 42
0.0000001
 43
0.0000001
 44
0.0000000001
 40
0.0
 40
0.0
 40
0.0
 40
0.0
 40
0.259317368
 40
0.513461751
 40
0.760275292
 40
1.0
 40
1.0
 40
1.0
 40
1.0
 10
11.6169854576
 20
12.894632127
 30
0.0
 10
11.6124327818
 20
12.894632127
 30
0.0
 10
11.6033718681
 20
12.8958714596
 30
0.0
 10
11.5909498241
 20
12.9011177556
 30
0.0
 10
11.5804215192
 20
12.908933007
 30
0.0
 10
11.5747393956
 20
12.9153953518
 30
0.0
 10
11.5722640981
 20
12.918799181
 30
0.0
  0
SPLINE
  5
570
100
AcDbEntity
  8
0
100
AcDbSpline
 62
7
  6
CONTINUOUS
 70
0
 71
3
 72
11
 73
7
 74
0
 42
0.0000001
 43
0.0000001
 44
0.0000000001
 40
0.0
 40
0.0
 40
0.0
 40
0.0
 40
0.2397246924
 40
0.4865382842
 40
0.7406827443
 40
1.0
 40
1.0
 40
1.0
 40
1.0
 10
11.6617068172
 20
12.918799181
 30
0.0
 10
11.6592315198
 20
12.915395352
 30
0.0
 10
11.6535493959
 20
12.9089330068
 30
0.0
 10
11.6430210895
 20
12.9011177538
 30
0.0
 10
11.6305990444
 20
12.8958714598
 30
0.0
 10
11.6215381315
 20
12.894632127
 30
0.0
 10
11.6169854576
 20
12.894632127
 30
0.0
  0
SPLINE
  5
571
100
AcDbEntity
  8
0
100
AcDbSpline
 62
7
  6
CONTINUOUS
 70
0
 71
3
 72
11
 73
7
 74
0
 42
0.0000001
 43
0.0000001
 44
0.0000000001
 40
0.0
 40
0.0
 40
0.0
 40
0.0
 40
0.2901211831
 40
0.5594543976
 40
0.7966888759
 40
1.0
 40
1.0
 40
1.0
 40
1.0
 10
11.6169854576
 20
12.8850614582
 30
0.0
 10
11.6215060711
 20
12.8850614582
 30
0.0
 10
11.6302344137
 20
12.8845090536
 30
0.0
 10
11.6424538274
 20
12.8821237212
 30
0.0
 10
11.6529491416
 20
12.8785178471
 30
0.0
 10
11.6590555272
 20
12.8753015988
 30
0.0
 10
11.6617068172
 20
12.8735676428
 30
0.0
  0
SPLINE
  5
572
100
AcDbEntity
  8
0
100
AcDbSpline
 62
7
  6
CONTINUOUS
 70
0
 71
3
 72
11
 73
7
 74
0
 42
0.0000001
 43
0.0000001
 44
0.0000000001
 40
0.0
 40
0.0
 40
0.0
 40
0.0
 40
0.2033111094
 40
0.4405456337
 40
0.709878942
 40
1.0
 40
1.0
 40
1.0
 40
1.0
 10
11.5722640981
 20
12.8735676428
 30
0.0
 10
11.5749153879
 20
12.8753015987
 30
0.0
 10
11.5810217739
 20
12.8785178472
 30
0.0
 10
11.5915170899
 20
12.8821237222
 30
0.0
 10
11.6037365041
 20
12.8845090535
 30
0.0
 10
11.6124648461
 20
12.8850614582
 30
0.0
 10
11.6169854576
 20
12.8850614582
 30
0.0
  0
SPLINE
  5
573
100
AcDbEntity
  8
0
100
AcDbSpline
 62
7
  6
CONTINUOUS
 70
0
 71
3
 72
11
 73
7
 74
0
 42
0.0000001
 43
0.0000001
 44
0.0000000001
 40
0.0
 40
0.0
 40
0.0
 40
0.0
 40
0.2563341446
 40
0.5091238052
 40
0.7569639031
 40
1.0
 40
1.0
 40
1.0
 40
1.0
 10
11.6169854576
 20
12.8482684097
 30
0.0
 10
11.6124288244
 20
12.8482684097
 30
0.0
 10
11.6033283641
 20
12.8495760765
 30
0.0
 10
11.5908937777
 20
12.8550913085
 30
0.0
 10
11.5803759177
 20
12.8632842083
 30
0.0
 10
11.574728878
 20
12.8700194913
 30
0.0
 10
11.5722640981
 20
12.8735676428
 30
0.0
  0
SPLINE
  5
574
100
AcDbEntity
  8
0
100
AcDbSpline
 62
7
  6
CONTINUOUS
 70
0
 71
3
 72
11
 73
7
 74
0
 42
0.0000001
 43
0.0000001
 44
0.0000000001
 40
0.0
 40
0.0
 40
0.0
 40
0.0
 40
0.2430360812
 40
0.4908762302
 40
0.7436659665
 40
1.0
 40
1.0
 40
1.0
 40
1.0
 10
11.6617068172
 20
12.8735676428
 30
0.0
 10
11.6592420374
 20
12.8700194916
 30
0.0
 10
11.6535949973
 20
12.8632842082
 30
0.0
 10
11.643077136
 20
12.8550913066
 30
0.0
 10
11.6306425483
 20
12.8495760766
 30
0.0
 10
11.6215420889
 20
12.8482684097
 30
0.0
 10
11.6169854576
 20
12.8482684097
 30
0.0
  0
SPLINE
  5
575
100
AcDbEntity
  8
0
100
AcDbSpline
 62
7
  6
CONTINUOUS
 70
0
 71
3
 72
11
 73
7
 74
0
 42
0.0000001
 43
0.0000001
 44
0.0000000001
 40
0.0
 40
0.0
 40
0.0
 40
0.0
 40
0.2943871776
 40
0.565993253
 40
0.8020794408
 40
1.0
 40
1.0
 40
1.0
 40
1.0
 10
11.6169854576
 20
12.8390149561
 30
0.0
 10
11.6215026637
 20
12.8390149561
 30
0.0
 10
11.6301945116
 20
12.8385768058
 30
0.0
 10
11.6423793369
 20
12.8366834542
 30
0.0
 10
11.6528462074
 20
12.8338223335
 30
0.0
 10
11.6590149279
 20
12.8312413336
 30
0.0
 10
11.6617068172
 20
12.8298352826
 30
0.0
  0
SPLINE
  5
576
100
AcDbEntity
  8
0
100
AcDbSpline
 62
7
  6
CONTINUOUS
 70
0
 71
3
 72
11
 73
7
 74
0
 42
0.0000001
 43
0.0000001
 44
0.0000000001
 40
0.0
 40
0.0
 40
0.0
 40
0.0
 40
0.1979205447
 40
0.4340067782
 40
0.7056129492
 40
1.0
 40
1.0
 40
1.0
 40
1.0
 10
11.5722640981
 20
12.8298352826
 30
0.0
 10
11.5749559872
 20
12.8312413335
 30
0.0
 10
11.5811247081
 20
12.8338223336
 30
0.0
 10
11.5915915804
 20
12.8366834549
 30
0.0
 10
11.6037764061
 20
12.8385768057
 30
0.0
 10
11.6124682535
 20
12.8390149561
 30
0.0
 10
11.6169854576
 20
12.8390149561
 30
0.0
  0
SPLINE
  5
577
100
AcDbEntity
  8
0
100
AcDbSpline
 62
7
  6
CONTINUOUS
 70
0
 71
3
 72
11
 73
7
 74
0
 42
0.0000001
 43
0.0000001
 44
0.0000000001
 40
0.0
 40
0.0
 40
0.0
 40
0.0
 40
0.2538906685
 40
0.5055863258
 40
0.7542778836
 40
1.0
 40
1.0
 40
1.0
 40
1.0
 10
11.6169854576
 20
12.8036075762
 30
0.0
 10
11.6124254464
 20
12.8036075762
 30
0.0
 10
11.6032915173
 20
12.8049723479
 30
0.0
 10
11.590847942
 20
12.8107094313
 30
0.0
 10
11.5803400295
 20
12.8192113154
 30
0.0
 10
11.5747207991
 20
12.8261689719
 30
0.0
 10
11.5722640981
 20
12.8298352826
 30
0.0
  0
SPLINE
  5
578
100
AcDbEntity
  8
0
100
AcDbSpline
 62
7
  6
CONTINUOUS
 70
0
 71
3
 72
11
 73
7
 74
0
 42
0.0000001
 43
0.0000001
 44
0.0000000001
 40
0.0
 40
0.0
 40
0.0
 40
0.0
 40
0.2457221006
 40
0.4944137097
 40
0.7461094417
 40
1.0
 40
1.0
 40
1.0
 40
1.0
 10
11.6617068172
 20
12.8298352826
 30
0.0
 10
11.6592501163
 20
12.8261689722
 30
0.0
 10
11.6536308856
 20
12.8192113152
 30
0.0
 10
11.6431229717
 20
12.8107094294
 30
0.0
 10
11.6306793951
 20
12.804972348
 30
0.0
 10
11.6215454669
 20
12.8036075762
 30
0.0
 10
11.6169854576
 20
12.8036075762
 30
0.0
  0
SPLINE
  5
579
100
AcDbEntity
  8
0
100
AcDbSpline
 62
7
  6
CONTINUOUS
 70
0
 71
3
 72
11
 73
7
 74
0
 42
0.0000001
 43
0.0000001
 44
0.0000000001
 40
0.0
 40
0.0
 40
0.0
 40
0.0
 40
0.2979907206
 40
0.5715483559
 40
0.8067052306
 40
1.0
 40
1.0
 40
1.0
 40
1.0
 10
11.6169854576
 20
12.7947458455
 30
0.0
 10
11.6214999454
 20
12.7947458455
 30
0.0
 10
11.6301625592
 20
12.7944234335
 30
0.0
 10
11.642317522
 20
12.7930299141
 30
0.0
 10
11.6527557572
 20
12.7909254278
 30
0.0
 10
11.6589753163
 20
12.7890098075
 30
0.0
 10
11.6617068172
 20
12.7879542273
 30
0.0
  0
SPLINE
  5
57A
100
AcDbEntity
  8
0
100
AcDbSpline
 62
7
  6
CONTINUOUS
 70
0
 71
3
 72
11
 73
7
 74
0
 42
0.0000001
 43
0.0000001
 44
0.0000000001
 40
0.0
 40
0.0
 40
0.0
 40
0.0
 40
0.1932947551
 40
0.4284516752
 40
0.7020094077
 40
1.0
 40
1.0
 40
1.0
 40
1.0
 10
11.5722640981
 20
12.7879542273
 30
0.0
 10
11.5749955988
 20
12.7890098075
 30
0.0
 10
11.5812151584
 20
12.7909254279
 30
0.0
 10
11.5916533954
 20
12.7930299147
 30
0.0
 10
11.6038083585
 20
12.7944234334
 30
0.0
 10
11.6124709718
 20
12.7947458455
 30
0.0
 10
11.6169854576
 20
12.7947458455
 30
0.0
  0
SPLINE
  5
57B
100
AcDbEntity
  8
0
100
AcDbSpline
 62
7
  6
CONTINUOUS
 70
0
 71
3
 72
11
 73
7
 74
0
 42
0.0000001
 43
0.0000001
 44
0.0000000001
 40
0.0
 40
0.0
 40
0.0
 40
0.0
 40
0.2520072969
 40
0.502869362
 40
0.7522234766
 40
1.0
 40
1.0
 40
1.0
 40
1.0
 10
11.6169854576
 20
12.7610092294
 30
0.0
 10
11.6124227553
 20
12.7610092294
 30
0.0
 10
11.6032623539
 20
12.7624187972
 30
0.0
 10
11.5908126828
 20
12.7683280159
 30
0.0
 10
11.5803132401
 20
12.777068095
 30
0.0
 10
11.5747148767
 20
12.7841967283
 30
0.0
 10
11.5722640981
 20
12.7879542273
 30
0.0
  0
SPLINE
  5
57C
100
AcDbEntity
  8
0
100
AcDbSpline
 62
7
  6
CONTINUOUS
 70
0
 71
3
 72
11
 73
7
 74
0
 42
0.0000001
 43
0.0000001
 44
0.0000000001
 40
0.0
 40
0.0
 40
0.0
 40
0.0
 40
0.2477765076
 40
0.4971306736
 40
0.7479928124
 40
1.0
 40
1.0
 40
1.0
 40
1.0
 10
11.6617068172
 20
12.7879542273
 30
0.0
 10
11.6592560387
 20
12.7841967286
 30
0.0
 10
11.6536576749
 20
12.7770680949
 30
0.0
 10
11.6431582309
 20
12.768328014
 30
0.0
 10
11.6307085585
 20
12.7624187974
 30
0.0
 10
11.621548158
 20
12.7610092294
 30
0.0
 10
11.6169854576
 20
12.7610092294
 30
0.0
  0
SPLINE
  5
57D
100
AcDbEntity
  8
0
100
AcDbSpline
 62
7
  6
CONTINUOUS
 70
0
 71
3
 72
10
 73
6
 74
0
 42
0.0000001
 43
0.0000001
 44
0.0000000001
 40
0.0
 40
0.0
 40
0.0
 40
0.0
 40
0.575640312
 40
0.8101716477
 40
1.0
 40
1.0
 40
1.0
 40
1.0
 10
11.6169854576
 20
12.7526105751
 30
0.0
 10
11.6256228512
 20
12.7526105751
 30
0.0
 10
11.6377978949
 20
12.7520884995
 30
0.0
 10
11.6526861483
 20
12.7501751187
 30
0.0
 10
11.658941868
 20
12.748945894
 30
0.0
 10
11.6617068172
 20
12.7482616972
 30
0.0
  0
SPLINE
  5
57E
100
AcDbEntity
  8
0
100
AcDbSpline
 62
7
  6
CONTINUOUS
 70
0
 71
3
 72
10
 73
6
 74
0
 42
0.0000001
 43
0.0000001
 44
0.0000000001
 40
0.0
 40
0.0
 40
0.0
 40
0.0
 40
0.1898283165
 40
0.4243596416
 40
1.0
 40
1.0
 40
1.0
 40
1.0
 10
11.5722640981
 20
12.7482616972
 30
0.0
 10
11.5750290467
 20
12.7489458938
 30
0.0
 10
11.5812847658
 20
12.7501751185
 30
0.0
 10
11.5961730191
 20
12.7520884996
 30
0.0
 10
11.6083480634
 20
12.7526105751
 30
0.0
 10
11.6169854576
 20
12.7526105751
 30
0.0
  0
SPLINE
  5
57F
100
AcDbEntity
  8
0
100
AcDbSpline
 62
7
  6
CONTINUOUS
 70
0
 71
3
 72
11
 73
7
 74
0
 42
0.0000001
 43
0.0000001
 44
0.0000000001
 40
0.0
 40
0.0
 40
0.0
 40
0.0
 40
0.2506967031
 40
0.5009836435
 40
0.7508019578
 40
1.0
 40
1.0
 40
1.0
 40
1.0
 10
11.6169854576
 20
12.720816368
 30
0.0
 10
11.6124208366
 20
12.720816368
 30
0.0
 10
11.6032416623
 20
12.7222575371
 30
0.0
 10
11.5907881952
 20
12.7282871868
 30
0.0
 10
11.5802950365
 20
12.7371931263
 30
0.0
 10
11.5747109032
 20
12.7444406315
 30
0.0
 10
11.5722640981
 20
12.7482616972
 30
0.0
  0
SPLINE
  5
580
100
AcDbEntity
  8
0
100
AcDbSpline
 62
7
  6
CONTINUOUS
 70
0
 71
3
 72
11
 73
7
 74
0
 42
0.0000001
 43
0.0000001
 44
0.0000000001
 40
0.0
 40
0.0
 40
0.0
 40
0.0
 40
0.2491980021
 40
0.4990163314
 40
0.7493033748
 40
1.0
 40
1.0
 40
1.0
 40
1.0
 10
11.6617068172
 20
12.7482616972
 30
0.0
 10
11.6592600125
 20
12.7444406322
 30
0.0
 10
11.6536758794
 20
12.7371931275
 30
0.0
 10
11.6431827205
 20
12.7282871859
 30
0.0
 10
11.6307292517
 20
12.7222575375
 30
0.0
 10
11.6215500773
 20
12.720816368
 30
0.0
 10
11.6169854576
 20
12.720816368
 30
0.0
  0
SPLINE
  5
581
100
AcDbEntity
  8
0
100
AcDbSpline
 62
7
  6
CONTINUOUS
 70
0
 71
3
 72
10
 73
6
 74
0
 42
0.0000001
 43
0.0000001
 44
0.0000000001
 40
0.0
 40
0.0
 40
0.0
 40
0.0
 40
0.578148999
 40
0.8122645978
 40
1.0
 40
1.0
 40
1.0
 40
1.0
 10
11.6169854576
 20
12.7129484117
 30
0.0
 10
11.6256145158
 20
12.7129484117
 30
0.0
 10
11.6377413295
 20
12.7127260775
 30
0.0
 10
11.6526450221
 20
12.711903151
 30
0.0
 10
11.6589205536
 20
12.7113739385
 30
0.0
 10
11.6617068172
 20
12.711077291
 30
0.0
  0
SPLINE
  5
582
100
AcDbEntity
  8
0
100
AcDbSpline
 62
7
  6
CONTINUOUS
 70
0
 71
3
 72
10
 73
6
 74
0
 42
0.0000001
 43
0.0000001
 44
0.0000000001
 40
0.0
 40
0.0
 40
0.0
 40
0.0
 40
0.187735388
 40
0.4218510319
 40
1.0
 40
1.0
 40
1.0
 40
1.0
 10
11.5722640981
 20
12.711077291
 30
0.0
 10
11.5750503614
 20
12.7113739385
 30
0.0
 10
11.5813258934
 20
12.711903151
 30
0.0
 10
11.5962295861
 20
12.7127260776
 30
0.0
 10
11.6083563999
 20
12.7129484117
 30
0.0
 10
11.6169854576
 20
12.7129484117
 30
0.0
  0
SPLINE
  5
583
100
AcDbEntity
  8
0
100
AcDbSpline
 62
7
  6
CONTINUOUS
 70
0
 71
3
 72
9
 73
5
 74
0
 42
0.0000001
 43
0.0000001
 44
0.0000000001
 40
0.0
 40
0.0
 40
0.0
 40
0.0
 40
0.4999923461
 40
1.0
 40
1.0
 40
1.0
 40
1.0
 10
11.6169854576
 20
12.6833526108
 30
0.0
 10
11.6128870078
 20
12.6833526108
 30
0.0
 10
11.6046504946
 20
12.6845199012
 30
0.0
 10
11.5970463519
 20
12.68783274
 30
0.0
 10
11.593507054
 20
12.6898995467
 30
0.0
  0
SPLINE
  5
584
100
AcDbEntity
  8
0
100
AcDbSpline
 62
7
  6
CONTINUOUS
 70
0
 71
3
 72
8
 73
4
 74
0
 42
0.0000001
 43
0.0000001
 44
0.0000000001
 40
0.0
 40
0.0
 40
0.0
 40
0.0
 40
1.0
 40
1.0
 40
1.0
 40
1.0
 10
11.593507054
 20
12.6898995467
 30
0.0
 10
11.589451649
 20
12.6922677392
 30
0.0
 10
11.5856967522
 20
12.6952066518
 30
0.0
 10
11.5823450401
 20
12.6984961307
 30
0.0
  0
SPLINE
  5
585
100
AcDbEntity
  8
0
100
AcDbSpline
 62
7
  6
CONTINUOUS
 70
0
 71
3
 72
9
 73
5
 74
0
 42
0.0000001
 43
0.0000001
 44
0.0000000001
 40
0.0
 40
0.0
 40
0.0
 40
0.0
 40
0.2503898543
 40
1.0
 40
1.0
 40
1.0
 40
1.0
 10
11.5823450401
 20
12.6984961307
 30
0.0
 10
11.5813834681
 20
12.6994398487
 30
0.0
 10
11.5776647031
 20
12.7033319715
 30
0.0
 10
11.5744236034
 20
12.707670563
 30
0.0
 10
11.5722640981
 20
12.711077291
 30
0.0
  0
SPLINE
  5
586
100
AcDbEntity
  8
0
100
AcDbSpline
 62
7
  6
CONTINUOUS
 70
0
 71
3
 72
10
 73
6
 74
0
 42
0.0000001
 43
0.0000001
 44
0.0000000001
 40
0.0
 40
0.0
 40
0.0
 40
0.0
 40
0.4991583906
 40
0.7495150104
 40
1.0
 40
1.0
 40
1.0
 40
1.0
 10
11.6617068172
 20
12.711077291
 30
0.0
 10
11.6578877676
 20
12.7050525486
 30
0.0
 10
11.6508263367
 20
12.6966771737
 30
0.0
 10
11.6389396837
 20
12.6886128293
 30
0.0
 10
11.6322381468
 20
12.6858961431
 30
0.0
 10
11.62878551
 20
12.6849514386
 30
0.0
  0
SPLINE
  5
587
100
AcDbEntity
  8
0
100
AcDbSpline
 62
7
  6
CONTINUOUS
 70
0
 71
3
 72
8
 73
4
 74
0
 42
0.0000001
 43
0.0000001
 44
0.0000000001
 40
0.0
 40
0.0
 40
0.0
 40
0.0
 40
1.0
 40
1.0
 40
1.0
 40
1.0
 10
11.62878551
 20
12.6849514386
 30
0.0
 10
11.6249569483
 20
12.6839038742
 30
0.0
 10
11.6209547493
 20
12.6833526108
 30
0.0
 10
11.6169854576
 20
12.6833526108
 30
0.0
  0
SPLINE
  5
588
100
AcDbEntity
  8
0
100
AcDbSpline
 62
7
  6
CONTINUOUS
 70
0
 71
3
 72
10
 73
6
 74
0
 42
0.0000001
 43
0.0000001
 44
0.0000000001
 40
0.0
 40
0.0
 40
0.0
 40
0.0
 40
0.5781519808
 40
0.8122670903
 40
1.0
 40
1.0
 40
1.0
 40
1.0
 10
11.6169854576
 20
13.4066419785
 30
0.0
 10
11.6083564092
 20
13.4066419785
 30
0.0
 10
11.5962296526
 20
13.406863735
 30
0.0
 10
11.5813259422
 20
13.407684533
 30
0.0
 10
11.5750503878
 20
13.4082123772
 30
0.0
 10
11.5722640981
 20
13.4085082603
 30
0.0
  0
SPLINE
  5
589
100
AcDbEntity
  8
0
100
AcDbSpline
 62
7
  6
CONTINUOUS
 70
0
 71
3
 72
9
 73
5
 74
0
 42
0.0000001
 43
0.0000001
 44
0.0000000001
 40
0.0
 40
0.0
 40
0.0
 40
0.0
 40
0.4999235078
 40
1.0
 40
1.0
 40
1.0
 40
1.0
 10
11.6169854576
 20
12.6489196191
 30
0.0
 10
11.6128868484
 20
12.6489196191
 30
0.0
 10
11.6046487484
 20
12.6500896823
 30
0.0
 10
11.5970456417
 20
12.6534092313
 30
0.0
 10
11.593507054
 20
12.6554798056
 30
0.0
  0
SPLINE
  5
58A
100
AcDbEntity
  8
0
100
AcDbSpline
 62
7
  6
CONTINUOUS
 70
0
 71
3
 72
8
 73
4
 74
0
 42
0.0000001
 43
0.0000001
 44
0.0000000001
 40
0.0
 40
0.0
 40
0.0
 40
0.0
 40
1.0
 40
1.0
 40
1.0
 40
1.0
 10
11.593507054
 20
12.6554798056
 30
0.0
 10
11.5894506804
 20
12.6578533579
 30
0.0
 10
11.5856959503
 20
12.6607984405
 30
0.0
 10
11.5823450401
 20
12.6640937885
 30
0.0
  0
SPLINE
  5
58B
100
AcDbEntity
  8
0
100
AcDbSpline
 62
7
  6
CONTINUOUS
 70
0
 71
3
 72
9
 73
5
 74
0
 42
0.0000001
 43
0.0000001
 44
0.0000000001
 40
0.0
 40
0.0
 40
0.0
 40
0.0
 40
0.2503461709
 40
1.0
 40
1.0
 40
1.0
 40
1.0
 10
11.5823450401
 20
12.6640937885
 30
0.0
 10
11.5813834067
 20
12.6650394769
 30
0.0
 10
11.5776640126
 20
12.6689401727
 30
0.0
 10
11.5744232718
 20
12.6732873134
 30
0.0
 10
11.5722640981
 20
12.6767004123
 30
0.0
  0
SPLINE
  5
58C
100
AcDbEntity
  8
0
100
AcDbSpline
 62
7
  6
CONTINUOUS
 70
0
 71
3
 72
10
 73
6
 74
0
 42
0.0000001
 43
0.0000001
 44
0.0000000001
 40
0.0
 40
0.0
 40
0.0
 40
0.0
 40
0.499332677
 40
0.749645969
 40
1.0
 40
1.0
 40
1.0
 40
1.0
 10
11.6617068172
 20
12.6767004123
 30
0.0
 10
11.6578888791
 20
12.6706652332
 30
0.0
 10
11.6508297947
 20
12.6622739637
 30
0.0
 10
11.6389413995
 20
12.6541913789
 30
0.0
 10
11.6322386264
 20
12.6514684308
 30
0.0
 10
11.62878551
 20
12.6505216828
 30
0.0
  0
SPLINE
  5
58D
100
AcDbEntity
  8
0
100
AcDbSpline
 62
7
  6
CONTINUOUS
 70
0
 71
3
 72
12
 73
8
 74
0
 42
0.0000001
 43
0.0000001
 44
0.0000000001
 40
0.0
 40
0.0
 40
0.0
 40
0.0
 40
0.2499355433
 40
0.3750541878
 40
0.5000966492
 40
0.7500700334
 40
1.0
 40
1.0
 40
1.0
 40
1.0
 10
14.8014004902
 20
13.0597579458
 30
0.0
 10
14.8014004902
 20
13.0802986703
 30
0.0
 10
14.7985627438
 20
13.1112011399
 30
0.0
 10
14.7896669165
 20
13.1513560383
 30
0.0
 10
14.7776111152
 20
13.1906936848
 30
0.0
 10
14.7573620459
 20
13.2380601518
 30
0.0
 10
14.7369906106
 20
13.273822413
 30
0.0
 10
14.7260562801
 20
13.2912104247
 30
0.0
  0
SPLINE
  5
58E
100
AcDbEntity
  8
0
100
AcDbSpline
 62
7
  6
CONTINUOUS
 70
0
 71
3
 72
21
 73
17
 74
0
 42
0.0000001
 43
0.0000001
 44
0.0000000001
 40
0.0
 40
0.0
 40
0.0
 40
0.0
 40
0.1418035858
 40
0.2085172615
 40
0.2721412274
 40
0.3326750861
 40
0.390357262
 40
0.4458028749
 40
0.5000002116
 40
0.5541975975
 40
0.6096432469
 40
0.6673253495
 40
0.7278590277
 40
0.7914828677
 40
0.8581964207
 40
1.0
 40
1.0
 40
1.0
 40
1.0
 10
14.7260562801
 20
13.4584507962
 30
0.0
 10
14.7366125156
 20
13.4668441745
 30
0.0
 10
14.7516182026
 20
13.4799047896
 30
0.0
 10
14.7692283204
 20
13.4989046289
 30
0.0
 10
14.7803755585
 20
13.5132684289
 30
0.0
 10
14.7894707406
 20
13.5280253641
 30
0.0
 10
14.7962454491
 20
13.5431499946
 30
0.0
 10
14.8004472599
 20
13.5585749991
 30
0.0
 10
14.8018686486
 20
13.5741771001
 30
0.0
 10
14.8004472696
 20
13.5897792137
 30
0.0
 10
14.7962453511
 20
13.605204186
 30
0.0
 10
14.7894707334
 20
13.6203288321
 30
0.0
 10
14.7803754957
 20
13.6350856957
 30
0.0
 10
14.7692282958
 20
13.6494494687
 30
0.0
 10
14.7516181925
 20
13.6684492908
 30
0.0
 10
14.7366125151
 20
13.6815098971
 30
0.0
 10
14.7260562801
 20
13.6899032751
 30
0.0
  0
SPLINE
  5
58F
100
AcDbEntity
  8
0
100
AcDbSpline
 62
7
  6
CONTINUOUS
 70
0
 71
3
 72
9
 73
5
 74
0
 42
0.0000001
 43
0.0000001
 44
0.0000000001
 40
0.0
 40
0.0
 40
0.0
 40
0.0
 40
0.500128815
 40
1.0
 40
1.0
 40
1.0
 40
1.0
 10
11.6169854576
 20
12.6177946396
 30
0.0
 10
11.6128873235
 20
12.6177946396
 30
0.0
 10
11.6046539548
 20
12.6189564296
 30
0.0
 10
11.5970477623
 20
12.6222559372
 30
0.0
 10
11.593507054
 20
12.6243152551
 30
0.0
  0
SPLINE
  5
590
100
AcDbEntity
  8
0
100
AcDbSpline
 62
7
  6
CONTINUOUS
 70
0
 71
3
 72
8
 73
4
 74
0
 42
0.0000001
 43
0.0000001
 44
0.0000000001
 40
0.0
 40
0.0
 40
0.0
 40
0.0
 40
1.0
 40
1.0
 40
1.0
 40
1.0
 10
11.593507054
 20
12.6243152551
 30
0.0
 10
11.5894535737
 20
12.6266728073
 30
0.0
 10
11.5856983492
 20
12.629599463
 30
0.0
 10
11.5823450401
 20
12.6328772784
 30
0.0
  0
SPLINE
  5
591
100
AcDbEntity
  8
0
100
AcDbSpline
 62
7
  6
CONTINUOUS
 70
0
 71
3
 72
9
 73
5
 74
0
 42
0.0000001
 43
0.0000001
 44
0.0000000001
 40
0.0
 40
0.0
 40
0.0
 40
0.0
 40
0.2504769873
 40
1.0
 40
1.0
 40
1.0
 40
1.0
 10
11.5823450401
 20
12.6328772784
 30
0.0
 10
11.5813835904
 20
12.6338170828
 30
0.0
 10
11.5776660799
 20
12.6376921795
 30
0.0
 10
11.5744242657
 20
12.6420137862
 30
0.0
 10
11.5722640981
 20
12.6454078588
 30
0.0
  0
SPLINE
  5
592
100
AcDbEntity
  8
0
100
AcDbSpline
 62
7
  6
CONTINUOUS
 70
0
 71
3
 72
10
 73
6
 74
0
 42
0.0000001
 43
0.0000001
 44
0.0000000001
 40
0.0
 40
0.0
 40
0.0
 40
0.0
 40
0.4988116023
 40
0.7492545189
 40
1.0
 40
1.0
 40
1.0
 40
1.0
 10
11.6617068172
 20
12.6454078588
 30
0.0
 10
11.6578855482
 20
12.6394038504
 30
0.0
 10
11.6508194525
 20
12.6310600689
 30
0.0
 10
11.6389362769
 20
12.6230319452
 30
0.0
 10
11.6322371959
 20
12.620327687
 30
0.0
 10
11.62878551
 20
12.6193870397
 30
0.0
  0
SPLINE
  5
593
100
AcDbEntity
  8
0
100
AcDbSpline
 62
9
  6
CONTINUOUS
 70
0
 71
3
 72
34
 73
30
 74
0
 42
0.0000001
 43
0.0000001
 44
0.0000000001
 40
0.0
 40
0.0
 40
0.0
 40
0.0
 40
0.2040998188
 40
0.3010895092
 40
0.3938281129
 40
0.4816655557
 40
0.5640600411
 40
0.6405594808
 40
0.7107105914
 40
0.7740668744
 40
0.8303339724
 40
0.8557532406
 40
0.8793340703
 40
0.901055432
 40
0.9208973765
 40
0.9388417863
 40
0.9548534699
 40
0.9687465136
 40
0.9802604011
 40
0.985042841
 40
0.9891322907
 40
0.992497904
 40
0.9951127683
 40
0.9969616736
 40
0.9976064643
 40
0.9980853919
 40
0.9984531274
 40
0.9988264737
 40
1.0
 40
1.0
 40
1.0
 40
1.0
 10
13.1393358634
 20
12.5329298778
 30
0.0
 10
13.134757933
 20
12.5205188451
 30
0.0
 10
13.1282176175
 20
12.5021317543
 30
0.0
 10
13.1197710814
 20
12.4780445962
 30
0.0
 10
13.1137849125
 20
12.4610796332
 30
0.0
 10
13.1079762014
 20
12.445055623
 30
0.0
 10
13.1023597471
 20
12.4300825298
 30
0.0
 10
13.0970207965
 20
12.4162304296
 30
0.0
 10
13.0920282174
 20
12.4035677219
 30
0.0
 10
13.0874470408
 20
12.3921527085
 30
0.0
 10
13.0839215254
 20
12.3834381044
 30
0.0
 10
13.08137965
 20
12.3771065401
 30
0.0
 10
13.0796883484
 20
12.3728462582
 30
0.0
 10
13.078155284
 20
12.368912144
 30
0.0
 10
13.0767898529
 20
12.3653049534
 30
0.0
 10
13.0755997401
 20
12.3620272967
 30
0.0
 10
13.0746025355
 20
12.3590904978
 30
0.0
 10
13.0737817246
 20
12.3565345072
 30
0.0
 10
13.0731962307
 20
12.3546675073
 30
0.0
 10
13.0727910652
 20
12.353409825
 30
0.0
 10
13.0725380096
 20
12.3526581902
 30
0.0
 10
13.0723150405
 20
12.3520443754
 30
0.0
 10
13.0721191652
 20
12.3515766599
 30
0.0
 10
13.0719661332
 20
12.3512808074
 30
0.0
 10
13.0718460446
 20
12.3511293415
 30
0.0
 10
13.0717706545
 20
12.3510667444
 30
0.0
 10
13.0716884948
 20
12.3510474255
 30
0.0
 10
13.0715727674
 20
12.3511101662
 30
0.0
 10
13.0715324179
 20
12.351210337
 30
0.0
 10
13.071504571
 20
12.3512811164
 30
0.0
  0
SPLINE
  5
594
100
AcDbEntity
  8
0
100
AcDbSpline
 62
7
  6
CONTINUOUS
 70
0
 71
3
 72
9
 73
5
 74
0
 42
0.0000001
 43
0.0000001
 44
0.0000000001
 40
0.0
 40
0.0
 40
0.0
 40
0.0
 40
0.5006033674
 40
1.0
 40
1.0
 40
1.0
 40
1.0
 10
11.6169854576
 20
12.5902282864
 30
0.0
 10
11.6128884181
 20
12.5902282864
 30
0.0
 10
11.604665971
 20
12.5913709121
 30
0.0
 10
11.5970526918
 20
12.5946237617
 30
0.0
 10
11.593507054
 20
12.5966568277
 30
0.0
  0
SPLINE
  5
595
100
AcDbEntity
  8
0
100
AcDbSpline
 62
7
  6
CONTINUOUS
 70
0
 71
3
 72
9
 73
5
 74
0
 42
0.0000001
 43
0.0000001
 44
0.0000000001
 40
0.0
 40
0.0
 40
0.0
 40
0.0
 40
0.250577074
 40
1.0
 40
1.0
 40
1.0
 40
1.0
 10
11.593507054
 20
12.5966568277
 30
0.0
 10
11.5924915471
 20
12.5972391185
 30
0.0
 10
11.5885175925
 20
12.5996990164
 30
0.0
 10
11.584865996
 20
12.6026685457
 30
0.0
 10
11.5823450401
 20
12.6050979511
 30
0.0
  0
SPLINE
  5
596
100
AcDbEntity
  8
0
100
AcDbSpline
 62
9
  6
CONTINUOUS
 70
0
 71
3
 72
12
 73
8
 74
0
 42
0.0000001
 43
0.0000001
 44
0.0000000001
 40
0.0
 40
0.0
 40
0.0
 40
0.0
 40
0.2506559182
 40
0.5006000747
 40
0.625448639
 40
0.7503415909
 40
1.0
 40
1.0
 40
1.0
 40
1.0
 10
13.149437216
 20
12.5324663349
 30
0.0
 10
13.1617709173
 20
12.5086502779
 30
0.0
 10
13.1882367866
 20
12.4620029013
 30
0.0
 10
13.2263059566
 20
12.4068386974
 30
0.0
 10
13.2598133221
 20
12.3651457721
 30
0.0
 10
13.2953239196
 20
12.3252022755
 30
0.0
 10
13.3243926182
 20
12.2974208368
 30
0.0
 10
13.3449271744
 20
12.2803344999
 30
0.0
  0
SPLINE
  5
597
100
AcDbEntity
  8
0
100
AcDbSpline
 62
7
  6
CONTINUOUS
 70
0
 71
3
 72
9
 73
5
 74
0
 42
0.0000001
 43
0.0000001
 44
0.0000000001
 40
0.0
 40
0.0
 40
0.0
 40
0.0
 40
0.4990357035
 40
1.0
 40
1.0
 40
1.0
 40
1.0
 10
11.65084085
 20
12.604354522
 30
0.0
 10
11.6477271537
 20
12.6014570815
 30
0.0
 10
11.6408613661
 20
12.596276887
 30
0.0
 10
11.632908982
 20
12.5929060549
 30
0.0
 10
11.62878551
 20
12.5917982011
 30
0.0
  0
SPLINE
  5
598
100
AcDbEntity
  8
0
100
AcDbSpline
 62
7
  6
CONTINUOUS
 70
0
 71
3
 72
8
 73
4
 74
0
 42
0.0000001
 43
0.0000001
 44
0.0000000001
 40
0.0
 40
0.0
 40
0.0
 40
0.0
 40
1.0
 40
1.0
 40
1.0
 40
1.0
 10
11.62878551
 20
12.5917982011
 30
0.0
 10
11.6249533991
 20
12.5907686273
 30
0.0
 10
11.6209534668
 20
12.5902282864
 30
0.0
 10
11.6169854576
 20
12.5902282864
 30
0.0
  0
SPLINE
  5
599
100
AcDbEntity
  8
0
100
AcDbSpline
 62
7
  6
CONTINUOUS
 70
0
 71
3
 72
9
 73
5
 74
0
 42
0.0000001
 43
0.0000001
 44
0.0000000001
 40
0.0
 40
0.0
 40
0.0
 40
0.0
 40
0.5013357054
 40
1.0
 40
1.0
 40
1.0
 40
1.0
 10
11.6169854576
 20
12.5664425198
 30
0.0
 10
11.6128900975
 20
12.5664425198
 30
0.0
 10
11.6046844653
 20
12.5675554455
 30
0.0
 10
11.5970603769
 20
12.5707353402
 30
0.0
 10
11.593507054
 20
12.5727272252
 30
0.0
  0
SPLINE
  5
59A
100
AcDbEntity
  8
0
100
AcDbSpline
 62
7
  6
CONTINUOUS
 70
0
 71
3
 72
9
 73
5
 74
0
 42
0.0000001
 43
0.0000001
 44
0.0000000001
 40
0.0
 40
0.0
 40
0.0
 40
0.0
 40
0.2512108291
 40
1.0
 40
1.0
 40
1.0
 40
1.0
 10
11.593507054
 20
12.5727272252
 30
0.0
 10
11.5923806667
 20
12.5733586437
 30
0.0
 10
11.587990201
 20
12.5760371587
 30
0.0
 10
11.5839845196
 20
12.5793311728
 30
0.0
 10
11.5812484542
 20
12.5820383146
 30
0.0
  0
SPLINE
  5
59B
100
AcDbEntity
  8
0
100
AcDbSpline
 62
7
  6
CONTINUOUS
 70
0
 71
3
 72
9
 73
5
 74
0
 42
0.0000001
 43
0.0000001
 44
0.0000000001
 40
0.0
 40
0.0
 40
0.0
 40
0.0
 40
0.2490503057
 40
1.0
 40
1.0
 40
1.0
 40
1.0
 10
11.6617068172
 20
12.5930567173
 30
0.0
 10
11.6609862974
 20
12.5919655887
 30
0.0
 10
11.6579801793
 20
12.5876610621
 30
0.0
 10
11.6544956471
 20
12.5836831721
 30
0.0
 10
11.6516259925
 20
12.5809795926
 30
0.0
  0
SPLINE
  5
59C
100
AcDbEntity
  8
0
100
AcDbSpline
 62
7
  6
CONTINUOUS
 70
0
 71
3
 72
9
 73
5
 74
0
 42
0.0000001
 43
0.0000001
 44
0.0000000001
 40
0.0
 40
0.0
 40
0.0
 40
0.0
 40
0.4978126244
 40
1.0
 40
1.0
 40
1.0
 40
1.0
 10
11.6516259925
 20
12.5809795926
 30
0.0
 10
11.6484267752
 20
12.5779655233
 30
0.0
 10
11.6413275496
 20
12.5725741767
 30
0.0
 10
11.6330740776
 20
12.5691037382
 30
0.0
 10
11.62878551
 20
12.5679773083
 30
0.0
  0
SPLINE
  5
59D
100
AcDbEntity
  8
0
100
AcDbSpline
 62
7
  6
CONTINUOUS
 70
0
 71
3
 72
8
 73
4
 74
0
 42
0.0000001
 43
0.0000001
 44
0.0000000001
 40
0.0
 40
0.0
 40
0.0
 40
0.0
 40
1.0
 40
1.0
 40
1.0
 40
1.0
 10
11.62878551
 20
12.5679773083
 30
0.0
 10
11.6249491555
 20
12.5669696562
 30
0.0
 10
11.6209519396
 20
12.5664425198
 30
0.0
 10
11.6169854576
 20
12.5664425198
 30
0.0
  0
SPLINE
  5
59E
100
AcDbEntity
  8
0
100
AcDbSpline
 62
9
  6
CONTINUOUS
 70
0
 71
3
 72
11
 73
7
 74
0
 42
0.0000001
 43
0.0000001
 44
0.0000000001
 40
0.0
 40
0.0
 40
0.0
 40
0.0
 40
0.3064206685
 40
0.4496984694
 40
0.5838596862
 40
1.0
 40
1.0
 40
1.0
 40
1.0
 10
13.3449314705
 20
12.2803352825
 30
0.0
 10
13.3453006311
 20
12.2787332063
 30
0.0
 10
13.3460890777
 20
12.2764319542
 30
0.0
 10
13.3475947055
 20
12.27366299
 30
0.0
 10
13.3496951232
 20
12.2706625339
 30
0.0
 10
13.3523992928
 20
12.268420634
 30
0.0
 10
13.3546320369
 20
12.2684203544
 30
0.0
  0
SPLINE
  5
59F
100
AcDbEntity
  8
0
100
AcDbSpline
 62
7
  6
CONTINUOUS
 70
0
 71
3
 72
9
 73
5
 74
0
 42
0.0000001
 43
0.0000001
 44
0.0000000001
 40
0.0
 40
0.0
 40
0.0
 40
0.0
 40
0.5023077758
 40
1.0
 40
1.0
 40
1.0
 40
1.0
 10
11.6169854576
 20
12.5466288595
 30
0.0
 10
11.6128923084
 20
12.5466288595
 30
0.0
 10
11.6047089192
 20
12.547702088
 30
0.0
 10
11.597070726
 20
12.5507832444
 30
0.0
 10
11.593507054
 20
12.5527191254
 30
0.0
  0
SPLINE
  5
5A0
100
AcDbEntity
  8
0
100
AcDbSpline
 62
7
  6
CONTINUOUS
 70
0
 71
3
 72
9
 73
5
 74
0
 42
0.0000001
 43
0.0000001
 44
0.0000000001
 40
0.0
 40
0.0
 40
0.0
 40
0.0
 40
0.2517499029
 40
1.0
 40
1.0
 40
1.0
 40
1.0
 10
11.593507054
 20
12.5527191254
 30
0.0
 10
11.5924931072
 20
12.5532699281
 30
0.0
 10
11.5885375203
 20
12.5555890448
 30
0.0
 10
11.5848778371
 20
12.558403691
 30
0.0
 10
11.5823450401
 20
12.5607160697
 30
0.0
  0
SPLINE
  5
5A1
100
AcDbEntity
  8
0
100
AcDbSpline
 62
7
  6
CONTINUOUS
 70
0
 71
3
 72
9
 73
5
 74
0
 42
0.0000001
 43
0.0000001
 44
0.0000000001
 40
0.0
 40
0.0
 40
0.0
 40
0.0
 40
0.2519714288
 40
1.0
 40
1.0
 40
1.0
 40
1.0
 10
11.5823450401
 20
12.5607160697
 30
0.0
 10
11.5813856584
 20
12.5615919606
 30
0.0
 10
11.5776895967
 20
12.5651893195
 30
0.0
 10
11.5744357935
 20
12.5692326664
 30
0.0
 10
11.5722640981
 20
12.5724196532
 30
0.0
  0
SPLINE
  5
5A2
100
AcDbEntity
  8
0
100
AcDbSpline
 62
7
  6
CONTINUOUS
 70
0
 71
3
 72
9
 73
5
 74
0
 42
0.0000001
 43
0.0000001
 44
0.0000000001
 40
0.0
 40
0.0
 40
0.0
 40
0.0
 40
0.2483978762
 40
1.0
 40
1.0
 40
1.0
 40
1.0
 10
11.6617068172
 20
12.5724196532
 30
0.0
 10
11.660985733
 20
12.5713614542
 30
0.0
 10
11.6579714698
 20
12.5671791221
 30
0.0
 10
11.6544874315
 20
12.563328611
 30
0.0
 10
11.6516259925
 20
12.5607161769
 30
0.0
  0
SPLINE
  5
5A3
100
AcDbEntity
  8
0
100
AcDbSpline
 62
7
  6
CONTINUOUS
 70
0
 71
3
 72
9
 73
5
 74
0
 42
0.0000001
 43
0.0000001
 44
0.0000000001
 40
0.0
 40
0.0
 40
0.0
 40
0.0
 40
0.2487357494
 40
1.0
 40
1.0
 40
1.0
 40
1.0
 10
11.6516259925
 20
12.5607161769
 30
0.0
 10
11.6507840609
 20
12.5599475109
 30
0.0
 10
11.6473138704
 20
12.5569527996
 30
0.0
 10
11.6434891602
 20
12.5543625132
 30
0.0
 10
11.6404634543
 20
12.5527189043
 30
0.0
  0
SPLINE
  5
5A4
100
AcDbEntity
  8
0
100
AcDbSpline
 62
7
  6
CONTINUOUS
 70
0
 71
3
 72
9
 73
5
 74
0
 42
0.0000001
 43
0.0000001
 44
0.0000000001
 40
0.0
 40
0.0
 40
0.0
 40
0.0
 40
0.2489084006
 40
1.0
 40
1.0
 40
1.0
 40
1.0
 10
11.6404634543
 20
12.5527189043
 30
0.0
 10
11.6395470088
 20
12.5522210773
 30
0.0
 10
11.6358073104
 20
12.5503301352
 30
0.0
 10
11.6318353526
 20
12.5488924479
 30
0.0
 10
11.62878551
 20
12.5481161639
 30
0.0
  0
SPLINE
  5
5A5
100
AcDbEntity
  8
0
100
AcDbSpline
 62
7
  6
CONTINUOUS
 70
0
 71
3
 72
11
 73
7
 74
0
 42
0.0000001
 43
0.0000001
 44
0.0000000001
 40
0.0
 40
0.0
 40
0.0
 40
0.0
 40
0.2500737036
 40
0.5001065562
 40
0.7500742296
 40
1.0
 40
1.0
 40
1.0
 40
1.0
 10
14.3798831391
 20
12.8283054669
 30
0.0
 10
14.3689446382
 20
12.8457001103
 30
0.0
 10
14.3485769364
 20
12.8814784142
 30
0.0
 10
14.3242707792
 20
12.9382960981
 30
0.0
 10
14.3082902501
 20
12.9980592661
 30
0.0
 10
14.304538929
 20
13.0392220009
 30
0.0
 10
14.304538929
 20
13.0597579458
 30
0.0
  0
SPLINE
  5
5A6
100
AcDbEntity
  8
0
100
AcDbSpline
 62
7
  6
CONTINUOUS
 70
0
 71
3
 72
12
 73
8
 74
0
 42
0.0000001
 43
0.0000001
 44
0.0000000001
 40
0.0
 40
0.0
 40
0.0
 40
0.0
 40
0.2499323905
 40
0.3750477673
 40
0.5000909781
 40
0.7500671766
 40
1.0
 40
1.0
 40
1.0
 40
1.0
 10
14.304538929
 20
13.0597579458
 30
0.0
 10
14.304538929
 20
13.0802984275
 30
0.0
 10
14.3073755365
 20
13.111200523
 30
0.0
 10
14.3162720793
 20
13.1513548407
 30
0.0
 10
14.3283274433
 20
13.1906926453
 30
0.0
 10
14.3485763463
 20
13.2380598742
 30
0.0
 10
14.3689486749
 20
13.2738222005
 30
0.0
 10
14.3798831391
 20
13.2912104247
 30
0.0
  0
SPLINE
  5
5A7
100
AcDbEntity
  8
0
100
AcDbSpline
 62
7
  6
CONTINUOUS
 70
0
 71
3
 72
13
 73
9
 74
0
 42
0.0000001
 43
0.0000001
 44
0.0000000001
 40
0.0
 40
0.0
 40
0.0
 40
0.0
 40
0.4040872905
 40
0.5698027704
 40
0.709124047
 40
0.8207338437
 40
0.9041474712
 40
1.0
 40
1.0
 40
1.0
 40
1.0
 10
13.1427755702
 20
19.0494036089
 30
0.0
 10
13.1437249755
 20
19.0494036089
 30
0.0
 10
13.145064018
 20
19.0494317473
 30
0.0
 10
13.1467265477
 20
19.0495704927
 30
0.0
 10
13.1476936922
 20
19.049699022
 30
0.0
 10
13.1484721134
 20
19.049873788
 30
0.0
 10
13.149093615
 20
19.050074201
 30
0.0
 10
13.1495114553
 20
19.0504000427
 30
0.0
 10
13.1495109206
 20
19.0506252481
 30
0.0
  0
SPLINE
  5
5A8
100
AcDbEntity
  8
0
100
AcDbSpline
 62
7
  6
CONTINUOUS
 70
0
 71
3
 72
13
 73
9
 74
0
 42
0.0000001
 43
0.0000001
 44
0.0000000001
 40
0.0
 40
0.0
 40
0.0
 40
0.0
 40
0.3968430102
 40
0.5639096516
 40
0.7054202436
 40
0.8188037568
 40
0.9040346878
 40
1.0
 40
1.0
 40
1.0
 40
1.0
 10
13.2847472687
 20
19.0494036089
 30
0.0
 10
13.2863350205
 20
19.0494036089
 30
0.0
 10
13.2885913446
 20
19.0494576817
 30
0.0
 10
13.2914077855
 20
19.0496994461
 30
0.0
 10
13.2930736921
 20
19.0499242979
 30
0.0
 10
13.2944261522
 20
19.0502281627
 30
0.0
 10
13.2954858505
 20
19.0505734578
 30
0.0
 10
13.2962482709
 20
19.0510976284
 30
0.0
 10
13.2962471742
 20
19.0514815799
 30
0.0
  0
SPLINE
  5
5A9
100
AcDbEntity
  8
0
100
AcDbSpline
 62
7
  6
CONTINUOUS
 70
0
 71
3
 72
12
 73
8
 74
0
 42
0.0000001
 43
0.0000001
 44
0.0000000001
 40
0.0
 40
0.0
 40
0.0
 40
0.0
 40
0.2676469148
 40
0.550518204
 40
0.8061243513
 40
0.9125780852
 40
1.0
 40
1.0
 40
1.0
 40
1.0
 10
13.9702472687
 20
19.0494036089
 30
0.0
 10
13.9730584572
 20
19.0494036089
 30
0.0
 10
13.978841256
 20
19.0496474116
 30
0.0
 10
13.9872694717
 20
19.0504868256
 30
0.0
 10
13.9939669621
 20
19.0515470343
 30
0.0
 10
13.9985740909
 20
19.0525828724
 30
0.0
 10
14.0005353786
 20
19.0531392549
 30
0.0
 10
14.0014047946
 20
19.053434634
 30
0.0
  0
SPLINE
  5
5AA
100
AcDbEntity
  8
0
100
AcDbSpline
 62
7
  6
CONTINUOUS
 70
0
 71
3
 72
11
 73
7
 74
0
 42
0.0000001
 43
0.0000001
 44
0.0000000001
 40
0.0
 40
0.0
 40
0.0
 40
0.0
 40
0.3771422146
 40
0.6660220421
 40
0.8684034738
 40
1.0
 40
1.0
 40
1.0
 40
1.0
 10
14.0014047946
 20
19.053434634
 30
0.0
 10
14.0018902925
 20
19.0535995792
 30
0.0
 10
14.0027401881
 20
19.0539135891
 30
0.0
 10
14.0038013702
 20
19.0544437389
 30
0.0
 10
14.0044945223
 20
19.0549276939
 30
0.0
 10
14.0047471312
 20
19.0553565154
 30
0.0
 10
14.0047473959
 20
19.0555354304
 30
0.0
  0
SPLINE
  5
5AB
100
AcDbEntity
  8
0
100
AcDbSpline
 62
7
  6
CONTINUOUS
 70
0
 71
3
 72
16
 73
12
 74
0
 42
0.0000001
 43
0.0000001
 44
0.0000000001
 40
0.0
 40
0.0
 40
0.0
 40
0.0
 40
0.1220279758
 40
0.2648360633
 40
0.4177339286
 40
0.5705193288
 40
0.7133601768
 40
0.8374076438
 40
0.9347486931
 40
0.9716624564
 40
1.0
 40
1.0
 40
1.0
 40
1.0
 10
14.1122189672
 20
19.0494036089
 30
0.0
 10
14.1138066527
 20
19.0494036089
 30
0.0
 10
14.1172521525
 20
19.0495282779
 30
0.0
 10
14.1226722355
 20
19.0499432114
 30
0.0
 10
14.1284723463
 20
19.0505933095
 30
0.0
 10
14.1342498959
 20
19.051420452
 30
0.0
 10
14.1396286844
 20
19.0523686374
 30
0.0
 10
14.144261556
 20
19.0533678382
 30
0.0
 10
14.1475102267
 20
19.0542455839
 30
0.0
 10
14.1495032163
 20
19.0549563678
 30
0.0
 10
14.1502808007
 20
19.0553030279
 30
0.0
 10
14.1506034563
 20
19.0554814357
 30
0.0
  0
SPLINE
  5
5AC
100
AcDbEntity
  8
0
100
AcDbSpline
 62
7
  6
CONTINUOUS
 70
0
 71
3
 72
9
 73
5
 74
0
 42
0.0000001
 43
0.0000001
 44
0.0000000001
 40
0.0
 40
0.0
 40
0.0
 40
0.0
 40
0.6304753814
 40
1.0
 40
1.0
 40
1.0
 40
1.0
 10
14.1506034563
 20
19.0554814357
 30
0.0
 10
14.1508377115
 20
19.0556109637
 30
0.0
 10
14.1511960074
 20
19.0558201579
 30
0.0
 10
14.1514809468
 20
19.0562019609
 30
0.0
 10
14.1514814692
 20
19.056358849
 30
0.0
  0
SPLINE
  5
5AD
100
AcDbEntity
  8
0
100
AcDbSpline
 62
7
  6
CONTINUOUS
 70
0
 71
3
 72
13
 73
9
 74
0
 42
0.0000001
 43
0.0000001
 44
0.0000000001
 40
0.0
 40
0.0
 40
0.0
 40
0.0
 40
0.0910489801
 40
0.2101998589
 40
0.4970187141
 40
0.7844894113
 40
0.9051910518
 40
1.0
 40
1.0
 40
1.0
 40
1.0
 10
14.221157683
 20
19.0494036089
 30
0.0
 10
14.2223773636
 20
19.0494036089
 30
0.0
 10
14.2251921114
 20
19.0495460865
 30
0.0
 10
14.2318233464
 20
19.0501455964
 30
0.0
 10
14.2410312481
 20
19.0514044135
 30
0.0
 10
14.250207075
 20
19.0529976405
 30
0.0
 10
14.2567944677
 20
19.0544156901
 30
0.0
 10
14.2595955067
 20
19.0551219017
 30
0.0
 10
14.2608136032
 20
19.0554814357
 30
0.0
  0
SPLINE
  5
5AE
100
AcDbEntity
  8
0
100
AcDbSpline
 62
7
  6
CONTINUOUS
 70
0
 71
3
 72
11
 73
7
 74
0
 42
0.0000001
 43
0.0000001
 44
0.0000000001
 40
0.0
 40
0.0
 40
0.0
 40
0.0
 40
0.402611617
 40
0.7037412667
 40
0.9005599324
 40
1.0
 40
1.0
 40
1.0
 40
1.0
 10
14.2608136032
 20
19.0554814357
 30
0.0
 10
14.2612843866
 20
19.0556203923
 30
0.0
 10
14.2620984988
 20
19.0558725018
 30
0.0
 10
14.2631415794
 20
19.0562775983
 30
0.0
 10
14.2637614616
 20
19.0565808098
 30
0.0
 10
14.2640786903
 20
19.0568661049
 30
0.0
 10
14.2640760353
 20
19.0569873128
 30
0.0
  0
SPLINE
  5
5AF
100
AcDbEntity
  8
0
100
AcDbSpline
 62
9
  6
CONTINUOUS
 70
0
 71
3
 72
15
 73
11
 74
0
 42
0.0000001
 43
0.0000001
 44
0.0000000001
 40
0.0
 40
0.0
 40
0.0
 40
0.0
 40
0.1239732996
 40
0.2491760779
 40
0.3750038508
 40
0.5003940789
 40
0.6253255358
 40
0.7500457023
 40
0.8748418226
 40
1.0
 40
1.0
 40
1.0
 40
1.0
 10
13.9100679274
 20
12.2803344649
 30
0.0
 10
13.9207499709
 20
12.2881179068
 30
0.0
 10
13.9411012877
 20
12.3053217255
 30
0.0
 10
13.9688204659
 20
12.3341855829
 30
0.0
 10
13.9946920667
 20
12.3648823286
 30
0.0
 10
14.0195229152
 20
12.3963796294
 30
0.0
 10
14.0430816049
 20
12.428699037
 30
0.0
 10
14.0652938972
 20
12.4618826027
 30
0.0
 10
14.086081801
 20
12.4960064584
 30
0.0
 10
14.0989057368
 20
12.5193777819
 30
0.0
 10
14.1050701799
 20
12.5312117496
 30
0.0
  0
SPLINE
  5
5B0
100
AcDbEntity
  8
0
100
AcDbSpline
 62
9
  6
CONTINUOUS
 70
0
 71
3
 72
15
 73
11
 74
0
 42
0.0000001
 43
0.0000001
 44
0.0000000001
 40
0.0
 40
0.0
 40
0.0
 40
0.0
 40
0.1244669406
 40
0.2490157906
 40
0.4980731944
 40
0.6227258203
 40
0.7477507724
 40
0.8734480246
 40
0.9366383341
 40
1.0
 40
1.0
 40
1.0
 40
1.0
 10
14.1159619403
 20
13.5873097514
 30
0.0
 10
14.1095073337
 20
13.6003845447
 30
0.0
 10
14.0960087668
 20
13.6262606382
 30
0.0
 10
14.0666731417
 20
13.6767111332
 30
0.0
 10
14.0335142836
 20
13.7249325738
 30
0.0
 10
13.9960240326
 20
13.769788085
 30
0.0
 10
13.9657956019
 20
13.8017634577
 30
0.0
 10
13.9389651359
 20
13.8269461202
 30
0.0
 10
13.9165736876
 20
13.8462344352
 30
0.0
 10
13.905045002
 20
13.8555618884
 30
0.0
 10
13.8991794963
 20
13.8601109012
 30
0.0
  0
SPLINE
  5
5B1
100
AcDbEntity
  8
0
100
AcDbSpline
 62
7
  6
CONTINUOUS
 70
0
 71
3
 72
9
 73
5
 74
0
 42
0.0000001
 43
0.0000001
 44
0.0000000001
 40
0.0
 40
0.0
 40
0.0
 40
0.0
 40
0.5034948067
 40
1.0
 40
1.0
 40
1.0
 40
1.0
 10
11.6169854576
 20
12.5309468448
 30
0.0
 10
11.6128950596
 20
12.5309468448
 30
0.0
 10
11.6047388695
 20
12.5319710317
 30
0.0
 10
11.5970839646
 20
12.5349282778
 30
0.0
 10
11.5935074701
 20
12.5367934136
 30
0.0
  0
SPLINE
  5
5B2
100
AcDbEntity
  8
0
100
AcDbSpline
 62
7
  6
CONTINUOUS
 70
0
 71
3
 72
9
 73
5
 74
0
 42
0.0000001
 43
0.0000001
 44
0.0000000001
 40
0.0
 40
0.0
 40
0.0
 40
0.0
 40
0.2526067032
 40
1.0
 40
1.0
 40
1.0
 40
1.0
 10
11.5935074701
 20
12.5367934136
 30
0.0
 10
11.5924946279
 20
12.5373216092
 30
0.0
 10
11.5885523243
 20
12.539540111
 30
0.0
 10
11.5848869478
 20
12.5422429771
 30
0.0
 10
11.5823452834
 20
12.5444706589
 30
0.0
  0
SPLINE
  5
5B3
100
AcDbEntity
  8
0
100
AcDbSpline
 62
7
  6
CONTINUOUS
 70
0
 71
3
 72
9
 73
5
 74
0
 42
0.0000001
 43
0.0000001
 44
0.0000000001
 40
0.0
 40
0.0
 40
0.0
 40
0.0
 40
0.2478689666
 40
1.0
 40
1.0
 40
1.0
 40
1.0
 10
11.6516260235
 20
12.5444710022
 30
0.0
 10
11.650783131
 20
12.5437322229
 30
0.0
 10
11.6473004913
 20
12.5408473093
 30
0.0
 10
11.6434791155
 20
12.5383660853
 30
0.0
 10
11.6404635101
 20
12.5367934475
 30
0.0
  0
SPLINE
  5
5B4
100
AcDbEntity
  8
0
100
AcDbSpline
 62
7
  6
CONTINUOUS
 70
0
 71
3
 72
9
 73
5
 74
0
 42
0.0000001
 43
0.0000001
 44
0.0000000001
 40
0.0
 40
0.0
 40
0.0
 40
0.0
 40
0.248247972
 40
1.0
 40
1.0
 40
1.0
 40
1.0
 10
11.6404635101
 20
12.5367934475
 30
0.0
 10
11.6395461713
 20
12.5363150555
 30
0.0
 10
11.6357963404
 20
12.5344950928
 30
0.0
 10
11.631828985
 20
12.5331183836
 30
0.0
 10
11.6287855635
 20
12.5323747001
 30
0.0
  0
SPLINE
  5
5B5
100
AcDbEntity
  8
0
100
AcDbSpline
 62
7
  6
CONTINUOUS
 70
0
 71
3
 72
9
 73
5
 74
0
 42
0.0000001
 43
0.0000001
 44
0.0000000001
 40
0.0
 40
0.0
 40
0.0
 40
0.0
 40
0.504865919
 40
1.0
 40
1.0
 40
1.0
 40
1.0
 10
11.6169854576
 20
12.5195227374
 30
0.0
 10
11.6128980286
 20
12.5195227374
 30
0.0
 10
11.6047727371
 20
12.5204894914
 30
0.0
 10
11.5970987993
 20
12.5232989272
 30
0.0
 10
11.593507054
 20
12.5250789709
 30
0.0
  0
SPLINE
  5
5B6
100
AcDbEntity
  8
0
100
AcDbSpline
 62
7
  6
CONTINUOUS
 70
0
 71
3
 72
9
 73
5
 74
0
 42
0.0000001
 43
0.0000001
 44
0.0000000001
 40
0.0
 40
0.0
 40
0.0
 40
0.0
 40
0.2536399519
 40
1.0
 40
1.0
 40
1.0
 40
1.0
 10
11.593507054
 20
12.5250789709
 30
0.0
 10
11.5924955563
 20
12.5255802621
 30
0.0
 10
11.5885693192
 20
12.5276795447
 30
0.0
 10
11.5848975175
 20
12.5302486864
 30
0.0
 10
11.5823450401
 20
12.5323746935
 30
0.0
  0
SPLINE
  5
5B7
100
AcDbEntity
  8
0
100
AcDbSpline
 62
7
  6
CONTINUOUS
 70
0
 71
3
 72
9
 73
5
 74
0
 42
0.0000001
 43
0.0000001
 44
0.0000000001
 40
0.0
 40
0.0
 40
0.0
 40
0.0
 40
0.2464557072
 40
1.0
 40
1.0
 40
1.0
 40
1.0
 10
11.6617068172
 20
12.543052034
 30
0.0
 10
11.660984015
 20
12.5420843244
 30
0.0
 10
11.6579452501
 20
12.5382386639
 30
0.0
 10
11.6544636324
 20
12.534738328
 30
0.0
 10
11.6516259925
 20
12.5323747913
 30
0.0
  0
SPLINE
  5
5B8
100
AcDbEntity
  8
0
100
AcDbSpline
 62
7
  6
CONTINUOUS
 70
0
 71
3
 72
9
 73
5
 74
0
 42
0.0000001
 43
0.0000001
 44
0.0000000001
 40
0.0
 40
0.0
 40
0.0
 40
0.0
 40
0.4916669127
 40
1.0
 40
1.0
 40
1.0
 40
1.0
 10
11.6516259925
 20
12.5323747913
 30
0.0
 10
11.6483839384
 20
12.5296744084
 30
0.0
 10
11.6411800654
 20
12.5248699701
 30
0.0
 10
11.6330348287
 20
12.5218663749
 30
0.0
 10
11.62878551
 20
12.5208796257
 30
0.0
  0
SPLINE
  5
5B9
100
AcDbEntity
  8
0
100
AcDbSpline
 62
7
  6
CONTINUOUS
 70
0
 71
3
 72
9
 73
5
 74
0
 42
0.0000001
 43
0.0000001
 44
0.0000000001
 40
0.0
 40
0.0
 40
0.0
 40
0.0
 40
0.2556390816
 40
1.0
 40
1.0
 40
1.0
 40
1.0
 10
11.593507054
 20
12.5176694709
 30
0.0
 10
11.5923417994
 20
12.518212114
 30
0.0
 10
11.5878571806
 20
12.5204902815
 30
0.0
 10
11.5836785764
 20
12.5233639137
 30
0.0
 10
11.5808102133
 20
12.5257683141
 30
0.0
  0
SPLINE
  5
5BA
100
AcDbEntity
  8
0
100
AcDbSpline
 62
7
  6
CONTINUOUS
 70
0
 71
3
 72
9
 73
5
 74
0
 42
0.0000001
 43
0.0000001
 44
0.0000000001
 40
0.0
 40
0.0
 40
0.0
 40
0.0
 40
0.2546064008
 40
1.0
 40
1.0
 40
1.0
 40
1.0
 10
11.5808102133
 20
12.5257683141
 30
0.0
 10
11.5800120767
 20
12.5264373507
 30
0.0
 10
11.5769469968
 20
12.5291474491
 30
0.0
 10
11.5741613452
 20
12.5321711335
 30
0.0
 10
11.5722640981
 20
12.5345579429
 30
0.0
  0
SPLINE
  5
5BB
100
AcDbEntity
  8
0
100
AcDbSpline
 62
7
  6
CONTINUOUS
 70
0
 71
3
 72
9
 73
5
 74
0
 42
0.0000001
 43
0.0000001
 44
0.0000000001
 40
0.0
 40
0.0
 40
0.0
 40
0.0
 40
0.2457603351
 40
1.0
 40
1.0
 40
1.0
 40
1.0
 10
11.6617068172
 20
12.5345579429
 30
0.0
 10
11.6610813141
 20
12.5337710361
 30
0.0
 10
11.658459954
 20
12.5306306295
 30
0.0
 10
11.6555250157
 20
12.5277502002
 30
0.0
 10
11.6531607498
 20
12.5257683542
 30
0.0
  0
SPLINE
  5
5BC
100
AcDbEntity
  8
0
100
AcDbSpline
 62
7
  6
CONTINUOUS
 70
0
 71
3
 72
9
 73
5
 74
0
 42
0.0000001
 43
0.0000001
 44
0.0000000001
 40
0.0
 40
0.0
 40
0.0
 40
0.0
 40
0.4878850618
 40
1.0
 40
1.0
 40
1.0
 40
1.0
 10
11.6531607498
 20
12.5257683542
 30
0.0
 10
11.6497472687
 20
12.5229070036
 30
0.0
 10
11.6420598776
 20
12.5178177183
 30
0.0
 10
11.6333533583
 20
12.5147202435
 30
0.0
 10
11.62878551
 20
12.5137235367
 30
0.0
  0
SPLINE
  5
5BD
100
AcDbEntity
  8
0
100
AcDbSpline
 62
9
  6
CONTINUOUS
 70
0
 71
3
 72
31
 73
27
 74
0
 42
0.0000001
 43
0.0000001
 44
0.0000000001
 40
0.0
 40
0.0
 40
0.0
 40
0.0
 40
0.0002650177
 40
0.0005959774
 40
0.0010590587
 40
0.0023810488
 40
0.004229914
 40
0.00660458
 40
0.0095039731
 40
0.0129270194
 40
0.0168726453
 40
0.0263273417
 40
0.0378594757
 40
0.0514604626
 40
0.0671217196
 40
0.0848323098
 40
0.1045725392
 40
0.1500549999
 40
0.2033952757
 40
0.2644195434
 40
0.3329406054
 40
0.4087192378
 40
0.4915035903
 40
0.5810418371
 40
0.7791584901
 40
1.0
 40
1.0
 40
1.0
 40
1.0
 10
14.250825857
 20
12.0662410714
 30
0.0
 10
14.2508078137
 20
12.0662528394
 30
0.0
 10
14.250753861
 20
12.0662331093
 30
0.0
 10
14.2506706351
 20
12.0662417185
 30
0.0
 10
14.2504970279
 20
12.0662336712
 30
0.0
 10
14.2502028816
 20
12.0662337035
 30
0.0
 10
14.2497515777
 20
12.066225498
 30
0.0
 10
14.2491728738
 20
12.0662184733
 30
0.0
 10
14.2484659142
 20
12.0662088492
 30
0.0
 10
14.2476313779
 20
12.0661981444
 30
0.0
 10
14.2462639972
 20
12.0661807835
 30
0.0
 10
14.2442375346
 20
12.06615603
 30
0.0
 10
14.2414262709
 20
12.0661232056
 30
0.0
 10
14.2381105274
 20
12.0660863657
 30
0.0
 10
14.2342925777
 20
12.0660461003
 30
0.0
 10
14.2299756062
 20
12.0660030095
 30
0.0
 10
14.2232347223
 20
12.0659390636
 30
0.0
 10
14.2135977665
 20
12.0658543784
 30
0.0
 10
14.2006051055
 20
12.0657502162
 30
0.0
 10
14.1857397433
 20
12.0656416079
 30
0.0
 10
14.1690504612
 20
12.0655309826
 30
0.0
 10
14.1505923735
 20
12.0654225603
 30
0.0
 10
14.1304258547
 20
12.0653204888
 30
0.0
 10
14.100315161
 20
12.0651942465
 30
0.0
 10
14.0589824423
 20
12.0650790356
 30
0.0
 10
14.0249276533
 20
12.0650431977
 30
0.0
 10
14.0069766708
 20
12.0650394829
 30
0.0
  0
SPLINE
  5
5BE
100
AcDbEntity
  8
0
100
AcDbSpline
 62
9
  6
CONTINUOUS
 70
0
 71
3
 72
14
 73
10
 74
0
 42
0.0000001
 43
0.0000001
 44
0.0000000001
 40
0.0
 40
0.0
 40
0.0
 40
0.0
 40
0.0278659166
 40
0.0508704918
 40
0.0809555314
 40
0.1631426999
 40
0.2750065153
 40
0.5850997436
 40
1.0
 40
1.0
 40
1.0
 40
1.0
 10
13.0348303231
 20
20.310226412
 30
0.0
 10
13.0348515665
 20
20.3099934424
 30
0.0
 10
13.035253787
 20
20.3096743759
 30
0.0
 10
13.0358598046
 20
20.3094243713
 30
0.0
 10
13.036961851
 20
20.3090992332
 30
0.0
 10
13.0388150673
 20
20.3087934678
 30
0.0
 10
13.0430319095
 20
20.3083747552
 30
0.0
 10
13.050057559
 20
20.3081655804
 30
0.0
 10
13.0561445225
 20
20.3082021035
 30
0.0
 10
13.0596270377
 20
20.3082666648
 30
0.0
  0
SPLINE
  5
5BF
100
AcDbEntity
  8
0
100
AcDbSpline
 62
9
  6
CONTINUOUS
 70
0
 71
3
 72
9
 73
5
 74
0
 42
0.0000001
 43
0.0000001
 44
0.0000000001
 40
0.0
 40
0.0
 40
0.0
 40
0.0
 40
0.4583306901
 40
1.0
 40
1.0
 40
1.0
 40
1.0
 10
13.0596270377
 20
20.3082666648
 30
0.0
 10
13.0687894275
 20
20.3084365234
 30
0.0
 10
13.088768298
 20
20.3093729837
 30
0.0
 10
13.1087075839
 20
20.3108770552
 30
0.0
 10
13.1194956076
 20
20.3118325457
 30
0.0
  0
SPLINE
  5
5C0
100
AcDbEntity
  8
0
100
AcDbSpline
 62
9
  6
CONTINUOUS
 70
0
 71
3
 72
11
 73
7
 74
0
 42
0.0000001
 43
0.0000001
 44
0.0000000001
 40
0.0
 40
0.0
 40
0.0
 40
0.0
 40
0.1848955357
 40
0.4115364909
 40
0.6819657621
 40
1.0
 40
1.0
 40
1.0
 40
1.0
 10
14.0209215917
 20
19.9173238683
 30
0.0
 10
14.0177312517
 20
19.9145340494
 30
0.0
 10
14.0100764381
 20
19.9089619586
 30
0.0
 10
13.9965311434
 20
19.9011312112
 30
0.0
 10
13.9796956552
 20
19.892997644
 30
0.0
 10
13.9672404049
 20
19.88780655
 30
0.0
 10
13.9604611762
 20
19.8851263272
 30
0.0
  0
SPLINE
  5
5C1
100
AcDbEntity
  8
0
100
AcDbSpline
 62
9
  6
CONTINUOUS
 70
0
 71
3
 72
9
 73
5
 74
0
 42
0.0000001
 43
0.0000001
 44
0.0000000001
 40
0.0
 40
0.0
 40
0.0
 40
0.0
 40
0.2272081477
 40
1.0
 40
1.0
 40
1.0
 40
1.0
 10
13.9474245086
 20
19.8801359185
 30
0.0
 10
13.9442671676
 20
19.878963005
 30
0.0
 10
13.9303371823
 20
19.8738914652
 30
0.0
 10
13.9162929541
 20
19.8691384408
 30
0.0
 10
13.9054082717
 20
19.8655659163
 30
0.0
  0
SPLINE
  5
5C2
100
AcDbEntity
  8
0
100
AcDbSpline
 62
9
  6
CONTINUOUS
 70
0
 71
3
 72
35
 73
31
 74
0
 42
0.0000001
 43
0.0000001
 44
0.0000000001
 40
0.0
 40
0.0
 40
0.0
 40
0.0
 40
0.2144581667
 40
0.3147606524
 40
0.4098022636
 40
0.4991030239
 40
0.5822116138
 40
0.6587450131
 40
0.7283301379
 40
0.7905960172
 40
0.8452270324
 40
0.8695991447
 40
0.8919667272
 40
0.9122980769
 40
0.9305614883
 40
0.9467257083
 40
0.9607702002
 40
0.9726852945
 40
0.9824618081
 40
0.986545229
 40
0.9900905641
 40
0.9930966686
 40
0.9955624004
 40
0.9974866234
 40
0.9982453183
 40
0.9988682184
 40
0.9993551926
 40
0.999706124
 40
0.9999209469
 40
1.0
 40
1.0
 40
1.0
 40
1.0
 10
13.3554982131
 20
12.0651697735
 30
0.0
 10
13.3303824465
 20
12.0650972007
 30
0.0
 10
13.2935198756
 20
12.0650215346
 30
0.0
 10
13.2455266341
 20
12.0650104605
 30
0.0
 10
13.2121909836
 20
12.0650384003
 30
0.0
 10
13.1808690099
 20
12.0650979513
 30
0.0
 10
13.1517146615
 20
12.0651838177
 30
0.0
 10
13.1248693621
 20
12.0652912513
 30
0.0
 10
13.100465118
 20
12.0654152228
 30
0.0
 10
13.0786260408
 20
12.0655513804
 30
0.0
 10
13.0620820311
 20
12.0656737004
 30
0.0
 10
13.0502105834
 20
12.0657706366
 30
0.0
 10
13.0423559733
 20
12.0658383084
 30
0.0
 10
13.0352167704
 20
12.0659025841
 30
0.0
 10
13.0288040522
 20
12.0659623578
 30
0.0
 10
13.0231275856
 20
12.0660163322
 30
0.0
 10
13.0181945649
 20
12.06606403
 30
0.0
 10
13.0140096064
 20
12.0661059419
 30
0.0
 10
13.0109911834
 20
12.0661379374
 30
0.0
 10
13.0089529266
 20
12.0661612827
 30
0.0
 10
13.007707548
 20
12.0661765227
 30
0.0
 10
13.006651581
 20
12.0661905173
 30
0.0
 10
13.0057855858
 20
12.0662035297
 30
0.0
 10
13.0051825048
 20
12.0662136868
 30
0.0
 10
13.0047957329
 20
12.0662221841
 30
0.0
 10
13.0045763319
 20
12.0662266148
 30
0.0
 10
13.0044069645
 20
12.0662338763
 30
0.0
 10
13.0042800029
 20
12.066233351
 30
0.0
 10
13.0042113815
 20
12.0662467997
 30
0.0
 10
13.0041696511
 20
12.066239834
 30
0.0
 10
13.0041639353
 20
12.0662471171
 30
0.0
  0
SPLINE
  5
5C3
100
AcDbEntity
  8
0
100
AcDbSpline
 62
7
  6
CONTINUOUS
 70
0
 71
3
 72
21
 73
17
 74
0
 42
0.0000001
 43
0.0000001
 44
0.0000000001
 40
0.0
 40
0.0
 40
0.0
 40
0.0
 40
0.1418035853
 40
0.2085172607
 40
0.2721412267
 40
0.3326750859
 40
0.3903572622
 40
0.4458028752
 40
0.500000212
 40
0.5541975979
 40
0.6096432465
 40
0.6673253488
 40
0.7278590269
 40
0.7914828669
 40
0.8581964202
 40
1.0
 40
1.0
 40
1.0
 40
1.0
 10
14.3798831391
 20
13.6899032751
 30
0.0
 10
14.3693269037
 20
13.6815098968
 30
0.0
 10
14.3543212168
 20
13.6684492817
 30
0.0
 10
14.3367110989
 20
13.6494494425
 30
0.0
 10
14.3255638608
 20
13.6350856424
 30
0.0
 10
14.3164686787
 20
13.6203287072
 30
0.0
 10
14.3096939701
 20
13.6052040766
 30
0.0
 10
14.3054921593
 20
13.5897790721
 30
0.0
 10
14.3040707706
 20
13.5741769711
 30
0.0
 10
14.3054921496
 20
13.5585748575
 30
0.0
 10
14.309694068
 20
13.5431498853
 30
0.0
 10
14.3164686858
 20
13.5280252394
 30
0.0
 10
14.3255639234
 20
13.5132683757
 30
0.0
 10
14.3367111233
 20
13.4989046027
 30
0.0
 10
14.3543212266
 20
13.4799047805
 30
0.0
 10
14.3693269041
 20
13.4668441742
 30
0.0
 10
14.3798831391
 20
13.4584507962
 30
0.0
  0
SPLINE
  5
5C4
100
AcDbEntity
  8
0
100
AcDbSpline
 62
7
  6
CONTINUOUS
 70
0
 71
3
 72
16
 73
12
 74
0
 42
0.0000001
 43
0.0000001
 44
0.0000000001
 40
0.0
 40
0.0
 40
0.0
 40
0.0
 40
0.1257883345
 40
0.1884923158
 40
0.2510660207
 40
0.3760082316
 40
0.5008496563
 40
0.6256512575
 40
0.7504328221
 40
0.8752125937
 40
1.0
 40
1.0
 40
1.0
 40
1.0
 10
12.975037808
 20
13.2181538384
 30
0.0
 10
12.9781483117
 20
13.2277115333
 30
0.0
 10
12.981833251
 20
13.2423593126
 30
0.0
 10
12.9853922677
 20
13.2621026593
 30
0.0
 10
12.9882523307
 20
13.2818953953
 30
0.0
 10
12.9907089307
 20
13.3067441777
 30
0.0
 10
12.9924928325
 20
13.3366265914
 30
0.0
 10
12.9934551073
 20
13.3665322511
 30
0.0
 10
12.9938258237
 20
13.3964449014
 30
0.0
 10
12.9936950705
 20
13.4263581671
 30
0.0
 10
12.9932519949
 20
13.4462965508
 30
0.0
 10
12.9929149883
 20
13.4562619825
 30
0.0
  0
SPLINE
  5
5C5
100
AcDbEntity
  8
0
100
AcDbSpline
 62
7
  6
CONTINUOUS
 70
0
 71
3
 72
20
 73
16
 74
0
 42
0.0000001
 43
0.0000001
 44
0.0000000001
 40
0.0
 40
0.0
 40
0.0
 40
0.0
 40
0.1218225343
 40
0.243700236
 40
0.3657026343
 40
0.4879786279
 40
0.5493277067
 40
0.6109013918
 40
0.6728177593
 40
0.735267572
 40
0.7985734863
 40
0.8632898918
 40
0.9302448324
 40
0.9648853887
 40
1.0
 40
1.0
 40
1.0
 40
1.0
 10
12.9929149883
 20
13.4562619825
 30
0.0
 10
12.9926055723
 20
13.4654115478
 30
0.0
 10
12.9917917335
 20
13.4837092251
 30
0.0
 10
12.9897619443
 20
13.5111219769
 30
0.0
 10
12.9865812231
 20
13.5384633847
 30
0.0
 10
12.9825576377
 20
13.5610999859
 30
0.0
 10
12.978133323
 20
13.5789945789
 30
0.0
 10
12.974060368
 20
13.5922834544
 30
0.0
 10
12.9690529126
 20
13.605343349
 30
0.0
 10
12.9628542147
 20
13.6180369488
 30
0.0
 10
12.9550849768
 20
13.630113238
 30
0.0
 10
12.9452162515
 20
13.6410515582
 30
0.0
 10
12.9346796523
 20
13.6481685479
 30
0.0
 10
12.9248834778
 20
13.651460796
 30
0.0
 10
12.9196242722
 20
13.6520603328
 30
0.0
 10
12.9169854576
 20
13.6520603328
 30
0.0
  0
SPLINE
  5
5C6
100
AcDbEntity
  8
0
100
AcDbSpline
 62
9
  6
CONTINUOUS
 70
0
 71
3
 72
30
 73
26
 74
0
 42
0.0000001
 43
0.0000001
 44
0.0000000001
 40
0.0
 40
0.0
 40
0.0
 40
0.0
 40
0.0002746365
 40
0.0006172102
 40
0.0010962874
 40
0.0024629533
 40
0.004372635
 40
0.0068233337
 40
0.0098130511
 40
0.0174015499
 40
0.0271221517
 40
0.0389588832
 40
0.052895777
 40
0.068916872
 40
0.0870062138
 40
0.1071478542
 40
0.1535241753
 40
0.2078686725
 40
0.269872612
 40
0.339205968
 40
0.4155390967
 40
0.4985427738
 40
0.5878876554
 40
0.7839709962
 40
1.0
 40
1.0
 40
1.0
 40
1.0
 10
13.0574973717
 20
11.91190231
 30
0.0
 10
13.0575226219
 20
11.9119129251
 30
0.0
 10
13.0575874866
 20
11.9118924578
 30
0.0
 10
13.057695025
 20
11.9118979582
 30
0.0
 10
13.0579141197
 20
11.9118847929
 30
0.0
 10
13.0582876987
 20
11.9118755065
 30
0.0
 10
13.0588588834
 20
11.9118535932
 30
0.0
 10
13.0595913667
 20
11.911828997
 30
0.0
 10
13.0608901057
 20
11.9117843279
 30
0.0
 10
13.0629134265
 20
11.911717025
 30
0.0
 10
13.0658187577
 20
11.9116226819
 30
0.0
 10
13.0693569923
 20
11.9115113294
 30
0.0
 10
13.0735234252
 20
11.9113841861
 30
0.0
 10
13.0783133057
 20
11.9112427248
 30
0.0
 10
13.0837218989
 20
11.9110883237
 30
0.0
 10
13.0921569544
 20
11.9108559667
 30
0.0
 10
13.1042070328
 20
11.9105427969
 30
0.0
 10
13.1204316663
 20
11.9101552336
 30
0.0
 10
13.1389463605
 20
11.9097616518
 30
0.0
 10
13.1596548037
 20
11.9093828376
 30
0.0
 10
13.1824585424
 20
11.9090402195
 30
0.0
 10
13.207259059
 20
11.9087545351
 30
0.0
 10
13.2440033754
 20
11.9084717545
 30
0.0
 10
13.294016194
 20
11.9083756229
 30
0.0
 10
13.3351178534
 20
11.9085246741
 30
0.0
 10
13.3566629953
 20
11.908650867
 30
0.0
  0
LINE
  5
5C7
100
AcDbEntity
  8
0
100
AcDbLine
 62
9
  6
CONTINUOUS
 10
13.357369665
 20
11.8645563294
 11
13.0574972687
 21
11.8684193631
  0
SPLINE
  5
5C8
100
AcDbEntity
  8
0
100
AcDbSpline
 62
9
  6
CONTINUOUS
 70
0
 71
3
 72
11
 73
7
 74
0
 42
0.0000001
 43
0.0000001
 44
0.0000000001
 40
0.0
 40
0.0
 40
0.0
 40
0.0
 40
0.2331956819
 40
0.4821969187
 40
0.7404287148
 40
1.0
 40
1.0
 40
1.0
 40
1.0
 10
14.0069688489
 20
12.065045837
 30
0.0
 10
14.0015396852
 20
12.0539603204
 30
0.0
 10
13.9919117302
 20
12.0302367114
 30
0.0
 10
13.9814602122
 20
11.992380998
 30
0.0
 10
13.9750679392
 20
11.9522227397
 30
0.0
 10
13.9734945683
 20
11.9248059799
 30
0.0
 10
13.9734095171
 20
11.9110665183
 30
0.0
  0
SPLINE
  5
5C9
100
AcDbEntity
  8
0
100
AcDbSpline
 62
9
  6
CONTINUOUS
 70
0
 71
3
 72
24
 73
20
 74
0
 42
0.0000001
 43
0.0000001
 44
0.0000000001
 40
0.0
 40
0.0
 40
0.0
 40
0.0
 40
0.0005337198
 40
0.00211158
 40
0.0046958718
 40
0.0082489021
 40
0.0181106462
 40
0.0313964068
 40
0.0478068698
 40
0.0670440131
 40
0.1128132183
 40
0.1663561663
 40
0.225657402
 40
0.2898731324
 40
0.3584425556
 40
0.5064075911
 40
0.6652136523
 40
0.8307179107
 40
1.0
 40
1.0
 40
1.0
 40
1.0
 10
13.2007961281
 20
18.7543029367
 30
0.0
 10
13.2007992465
 20
18.7543040142
 30
0.0
 10
13.2007965906
 20
18.7542809685
 30
0.0
 10
13.2008083723
 20
18.7542624983
 30
0.0
 10
13.200816163
 20
18.7542105768
 30
0.0
 10
13.2008404686
 20
18.7541174911
 30
0.0
 10
13.2008778885
 20
18.7539547219
 30
0.0
 10
13.2009377864
 20
18.7537185493
 30
0.0
 10
13.2010137755
 20
18.7534254174
 30
0.0
 10
13.2011458001
 20
18.7529398841
 30
0.0
 10
13.2013507744
 20
18.7522361232
 30
0.0
 10
13.2016511292
 20
18.7513026183
 30
0.0
 10
13.2020215318
 20
18.7502724397
 30
0.0
 10
13.2024574661
 20
18.7491677465
 30
0.0
 10
13.2031413349
 20
18.7475724252
 30
0.0
 10
13.2041475676
 20
18.7454802123
 30
0.0
 10
13.2055627634
 20
18.7429247322
 30
0.0
 10
13.2072077492
 20
18.7403521769
 30
0.0
 10
13.2084490238
 20
18.7386932522
 30
0.0
 10
13.2091071172
 20
18.7378796322
 30
0.0
  0
SPLINE
  5
5CA
100
AcDbEntity
  8
0
100
AcDbSpline
 62
9
  6
CONTINUOUS
 70
0
 71
3
 72
9
 73
5
 74
0
 42
0.0000001
 43
0.0000001
 44
0.0000000001
 40
0.0
 40
0.0
 40
0.0
 40
0.0
 40
0.4517344741
 40
1.0
 40
1.0
 40
1.0
 40
1.0
 10
13.2091071172
 20
18.7378796322
 30
0.0
 10
13.2115143248
 20
18.7349035313
 30
0.0
 10
13.2178004955
 20
18.7290632483
 30
0.0
 10
13.2252622172
 20
18.7249116926
 30
0.0
 10
13.2294762553
 20
18.7229560211
 30
0.0
  0
SPLINE
  5
5CB
100
AcDbEntity
  8
0
100
AcDbSpline
 62
7
  6
CONTINUOUS
 70
0
 71
3
 72
13
 73
9
 74
0
 42
0.0000001
 43
0.0000001
 44
0.0000000001
 40
0.0
 40
0.0
 40
0.0
 40
0.0
 40
0.4048446284
 40
0.5701521155
 40
0.7089338874
 40
0.8201721916
 40
0.903563899
 40
1.0
 40
1.0
 40
1.0
 40
1.0
 10
13.2650718835
 20
18.9903851185
 30
0.0
 10
13.265913511
 20
18.9903851185
 30
0.0
 10
13.2670991162
 20
18.9904098434
 30
0.0
 10
13.2685695917
 20
18.9905337067
 30
0.0
 10
13.2694226723
 20
18.9906483038
 30
0.0
 10
13.2701085985
 20
18.9908045927
 30
0.0
 10
13.2706596983
 20
18.9909832323
 30
0.0
 10
13.2710256299
 20
18.9912768632
 30
0.0
 10
13.2710247054
 20
18.9914773412
 30
0.0
  0
SPLINE
  5
5CC
100
AcDbEntity
  8
0
100
AcDbSpline
 62
7
  6
CONTINUOUS
 70
0
 71
3
 72
13
 73
9
 74
0
 42
0.0000001
 43
0.0000001
 44
0.0000000001
 40
0.0
 40
0.0
 40
0.0
 40
0.0
 40
0.0967036087
 40
0.2200893911
 40
0.5100929122
 40
0.7937863523
 40
0.9103772663
 40
1.0
 40
1.0
 40
1.0
 40
1.0
 10
14.0383955826
 20
18.9903851185
 30
0.0
 10
14.0396888049
 20
18.9903851185
 30
0.0
 10
14.0426312145
 20
18.9905247168
 30
0.0
 10
14.0494269828
 20
18.9911228039
 30
0.0
 10
14.0586686842
 20
18.9923780539
 30
0.0
 10
14.0677649518
 20
18.9939746394
 30
0.0
 10
14.0741606761
 20
18.9953965582
 30
0.0
 10
14.076828914
 20
18.9961028303
 30
0.0
 10
14.0779709773
 20
18.9964663744
 30
0.0
  0
SPLINE
  5
5CD
100
AcDbEntity
  8
0
100
AcDbSpline
 62
7
  6
CONTINUOUS
 70
0
 71
3
 72
11
 73
7
 74
0
 42
0.0000001
 43
0.0000001
 44
0.0000000001
 40
0.0
 40
0.0
 40
0.0
 40
0.0
 40
0.3975240741
 40
0.6954923069
 40
0.8929814117
 40
1.0
 40
1.0
 40
1.0
 40
1.0
 10
14.0779709773
 20
18.9964663744
 30
0.0
 10
14.0783696156
 20
18.9965932698
 30
0.0
 10
14.0790607609
 20
18.9968250424
 30
0.0
 10
14.0799365831
 20
18.997198675
 30
0.0
 10
14.0804747021
 20
18.9974911681
 30
0.0
 10
14.0807239295
 20
18.9977617589
 30
0.0
 10
14.0807231736
 20
18.997874381
 30
0.0
  0
SPLINE
  5
5CE
100
AcDbEntity
  8
0
100
AcDbSpline
 62
9
  6
CONTINUOUS
 70
0
 71
3
 72
33
 73
29
 74
0
 42
0.0000001
 43
0.0000001
 44
0.0000000001
 40
0.0
 40
0.0
 40
0.0
 40
0.0
 40
0.2211963211
 40
0.3232192025
 40
0.4191296656
 40
0.5086310154
 40
0.5914265377
 40
0.6672195004
 40
0.7357131555
 40
0.796639512
 40
0.8498456092
 40
0.8952072277
 40
0.914907537
 40
0.9326001412
 40
0.9482695111
 40
0.9619001169
 40
0.9734764286
 40
0.9829829157
 40
0.9869551217
 40
0.9904040475
 40
0.9933277517
 40
0.9957242928
 40
0.9975917295
 40
0.9989281202
 40
0.9993965667
 40
0.9997315237
 40
0.9999327487
 40
1.0
 40
1.0
 40
1.0
 40
1.0
 10
13.9734067663
 20
11.9110780199
 30
0.0
 10
13.9899290276
 20
11.9111518985
 30
0.0
 10
14.0140718035
 20
11.9112805184
 30
0.0
 10
14.045378335
 20
11.9114865498
 30
0.0
 10
14.0668479086
 20
11.911644436
 30
0.0
 10
14.0868812053
 20
11.9118063865
 30
0.0
 10
14.105411752
 20
11.9119688947
 30
0.0
 10
14.1223730748
 20
11.9121284509
 30
0.0
 10
14.1377008489
 20
11.9122815838
 30
0.0
 10
14.1513414919
 20
11.9124249036
 30
0.0
 10
14.1632543006
 20
11.9125560735
 30
0.0
 10
14.1720878362
 20
11.9126576866
 30
0.0
 10
14.1782688124
 20
11.9127311154
 30
0.0
 10
14.1822320491
 20
11.9127791357
 30
0.0
 10
14.1857419273
 20
11.9128224738
 30
0.0
 10
14.1887949729
 20
11.9128608612
 30
0.0
 10
14.1913877001
 20
11.9128940126
 30
0.0
 10
14.1932590564
 20
11.9129183426
 30
0.0
 10
14.1945233495
 20
11.9129349238
 30
0.0
 10
14.195296042
 20
11.9129452014
 30
0.0
 10
14.1959508729
 20
11.9129537135
 30
0.0
 10
14.1964880784
 20
11.9129613968
 30
0.0
 10
14.1969054295
 20
11.912965624
 30
0.0
 10
14.1971816517
 20
11.9129720736
 30
0.0
 10
14.1973388558
 20
11.9129703781
 30
0.0
 10
14.1974181987
 20
11.9129775561
 30
0.0
 10
14.1974556507
 20
11.9129670927
 30
0.0
 10
14.1974836079
 20
11.9129787177
 30
0.0
 10
14.1974853803
 20
11.9129740174
 30
0.0
  0
LINE
  5
5CF
100
AcDbEntity
  8
0
100
AcDbLine
 62
9
  6
CONTINUOUS
 10
14.1974184293
 20
11.9043804107
 11
14.182732417
 21
11.9049097292
  0
SPLINE
  5
5D0
100
AcDbEntity
  8
0
100
AcDbSpline
 62
7
  6
CONTINUOUS
 70
0
 71
3
 72
9
 73
5
 74
0
 42
0.0000001
 43
0.0000001
 44
0.0000000001
 40
0.0
 40
0.0
 40
0.0
 40
0.0
 40
0.2307206917
 40
1.0
 40
1.0
 40
1.0
 40
1.0
 10
12.9525600209
 20
13.7874424853
 30
0.0
 10
12.9513859996
 20
13.788254318
 30
0.0
 10
12.9461849511
 20
13.791605908
 30
0.0
 10
12.9404880121
 20
13.7942010756
 30
0.0
 10
12.9359583403
 20
13.7956612869
 30
0.0
  0
SPLINE
  5
5D1
100
AcDbEntity
  8
0
100
AcDbSpline
 62
7
  6
CONTINUOUS
 70
0
 71
3
 72
9
 73
5
 74
0
 42
0.0000001
 43
0.0000001
 44
0.0000000001
 40
0.0
 40
0.0
 40
0.0
 40
0.0
 40
0.2551029512
 40
1.0
 40
1.0
 40
1.0
 40
1.0
 10
12.975037808
 20
12.3573512369
 30
0.0
 10
12.9757208133
 20
12.3585629111
 30
0.0
 10
12.9782954185
 20
12.3633703811
 30
0.0
 10
12.9804691108
 20
12.3683884669
 30
0.0
 10
12.9818875096
 20
12.3721941982
 30
0.0
  0
SPLINE
  5
5D2
100
AcDbEntity
  8
0
100
AcDbSpline
 62
7
  6
CONTINUOUS
 70
0
 71
3
 72
9
 73
5
 74
0
 42
0.0000001
 43
0.0000001
 44
0.0000000001
 40
0.0
 40
0.0
 40
0.0
 40
0.0
 40
0.2410124023
 40
1.0
 40
1.0
 40
1.0
 40
1.0
 10
12.8520735176
 20
12.3722434306
 30
0.0
 10
12.8528625412
 20
12.3701277764
 30
0.0
 10
12.8563781281
 20
12.3614468337
 30
0.0
 10
12.8610584625
 20
12.3531945654
 30
0.0
 10
12.8653682017
 20
12.347538624
 30
0.0
  0
SPLINE
  5
5D3
100
AcDbEntity
  8
0
100
AcDbSpline
 62
7
  6
CONTINUOUS
 70
0
 71
3
 72
11
 73
7
 74
0
 42
0.0000001
 43
0.0000001
 44
0.0000000001
 40
0.0
 40
0.0
 40
0.0
 40
0.0
 40
0.1999696782
 40
0.4238544761
 40
0.6874646238
 40
1.0
 40
1.0
 40
1.0
 40
1.0
 10
12.8653682017
 20
12.347538624
 30
0.0
 10
12.8677962639
 20
12.3443521256
 30
0.0
 10
12.8734694146
 20
12.3379775004
 30
0.0
 10
12.8844117761
 20
12.3294623774
 30
0.0
 10
12.8990994599
 20
12.3226579247
 30
0.0
 10
12.9107241865
 20
12.3208656926
 30
0.0
 10
12.9169854576
 20
12.3208656926
 30
0.0
  0
SPLINE
  5
5D4
100
AcDbEntity
  8
0
100
AcDbSpline
 62
7
  6
CONTINUOUS
 70
0
 71
3
 72
11
 73
7
 74
0
 42
0.0000001
 43
0.0000001
 44
0.0000000001
 40
0.0
 40
0.0
 40
0.0
 40
0.0
 40
0.3133838045
 40
0.5768095222
 40
0.8002971798
 40
1.0
 40
1.0
 40
1.0
 40
1.0
 10
12.9169854576
 20
12.3208656926
 30
0.0
 10
12.9233462315
 20
12.3208656926
 30
0.0
 10
12.9351400586
 20
12.3227136402
 30
0.0
 10
12.9499841829
 20
12.329707328
 30
0.0
 10
12.9609822907
 20
12.3384208105
 30
0.0
 10
12.9666576159
 20
12.3449254042
 30
0.0
 10
12.9690818444
 20
12.3481739465
 30
0.0
  0
SPLINE
  5
5D5
100
AcDbEntity
  8
0
100
AcDbSpline
 62
7
  6
CONTINUOUS
 70
0
 71
3
 72
9
 73
5
 74
0
 42
0.0000001
 43
0.0000001
 44
0.0000000001
 40
0.0
 40
0.0
 40
0.0
 40
0.0
 40
0.2555908567
 40
1.0
 40
1.0
 40
1.0
 40
1.0
 10
12.9690818444
 20
12.3481739465
 30
0.0
 10
12.9696395354
 20
12.3489212699
 30
0.0
 10
12.9717709586
 20
12.3518827456
 30
0.0
 10
12.9737042041
 20
12.354985379
 30
0.0
 10
12.975037808
 20
12.3573512369
 30
0.0
  0
SPLINE
  5
5D6
100
AcDbEntity
  8
0
100
AcDbSpline
 62
7
  6
CONTINUOUS
 70
0
 71
3
 72
20
 73
16
 74
0
 42
0.0000001
 43
0.0000001
 44
0.0000000001
 40
0.0
 40
0.0
 40
0.0
 40
0.0
 40
0.0350854945
 40
0.0697281071
 40
0.13677203
 40
0.2015948437
 40
0.2649823466
 40
0.3274848224
 40
0.3894291625
 40
0.4510112684
 40
0.5123533415
 40
0.6345801629
 40
0.7565036902
 40
0.8782846309
 40
1.0
 40
1.0
 40
1.0
 40
1.0
 10
12.9169854576
 20
13.6520603328
 30
0.0
 10
12.9144420016
 20
13.6520603328
 30
0.0
 10
12.9093716695
 20
13.6515035244
 30
0.0
 10
12.8998860443
 20
13.6484325098
 30
0.0
 10
12.8895979091
 20
13.641739349
 30
0.0
 10
12.8798677449
 20
13.6313520084
 30
0.0
 10
12.8721533775
 20
13.6198252244
 30
0.0
 10
12.8659595785
 20
13.6076732566
 30
0.0
 10
12.860925314
 20
13.5951475313
 30
0.0
 10
12.8568043374
 20
13.5823860993
 30
0.0
 10
12.8522974695
 20
13.5651879763
 30
0.0
 10
12.8481467089
 20
13.5434096226
 30
0.0
 10
12.8448037245
 20
13.5170834187
 30
0.0
 10
12.8426173467
 20
13.490677289
 30
0.0
 10
12.8417071044
 20
13.4730467821
 30
0.0
 10
12.8413511319
 20
13.4642304422
 30
0.0
  0
SPLINE
  5
5D7
100
AcDbEntity
  8
0
100
AcDbSpline
 62
7
  6
CONTINUOUS
 70
0
 71
3
 72
21
 73
17
 74
0
 42
0.0000001
 43
0.0000001
 44
0.0000000001
 40
0.0
 40
0.0
 40
0.0
 40
0.0
 40
0.1228830245
 40
0.2457561559
 40
0.3686399564
 40
0.4915745603
 40
0.5531038214
 40
0.6147154505
 40
0.6764759411
 40
0.7385081113
 40
0.8010499422
 40
0.8645918446
 40
0.8971175701
 40
0.9304262186
 40
0.9647631191
 40
1.0
 40
1.0
 40
1.0
 40
1.0
 10
12.8413511319
 20
13.4642304422
 30
0.0
 10
12.8407910771
 20
13.4503596129
 30
0.0
 10
12.8401533815
 20
13.422599174
 30
0.0
 10
12.8401913639
 20
13.3809505542
 30
0.0
 10
12.8412458709
 20
13.3393084562
 30
0.0
 10
12.8433763432
 20
13.3046370995
 30
0.0
 10
12.8463615782
 20
13.276992985
 30
0.0
 10
12.8494562299
 20
13.2563272683
 30
0.0
 10
12.8536807688
 20
13.2357994461
 30
0.0
 10
12.8594304679
 20
13.215520962
 30
0.0
 10
12.8672904414
 20
13.1957319676
 30
0.0
 10
12.8763757442
 20
13.1801399081
 30
0.0
 10
12.8859145096
 20
13.1690059644
 30
0.0
 10
12.8946383204
 20
13.1616895327
 30
0.0
 10
12.9050924456
 20
13.1563290611
 30
0.0
 10
12.9130047369
 20
13.154959022
 30
0.0
 10
12.9169854576
 20
13.154959022
 30
0.0
  0
SPLINE
  5
5D8
100
AcDbEntity
  8
0
100
AcDbSpline
 62
7
  6
CONTINUOUS
 70
0
 71
3
 72
13
 73
9
 74
0
 42
0.0000001
 43
0.0000001
 44
0.0000000001
 40
0.0
 40
0.0
 40
0.0
 40
0.0
 40
0.1348905175
 40
0.2661824106
 40
0.3934829489
 40
0.5177936407
 40
0.7607451625
 40
1.0
 40
1.0
 40
1.0
 40
1.0
 10
12.9169854576
 20
13.154959022
 30
0.0
 10
12.9210866549
 20
13.154959022
 30
0.0
 10
12.9292360847
 20
13.156415473
 30
0.0
 10
12.9399297031
 20
13.1620707742
 30
0.0
 10
12.9487919502
 20
13.1697304418
 30
0.0
 10
12.9584297425
 20
13.1813333957
 30
0.0
 10
12.9675440408
 20
13.1975119044
 30
0.0
 10
12.9727866459
 20
13.2112366564
 30
0.0
 10
12.975037808
 20
13.2181538384
 30
0.0
  0
LINE
  5
5D9
100
AcDbEntity
  8
0
100
AcDbLine
 62
9
  6
CONTINUOUS
 10
13.9455338125
 20
11.1658085359
 11
13.9015531073
 21
11.1768341895
  0
SPLINE
  5
5DA
100
AcDbEntity
  8
0
100
AcDbSpline
 62
9
  6
CONTINUOUS
 70
0
 71
3
 72
9
 73
5
 74
0
 42
0.0000001
 43
0.0000001
 44
0.0000000001
 40
0.0
 40
0.0
 40
0.0
 40
0.0
 40
0.4942911493
 40
1.0
 40
1.0
 40
1.0
 40
1.0
 10
13.3576481303
 20
11.2876560941
 30
0.0
 10
13.3387062595
 20
11.2908422056
 30
0.0
 10
13.3003555239
 20
11.2971133939
 30
0.0
 10
13.2619373806
 20
11.3029652831
 30
0.0
 10
13.2424834653
 20
11.3057460168
 30
0.0
  0
SPLINE
  5
5DB
100
AcDbEntity
  8
0
100
AcDbSpline
 62
9
  6
CONTINUOUS
 70
0
 71
3
 72
10
 73
6
 74
0
 42
0.0000001
 43
0.0000001
 44
0.0000000001
 40
0.0
 40
0.0
 40
0.0
 40
0.0
 40
0.4917279606
 40
0.7432172288
 40
1.0
 40
1.0
 40
1.0
 40
1.0
 10
13.3576582031
 20
11.1847787982
 30
0.0
 10
13.3128649835
 20
11.1971419805
 30
0.0
 10
13.2449356617
 20
11.2150327354
 30
0.0
 10
13.1530102084
 20
11.2369500231
 30
0.0
 10
13.1060679462
 20
11.2471543594
 30
0.0
 10
13.0822725297
 20
11.2519093264
 30
0.0
  0
SPLINE
  5
5DC
100
AcDbEntity
  8
0
100
AcDbSpline
 62
9
  6
CONTINUOUS
 70
0
 71
3
 72
9
 73
5
 74
0
 42
0.0000001
 43
0.0000001
 44
0.0000000001
 40
0.0
 40
0.0
 40
0.0
 40
0.0
 40
0.4977488594
 40
1.0
 40
1.0
 40
1.0
 40
1.0
 10
13.251070678
 20
13.5956709622
 30
0.0
 10
13.2665619491
 20
13.6139796119
 30
0.0
 10
13.2998317432
 20
13.6490105198
 30
0.0
 10
13.3373102075
 20
13.6795487788
 30
0.0
 10
13.3570618159
 20
13.6935313611
 30
0.0
  0
SPLINE
  5
5DD
100
AcDbEntity
  8
0
100
AcDbSpline
 62
9
  6
CONTINUOUS
 70
0
 71
3
 72
9
 73
5
 74
0
 42
0.0000001
 43
0.0000001
 44
0.0000000001
 40
0.0
 40
0.0
 40
0.0
 40
0.0
 40
0.4968883341
 40
1.0
 40
1.0
 40
1.0
 40
1.0
 10
13.8975167219
 20
13.6937978111
 30
0.0
 10
13.9172413017
 20
13.6798690756
 30
0.0
 10
13.9550574577
 20
13.6490890883
 30
0.0
 10
13.9886126165
 20
13.6137538837
 30
0.0
 10
14.0043985306
 20
13.5950838403
 30
0.0
  0
SPLINE
  5
5DE
100
AcDbEntity
  8
0
100
AcDbSpline
 62
9
  6
CONTINUOUS
 70
0
 71
3
 72
38
 73
34
 74
0
 42
0.0000001
 43
0.0000001
 44
0.0000000001
 40
0.0
 40
0.0
 40
0.0
 40
0.0
 40
0.1179200373
 40
0.2274955527
 40
0.4270004448
 40
0.5170281863
 40
0.6002741859
 40
0.6764508949
 40
0.7452022304
 40
0.8061816765
 40
0.8591555281
 40
0.8825754379
 40
0.9039140145
 40
0.9231429132
 40
0.9402337009
 40
0.9551628178
 40
0.9679264332
 40
0.9734965284
 40
0.9785256782
 40
0.9830140438
 40
0.9869618083
 40
0.9903691942
 40
0.9932364962
 40
0.9955641532
 40
0.9973529287
 40
0.9980457236
 40
0.9986046021
 40
0.9990303559
 40
0.9993248425
 40
0.9994942753
 40
0.9995792236
 40
0.9997283664
 40
1.0
 40
1.0
 40
1.0
 40
1.0
 10
13.0822725297
 20
11.2519093264
 30
0.0
 10
13.0591306571
 20
11.2565336976
 30
0.0
 10
13.0145018665
 20
11.2655427917
 30
0.0
 10
12.9305961721
 20
11.281750064
 30
0.0
 10
12.8519570323
 20
11.2957751059
 30
0.0
 10
12.7783181465
 20
11.3077442933
 30
0.0
 10
12.7289691132
 20
11.3152950325
 30
0.0
 10
12.6837700116
 20
11.3218022471
 30
0.0
 10
12.6429354789
 20
11.3273432733
 30
0.0
 10
12.6066677035
 20
11.3319963357
 30
0.0
 10
12.5793759262
 20
11.3353144793
 30
0.0
 10
12.5599493542
 20
11.3375886592
 30
0.0
 10
12.5472266719
 20
11.3390456296
 30
0.0
 10
12.5357596918
 20
11.3403344344
 30
0.0
 10
12.525565661
 20
11.3414642319
 30
0.0
 10
12.5166569217
 20
11.3424448277
 30
0.0
 10
12.5100400883
 20
11.3431741408
 30
0.0
 10
12.5053932862
 20
11.3436924628
 30
0.0
 10
12.5023928917
 20
11.344031514
 30
0.0
 10
12.4997157834
 20
11.3443399573
 30
0.0
 10
12.4973620095
 20
11.344618893
 30
0.0
 10
12.4953315367
 20
11.344869373
 30
0.0
 10
12.4936245131
 20
11.3450923735
 30
0.0
 10
12.4922404404
 20
11.3452887195
 30
0.0
 10
12.4912905509
 20
11.3454411263
 30
0.0
 10
12.4906916175
 20
11.345553429
 30
0.0
 10
12.4903654416
 20
11.3456257434
 30
0.0
 10
12.4901127192
 20
11.3456874917
 30
0.0
 10
12.4899547513
 20
11.3457518996
 30
0.0
 10
12.489838044
 20
11.3457924273
 30
0.0
 10
12.4898273103
 20
11.3458886229
 30
0.0
 10
12.4899461041
 20
11.3459232375
 30
0.0
 10
12.4900185104
 20
11.3459444737
 30
0.0
 10
12.4900718737
 20
11.3459548465
 30
0.0
  0
SPLINE
  5
5DF
100
AcDbEntity
  8
0
100
AcDbSpline
 62
9
  6
CONTINUOUS
 70
0
 71
3
 72
16
 73
12
 74
0
 42
0.0000001
 43
0.0000001
 44
0.0000000001
 40
0.0
 40
0.0
 40
0.0
 40
0.0
 40
0.112925818
 40
0.2188412494
 40
0.413860067
 40
0.5855436736
 40
0.7310792429
 40
0.8472941238
 40
0.9318579551
 40
0.9829333662
 40
1.0
 40
1.0
 40
1.0
 40
1.0
 10
13.242483468
 20
11.3057460165
 30
0.0
 10
13.2203485652
 20
11.3089101394
 30
0.0
 10
13.177464959
 20
11.3151262474
 30
0.0
 10
13.0963182185
 20
11.3265486796
 30
0.0
 10
13.0035552403
 20
11.3389074374
 30
0.0
 10
12.9028856261
 20
11.3512827427
 30
0.0
 10
12.8176132386
 20
11.3609904146
 30
0.0
 10
12.7494260543
 20
11.3682503887
 30
0.0
 10
12.6998049819
 20
11.3732144733
 30
0.0
 10
12.6697040948
 20
11.3760761905
 30
0.0
 10
12.6562681523
 20
11.3773108045
 30
0.0
 10
12.6529017663
 20
11.3776057714
 30
0.0
  0
SPLINE
  5
5E0
100
AcDbEntity
  8
0
100
AcDbSpline
 62
9
  6
CONTINUOUS
 70
0
 71
3
 72
31
 73
27
 74
0
 42
0.0000001
 43
0.0000001
 44
0.0000000001
 40
0.0
 40
0.0
 40
0.0
 40
0.0
 40
0.0672985914
 40
0.1304051333
 40
0.2476663543
 40
0.4538338679
 40
0.5442016095
 40
0.6263946213
 40
0.7004978074
 40
0.7664685336
 40
0.8242371666
 40
0.8500445983
 40
0.8738011157
 40
0.8955051201
 40
0.9151513176
 40
0.9327325274
 40
0.9482402938
 40
0.9616688678
 40
0.9730271174
 40
0.982326605
 40
0.9895776166
 40
0.9947891847
 40
0.997969225
 40
0.998799832
 40
0.9991267032
 40
1.0
 40
1.0
 40
1.0
 40
1.0
 10
12.3441818908
 20
11.1026597232
 30
0.0
 10
12.3315156217
 20
11.1065531766
 30
0.0
 10
12.3069921366
 20
11.1141625426
 30
0.0
 10
12.2603325575
 20
11.1283416575
 30
0.0
 10
12.1871911364
 20
11.1494006055
 30
0.0
 10
12.1080381359
 20
11.1689407825
 30
0.0
 10
12.0348895489
 20
11.1834886963
 30
0.0
 10
11.9869912308
 20
11.1915714778
 30
0.0
 10
11.9436366406
 20
11.1975929602
 30
0.0
 10
11.9049082088
 20
11.2018396858
 30
0.0
 10
11.8755540179
 20
11.2042168953
 30
0.0
 10
11.8544560315
 20
11.2054588817
 30
0.0
 10
11.8404368203
 20
11.2060857652
 30
0.0
 10
11.8276228632
 20
11.2064787469
 30
0.0
 10
11.8160204048
 20
11.2066727977
 30
0.0
 10
11.8056366629
 20
11.2067028752
 30
0.0
 10
11.796477079
 20
11.2066039649
 30
0.0
 10
11.7885465829
 20
11.2064107418
 30
0.0
 10
11.7818353323
 20
11.2061582525
 30
0.0
 10
11.7763584944
 20
11.2058807625
 30
0.0
 10
11.7720519772
 20
11.2056143918
 30
0.0
 10
11.7690479607
 20
11.2053895659
 30
0.0
 10
11.767119596
 20
11.2052509798
 30
0.0
 10
11.7663866311
 20
11.2051877255
 30
0.0
 10
11.765832984
 20
11.2051815686
 30
0.0
 10
11.7663784075
 20
11.2052830868
 30
0.0
 10
11.7665472013
 20
11.205315897
 30
0.0
  0
SPLINE
  5
5E1
100
AcDbEntity
  8
0
100
AcDbSpline
 62
9
  6
CONTINUOUS
 70
0
 71
3
 72
19
 73
15
 74
0
 42
0.0000001
 43
0.0000001
 44
0.0000000001
 40
0.0
 40
0.0
 40
0.0
 40
0.0
 40
0.0792032214
 40
0.1478480218
 40
0.2100563123
 40
0.2674766789
 40
0.3719743717
 40
0.4655984923
 40
0.6270035076
 40
0.7585426718
 40
0.862008957
 40
0.9374672075
 40
0.9840447115
 40
1.0
 40
1.0
 40
1.0
 40
1.0
 10
7.8772940773
 20
10.1994085526
 30
0.0
 10
7.8640704067
 20
10.2023993575
 30
0.0
 10
7.8395024058
 20
10.2085026036
 30
0.0
 10
7.8048568728
 20
10.2181304399
 30
0.0
 10
7.7739568654
 20
10.2272906892
 30
0.0
 10
7.737325236
 20
10.2386945827
 30
0.0
 10
7.6957175211
 20
10.2521974252
 30
0.0
 10
7.6373588483
 20
10.2717359545
 30
0.0
 10
7.574733368
 20
10.2931060774
 30
0.0
 10
7.5104654382
 20
10.3148791742
 30
0.0
 10
7.4600194373
 20
10.3315986864
 30
0.0
 10
7.4232654825
 20
10.3433963352
 30
0.0
 10
7.4006972983
 20
10.3503715779
 30
0.0
 10
7.3904335087
 20
10.3534101212
 30
0.0
 10
7.3878118913
 20
10.3541759738
 30
0.0
  0
SPLINE
  5
5E2
100
AcDbEntity
  8
0
100
AcDbSpline
 62
9
  6
CONTINUOUS
 70
0
 71
3
 72
26
 73
22
 74
0
 42
0.0000001
 43
0.0000001
 44
0.0000000001
 40
0.0
 40
0.0
 40
0.0
 40
0.0
 40
0.0098668429
 40
0.0209908617
 40
0.0335145019
 40
0.0475108488
 40
0.0800006233
 40
0.1184262933
 40
0.1625424931
 40
0.2120742549
 40
0.2667269799
 40
0.3262331741
 40
0.3903498902
 40
0.4589156001
 40
0.5318724193
 40
0.6094712247
 40
0.6922294641
 40
0.781520328
 40
0.829452389
 40
0.8806327932
 40
1.0
 40
1.0
 40
1.0
 40
1.0
 10
8.461299666
 20
9.9422940594
 30
0.0
 10
8.4592151072
 20
9.9419638977
 30
0.0
 10
8.4547085325
 20
9.9416978636
 30
0.0
 10
8.4475487385
 20
9.942285748
 30
0.0
 10
8.4396252878
 20
9.9437838514
 30
0.0
 10
8.4274398727
 20
9.9471128347
 30
0.0
 10
8.4104101862
 20
9.9535205411
 30
0.0
 10
8.3880364861
 20
9.9637799085
 30
0.0
 10
8.3628991787
 20
9.976687459
 30
0.0
 10
8.3350695551
 20
9.9919150945
 30
0.0
 10
8.3045914024
 20
10.0091513472
 30
0.0
 10
8.2714784354
 20
10.0280641704
 30
0.0
 10
8.2357141459
 20
10.0483359249
 30
0.0
 10
8.1972248221
 20
10.0696317345
 30
0.0
 10
8.1558484867
 20
10.0916577338
 30
0.0
 10
8.1112409664
 20
10.1140501794
 30
0.0
 10
8.0628055616
 20
10.1365600684
 30
0.0
 10
8.0193637254
 20
10.1546845944
 30
0.0
 10
7.9816256764
 20
10.1688409458
 30
0.0
 10
7.9373832244
 20
10.1839002944
 30
0.0
 10
7.9021980169
 20
10.1937760147
 30
0.0
 10
7.8772940773
 20
10.1994085526
 30
0.0
  0
SPLINE
  5
5E3
100
AcDbEntity
  8
0
100
AcDbSpline
 62
9
  6
CONTINUOUS
 70
0
 71
3
 72
23
 73
19
 74
0
 42
0.0000001
 43
0.0000001
 44
0.0000000001
 40
0.0
 40
0.0
 40
0.0
 40
0.0
 40
0.0014538979
 40
0.0049769166
 40
0.0105661992
 40
0.018208013
 40
0.0278870272
 40
0.0395874419
 40
0.0689884009
 40
0.1062823127
 40
0.1513400913
 40
0.2040325696
 40
0.2642304658
 40
0.3318021016
 40
0.4066134878
 40
0.5774185644
 40
0.7755740792
 40
1.0
 40
1.0
 40
1.0
 40
1.0
 10
12.9596450246
 20
13.8049056051
 30
0.0
 10
12.9596388887
 20
13.8048782667
 30
0.0
 10
12.9596870957
 20
13.8047846728
 30
0.0
 10
12.9597466221
 20
13.80459731
 30
0.0
 10
12.9598809238
 20
13.8042990046
 30
0.0
 10
12.9600553794
 20
13.8038953931
 30
0.0
 10
12.9602864756
 20
13.8033853173
 30
0.0
 10
12.9606933536
 20
13.8024956664
 30
0.0
 10
12.9613327811
 20
13.8011266179
 30
0.0
 10
12.9622551928
 20
13.7991806304
 30
0.0
 10
12.9633814629
 20
13.7968344351
 30
0.0
 10
12.9647097037
 20
13.7940956601
 30
0.0
 10
12.9662391885
 20
13.7909722932
 30
0.0
 10
12.9679642183
 20
13.7874700811
 30
0.0
 10
12.9706343275
 20
13.7820572878
 30
0.0
 10
12.9744103538
 20
13.7743839787
 30
0.0
 10
12.9794147518
 20
13.7641017456
 30
0.0
 10
12.982929849
 20
13.7567556467
 30
0.0
 10
12.9847846446
 20
13.7528485754
 30
0.0
  0
LINE
  5
5E4
100
AcDbEntity
  8
0
100
AcDbLine
 62
9
  6
CONTINUOUS
 10
12.9847846446
 20
13.7528485754
 11
12.986807766
 21
13.7485769962
  0
LINE
  5
5E5
100
AcDbEntity
  8
0
100
AcDbLine
 62
9
  6
CONTINUOUS
 10
12.9957844617
 20
13.7294687467
 11
13.0061429822
 21
13.7073339776
  0
SPLINE
  5
5E6
100
AcDbEntity
  8
0
100
AcDbSpline
 62
9
  6
CONTINUOUS
 70
0
 71
3
 72
9
 73
5
 74
0
 42
0.0000001
 43
0.0000001
 44
0.0000000001
 40
0.0
 40
0.0
 40
0.0
 40
0.0
 40
0.473348492
 40
1.0
 40
1.0
 40
1.0
 40
1.0
 10
13.0061429822
 20
13.7073339776
 30
0.0
 10
13.0124825944
 20
13.6938069283
 30
0.0
 10
13.0259200771
 20
13.6652504943
 30
0.0
 10
13.0390729483
 20
13.6365601472
 30
0.0
 10
13.0458573095
 20
13.6213866116
 30
0.0
  0
LINE
  5
5E7
100
AcDbEntity
  8
0
100
AcDbLine
 62
9
  6
CONTINUOUS
 10
13.0601127433
 20
13.5890280568
 11
13.0630795424
 21
13.5821974236
  0
SPLINE
  5
5E8
100
AcDbEntity
  8
0
100
AcDbSpline
 62
9
  6
CONTINUOUS
 70
0
 71
3
 72
21
 73
17
 74
0
 42
0.0000001
 43
0.0000001
 44
0.0000000001
 40
0.0
 40
0.0
 40
0.0
 40
0.0
 40
0.0062264549
 40
0.0243009175
 40
0.0533190198
 40
0.0923808312
 40
0.1405742351
 40
0.1969226846
 40
0.3301510527
 40
0.4842363739
 40
0.6512242243
 40
0.7372707377
 40
0.8240148457
 40
0.9111629805
 40
0.9551272189
 40
1.0
 40
1.0
 40
1.0
 40
1.0
 10
13.14304035
 20
10.6838089374
 30
0.0
 10
13.1415198147
 20
10.6849111711
 30
0.0
 10
13.1355484958
 20
10.6891618989
 30
0.0
 10
13.1223815816
 20
10.698396005
 30
0.0
 10
13.1009454878
 20
10.7130857196
 30
0.0
 10
13.0717954308
 20
10.7325857271
 30
0.0
 10
13.0354968143
 20
10.7562200806
 30
0.0
 10
12.9749180009
 20
10.7946075921
 30
0.0
 10
12.8862353958
 20
10.8483004323
 30
0.0
 10
12.7669055348
 20
10.9156987297
 30
0.0
 10
12.657865451
 20
10.9722540993
 30
0.0
 10
12.5652812522
 20
11.016222845
 30
0.0
 10
12.4935305513
 20
11.0478544215
 30
0.0
 10
12.4325096756
 20
11.0722846451
 30
0.0
 10
12.3825776403
 20
11.0903067406
 30
0.0
 10
12.3571189711
 20
11.0986830259
 30
0.0
 10
12.3441818908
 20
11.1026597232
 30
0.0
  0
SPLINE
  5
5E9
100
AcDbEntity
  8
0
100
AcDbSpline
 62
9
  6
CONTINUOUS
 70
0
 71
3
 72
16
 73
12
 74
0
 42
0.0000001
 43
0.0000001
 44
0.0000000001
 40
0.0
 40
0.0
 40
0.0
 40
0.0
 40
0.0634036356
 40
0.1265536329
 40
0.2521154087
 40
0.3769947274
 40
0.5015839757
 40
0.6261624547
 40
0.7507794117
 40
0.8753988176
 40
1.0
 40
1.0
 40
1.0
 40
1.0
 10
13.356352924
 20
13.8604338311
 30
0.0
 10
13.3505002196
 20
13.8558463672
 30
0.0
 10
13.3389915577
 20
13.8464680029
 30
0.0
 10
13.3165665868
 20
13.8271909161
 30
0.0
 10
13.2896861866
 20
13.8020551836
 30
0.0
 10
13.2593574139
 20
13.7701612782
 30
0.0
 10
13.2311474516
 20
13.7365253502
 30
0.0
 10
13.2050978831
 20
13.7012321378
 30
0.0
 10
13.1811133248
 20
13.6645039999
 30
0.0
 10
13.1591528122
 20
13.6265322307
 30
0.0
 10
13.1457638501
 20
13.6005360853
 30
0.0
 10
13.1393441312
 20
13.5874077313
 30
0.0
  0
SPLINE
  5
5EA
100
AcDbEntity
  8
0
100
AcDbSpline
 62
9
  6
CONTINUOUS
 70
0
 71
3
 72
26
 73
22
 74
0
 42
0.0000001
 43
0.0000001
 44
0.0000000001
 40
0.0
 40
0.0
 40
0.0
 40
0.0
 40
0.0098761759
 40
0.0210048544
 40
0.0335353459
 40
0.0475425435
 40
0.0800590448
 40
0.1184935847
 40
0.1625660734
 40
0.2119792713
 40
0.2664204368
 40
0.3256096905
 40
0.3892998733
 40
0.4573457046
 40
0.5297236867
 40
0.6067572909
 40
0.6890747139
 40
0.7782636529
 40
0.8263853404
 40
0.8780401641
 40
1.0
 40
1.0
 40
1.0
 40
1.0
 10
8.0713588186
 20
9.8805334965
 30
0.0
 10
8.0693417278
 20
9.8802140207
 30
0.0
 10
8.0649801728
 20
9.879968587
 30
0.0
 10
8.0580575611
 20
9.8805840247
 30
0.0
 10
8.0504065782
 20
9.8821045054
 30
0.0
 10
8.0386533891
 20
9.8854538094
 30
0.0
 10
8.02225829
 20
9.891854108
 30
0.0
 10
8.0007567334
 20
9.9020410732
 30
0.0
 10
7.9766356686
 20
9.9147946625
 30
0.0
 10
7.9499584584
 20
9.92976359
 30
0.0
 10
7.920757073
 20
9.9466154896
 30
0.0
 10
7.8890302696
 20
9.9649968734
 30
0.0
 10
7.8547429857
 20
9.9845705409
 30
0.0
 10
7.8177949711
 20
10.004978493
 30
0.0
 10
7.7779900965
 20
10.0259066264
 30
0.0
 10
7.7349392383
 20
10.0469670311
 30
0.0
 10
7.6879820566
 20
10.0678896429
 30
0.0
 10
7.645675466
 20
10.0844609463
 30
0.0
 10
7.6087383234
 20
10.0972283415
 30
0.0
 10
7.5649244733
 20
10.1107575726
 30
0.0
 10
7.5300023301
 20
10.1193551093
 30
0.0
 10
7.5052482642
 20
10.12417702
 30
0.0
  0
SPLINE
  5
5EB
100
AcDbEntity
  8
0
100
AcDbSpline
 62
9
  6
CONTINUOUS
 70
0
 71
3
 72
15
 73
11
 74
0
 42
0.0000001
 43
0.0000001
 44
0.0000000001
 40
0.0
 40
0.0
 40
0.0
 40
0.0
 40
0.019709136
 40
0.0751055669
 40
0.1608632523
 40
0.2728431439
 40
0.4081162132
 40
0.5660028406
 40
0.7517998174
 40
1.0
 40
1.0
 40
1.0
 40
1.0
 10
7.6041092238
 20
9.8065284309
 30
0.0
 10
7.600897642
 20
9.8079761631
 30
0.0
 10
7.588634079
 20
9.8134363339
 30
0.0
 10
7.562189791
 20
9.8247271246
 30
0.0
 10
7.5202822367
 20
9.8417884818
 30
0.0
 10
7.4645665127
 20
9.8627565765
 30
0.0
 10
7.3959460837
 20
9.8859399061
 30
0.0
 10
7.3136634582
 20
9.9097038979
 30
0.0
 10
7.2104092404
 20
9.9330489218
 30
0.0
 10
7.1334488789
 20
9.9438871771
 30
0.0
 10
7.0892724723
 20
9.9479458407
 30
0.0
  0
SPLINE
  5
5EC
100
AcDbEntity
  8
0
100
AcDbSpline
 62
7
  6
CONTINUOUS
 70
0
 71
3
 72
13
 73
9
 74
0
 42
0.0000001
 43
0.0000001
 44
0.0000000001
 40
0.0
 40
0.0
 40
0.0
 40
0.0
 40
0.2392553203
 40
0.4822077479
 40
0.6065184498
 40
0.733821428
 40
0.865111457
 40
1.0
 40
1.0
 40
1.0
 40
1.0
 10
12.975037808
 20
12.5306538384
 30
0.0
 10
12.9727866254
 20
12.5237365935
 30
0.0
 10
12.9675439102
 20
12.5100117873
 30
0.0
 10
12.958429672
 20
12.4938328417
 30
0.0
 10
12.9487913428
 20
12.4822303759
 30
0.0
 10
12.9399296273
 20
12.4745691517
 30
0.0
 10
12.9292344594
 20
12.468918696
 30
0.0
 10
12.9210866242
 20
12.4674542395
 30
0.0
 10
12.9169854579
 20
12.4674542395
 30
0.0
  0
SPLINE
  5
5ED
100
AcDbEntity
  8
0
100
AcDbSpline
 62
7
  6
CONTINUOUS
 70
0
 71
3
 72
21
 73
17
 74
0
 42
0.0000001
 43
0.0000001
 44
0.0000000001
 40
0.0
 40
0.0
 40
0.0
 40
0.0
 40
0.1228811876
 40
0.2457526324
 40
0.3686348574
 40
0.491568137
 40
0.553096946
 40
0.614708351
 40
0.6764689551
 40
0.7385017218
 40
0.80104487
 40
0.8645891235
 40
0.8971162861
 40
0.930426952
 40
0.9647638371
 40
1.0
 40
1.0
 40
1.0
 40
1.0
 10
12.8413395619
 20
12.6555728823
 30
0.0
 10
12.8407834095
 20
12.6694318794
 30
0.0
 10
12.8401511091
 20
12.6971684577
 30
0.0
 10
12.8401942712
 20
12.738781179
 30
0.0
 10
12.8412535817
 20
12.7803873104
 30
0.0
 10
12.8433886308
 20
12.8150285304
 30
0.0
 10
12.8463777548
 20
12.8426482916
 30
0.0
 10
12.84947529
 20
12.8632956052
 30
0.0
 10
12.8537024637
 20
12.8838048114
 30
0.0
 10
12.8594542433
 20
12.9040643869
 30
0.0
 10
12.8673152175
 20
12.9238341095
 30
0.0
 10
12.8763996775
 20
12.9394096731
 30
0.0
 10
12.8859356512
 20
12.9505304955
 30
0.0
 10
12.8946555257
 20
12.9578372131
 30
0.0
 10
12.9051028155
 20
12.9631891449
 30
0.0
 10
12.9130081937
 20
12.9645570393
 30
0.0
 10
12.9169854577
 20
12.9645570393
 30
0.0
  0
SPLINE
  5
5EE
100
AcDbEntity
  8
0
100
AcDbSpline
 62
9
  6
CONTINUOUS
 70
0
 71
3
 72
14
 73
10
 74
0
 42
0.0000001
 43
0.0000001
 44
0.0000000001
 40
0.0
 40
0.0
 40
0.0
 40
0.0
 40
0.0309280107
 40
0.0928882561
 40
0.184600282
 40
0.3041623123
 40
0.4487192432
 40
0.6152869567
 40
1.0
 40
1.0
 40
1.0
 40
1.0
 10
14.1675364518
 20
20.9033197051
 30
0.0
 10
14.1675364518
 20
20.9027237712
 30
0.0
 10
14.1674124137
 20
20.9009364424
 30
0.0
 10
14.1671811693
 20
20.8973883179
 30
0.0
 10
14.1667742999
 20
20.8921385322
 30
0.0
 10
14.1662340005
 20
20.8853038394
 30
0.0
 10
14.1655562355
 20
20.8770327973
 30
0.0
 10
14.1644407042
 20
20.8636716337
 30
0.0
 10
14.1635347041
 20
20.853087998
 30
0.0
 10
14.162895944
 20
20.8457027571
 30
0.0
  0
SPLINE
  5
5EF
100
AcDbEntity
  8
0
100
AcDbSpline
 62
7
  6
CONTINUOUS
 70
0
 71
3
 72
13
 73
9
 74
0
 42
0.0000001
 43
0.0000001
 44
0.0000000001
 40
0.0
 40
0.0
 40
0.0
 40
0.0
 40
0.1090590915
 40
0.2384194343
 40
0.5249476265
 40
0.797020226
 40
0.9100819999
 40
1.0
 40
1.0
 40
1.0
 40
1.0
 10
13.2650718835
 20
18.9903851185
 30
0.0
 10
13.2637136277
 20
18.9903851185
 30
0.0
 10
13.2607445349
 20
18.9904910681
 30
0.0
 10
13.2542234864
 20
18.9909713323
 30
0.0
 10
13.2457140428
 20
18.992010052
 30
0.0
 10
13.2374632644
 20
18.9934203925
 30
0.0
 10
13.2316908899
 20
18.9947211938
 30
0.0
 10
13.2292502875
 20
18.9953892269
 30
0.0
 10
13.2281860208
 20
18.9957377064
 30
0.0
  0
SPLINE
  5
5F0
100
AcDbEntity
  8
0
100
AcDbSpline
 62
7
  6
CONTINUOUS
 70
0
 71
3
 72
10
 73
6
 74
0
 42
0.0000001
 43
0.0000001
 44
0.0000000001
 40
0.0
 40
0.0
 40
0.0
 40
0.0
 40
0.6846769586
 40
0.8841348885
 40
1.0
 40
1.0
 40
1.0
 40
1.0
 10
13.2281860208
 20
18.9957377064
 30
0.0
 10
13.2273827686
 20
18.9960007202
 30
0.0
 10
13.2263348306
 20
18.9963795019
 30
0.0
 10
13.2252921935
 20
18.9969984502
 30
0.0
 10
13.2250229795
 20
18.9973433496
 30
0.0
 10
13.2250226203
 20
18.9974863817
 30
0.0
  0
SPLINE
  5
5F1
100
AcDbEntity
  8
0
100
AcDbSpline
 62
9
  6
CONTINUOUS
 70
0
 71
3
 72
19
 73
15
 74
0
 42
0.0000001
 43
0.0000001
 44
0.0000000001
 40
0.0
 40
0.0
 40
0.0
 40
0.0
 40
0.1921193442
 40
0.3779048721
 40
0.5491501685
 40
0.6995213741
 40
0.8234412593
 40
0.8740742849
 40
0.9164727668
 40
0.9502110624
 40
0.9751507243
 40
0.9843447845
 40
0.9914188511
 40
1.0
 40
1.0
 40
1.0
 40
1.0
 10
14.1600192264
 20
20.8129297058
 30
0.0
 10
14.1545212309
 20
20.8134166608
 30
0.0
 10
14.1437129154
 20
20.8144485604
 30
0.0
 10
14.1280288478
 20
20.8161620688
 30
0.0
 10
14.1135634805
 20
20.8179726667
 30
0.0
 10
14.1008939682
 20
20.8198018852
 30
0.0
 10
14.0916892216
 20
20.821366117
 30
0.0
 10
14.085580243
 20
20.822607928
 30
0.0
 10
14.0820330916
 20
20.8234327518
 30
0.0
 10
14.0792322644
 20
20.8242143584
 30
0.0
 10
14.0773940366
 20
20.8248527794
 30
0.0
 10
14.0763151201
 20
20.825371901
 30
0.0
 10
14.075728594
 20
20.8257342961
 30
0.0
 10
14.0753522829
 20
20.8261113866
 30
0.0
 10
14.0753522829
 20
20.8263579198
 30
0.0
  0
SPLINE
  5
5F2
100
AcDbEntity
  8
0
100
AcDbSpline
 62
9
  6
CONTINUOUS
 70
0
 71
3
 72
19
 73
15
 74
0
 42
0.0000001
 43
0.0000001
 44
0.0000000001
 40
0.0
 40
0.0
 40
0.0
 40
0.0
 40
0.0085811489
 40
0.0156552155
 40
0.0248492757
 40
0.0497889376
 40
0.0835272332
 40
0.1259257151
 40
0.1765587407
 40
0.3004786259
 40
0.4508498315
 40
0.6220951279
 40
0.8078806558
 40
1.0
 40
1.0
 40
1.0
 40
1.0
 10
13.1796422544
 20
20.8263579198
 30
0.0
 10
13.1796422544
 20
20.8261113866
 30
0.0
 10
13.1792659434
 20
20.8257342961
 30
0.0
 10
13.1786794172
 20
20.825371901
 30
0.0
 10
13.1776005008
 20
20.8248527794
 30
0.0
 10
13.175762273
 20
20.8242143584
 30
0.0
 10
13.1729614458
 20
20.8234327518
 30
0.0
 10
13.1694142943
 20
20.822607928
 30
0.0
 10
13.1633053157
 20
20.821366117
 30
0.0
 10
13.1541005691
 20
20.8198018852
 30
0.0
 10
13.1414310568
 20
20.8179726667
 30
0.0
 10
13.1269656895
 20
20.8161620688
 30
0.0
 10
13.1112816219
 20
20.8144485604
 30
0.0
 10
13.1004733064
 20
20.8134166608
 30
0.0
 10
13.0949753109
 20
20.8129297058
 30
0.0
  0
SPLINE
  5
5F3
100
AcDbEntity
  8
0
100
AcDbSpline
 62
9
  6
CONTINUOUS
 70
0
 71
3
 72
14
 73
10
 74
0
 42
0.0000001
 43
0.0000001
 44
0.0000000001
 40
0.0
 40
0.0
 40
0.0
 40
0.0
 40
0.3847130433
 40
0.5512807568
 40
0.6958376877
 40
0.815399718
 40
0.9071117439
 40
0.9690719893
 40
1.0
 40
1.0
 40
1.0
 40
1.0
 10
13.0920985933
 20
20.8457027571
 30
0.0
 10
13.0914598333
 20
20.853087998
 30
0.0
 10
13.0905538331
 20
20.8636716337
 30
0.0
 10
13.0894383018
 20
20.8770327973
 30
0.0
 10
13.0887605368
 20
20.8853038394
 30
0.0
 10
13.0882202375
 20
20.8921385322
 30
0.0
 10
13.087813368
 20
20.8973883179
 30
0.0
 10
13.0875821236
 20
20.9009364424
 30
0.0
 10
13.0874580855
 20
20.9027237712
 30
0.0
 10
13.0874580855
 20
20.9033197051
 30
0.0
  0
SPLINE
  5
5F4
100
AcDbEntity
  8
0
100
AcDbSpline
 62
9
  6
CONTINUOUS
 70
0
 71
3
 72
16
 73
12
 74
0
 42
0.0000001
 43
0.0000001
 44
0.0000000001
 40
0.0
 40
0.0
 40
0.0
 40
0.0
 40
0.0109039283
 40
0.0307157914
 40
0.059198012
 40
0.096110091
 40
0.19384142
 40
0.3198910741
 40
0.4695838935
 40
0.6372937083
 40
1.0
 40
1.0
 40
1.0
 40
1.0
 10
13.0675364518
 20
20.9015552548
 30
0.0
 10
13.0675364518
 20
20.9012255766
 30
0.0
 10
13.0675868124
 20
20.9002976336
 30
0.0
 10
13.0676944357
 20
20.8985114312
 30
0.0
 10
13.0678771604
 20
20.8959415002
 30
0.0
 10
13.0682439251
 20
20.891023192
 30
0.0
 10
13.0688683073
 20
20.8831658437
 30
0.0
 10
13.0697930782
 20
20.8719119006
 30
0.0
 10
13.0709193045
 20
20.858551568
 30
0.0
 10
13.0726780265
 20
20.8380639561
 30
0.0
 10
13.0740814856
 20
20.8220884316
 30
0.0
 10
13.0750536772
 20
20.8111652555
 30
0.0
  0
SPLINE
  5
5F5
100
AcDbEntity
  8
0
100
AcDbSpline
 62
9
  6
CONTINUOUS
 70
0
 71
3
 72
20
 73
16
 74
0
 42
0.0000001
 43
0.0000001
 44
0.0000000001
 40
0.0
 40
0.0
 40
0.0
 40
0.0
 40
0.2114530284
 40
0.4046946081
 40
0.5757300971
 40
0.7209992488
 40
0.7830685474
 40
0.8376313876
 40
0.8843558265
 40
0.9230201017
 40
0.9535804249
 40
0.976101973
 40
0.9844544815
 40
0.9910107751
 40
1.0
 40
1.0
 40
1.0
 40
1.0
 10
13.0426530406
 20
20.8087468865
 30
0.0
 10
13.0389431801
 20
20.8085257564
 30
0.0
 10
13.0318404001
 20
20.8081440743
 30
0.0
 10
13.0217292148
 20
20.8077393102
 30
0.0
 10
13.0127755364
 20
20.8075314302
 30
0.0
 10
13.0061243823
 20
20.807522434
 30
0.0
 10
13.0015223445
 20
20.8076320974
 30
0.0
 10
12.9986537851
 20
20.8077599113
 30
0.0
 10
12.9962000913
 20
20.8079373016
 30
0.0
 10
12.9941736625
 20
20.8081611502
 30
0.0
 10
12.9925830677
 20
20.8084319323
 30
0.0
 10
12.9915352569
 20
20.8087028847
 30
0.0
 10
12.9909284591
 20
20.808969062
 30
0.0
 10
12.9905743461
 20
20.8091832518
 30
0.0
 10
12.9903867336
 20
20.8094376496
 30
0.0
 10
12.9903867336
 20
20.8095956419
 30
0.0
  0
SPLINE
  5
5F6
100
AcDbEntity
  8
0
100
AcDbSpline
 62
7
  6
CONTINUOUS
 70
0
 71
3
 72
13
 73
9
 74
0
 42
0.0000001
 43
0.0000001
 44
0.0000000001
 40
0.0
 40
0.0
 40
0.0
 40
0.0
 40
0.4019290607
 40
0.567020921
 40
0.70628417
 40
0.8185739343
 40
0.9033667868
 40
1.0
 40
1.0
 40
1.0
 40
1.0
 10
14.1122189672
 20
19.0494036089
 30
0.0
 10
14.1112747516
 20
19.0494036089
 30
0.0
 10
14.1099424342
 20
19.049432281
 30
0.0
 10
14.1082868188
 20
19.049572097
 30
0.0
 10
14.1073200872
 20
19.0497010899
 30
0.0
 10
14.1065364949
 20
19.0498767593
 30
0.0
 10
14.1059095826
 20
19.0500735967
 30
0.0
 10
14.1054780952
 20
19.0503975803
 30
0.0
 10
14.1054792352
 20
19.0506245891
 30
0.0
  0
SPLINE
  5
5F7
100
AcDbEntity
  8
0
100
AcDbSpline
 62
7
  6
CONTINUOUS
 70
0
 71
3
 72
13
 73
9
 74
0
 42
0.0000001
 43
0.0000001
 44
0.0000000001
 40
0.0
 40
0.0
 40
0.0
 40
0.0
 40
0.3950866038
 40
0.5620521649
 40
0.7042788225
 40
0.8187982958
 40
0.9042708688
 40
1.0
 40
1.0
 40
1.0
 40
1.0
 10
13.9702472687
 20
19.0494036089
 30
0.0
 10
13.9686664537
 20
19.0494036089
 30
0.0
 10
13.9664174058
 20
19.0494590519
 30
0.0
 10
13.9636055769
 20
19.0497018059
 30
0.0
 10
13.9619324562
 20
19.0499268326
 30
0.0
 10
13.9605710276
 20
19.0502271003
 30
0.0
 10
13.9595040872
 20
19.0505706656
 30
0.0
 10
13.9587479112
 20
19.0510984301
 30
0.0
 10
13.9587474
 20
19.0514814598
 30
0.0
  0
SPLINE
  5
5F8
100
AcDbEntity
  8
0
100
AcDbSpline
 62
7
  6
CONTINUOUS
 70
0
 71
3
 72
15
 73
11
 74
0
 42
0.0000001
 43
0.0000001
 44
0.0000000001
 40
0.0
 40
0.0
 40
0.0
 40
0.0
 40
0.2985978695
 40
0.4557061722
 40
0.6055870595
 40
0.7409389535
 40
0.8548271477
 40
0.9422502608
 40
0.9749720055
 40
1.0
 40
1.0
 40
1.0
 40
1.0
 10
13.2847472687
 20
19.0494036089
 30
0.0
 10
13.2813031628
 20
19.0494036089
 30
0.0
 10
13.2760462007
 20
19.0496732683
 30
0.0
 10
13.2690950216
 20
19.0503644166
 30
0.0
 10
13.2640397234
 20
19.0510630214
 30
0.0
 10
13.2595056616
 20
19.0518718244
 30
0.0
 10
13.2557230855
 20
19.0527524573
 30
0.0
 10
13.2531371173
 20
19.0535514576
 30
0.0
 10
13.2516027409
 20
19.0542240076
 30
0.0
 10
13.2510235461
 20
19.0545611286
 30
0.0
 10
13.2507942756
 20
19.0547365449
 30
0.0
  0
SPLINE
  5
5F9
100
AcDbEntity
  8
0
100
AcDbSpline
 62
7
  6
CONTINUOUS
 70
0
 71
3
 72
13
 73
9
 74
0
 42
0.0000001
 43
0.0000001
 44
0.0000000001
 40
0.0
 40
0.0
 40
0.0
 40
0.0
 40
0.1142675723
 40
0.2475918613
 40
0.5373358984
 40
0.8060175125
 40
0.9151495813
 40
1.0
 40
1.0
 40
1.0
 40
1.0
 10
13.1427755702
 20
19.0494036089
 30
0.0
 10
13.1413605013
 20
19.0494036089
 30
0.0
 10
13.1382945444
 20
19.0495059877
 30
0.0
 10
13.1316559561
 20
19.0499762679
 30
0.0
 10
13.123145798
 20
19.0509957023
 30
0.0
 10
13.1149917548
 20
19.0523988391
 30
0.0
 10
13.1094130418
 20
19.0537076963
 30
0.0
 10
13.1071034508
 20
19.0543807863
 30
0.0
 10
13.1061147355
 20
19.0547365449
 30
0.0
  0
SPLINE
  5
5FA
100
AcDbEntity
  8
0
100
AcDbSpline
 62
7
  6
CONTINUOUS
 70
0
 71
3
 72
10
 73
6
 74
0
 42
0.0000001
 43
0.0000001
 44
0.0000000001
 40
0.0
 40
0.0
 40
0.0
 40
0.0
 40
0.6734531267
 40
0.8744364846
 40
1.0
 40
1.0
 40
1.0
 40
1.0
 10
13.1061147355
 20
19.0547365449
 30
0.0
 10
13.1054483952
 20
19.0549763068
 30
0.0
 10
13.1045789034
 20
19.0553208013
 30
0.0
 10
13.103715667
 20
19.055909194
 30
0.0
 10
13.1035112578
 20
19.0562270905
 30
0.0
 10
13.1035102097
 20
19.0563591215
 30
0.0
  0
SPLINE
  5
5FB
100
AcDbEntity
  8
0
100
AcDbSpline
 62
7
  6
CONTINUOUS
 70
0
 71
3
 72
20
 73
16
 74
0
 42
0.0000001
 43
0.0000001
 44
0.0000000001
 40
0.0
 40
0.0
 40
0.0
 40
0.0
 40
0.1094650772
 40
0.256688523
 40
0.4248429886
 40
0.5961860148
 40
0.6775790672
 40
0.7534576285
 40
0.8218814038
 40
0.8809398234
 40
0.9291448932
 40
0.9654233245
 40
0.9888715639
 40
0.9957437318
 40
1.0
 40
1.0
 40
1.0
 40
1.0
 10
13.0338368544
 20
19.0494036089
 30
0.0
 10
13.0322369498
 20
19.0494036089
 30
0.0
 10
13.0284879849
 20
19.0496400978
 30
0.0
 10
13.0223116368
 20
19.0502758613
 30
0.0
 10
13.0152625177
 20
19.0512444983
 30
0.0
 10
13.0091907262
 20
19.0522357807
 30
0.0
 10
13.0044679778
 20
19.0531107957
 30
0.0
 10
13.0012339887
 20
19.0537612903
 30
0.0
 10
12.9983306624
 20
19.0543996483
 30
0.0
 10
12.9958367704
 20
19.0550097589
 30
0.0
 10
12.9938140541
 20
19.0555754034
 30
0.0
 10
12.9923218171
 20
19.0560765951
 30
0.0
 10
12.9914207752
 20
19.0564715359
 30
0.0
 10
12.9910126056
 20
19.0567666669
 30
0.0
 10
12.9909254001
 20
19.0569237352
 30
0.0
 10
12.9909289912
 20
19.0569858397
 30
0.0
  0
SPLINE
  5
5FC
100
AcDbEntity
  8
0
100
AcDbSpline
 62
7
  6
CONTINUOUS
 70
0
 71
3
 72
9
 73
5
 74
0
 42
0.0000001
 43
0.0000001
 44
0.0000000001
 40
0.0
 40
0.0
 40
0.0
 40
0.0
 40
0.4811291056
 40
1.0
 40
1.0
 40
1.0
 40
1.0
 10
11.5823391581
 20
13.0687173432
 30
0.0
 10
11.5871686505
 20
13.0720797451
 30
0.0
 10
11.5983279373
 20
13.0775616344
 30
0.0
 10
11.6106391325
 20
13.0794548173
 30
0.0
 10
11.6169854576
 20
13.0794548173
 30
0.0
  0
SPLINE
  5
5FD
100
AcDbEntity
  8
0
100
AcDbSpline
 62
9
  6
CONTINUOUS
 70
0
 71
3
 72
16
 73
12
 74
0
 42
0.0000001
 43
0.0000001
 44
0.0000000001
 40
0.0
 40
0.0
 40
0.0
 40
0.0
 40
0.1747304758
 40
0.3082572365
 40
0.5157967133
 40
0.6733094912
 40
0.794394884
 40
0.8851570128
 40
0.9488536417
 40
0.987140527
 40
1.0
 40
1.0
 40
1.0
 40
1.0
 10
7.0892724723
 20
9.9479458407
 30
0.0
 10
7.0651476386
 20
9.9501622859
 30
0.0
 10
7.0226467959
 20
9.9547127651
 30
0.0
 10
6.9516075857
 20
9.962940958
 30
0.0
 10
6.8829189448
 20
9.9707438117
 30
0.0
 10
6.8157930616
 20
9.9769302187
 30
0.0
 10
6.7646727887
 20
9.9801409274
 30
0.0
 10
6.7264775363
 20
9.9812463452
 30
0.0
 10
6.6997465174
 20
9.9810863389
 30
0.0
 10
6.6838367454
 20
9.9803991964
 30
0.0
 10
6.6767598088
 20
9.9799171166
 30
0.0
 10
6.6749858173
 20
9.9797384092
 30
0.0
  0
SPLINE
  5
5FE
100
AcDbEntity
  8
0
100
AcDbSpline
 62
9
  6
CONTINUOUS
 70
0
 71
3
 72
26
 73
22
 74
0
 42
0.0000001
 43
0.0000001
 44
0.0000000001
 40
0.0
 40
0.0
 40
0.0
 40
0.0
 40
0.1554004966
 40
0.2197793713
 40
0.2787219301
 40
0.4790129459
 40
0.5633139801
 40
0.6390163186
 40
0.7069619968
 40
0.7675590847
 40
0.8210731651
 40
0.8676353981
 40
0.9073219329
 40
0.9401274163
 40
0.9539374546
 40
0.9659939052
 40
0.9762701461
 40
0.984739315
 40
0.9913743169
 40
0.99614783
 40
1.0
 40
1.0
 40
1.0
 40
1.0
 10
7.5052482642
 20
10.12417702
 30
0.0
 10
7.4807475876
 20
10.1289495723
 30
0.0
 10
7.4463228024
 20
10.1368526168
 30
0.0
 10
7.4029048929
 20
10.1477643613
 30
0.0
 10
7.3526141673
 20
10.1609133476
 30
0.0
 10
7.2993706612
 20
10.1754053471
 30
0.0
 10
7.2434353173
 20
10.1902532255
 30
0.0
 10
7.2079868992
 20
10.1994206998
 30
0.0
 10
7.1761503471
 20
10.2073427075
 30
0.0
 10
7.1477022144
 20
10.2141159315
 30
0.0
 10
7.122529542
 20
10.2198113155
 30
0.0
 10
7.1005772665
 20
10.2245088258
 30
0.0
 10
7.0818271675
 20
10.2282798027
 30
0.0
 10
7.0682083628
 20
10.2308421067
 30
0.0
 10
7.0589209553
 20
10.2324895354
 30
0.0
 10
7.0532174189
 20
10.2334640644
 30
0.0
 10
7.0482786899
 20
10.2342730283
 30
0.0
 10
7.0444096559
 20
10.2348876171
 30
0.0
 10
7.0408437929
 20
10.2354193066
 30
0.0
 10
7.0394148489
 20
10.2356413794
 30
0.0
 10
7.0361117656
 20
10.2360845371
 30
0.0
 10
7.0367253943
 20
10.2360050605
 30
0.0
  0
ENDSEC
  0
SECTION
  2
OBJECTS
  0
DICTIONARY
  5
C
100
AcDbDictionary
280
0
281
1
  3
ACAD_GROUP
350
D
  3
ACAD_MLINESTYLE
350
17
  3
ACAD_LAYOUT
350
1A
  3
ACAD_PLOTSETTINGS
350
19
  3
ACAD_PLOTSTYLENAME
350
E
  0
DICTIONARY
  5
D
102
{ACAD_REACTORS
330
C
102
}
100
AcDbDictionary
280
0
281
1
  0
ACDBDICTIONARYWDFLT
  5
E
102
{ACAD_REACTORS
330
C
102
}
100
AcDbDictionary
281
1
  3
Normal
350
F
100
AcDbDictionaryWithDefault
340
F
  0
DICTIONARY
  5
17
102
{ACAD_REACTORS
330
C
102
}
100
AcDbDictionary
280
0
281
1
  3
Standard
350
18
  0
DICTIONARY
  5
19
102
{ACAD_REACTORS
330
C
102
}
100
AcDbDictionary
281
1
  0
DICTIONARY
  5
1A
102
{ACAD_REACTORS
330
C
102
}
100
AcDbDictionary
281
1
  3
Model
350
5FF
  3
Layout1
350
600
  0
ACDBPLACEHOLDER
  5
F
102
{ACAD_REACTORS
330
E
102
}
  0
MLINESTYLE
  5
18
102
{ACAD_REACTORS
330
17
102
}
100
AcDbMlineStyle
  2
STANDARD
 70
0
  3

 62
256
 51
90.0
 52
90.0
 71
2
 49
0.5
 62
256
  6
BYLAYER
 49
-0.5
 62
256
  6
BYLAYER
  0
LAYOUT
  5
5FF
102
{ACAD_REACTORS
330
1A
102
}
100
AcDbPlotSettings
  1

  2
none_device
  4
ANSI_C_(22.00_x_17.00_Inches)
  6

 40
0.0
 41
0.0
 42
0.0
 43
0.0
 44
558.8
 45
431.8
 46
0.0
 47
0.0
 48
0.0
 49
0.0
140
0.0
141
0.0
142
1.0
143
1.0
 70
1024
 72
0
 73
0
 74
0
  7

 75
0
147
1.0
148
0.0
149
0.0
100
AcDbLayout
  1
Model
 70
0
 71
0
 10
0.0
 20
0.0
 11
22.0
 21
17.0
 12
0.0
 22
0.0
 32
0.0
 14
0.0
 24
0.0
 34
0.0
 15
0.0
 25
0.0
 35
0.0
146
0.0
 13
0.0
 23
0.0
 33
0.0
 16
1.0
 26
0.0
 36
0.0
 17
0.0
 27
1.0
 37
0.0
 76
0
330
202
345
0
346
0
  0
LAYOUT
  5
600
102
{ACAD_REACTORS
330
1A
102
}
100
AcDbPlotSettings
  1

  2
none_device
  4
ANSI_C_(22.00_x_17.00_Inches)
  6

 40
0.0
 41
0.0
 42
0.0
 43
0.0
 44
558.8
 45
431.8
 46
0.0
 47
0.0
 48
0.0
 49
0.0
140
0.0
141
0.0
142
1.0
143
1.0
 70
0
 72
0
 73
0
 74
0
  7

 75
0
147
1.0
148
0.0
149
0.0
100
AcDbLayout
  1
Layout1
 70
0
 71
1
 10
0.0
 20
0.0
 11
22.0
 21
17.0
 12
0.0
 22
0.0
 32
0.0
 14
0.0
 24
0.0
 34
0.0
 15
0.0
 25
0.0
 35
0.0
146
0.0
 13
0.0
 23
0.0
 33
0.0
 16
1.0
 26
0.0
 36
0.0
 17
0.0
 27
1.0
 37
0.0
 76
0
330
203
345
0
346
0
  0
ENDSEC
  0
EOF
