999
DXF file: E:\BT Custom\CADOUTPUT\_TOP.dxf
999
Pro/ENGINEER 2018400 by Parametric Technology Corporation
  0
SECTION
  2
HEADER
  9
$ACADVER
  1
AC1018
  9
$DWGCODEPAGE
  3
ANSI_1252
  9
$EXTMAX
 10
22.0
 20
17.0
 30
0.0
  9
$EXTMIN
 10
0.0
 20
0.0
 30
0.0
  9
$LIMMIN
 10
0.0
 20
0.0
  9
$LIMMAX
 10
22.0
 20
17.0
  9
$VIEWCTR
 10
11.0
 20
8.5
  9
$VIEWSIZE
 40
17.0
  9
$CLAYER
  8
0
  9
$LTSCALE
 40
1.21
  9
$CELTYPE
  6
BYLAYER
  9
$DIMSCALE
 40
1.0
  9
$DIMASZ
 40
0.1
  9
$DIMEXO
 40
0.0625
  9
$DIMDLI
 40
0.836
  9
$DIMEXE
 40
0.125
  9
$DIMCEN
 40
0.198
  9
$DIMLFAC
 40
1.0
  9
$DIMBLK
  1
_FILLED
  9
$DIMALT
 70
1
  9
$DIMALTD
 70
2
  9
$DIMALTTD
 70
2
  9
$DIMALTF
 40
25.4
  9
$DIMTXT
 40
0.08
  9
$DIMTOL
 70
1
  9
$DIMLIM
 70
0
  9
$DIMTFAC
 40
1.0
  9
$DIMTP
 40
0.001
  9
$DIMTM
 40
0.001
  9
$DIMGAP
 40
0.09
  9
$DIMDSEP
 70
46
  9
$AUNITS
 70
0
  9
$PDMODE
 70
3
  9
$PDSIZE
 40
0.06
  9
$HANDSEED
  5
573
  9
$TILEMODE
 70
1
  9
$MEASUREMENT
 70
0
  9
$INSUNITS
 70
1
  0
ENDSEC
  0
SECTION
  2
CLASSES
  0
CLASS
  1
ACDBDICTIONARYWDFLT
  2
AcDbDictionaryWithDefault
  3
AutoCAD 2000
 90
0
 91
1
280
0
281
0
  0
CLASS
  1
ACDBPLACEHOLDER
  2
AcDbPlaceHolder
  3
AutoCAD 2000
 90
0
 91
1
280
0
281
0
  0
CLASS
  1
LAYOUT
  2
AcDbLayout
  3
AutoCAD 2000
 90
0
 91
0
280
0
281
0
  0
ENDSEC
  0
SECTION
  2
TABLES
  0
TABLE
  2
VPORT
  5
8
100
AcDbSymbolTable
 70
2
  0
VPORT
  5
1F4
100
AcDbSymbolTableRecord
100
AcDbViewportTableRecord
  2
*ACTIVE
 70
0
 10
0.0
 20
0.0
 11
1.0
 21
1.0
 12
11.0
 22
8.5
 13
0.0
 23
0.0
 14
1.0
 24
1.0
 15
0.0
 25
0.0
 16
0.0
 26
0.0
 36
1.0
 17
0.0
 27
0.0
 37
0.0
 40
17.0
 41
1.2941176471
 42
50.0
 43
0.0
 44
0.0
 50
0.0
 51
0.0
 71
0
 72
100
 73
1
 74
1
 75
0
 76
0
 77
0
 78
0
  0
ENDTAB
  0
TABLE
  2
LTYPE
  5
5
100
AcDbSymbolTable
 70
6
  0
LTYPE
  5
14
100
AcDbSymbolTableRecord
100
AcDbLinetypeTableRecord
  2
BYBLOCK
 70
0
  3

 72
65
 73
0
 40
0.0
  0
LTYPE
  5
15
100
AcDbSymbolTableRecord
100
AcDbLinetypeTableRecord
  2
BYLAYER
 70
0
  3

 72
65
 73
0
 40
0.0
  0
LTYPE
  5
16
100
AcDbSymbolTableRecord
100
AcDbLinetypeTableRecord
  2
CONTINUOUS
 70
64
  3
Solid line
 72
65
 73
0
 40
0.0
  0
LTYPE
  5
1F5
100
AcDbSymbolTableRecord
100
AcDbLinetypeTableRecord
  2
CENTER
 70
64
  3
____ _ ____ _ ____ _ ____ _ ____ _ ____ _ ____
 72
65
 73
4
 40
0.6
 49
0.375
 74
0
 49
-0.075
 74
0
 49
0.075
 74
0
 49
-0.075
 74
0
  0
LTYPE
  5
1F6
100
AcDbSymbolTableRecord
100
AcDbLinetypeTableRecord
  2
HIDDEN
 70
64
  3
- - - - - - - - - - - - - - - - - - - -
 72
65
 73
2
 40
0.2
 49
0.1
 74
0
 49
-0.1
 74
0
  0
LTYPE
  5
1F7
100
AcDbSymbolTableRecord
100
AcDbLinetypeTableRecord
  2
PHANTOM
 70
64
  3
_____ _ _ _____ _ _ _____ _ _ _____
 72
65
 73
6
 40
0.8
 49
0.45
 74
0
 49
-0.05
 74
0
 49
0.1
 74
0
 49
-0.05
 74
0
 49
0.1
 74
0
 49
-0.05
 74
0
  0
LTYPE
  5
1F8
100
AcDbSymbolTableRecord
100
AcDbLinetypeTableRecord
  2
DOT
 70
64
  3
. . . . . . . . . . . . . . . . . . . .
 72
65
 73
2
 40
0.2
 49
0.1
 74
0
 49
-0.1
 74
0
  0
LTYPE
  5
1F9
100
AcDbSymbolTableRecord
100
AcDbLinetypeTableRecord
  2
DASHED
 70
64
  3
- - - - - - - - - - - - - - - - - - - -
 72
65
 73
2
 40
0.2
 49
0.1
 74
0
 49
-0.1
 74
0
  0
ENDTAB
  0
TABLE
  2
LAYER
  5
2
100
AcDbSymbolTable
 70
36
  0
LAYER
  5
10
100
AcDbSymbolTableRecord
100
AcDbLayerTableRecord
  2
0
 70
0
 62
7
  6
CONTINUOUS
370
-3
390
F
  0
LAYER
  5
1FA
100
AcDbSymbolTableRecord
100
AcDbLayerTableRecord
  2
DEFAULT_1
 70
0
 62
7
  6
CENTER
370
-3
390
F
  0
LAYER
  5
1FB
100
AcDbSymbolTableRecord
100
AcDbLayerTableRecord
  2
DEFAULT_2
 70
0
 62
8
  6
HIDDEN
370
-3
390
F
  0
LAYER
  5
1FC
100
AcDbSymbolTableRecord
100
AcDbLayerTableRecord
  2
DEFAULT_3
 70
0
 62
7
  6
PHANTOM
370
-3
390
F
  0
LAYER
  5
1FD
100
AcDbSymbolTableRecord
100
AcDbLayerTableRecord
  2
ALL_FEATURES
 70
0
 62
7
  6
CONTINUOUS
370
-3
390
F
  0
LAYER
  5
1FE
100
AcDbSymbolTableRecord
100
AcDbLayerTableRecord
  2
AXES_FEATURES
 70
0
 62
7
  6
CONTINUOUS
370
-3
390
F
  0
LAYER
  5
1FF
100
AcDbSymbolTableRecord
100
AcDbLayerTableRecord
  2
DIMENSIONS
 70
0
 62
7
  6
CONTINUOUS
370
-3
390
F
  0
ENDTAB
  0
TABLE
  2
STYLE
  5
3
100
AcDbSymbolTable
 70
1
  0
STYLE
  5
11
100
AcDbSymbolTableRecord
100
AcDbTextStyleTableRecord
  2
STANDARD
 70
0
 40
0.0
 41
0.8
 50
0.0
 71
0
 42
0.2
  3
txt
  4

  0
STYLE
  5
200
100
AcDbSymbolTableRecord
100
AcDbTextStyleTableRecord
  2
TEXTSTYLE_1
 70
0
 40
0.0
 41
0.8
 50
0.0
 71
0
 42
0.2
  3
gdt
  4

  0
ENDTAB
  0
TABLE
  2
VIEW
  5
6
100
AcDbSymbolTable
 70
0
  0
ENDTAB
  0
TABLE
  2
UCS
  5
7
100
AcDbSymbolTable
 70
0
  0
ENDTAB
  0
TABLE
  2
APPID
  5
9
100
AcDbSymbolTable
 70
1
  0
APPID
  5
201
100
AcDbSymbolTableRecord
100
AcDbRegAppTableRecord
  2
ACAD
 70
0
  0
ENDTAB
  0
TABLE
  2
BLOCK_RECORD
  5
1
100
AcDbSymbolTable
 70
0
  0
BLOCK_RECORD
  5
202
100
AcDbSymbolTableRecord
100
AcDbBlockTableRecord
  2
*Model_Space
  0
BLOCK_RECORD
  5
203
100
AcDbSymbolTableRecord
100
AcDbBlockTableRecord
  2
*Paper_Space
  0
BLOCK_RECORD
  5
204
100
AcDbSymbolTableRecord
100
AcDbBlockTableRecord
  2
_FILLED
  0
ENDTAB
  0
TABLE
  2
DIMSTYLE
  5
A
100
AcDbSymbolTable
 70
1
100
AcDbDimStyleTable
 71
0
  0
DIMSTYLE
105
205
100
AcDbSymbolTableRecord
100
AcDbDimStyleTableRecord
  2
STANDARD
 70
0
  3

  4

 40
1.0
 41
0.1
 42
0.0625
 43
0.38
 44
0.125
 45
0.0
 46
0.0
 47
0.001
 48
0.001
140
0.08
141
0.09
142
0.0
143
25.4
144
1.0
145
0.0
146
1.0
147
0.09
 71
1.0
 72
0.0
 73
1
 74
1
 75
0
 76
0
 77
0
 78
4
 79
1
170
1
171
2
172
0
173
0
174
0
175
0
176
0
177
0
178
0
270
2
179
3
271
3
272
3
273
2
274
2
275
0
280
0
281
0
282
0
283
1
284
4
285
0
286
0
287
3
288
0
340
11
278
46
341
204
342
204
343
204
344
204
  0
ENDTAB
  0
ENDSEC
  0
SECTION
  2
BLOCKS
  0
BLOCK
  5
20
100
AcDbEntity
  8
0
100
AcDbBlockBegin
  2
*Model_Space
 70
0
 10
0.0
 20
0.0
 30
0.0
  3
*Model_Space
  1

  0
ENDBLK
  5
21
100
AcDbEntity
  8
0
100
AcDbBlockEnd
  0
BLOCK
  5
1C
100
AcDbEntity
  8
0
100
AcDbBlockBegin
  2
*Paper_Space
 70
0
 10
0.0
 20
0.0
 30
0.0
  3
*Paper_Space
  1

  0
ENDBLK
  5
1D
100
AcDbEntity
  8
0
100
AcDbBlockEnd
  0
BLOCK
  5
206
100
AcDbEntity
  8
0
100
AcDbBlockBegin
  2
_FILLED
 70
64
 10
0.0
 20
0.0
  3
_FILLED
  1

  0
SOLID
  5
207
100
AcDbEntity
  8
0
  6
BYBLOCK
 62
0
100
AcDbTrace
 10
0.0
 20
0.0
 11
-1.0
 21
0.2
 12
-1.0
 22
-0.2
 13
-1.0
 23
-0.2
  0
ENDBLK
  5
208
100
AcDbEntity
  8
0
  6
BYBLOCK
 62
0
100
AcDbBlockEnd
  0
ENDSEC
  0
SECTION
  2
ENTITIES
  0
LINE
  5
209
100
AcDbEntity
  8
0
100
AcDbLine
 62
7
  6
CONTINUOUS
 10
3.5223183383
 20
10.345936203
 11
3.5223183383
 21
9.6569365834
  0
LINE
  5
20A
100
AcDbEntity
  8
0
100
AcDbLine
 62
7
  6
CONTINUOUS
 10
3.6233183383
 20
10.3459359494
 11
3.6233183383
 21
9.656936837
  0
LINE
  5
20B
100
AcDbEntity
  8
0
100
AcDbLine
 62
9
  6
CONTINUOUS
 10
4.9157846071
 20
10.3459363932
 11
4.9157846071
 21
9.6569363932
  0
LINE
  5
20C
100
AcDbEntity
  8
0
100
AcDbLine
 62
7
  6
CONTINUOUS
 10
6.1233183383
 20
10.2724362432
 11
6.1233183383
 21
9.7304559334
  0
LINE
  5
20D
100
AcDbEntity
  8
0
100
AcDbLine
 62
7
  6
CONTINUOUS
 10
6.2233183383
 20
9.7304363932
 11
6.2233183383
 21
10.2724363932
  0
LINE
  5
20E
100
AcDbEntity
  8
0
100
AcDbLine
 62
7
  6
CONTINUOUS
 10
6.3598183383
 20
9.7144352269
 11
6.3598183383
 21
9.7958738292
  0
LINE
  5
20F
100
AcDbEntity
  8
0
100
AcDbLine
 62
7
  6
CONTINUOUS
 10
6.3598183383
 20
10.2069989573
 11
6.3598183383
 21
10.2884394864
  0
LINE
  5
210
100
AcDbEntity
  8
0
100
AcDbLine
 62
9
  6
CONTINUOUS
 10
6.4381943536
 20
10.1974363932
 11
6.4381943536
 21
9.8054363932
  0
LINE
  5
211
100
AcDbEntity
  8
0
100
AcDbLine
 62
7
  6
CONTINUOUS
 10
6.4550185183
 20
10.4533285529
 11
6.9521221624
 21
10.7403314756
  0
LINE
  5
212
100
AcDbEntity
  8
0
100
AcDbLine
 62
7
  6
CONTINUOUS
 10
7.6473183383
 20
9.8054363932
 11
7.6473183383
 21
10.1974363932
  0
LINE
  5
213
100
AcDbEntity
  8
0
100
AcDbLine
 62
7
  6
CONTINUOUS
 10
7.6396181582
 20
9.5495442336
 11
7.1425145142
 21
9.2625413109
  0
LINE
  5
214
100
AcDbEntity
  8
0
100
AcDbLine
 62
7
  6
CONTINUOUS
 10
11.177451494
 20
3.6090224901
 11
11.1614998404
 21
3.6052857029
  0
LINE
  5
215
100
AcDbEntity
  8
0
100
AcDbLine
 62
7
  6
CONTINUOUS
 10
11.1291468387
 20
3.5992619916
 11
11.1128994888
 21
3.5970048701
  0
LINE
  5
216
100
AcDbEntity
  8
0
100
AcDbLine
 62
7
  6
CONTINUOUS
 10
11.0801420603
 20
3.5939821132
 11
11.0637459246
 21
3.5932275589
  0
LINE
  5
217
100
AcDbEntity
  8
0
100
AcDbLine
 62
7
  6
CONTINUOUS
 10
11.0308535092
 20
3.5932287027
 11
11.0144574298
 21
3.5939843971
  0
LINE
  5
218
100
AcDbEntity
  8
0
100
AcDbLine
 62
7
  6
CONTINUOUS
 10
10.9817002053
 20
3.597009433
 11
10.9654530238
 21
3.5992676831
  0
LINE
  5
219
100
AcDbEntity
  8
0
100
AcDbLine
 62
7
  6
CONTINUOUS
 10
10.9331004291
 20
3.6052936473
 11
10.9171490536
 21
3.6090315401
  0
LINE
  5
21A
100
AcDbEntity
  8
0
100
AcDbLine
 62
7
  6
CONTINUOUS
 10
10.8854682229
 20
3.6180124945
 11
10.8699556876
 21
3.6231923815
  0
LINE
  5
21B
100
AcDbEntity
  8
0
100
AcDbLine
 62
7
  6
CONTINUOUS
 10
10.8392098298
 20
3.6350594052
 11
10.8242736598
 21
3.6416296259
  0
LINE
  5
21C
100
AcDbEntity
  8
0
100
AcDbLine
 62
7
  6
CONTINUOUS
 10
10.7947204209
 20
3.6562907916
 11
10.7804909216
 21
3.6641867242
  0
LINE
  5
21D
100
AcDbEntity
  8
0
100
AcDbLine
 62
7
  6
CONTINUOUS
 10
7.7348183383
 20
10.2884375596
 11
7.7348183383
 21
10.1712872363
  0
LINE
  5
21E
100
AcDbEntity
  8
0
100
AcDbLine
 62
7
  6
CONTINUOUS
 10
7.7348183383
 20
9.8315855502
 11
7.7348183383
 21
9.7144333
  0
LINE
  5
21F
100
AcDbEntity
  8
0
100
AcDbLine
 62
7
  6
CONTINUOUS
 10
7.7853183383
 20
9.8064363932
 11
7.7853183383
 21
10.1964363932
  0
LINE
  5
220
100
AcDbEntity
  8
0
100
AcDbLine
 62
7
  6
CONTINUOUS
 10
7.8653183383
 20
9.8064363932
 11
7.8653183383
 21
10.1964363932
  0
LINE
  5
221
100
AcDbEntity
  8
0
100
AcDbLine
 62
7
  6
CONTINUOUS
 10
10.8370763608
 20
10.9539246316
 11
10.7920297439
 21
10.9279169552
  0
LINE
  5
222
100
AcDbEntity
  8
0
100
AcDbLine
 62
7
  6
CONTINUOUS
 10
10.7143639358
 20
10.88307658
 11
10.2411360969
 21
10.6098583599
  0
LINE
  5
223
100
AcDbEntity
  8
0
100
AcDbLine
 62
7
  6
CONTINUOUS
 10
10.8711681384
 20
10.4425668808
 11
10.8883974275
 21
10.4490625141
  0
LINE
  5
224
100
AcDbEntity
  8
0
100
AcDbLine
 62
7
  6
CONTINUOUS
 10
10.752380465
 20
3.6815272095
 11
10.7389794776
 21
3.6906724453
  0
LINE
  5
225
100
AcDbEntity
  8
0
100
AcDbLine
 62
7
  6
CONTINUOUS
 10
10.712552505
 20
3.71055475
 11
10.7000923703
 21
3.7208623888
  0
LINE
  5
226
100
AcDbEntity
  8
0
100
AcDbLine
 62
7
  6
CONTINUOUS
 10
10.6755781233
 20
3.7431266193
 11
10.6641606956
 21
3.754500818
  0
LINE
  5
227
100
AcDbEntity
  8
0
100
AcDbLine
 62
7
  6
CONTINUOUS
 10
10.7092481044
 20
10.3351031686
 11
10.7224340679
 21
10.3479550953
  0
LINE
  5
228
100
AcDbEntity
  8
0
100
AcDbLine
 62
7
  6
CONTINUOUS
 10
11.0943919599
 20
10.4585187973
 11
11.1111294731
 21
10.4721307092
  0
LINE
  5
229
100
AcDbEntity
  8
0
100
AcDbLine
 62
7
  6
CONTINUOUS
 10
10.7453501773
 20
10.3680973125
 11
10.7597877734
 21
10.3795252376
  0
LINE
  5
22A
100
AcDbEntity
  8
0
100
AcDbLine
 62
7
  6
CONTINUOUS
 10
10.574530315
 20
10.0472237828
 11
10.591616572
 21
10.060395279
  0
LINE
  5
22B
100
AcDbEntity
  8
0
100
AcDbLine
 62
7
  6
CONTINUOUS
 10
11.1411429639
 20
10.4512554564
 11
11.1591914309
 21
10.463074142
  0
LINE
  5
22C
100
AcDbEntity
  8
0
100
AcDbLine
 62
7
  6
CONTINUOUS
 10
10.7846535786
 20
10.3972042848
 11
10.8001897465
 21
10.4070870547
  0
LINE
  5
22D
100
AcDbEntity
  8
0
100
AcDbLine
 62
7
  6
CONTINUOUS
 10
10.5817446481
 20
10.0955965706
 11
10.6000947236
 21
10.1069413147
  0
LINE
  5
22E
100
AcDbEntity
  8
0
100
AcDbLine
 62
7
  6
CONTINUOUS
 10
10.9445627579
 20
10.4651897751
 11
10.9378724351
 21
10.4613271155
  0
LINE
  5
22F
100
AcDbEntity
  8
0
100
AcDbLine
 62
7
  6
CONTINUOUS
 10
10.9109956206
 20
10.4458097794
 11
10.9033054771
 21
10.4413698729
  0
LINE
  5
230
100
AcDbEntity
  8
0
100
AcDbLine
 62
7
  6
CONTINUOUS
 10
10.744150944
 20
10.3494819604
 11
10.7395918421
 21
10.3468497617
  0
LINE
  5
231
100
AcDbEntity
  8
0
100
AcDbLine
 62
7
  6
CONTINUOUS
 10
10.7094665897
 20
10.3294569392
 11
10.6970766719
 21
10.3223036167
  0
LINE
  5
232
100
AcDbEntity
  8
0
100
AcDbLine
 62
7
  6
CONTINUOUS
 10
11.186899282
 20
10.4392233393
 11
11.2060673612
 21
10.4491235024
  0
LINE
  5
233
100
AcDbEntity
  8
0
100
AcDbLine
 62
7
  6
CONTINUOUS
 10
10.8267416318
 20
10.4221155067
 11
10.8432116642
 21
10.4303483487
  0
LINE
  5
234
100
AcDbEntity
  8
0
100
AcDbLine
 62
7
  6
CONTINUOUS
 10
10.5938947808
 20
10.1429711151
 11
10.6133141357
 21
10.1523688354
  0
LINE
  5
235
100
AcDbEntity
  8
0
100
AcDbLine
 62
7
  6
CONTINUOUS
 10
11.2311758268
 20
10.4225500049
 11
11.251260307
 21
10.4304266884
  0
LINE
  5
236
100
AcDbEntity
  8
0
100
AcDbLine
 62
7
  6
CONTINUOUS
 10
10.610851903
 20
10.1888451732
 11
10.631134662
 21
10.1961962393
  0
LINE
  5
237
100
AcDbEntity
  8
0
100
AcDbLine
 62
7
  6
CONTINUOUS
 10
11.0305616609
 20
3.5935377938
 11
11.0308534104
 21
3.5932286028
  0
LINE
  5
238
100
AcDbEntity
  8
0
100
AcDbLine
 62
7
  6
CONTINUOUS
 10
10.98138715
 20
3.5973460526
 11
10.9817000802
 21
3.5970093278
  0
LINE
  5
239
100
AcDbEntity
  8
0
100
AcDbLine
 62
7
  6
CONTINUOUS
 10
11.0798791275
 20
3.5942656654
 11
11.080141968
 21
3.593982001
  0
LINE
  5
23A
100
AcDbEntity
  8
0
100
AcDbLine
 62
7
  6
CONTINUOUS
 10
10.9327751158
 20
3.6056579523
 11
10.9331002539
 21
3.6052935256
  0
LINE
  5
23B
100
AcDbEntity
  8
0
100
AcDbLine
 62
7
  6
CONTINUOUS
 10
11.1289188092
 20
3.5995234576
 11
11.1291467391
 21
3.599261845
  0
LINE
  5
23C
100
AcDbEntity
  8
0
100
AcDbLine
 62
7
  6
CONTINUOUS
 10
10.8851402806
 20
3.6184025821
 11
10.8854679716
 21
3.6180123522
  0
LINE
  5
23D
100
AcDbEntity
  8
0
100
AcDbLine
 62
7
  6
CONTINUOUS
 10
10.6417745582
 20
3.7789654351
 11
10.6314908731
 21
3.7913026734
  0
LINE
  5
23E
100
AcDbEntity
  8
0
100
AcDbLine
 62
7
  6
CONTINUOUS
 10
10.8388890299
 20
3.635471214
 11
10.8392094763
 21
3.635059246
  0
LINE
  5
23F
100
AcDbEntity
  8
0
100
AcDbLine
 62
7
  6
CONTINUOUS
 10
11.1772623354
 20
3.6092663148
 11
11.1774513798
 21
3.6090222835
  0
LINE
  5
240
100
AcDbEntity
  8
0
100
AcDbLine
 62
7
  6
CONTINUOUS
 10
10.7944159457
 20
3.656718231
 11
10.7947199425
 21
3.6562906272
  0
LINE
  5
241
100
AcDbEntity
  8
0
100
AcDbLine
 62
7
  6
CONTINUOUS
 10
10.6114321338
 20
3.8177653548
 11
10.6023620077
 21
3.8309558937
  0
LINE
  5
242
100
AcDbEntity
  8
0
100
AcDbLine
 62
7
  6
CONTINUOUS
 10
10.7521004396
 20
3.6819623689
 11
10.7523798444
 21
3.6815270586
  0
LINE
  5
243
100
AcDbEntity
  8
0
100
AcDbLine
 62
7
  6
CONTINUOUS
 10
10.623783596
 20
10.2164789984
 11
10.6324362429
 21
10.232732409
  0
LINE
  5
244
100
AcDbEntity
  8
0
100
AcDbLine
 62
7
  6
CONTINUOUS
 10
10.9533210015
 20
10.4512193972
 11
10.9651327561
 21
10.4692724009
  0
LINE
  5
245
100
AcDbEntity
  8
0
100
AcDbLine
 62
7
  6
CONTINUOUS
 10
10.6481408984
 20
10.2588900231
 11
10.6584189733
 21
10.2741675501
  0
LINE
  5
246
100
AcDbEntity
  8
0
100
AcDbLine
 62
7
  6
CONTINUOUS
 10
10.583001007
 20
9.901264462
 11
10.5952719974
 21
9.9190085112
  0
LINE
  5
247
100
AcDbEntity
  8
0
100
AcDbLine
 62
7
  6
CONTINUOUS
 10
11.000069213
 20
10.4585006887
 11
11.0136746971
 21
10.4752434271
  0
LINE
  5
248
100
AcDbEntity
  8
0
100
AcDbLine
 62
7
  6
CONTINUOUS
 10
10.6767300978
 20
10.2985716419
 11
10.6885246371
 21
10.31271132
  0
LINE
  5
249
100
AcDbEntity
  8
0
100
AcDbLine
 62
7
  6
CONTINUOUS
 10
10.575161842
 20
9.9495399288
 11
10.5891923587
 21
9.9659281285
  0
LINE
  5
24A
100
AcDbEntity
  8
0
100
AcDbLine
 62
9
  6
CONTINUOUS
 10
11.7278462802
 20
10.6894069315
 11
11.7234377388
 21
10.6849501761
  0
LINE
  5
24B
100
AcDbEntity
  8
0
100
AcDbLine
 62
9
  6
CONTINUOUS
 10
10.3667903964
 20
9.313465855
 11
10.3711989378
 21
9.3179226104
  0
LINE
  5
24C
100
AcDbEntity
  8
0
100
AcDbLine
 62
7
  6
CONTINUOUS
 10
11.0473183383
 20
10.4609363932
 11
11.0625733127
 21
10.4761913676
  0
LINE
  5
24D
100
AcDbEntity
  8
0
100
AcDbLine
 62
7
  6
CONTINUOUS
 10
10.5723282646
 20
9.9983655781
 11
10.5879695624
 21
10.0132241881
  0
LINE
  5
24E
100
AcDbEntity
  8
0
100
AcDbLine
 62
7
  6
CONTINUOUS
 10
10.9766884994
 20
9.5473971043
 11
10.9592699703
 21
9.5346682657
  0
LINE
  5
24F
100
AcDbEntity
  8
0
100
AcDbLine
 62
7
  6
CONTINUOUS
 10
11.517135632
 20
9.9314598934
 11
11.4993962958
 21
9.9191820906
  0
LINE
  5
250
100
AcDbEntity
  8
0
100
AcDbLine
 62
7
  6
CONTINUOUS
 10
10.9303752767
 20
9.5570665356
 11
10.9117402077
 21
9.5461962692
  0
LINE
  5
251
100
AcDbEntity
  8
0
100
AcDbLine
 62
7
  6
CONTINUOUS
 10
11.1546480782
 20
9.5403239036
 11
11.1740331228
 21
9.5515158643
  0
LINE
  5
252
100
AcDbEntity
  8
0
100
AcDbLine
 62
7
  6
CONTINUOUS
 10
11.3679893488
 20
9.6634965436
 11
11.3831525073
 21
9.6722509972
  0
LINE
  5
253
100
AcDbEntity
  8
0
100
AcDbLine
 62
7
  6
CONTINUOUS
 10
11.2893383762
 20
9.592717295
 11
11.2733157682
 21
9.5836443856
  0
LINE
  5
254
100
AcDbEntity
  8
0
100
AcDbLine
 62
7
  6
CONTINUOUS
 10
11.5074497462
 20
9.8835207986
 11
11.4885419494
 21
9.8731321649
  0
LINE
  5
255
100
AcDbEntity
  8
0
100
AcDbLine
 62
7
  6
CONTINUOUS
 10
10.885301831
 20
9.5714469732
 11
10.8656477826
 21
9.5625505206
  0
LINE
  5
256
100
AcDbEntity
  8
0
100
AcDbLine
 62
7
  6
CONTINUOUS
 10
11.4928857573
 20
9.8368317911
 11
11.4730099517
 21
9.828442462
  0
LINE
  5
257
100
AcDbEntity
  8
0
100
AcDbLine
 62
7
  6
CONTINUOUS
 10
10.8419460103
 20
9.5903859621
 11
10.8214813457
 21
9.5835576396
  0
LINE
  5
258
100
AcDbEntity
  8
0
100
AcDbLine
 62
7
  6
CONTINUOUS
 10
11.2006110324
 20
9.5518517517
 11
11.1830712585
 21
9.546248361
  0
LINE
  5
259
100
AcDbEntity
  8
0
100
AcDbLine
 62
7
  6
CONTINUOUS
 10
11.4735980662
 20
9.7918878463
 11
11.4529649661
 21
9.7855867618
  0
LINE
  5
25A
100
AcDbEntity
  8
0
100
AcDbLine
 62
7
  6
CONTINUOUS
 10
11.2244972745
 20
3.6234111182
 11
11.2246457233
 21
3.6231797573
  0
LINE
  5
25B
100
AcDbEntity
  8
0
100
AcDbLine
 62
7
  6
CONTINUOUS
 10
10.7123035167
 20
3.7109882634
 11
10.7125517338
 21
3.7105546365
  0
LINE
  5
25C
100
AcDbEntity
  8
0
100
AcDbLine
 62
7
  6
CONTINUOUS
 10
10.6753646952
 20
3.7435482868
 11
10.6755772051
 21
3.7431265701
  0
LINE
  5
25D
100
AcDbEntity
  8
0
100
AcDbLine
 62
7
  6
CONTINUOUS
 10
10.6415991101
 20
3.7793646606
 11
10.64177351
 21
3.7789654762
  0
LINE
  5
25E
100
AcDbEntity
  8
0
100
AcDbLine
 62
7
  6
CONTINUOUS
 10
10.6112947518
 20
3.818131836
 11
10.6114309629
 21
3.8177655104
  0
LINE
  5
25F
100
AcDbEntity
  8
0
100
AcDbLine
 62
7
  6
CONTINUOUS
 10
10.5887499794
 20
10.1252913902
 11
10.5938947808
 21
10.1429711151
  0
LINE
  5
260
100
AcDbEntity
  8
0
100
AcDbLine
 62
7
  6
CONTINUOUS
 10
10.8632991673
 20
10.4224793776
 11
10.8711681384
 21
10.4425668808
  0
LINE
  5
261
100
AcDbEntity
  8
0
100
AcDbLine
 62
7
  6
CONTINUOUS
 10
10.6039164154
 20
10.1717881903
 11
10.6108519029
 21
10.1888451732
  0
LINE
  5
262
100
AcDbEntity
  8
0
100
AcDbLine
 62
7
  6
CONTINUOUS
 10
10.6133114845
 20
9.8083999956
 11
10.6216931811
 21
9.828279021
  0
LINE
  5
263
100
AcDbEntity
  8
0
100
AcDbLine
 62
7
  6
CONTINUOUS
 10
10.9075693067
 20
10.4391697118
 11
10.917462109
 21
10.4583415909
  0
LINE
  5
264
100
AcDbEntity
  8
0
100
AcDbLine
 62
7
  6
CONTINUOUS
 10
10.5957626521
 20
9.8540509723
 11
10.606144025
 21
9.8729627567
  0
LINE
  5
265
100
AcDbEntity
  8
0
100
AcDbLine
 62
7
  6
CONTINUOUS
 10
11.1181225105
 20
9.5474242577
 11
11.1054003611
 21
9.5300008424
  0
LINE
  5
266
100
AcDbEntity
  8
0
100
AcDbLine
 62
7
  6
CONTINUOUS
 10
11.5161623669
 20
10.0776615648
 11
11.5029974324
 21
10.0605702516
  0
LINE
  5
267
100
AcDbEntity
  8
0
100
AcDbLine
 62
7
  6
CONTINUOUS
 10
11.0710623706
 20
9.5425502734
 11
11.0566160563
 21
9.5265273994
  0
LINE
  5
268
100
AcDbEntity
  8
0
100
AcDbLine
 62
7
  6
CONTINUOUS
 10
11.5215151572
 20
10.0290475665
 11
11.5066625541
 21
10.0134005645
  0
LINE
  5
269
100
AcDbEntity
  8
0
100
AcDbLine
 62
7
  6
CONTINUOUS
 10
11.0237505073
 20
9.5425411902
 11
11.0077331814
 21
9.5280887247
  0
LINE
  5
26A
100
AcDbEntity
  8
0
100
AcDbLine
 62
7
  6
CONTINUOUS
 10
11.3678297778
 20
9.6508691141
 11
11.3540019922
 21
9.6387104135
  0
LINE
  5
26B
100
AcDbEntity
  8
0
100
AcDbLine
 62
7
  6
CONTINUOUS
 10
11.5218407294
 20
9.9801408471
 11
11.5054579182
 21
9.9661040388
  0
LINE
  5
26C
100
AcDbEntity
  8
0
100
AcDbLine
 62
7
  6
CONTINUOUS
 10
11.3300829476
 20
9.6197700786
 11
11.3150782142
 21
9.6090977017
  0
LINE
  5
26D
100
AcDbEntity
  8
0
100
AcDbLine
 62
7
  6
CONTINUOUS
 10
11.636508443
 20
9.2677339581
 11
11.8535005796
 21
9.3930144266
  0
LINE
  5
26E
100
AcDbEntity
  8
0
100
AcDbLine
 62
7
  6
CONTINUOUS
 10
11.4528863855
 20
4.4714947735
 11
11.4631691824
 21
4.4591568481
  0
LINE
  5
26F
100
AcDbEntity
  8
0
100
AcDbLine
 62
7
  6
CONTINUOUS
 10
11.4832260924
 20
4.4326927386
 11
11.4922952742
 21
4.4195015979
  0
LINE
  5
270
100
AcDbEntity
  8
0
100
AcDbLine
 62
7
  6
CONTINUOUS
 10
11.5098437061
 20
4.39126161
 11
11.517630806
 21
4.3773318485
  0
LINE
  5
271
100
AcDbEntity
  8
0
100
AcDbLine
 62
7
  6
CONTINUOUS
 10
11.2702206525
 20
3.6418371944
 11
11.2703290353
 21
3.6416137142
  0
LINE
  5
272
100
AcDbEntity
  8
0
100
AcDbLine
 62
7
  6
CONTINUOUS
 10
10.584710373
 20
3.8595190495
 11
10.5848104161
 21
3.859194903
  0
LINE
  5
273
100
AcDbEntity
  8
0
100
AcDbLine
 62
7
  6
CONTINUOUS
 10
10.562072554
 20
3.9031732459
 11
10.5621404144
 21
3.9028992359
  0
LINE
  5
274
100
AcDbEntity
  8
0
100
AcDbLine
 62
7
  6
CONTINUOUS
 10
10.529396004
 20
3.995617874
 11
10.5257544479
 21
4.0110420174
  0
LINE
  5
275
100
AcDbEntity
  8
0
100
AcDbLine
 62
7
  6
CONTINUOUS
 10
10.543574497
 20
3.9487219894
 11
10.5436156676
 21
3.9485040556
  0
LINE
  5
276
100
AcDbEntity
  8
0
100
AcDbLine
 62
7
  6
CONTINUOUS
 10
10.6314907223
 20
3.7913015891
 11
10.6314682934
 21
3.7915186925
  0
LINE
  5
277
100
AcDbEntity
  8
0
100
AcDbLine
 62
7
  6
CONTINUOUS
 10
10.5257538155
 20
4.0110410952
 11
10.5257433326
 21
4.0111550075
  0
LINE
  5
278
100
AcDbEntity
  8
0
100
AcDbLine
 62
7
  6
CONTINUOUS
 10
10.5195922532
 20
4.0439359159
 11
10.5195999096
 21
4.0438386361
  0
LINE
  5
279
100
AcDbEntity
  8
0
100
AcDbLine
 62
7
  6
CONTINUOUS
 10
10.5174052001
 20
4.0595125487
 11
10.5174013794
 21
4.0595823485
  0
LINE
  5
27A
100
AcDbEntity
  8
0
100
AcDbLine
 62
7
  6
CONTINUOUS
 10
10.5143143194
 20
4.0927505694
 11
10.5135810045
 21
4.1085516101
  0
LINE
  5
27B
100
AcDbEntity
  8
0
100
AcDbLine
 62
7
  6
CONTINUOUS
 10
10.6641606509
 20
3.7544998488
 11
10.6641514016
 21
3.7547192978
  0
LINE
  5
27C
100
AcDbEntity
  8
0
100
AcDbLine
 62
7
  6
CONTINUOUS
 10
10.5143126653
 20
4.0927888033
 11
10.5143137187
 21
4.0927510658
  0
LINE
  5
27D
100
AcDbEntity
  8
0
100
AcDbLine
 62
7
  6
CONTINUOUS
 10
10.5135805116
 20
4.1085511188
 11
10.5135802906
 21
4.1085698692
  0
LINE
  5
27E
100
AcDbEntity
  8
0
100
AcDbLine
 62
7
  6
CONTINUOUS
 10
10.1173183383
 20
10.395398685
 11
10.1173183383
 21
9.6074730246
  0
LINE
  5
27F
100
AcDbEntity
  8
0
100
AcDbLine
 62
7
  6
CONTINUOUS
 10
10.5731109524
 20
10.028865486
 11
10.574530315
 21
10.0472237828
  0
LINE
  5
280
100
AcDbEntity
  8
0
100
AcDbLine
 62
7
  6
CONTINUOUS
 10
10.6925792507
 20
9.6855484706
 11
10.6945180392
 21
9.7070349684
  0
LINE
  5
281
100
AcDbEntity
  8
0
100
AcDbLine
 62
7
  6
CONTINUOUS
 10
10.7810601996
 20
10.3759318586
 11
10.7846535786
 21
10.3972042848
  0
LINE
  5
282
100
AcDbEntity
  8
0
100
AcDbLine
 62
7
  6
CONTINUOUS
 10
10.5784450758
 20
10.077481536
 11
10.5817446481
 21
10.0955965706
  0
LINE
  5
283
100
AcDbEntity
  8
0
100
AcDbLine
 62
7
  6
CONTINUOUS
 10
10.6619777525
 20
9.7236997681
 11
10.6661156616
 21
9.7448730106
  0
LINE
  5
284
100
AcDbEntity
  8
0
100
AcDbLine
 62
9
  6
CONTINUOUS
 10
11.3028543305
 20
10.934776148
 11
11.3011989378
 21
10.9287298614
  0
LINE
  5
285
100
AcDbEntity
  8
0
100
AcDbLine
 62
7
  6
CONTINUOUS
 10
10.8209799152
 20
10.4013253381
 11
10.8267416318
 21
10.4221155067
  0
LINE
  5
286
100
AcDbEntity
  8
0
100
AcDbLine
 62
7
  6
CONTINUOUS
 10
10.6354614592
 20
9.7647955025
 11
10.6417546207
 21
9.7854310206
  0
LINE
  5
287
100
AcDbEntity
  8
0
100
AcDbLine
 62
7
  6
CONTINUOUS
 10
11.4707704789
 20
10.2166416082
 11
11.4634272014
 21
10.196356028
  0
LINE
  5
288
100
AcDbEntity
  8
0
100
AcDbLine
 62
7
  6
CONTINUOUS
 10
11.2094999377
 20
9.5715092147
 11
11.2006110324
 21
9.5518517517
  0
LINE
  5
289
100
AcDbEntity
  8
0
100
AcDbLine
 62
7
  6
CONTINUOUS
 10
11.4813992808
 20
9.8085666564
 11
11.4735980663
 21
9.7918878463
  0
LINE
  5
28A
100
AcDbEntity
  8
0
100
AcDbLine
 62
7
  6
CONTINUOUS
 10
11.4906548181
 20
10.1719584318
 11
11.481264555
 21
10.1525354699
  0
LINE
  5
28B
100
AcDbEntity
  8
0
100
AcDbLine
 62
7
  6
CONTINUOUS
 10
11.164432017
 20
9.5571114713
 11
11.1535689068
 21
9.5384722297
  0
LINE
  5
28C
100
AcDbEntity
  8
0
100
AcDbLine
 62
7
  6
CONTINUOUS
 10
11.4592660506
 20
9.7649536616
 11
11.4497911522
 21
9.7491654396
  0
LINE
  5
28D
100
AcDbEntity
  8
0
100
AcDbLine
 62
7
  6
CONTINUOUS
 10
11.5058391064
 20
10.1254674586
 11
11.494501409
 21
10.1071130285
  0
LINE
  5
28E
100
AcDbEntity
  8
0
100
AcDbLine
 62
7
  6
CONTINUOUS
 10
11.4327655389
 20
9.7238477487
 11
11.4217174052
 21
9.7091174943
  0
LINE
  5
28F
100
AcDbEntity
  8
0
100
AcDbLine
 62
7
  6
CONTINUOUS
 10
14.4550185183
 20
10.4533285529
 11
14.9521221624
 21
10.7403314756
  0
LINE
  5
290
100
AcDbEntity
  8
0
100
AcDbLine
 62
7
  6
CONTINUOUS
 10
6.9521177249
 20
9.2625438728
 11
6.4550146854
 21
9.5495464465
  0
LINE
  5
291
100
AcDbEntity
  8
0
100
AcDbLine
 62
7
  6
CONTINUOUS
 10
11.5325106463
 20
4.3475558178
 11
11.5389582938
 21
4.3330059697
  0
LINE
  5
292
100
AcDbEntity
  8
0
100
AcDbLine
 62
7
  6
CONTINUOUS
 10
11.5510322601
 20
4.3019498082
 11
11.5560941364
 21
4.2869010803
  0
LINE
  5
293
100
AcDbEntity
  8
0
100
AcDbLine
 62
7
  6
CONTINUOUS
 10
11.3140423911
 20
3.6643873459
 11
11.3141133603
 21
3.6641676359
  0
LINE
  5
294
100
AcDbEntity
  8
0
100
AcDbLine
 62
7
  6
CONTINUOUS
 10
10.577023127
 20
3.8731226847
 11
10.5769938241
 21
3.8733205533
  0
LINE
  5
295
100
AcDbEntity
  8
0
100
AcDbLine
 62
7
  6
CONTINUOUS
 10
10.5556924231
 20
3.9174471038
 11
10.5556671992
 21
3.9176251457
  0
LINE
  5
296
100
AcDbEntity
  8
0
100
AcDbLine
 62
7
  6
CONTINUOUS
 10
10.5196007368
 20
4.0438380732
 11
10.5174058025
 21
4.0595132726
  0
LINE
  5
297
100
AcDbEntity
  8
0
100
AcDbLine
 62
7
  6
CONTINUOUS
 10
10.6023617349
 20
3.8309547313
 11
10.6023329137
 21
3.8311651893
  0
LINE
  5
298
100
AcDbEntity
  8
0
100
AcDbLine
 62
7
  6
CONTINUOUS
 10
10.5293740141
 20
3.9957766915
 11
10.5293949939
 21
3.9956184316
  0
LINE
  5
299
100
AcDbEntity
  8
0
100
AcDbLine
 62
7
  6
CONTINUOUS
 10
10.5385532688
 20
3.9635508862
 11
10.5385349822
 21
3.9637009923
  0
LINE
  5
29A
100
AcDbEntity
  8
0
100
AcDbLine
 62
7
  6
CONTINUOUS
 10
10.7100822951
 20
10.3135455106
 11
10.7092481044
 21
10.3351031685
  0
LINE
  5
29B
100
AcDbEntity
  8
0
100
AcDbLine
 62
7
  6
CONTINUOUS
 10
10.572804159
 20
9.9799586452
 11
10.5723282646
 21
9.9983655781
  0
LINE
  5
29C
100
AcDbEntity
  8
0
100
AcDbLine
 62
7
  6
CONTINUOUS
 10
10.7269415306
 20
9.6507460725
 11
10.7266606444
 21
9.6723180356
  0
LINE
  5
29D
100
AcDbEntity
  8
0
100
AcDbLine
 62
7
  6
CONTINUOUS
 10
10.5943183383
 20
9.8585518244
 11
10.5943183383
 21
9.8794543103
  0
LINE
  5
29E
100
AcDbEntity
  8
0
100
AcDbLine
 62
7
  6
CONTINUOUS
 10
10.5943183383
 20
9.9176295047
 11
10.5943183383
 21
9.9196680192
  0
LINE
  5
29F
100
AcDbEntity
  8
0
100
AcDbLine
 62
7
  6
CONTINUOUS
 10
10.5943183383
 20
10.1033701243
 11
10.5943183383
 21
10.1162845934
  0
LINE
  5
2A0
100
AcDbEntity
  8
0
100
AcDbLine
 62
7
  6
CONTINUOUS
 10
10.5943183383
 20
10.1431760897
 11
10.5943183383
 21
10.1443241424
  0
LINE
  5
2A1
100
AcDbEntity
  8
0
100
AcDbLine
 62
7
  6
CONTINUOUS
 10
10.6723183383
 20
8.9614363932
 11
10.6723183383
 21
4.1489505855
  0
LINE
  5
2A2
100
AcDbEntity
  8
0
100
AcDbLine
 62
7
  6
CONTINUOUS
 10
10.69901063
 20
3.7403698355
 11
10.69901063
 21
3.7489039806
  0
LINE
  5
2A3
100
AcDbEntity
  8
0
100
AcDbLine
 62
7
  6
CONTINUOUS
 10
10.7357477598
 20
3.7099785897
 11
10.7357477598
 21
3.7185127347
  0
LINE
  5
2A4
100
AcDbEntity
  8
0
100
AcDbLine
 62
7
  6
CONTINUOUS
 10
10.7751429819
 20
3.6830936829
 11
10.7751429819
 21
3.691627828
  0
LINE
  5
2A5
100
AcDbEntity
  8
0
100
AcDbLine
 62
7
  6
CONTINUOUS
 10
10.8168602051
 20
3.6599444776
 11
10.8168602051
 21
3.6684786226
  0
LINE
  5
2A6
100
AcDbEntity
  8
0
100
AcDbLine
 62
7
  6
CONTINUOUS
 10
10.8605435284
 20
3.6407284658
 11
10.8605435284
 21
3.6492626108
  0
LINE
  5
2A7
100
AcDbEntity
  8
0
100
AcDbLine
 62
7
  6
CONTINUOUS
 10
10.9058202778
 20
3.6256095844
 11
10.9058202778
 21
3.6341437295
  0
LINE
  5
2A8
100
AcDbEntity
  8
0
100
AcDbLine
 62
7
  6
CONTINUOUS
 10
10.9523041852
 20
3.6147168168
 11
10.9523041852
 21
3.6232509619
  0
LINE
  5
2A9
100
AcDbEntity
  8
0
100
AcDbLine
 62
7
  6
CONTINUOUS
 10
10.9995986838
 20
3.6081430921
 11
10.9995986838
 21
3.6166772371
  0
LINE
  5
2AA
100
AcDbEntity
  8
0
100
AcDbLine
 62
7
  6
CONTINUOUS
 10
11.0473002916
 20
3.6059444924
 11
11.0473002916
 21
3.6144786374
  0
LINE
  5
2AB
100
AcDbEntity
  8
0
100
AcDbLine
 62
7
  6
CONTINUOUS
 10
11.0950020533
 20
3.6081397745
 11
11.0950020533
 21
3.6166739196
  0
LINE
  5
2AC
100
AcDbEntity
  8
0
100
AcDbLine
 62
7
  6
CONTINUOUS
 10
10.5135805128
 20
4.141937327
 11
10.5135802918
 21
4.1419185766
  0
LINE
  5
2AD
100
AcDbEntity
  8
0
100
AcDbLine
 62
7
  6
CONTINUOUS
 10
10.6642125621
 20
4.4960418918
 11
10.6642033381
 21
4.4958224397
  0
LINE
  5
2AE
100
AcDbEntity
  8
0
100
AcDbLine
 62
7
  6
CONTINUOUS
 10
10.5135810045
 20
4.1419368369
 11
10.5143188792
 21
4.157812104
  0
LINE
  5
2AF
100
AcDbEntity
  8
0
100
AcDbLine
 62
7
  6
CONTINUOUS
 10
10.7000924085
 20
3.7208615582
 11
10.7001034097
 21
3.7210809507
  0
LINE
  5
2B0
100
AcDbEntity
  8
0
100
AcDbLine
 62
7
  6
CONTINUOUS
 10
10.5174105893
 20
4.1909798047
 11
10.5174144156
 21
4.1910496797
  0
LINE
  5
2B1
100
AcDbEntity
  8
0
100
AcDbLine
 62
7
  6
CONTINUOUS
 10
10.7439632312
 20
10.3465681492
 11
10.7453501773
 21
10.3680973125
  0
LINE
  5
2B2
100
AcDbEntity
  8
0
100
AcDbLine
 62
7
  6
CONTINUOUS
 10
10.5257593298
 20
4.2394059847
 11
10.5257698206
 21
4.2395199631
  0
LINE
  5
2B3
100
AcDbEntity
  8
0
100
AcDbLine
 62
7
  6
CONTINUOUS
 10
10.6315374867
 20
4.4592447029
 11
10.6315150727
 21
4.4590275914
  0
LINE
  5
2B4
100
AcDbEntity
  8
0
100
AcDbLine
 62
7
  6
CONTINUOUS
 10
11.3325723025
 20
9.6411997684
 11
11.3300829476
 21
9.6197700787
  0
LINE
  5
2B5
100
AcDbEntity
  8
0
100
AcDbLine
 62
7
  6
CONTINUOUS
 10
10.5385576302
 20
4.2868582201
 11
10.5385759248
 21
4.2870083812
  0
LINE
  5
2B6
100
AcDbEntity
  8
0
100
AcDbLine
 62
7
  6
CONTINUOUS
 10
10.6024029525
 20
4.4195956214
 11
10.6023741366
 21
4.4193851477
  0
LINE
  5
2B7
100
AcDbEntity
  8
0
100
AcDbLine
 62
7
  6
CONTINUOUS
 10
10.5174150191
 20
4.1910489543
 11
10.5196121533
 21
4.2067238687
  0
LINE
  5
2B8
100
AcDbEntity
  8
0
100
AcDbLine
 62
7
  6
CONTINUOUS
 10
10.5556963048
 20
4.3329316832
 11
10.5557215342
 21
4.3331097685
  0
LINE
  5
2B9
100
AcDbEntity
  8
0
100
AcDbLine
 62
7
  6
CONTINUOUS
 10
11.4177924597
 20
10.2987139156
 11
11.414754177
 21
10.2773551393
  0
LINE
  5
2BA
100
AcDbEntity
  8
0
100
AcDbLine
 62
7
  6
CONTINUOUS
 10
10.5770584446
 20
4.3774312028
 11
10.577029139
 21
4.3772333087
  0
LINE
  5
2BB
100
AcDbEntity
  8
0
100
AcDbLine
 62
7
  6
CONTINUOUS
 10
11.2940180919
 20
9.6137774173
 11
11.2893383762
 21
9.5927172951
  0
LINE
  5
2BC
100
AcDbEntity
  8
0
100
AcDbLine
 62
7
  6
CONTINUOUS
 10
11.5116740987
 20
9.9014427544
 11
11.5074497462
 21
9.8835207986
  0
LINE
  5
2BD
100
AcDbEntity
  8
0
100
AcDbLine
 62
7
  6
CONTINUOUS
 10
11.4463968936
 20
10.2590432772
 11
11.4411784517
 21
10.2381101371
  0
LINE
  5
2BE
100
AcDbEntity
  8
0
100
AcDbLine
 62
7
  6
CONTINUOUS
 10
11.2528484831
 20
9.5904648497
 11
11.246028019
 21
9.5699975647
  0
LINE
  5
2BF
100
AcDbEntity
  8
0
100
AcDbLine
 62
7
  6
CONTINUOUS
 10
11.4989305831
 20
9.8542243681
 11
11.4928857574
 21
9.8368317911
  0
LINE
  5
2C0
100
AcDbEntity
  8
0
100
AcDbLine
 62
7
  6
CONTINUOUS
 10
11.5652497571
 20
4.254834505
 11
11.5688902285
 21
4.2394101246
  0
LINE
  5
2C1
100
AcDbEntity
  8
0
100
AcDbLine
 62
7
  6
CONTINUOUS
 10
11.3555886351
 20
3.690869191
 11
11.3556266872
 21
3.6906503248
  0
LINE
  5
2C2
100
AcDbEntity
  8
0
100
AcDbLine
 62
7
  6
CONTINUOUS
 10
11.5176605061
 20
4.3771351832
 11
11.5176312035
 21
4.377333036
  0
LINE
  5
2C3
100
AcDbEntity
  8
0
100
AcDbLine
 62
7
  6
CONTINUOUS
 10
10.6797765815
 20
10.2772140337
 11
10.6767300978
 21
10.2985716419
  0
LINE
  5
2C4
100
AcDbEntity
  8
0
100
AcDbLine
 62
7
  6
CONTINUOUS
 10
11.5389840261
 20
4.3328291076
 11
11.5389588051
 21
4.3330071281
  0
LINE
  5
2C5
100
AcDbEntity
  8
0
100
AcDbLine
 62
7
  6
CONTINUOUS
 10
11.5750416442
 20
4.2066136258
 11
11.5772354785
 21
4.190938284
  0
LINE
  5
2C6
100
AcDbEntity
  8
0
100
AcDbLine
 62
7
  6
CONTINUOUS
 10
11.4923243708
 20
4.4192923094
 11
11.4922955463
 21
4.4195027568
  0
LINE
  5
2C7
100
AcDbEntity
  8
0
100
AcDbLine
 62
7
  6
CONTINUOUS
 10
10.5775279482
 20
9.9312795017
 11
10.575161842
 21
9.9495399287
  0
LINE
  5
2C8
100
AcDbEntity
  8
0
100
AcDbLine
 62
7
  6
CONTINUOUS
 10
10.7647002991
 20
9.619661533
 11
10.762202716
 21
9.6410902653
  0
LINE
  5
2C9
100
AcDbEntity
  8
0
100
AcDbLine
 62
7
  6
CONTINUOUS
 10
11.4631917695
 20
4.4589408324
 11
11.4631693329
 21
4.4591579293
  0
LINE
  5
2CA
100
AcDbEntity
  8
0
100
AcDbLine
 62
7
  6
CONTINUOUS
 10
11.5689013381
 20
4.2392971649
 11
11.5688908592
 21
4.2394110443
  0
LINE
  5
2CB
100
AcDbEntity
  8
0
100
AcDbLine
 62
7
  6
CONTINUOUS
 10
11.4002316534
 20
9.7071704556
 11
11.402178692
 21
9.6856847039
  0
LINE
  5
2CC
100
AcDbEntity
  8
0
100
AcDbLine
 62
7
  6
CONTINUOUS
 10
11.3491456894
 20
10.3682132329
 11
11.3505409019
 21
10.3466846038
  0
LINE
  5
2CD
100
AcDbEntity
  8
0
100
AcDbLine
 62
7
  6
CONTINUOUS
 10
11.5772398975
 20
4.1908692439
 11
11.5772360796
 21
4.1909390061
  0
LINE
  5
2CE
100
AcDbEntity
  8
0
100
AcDbLine
 62
7
  6
CONTINUOUS
 10
11.3945049424
 20
3.7210568063
 11
11.3945159616
 21
3.7208374145
  0
LINE
  5
2CF
100
AcDbEntity
  8
0
100
AcDbLine
 62
7
  6
CONTINUOUS
 10
11.5803246332
 20
4.1577007642
 11
11.5810568405
 21
4.1418996759
  0
LINE
  5
2D0
100
AcDbEntity
  8
0
100
AcDbLine
 62
7
  6
CONTINUOUS
 10
11.4305112404
 20
4.4957425
 11
11.4305019783
 21
4.4959619455
  0
LINE
  5
2D1
100
AcDbEntity
  8
0
100
AcDbLine
 62
7
  6
CONTINUOUS
 10
11.1422970125
 20
3.6147102101
 11
11.1422970125
 21
3.6232443551
  0
LINE
  5
2D2
100
AcDbEntity
  8
0
100
AcDbLine
 62
7
  6
CONTINUOUS
 10
11.1887816831
 20
3.6255997448
 11
11.1887816831
 21
3.6341338899
  0
LINE
  5
2D3
100
AcDbEntity
  8
0
100
AcDbLine
 62
7
  6
CONTINUOUS
 10
11.2340594919
 20
3.6407154772
 11
11.2340594919
 21
3.6492496223
  0
LINE
  5
2D4
100
AcDbEntity
  8
0
100
AcDbLine
 62
7
  6
CONTINUOUS
 10
11.2777441618
 20
3.6599284509
 11
11.2777441618
 21
3.668462596
  0
LINE
  5
2D5
100
AcDbEntity
  8
0
100
AcDbLine
 62
7
  6
CONTINUOUS
 10
11.3194630072
 20
3.6830747548
 11
11.3194630072
 21
3.6916088999
  0
LINE
  5
2D6
100
AcDbEntity
  8
0
100
AcDbLine
 62
7
  6
CONTINUOUS
 10
11.3588601133
 20
3.7099569217
 11
11.3588601133
 21
3.7184910668
  0
LINE
  5
2D7
100
AcDbEntity
  8
0
100
AcDbLine
 62
7
  6
CONTINUOUS
 10
11.3955993728
 20
3.7403456125
 11
11.3955993728
 21
3.7488797576
  0
LINE
  5
2D8
100
AcDbEntity
  8
0
100
AcDbLine
 62
7
  6
CONTINUOUS
 10
11.4223183383
 20
8.9614363932
 11
11.4223183383
 21
4.1489505855
  0
LINE
  5
2D9
100
AcDbEntity
  8
0
100
AcDbLine
 62
7
  6
CONTINUOUS
 10
11.4223183383
 20
4.1454643558
 11
11.4223183383
 21
4.1453612749
  0
LINE
  5
2DA
100
AcDbEntity
  8
0
100
AcDbLine
 62
7
  6
CONTINUOUS
 10
11.5003183383
 20
10.144320962
 11
11.5003183383
 21
10.1433236907
  0
LINE
  5
2DB
100
AcDbEntity
  8
0
100
AcDbLine
 62
7
  6
CONTINUOUS
 10
11.5003183383
 20
10.116529969
 11
11.5003183383
 21
10.1035198587
  0
LINE
  5
2DC
100
AcDbEntity
  8
0
100
AcDbLine
 62
7
  6
CONTINUOUS
 10
11.5003183383
 20
9.9198202574
 11
11.5003183383
 21
9.9178498961
  0
LINE
  5
2DD
100
AcDbEntity
  8
0
100
AcDbLine
 62
7
  6
CONTINUOUS
 10
11.5003183383
 20
9.8796025428
 11
11.5003183383
 21
9.858548644
  0
LINE
  5
2DE
100
AcDbEntity
  8
0
100
AcDbLine
 62
7
  6
CONTINUOUS
 10
11.5810541181
 20
4.1085148307
 11
11.5810542981
 21
4.1085336636
  0
LINE
  5
2DF
100
AcDbEntity
  8
0
100
AcDbLine
 62
7
  6
CONTINUOUS
 10
11.3681023809
 20
9.6724411835
 11
11.3678297778
 21
9.6508691142
  0
LINE
  5
2E0
100
AcDbEntity
  8
0
100
AcDbLine
 62
7
  6
CONTINUOUS
 10
11.5810463999
 20
4.1418703518
 11
11.5810466567
 21
4.141889532
  0
LINE
  5
2E1
100
AcDbEntity
  8
0
100
AcDbLine
 62
7
  6
CONTINUOUS
 10
11.5223095561
 20
9.9985479614
 11
11.5218407294
 21
9.9801408471
  0
LINE
  5
2E2
100
AcDbEntity
  8
0
100
AcDbLine
 62
7
  6
CONTINUOUS
 10
11.5803217375
 20
4.0927517358
 11
11.5803206836
 21
4.0927139561
  0
LINE
  5
2E3
100
AcDbEntity
  8
0
100
AcDbLine
 62
7
  6
CONTINUOUS
 10
11.3852604284
 20
10.3352329536
 11
11.3844345153
 21
10.313674977
  0
LINE
  5
2E4
100
AcDbEntity
  8
0
100
AcDbLine
 62
7
  6
CONTINUOUS
 10
11.4304593076
 20
3.7546926529
 11
11.4304500708
 21
3.7544732042
  0
LINE
  5
2E5
100
AcDbEntity
  8
0
100
AcDbLine
 62
7
  6
CONTINUOUS
 10
11.5194947266
 20
9.9497212276
 11
11.517135632
 21
9.9314598934
  0
LINE
  5
2E6
100
AcDbEntity
  8
0
100
AcDbLine
 62
7
  6
CONTINUOUS
 10
10.7389795723
 20
3.690671763
 11
10.7390176017
 21
3.6908906291
  0
LINE
  5
2E7
100
AcDbEntity
  8
0
100
AcDbLine
 62
7
  6
CONTINUOUS
 10
10.5257704551
 20
4.2395190376
 11
10.5294141808
 21
4.254942707
  0
LINE
  5
2E8
100
AcDbEntity
  8
0
100
AcDbLine
 62
7
  6
CONTINUOUS
 10
10.538576524
 20
4.2870073053
 11
10.5436415858
 21
4.3020550414
  0
LINE
  5
2E9
100
AcDbEntity
  8
0
100
AcDbLine
 62
7
  6
CONTINUOUS
 10
15.6396181582
 20
9.5495442336
 11
15.1425145142
 21
9.2625413109
  0
LINE
  5
2EA
100
AcDbEntity
  8
0
100
AcDbLine
 62
7
  6
CONTINUOUS
 10
10.6211191026
 20
9.7917241821
 11
10.6133114845
 21
9.8083999955
  0
LINE
  5
2EB
100
AcDbEntity
  8
0
100
AcDbLine
 62
7
  6
CONTINUOUS
 10
10.631134662
 20
10.1961962393
 11
10.623783596
 21
10.2164789984
  0
LINE
  5
2EC
100
AcDbEntity
  8
0
100
AcDbLine
 62
7
  6
CONTINUOUS
 10
10.6018141557
 20
9.8366607176
 11
10.5957626521
 21
9.8540509723
  0
LINE
  5
2ED
100
AcDbEntity
  8
0
100
AcDbLine
 62
7
  6
CONTINUOUS
 10
10.8487743329
 20
9.5699212975
 11
10.8419460103
 21
9.5903859621
  0
LINE
  5
2EE
100
AcDbEntity
  8
0
100
AcDbLine
 62
7
  6
CONTINUOUS
 10
10.6533673777
 20
10.2379588882
 11
10.6481408984
 21
10.258890023
  0
LINE
  5
2EF
100
AcDbEntity
  8
0
100
AcDbLine
 62
7
  6
CONTINUOUS
 10
10.5872322406
 20
9.8833441295
 11
10.5830010069
 21
9.901264462
  0
LINE
  5
2F0
100
AcDbEntity
  8
0
100
AcDbLine
 62
7
  6
CONTINUOUS
 10
10.805455255
 20
9.5926243962
 11
10.8007674532
 21
9.61368272
  0
LINE
  5
2F1
100
AcDbEntity
  8
0
100
AcDbLine
 62
7
  6
CONTINUOUS
 10
11.5561130141
 20
4.2867520697
 11
11.5560947315
 21
4.2869021485
  0
LINE
  5
2F2
100
AcDbEntity
  8
0
100
AcDbLine
 62
7
  6
CONTINUOUS
 10
11.5200887456
 20
10.047405317
 11
11.5215151572
 21
10.0290475665
  0
LINE
  5
2F3
100
AcDbEntity
  8
0
100
AcDbLine
 62
7
  6
CONTINUOUS
 10
11.9773183383
 20
9.6074741014
 11
11.9773183383
 21
10.3953997618
  0
LINE
  5
2F4
100
AcDbEntity
  8
0
100
AcDbLine
 62
7
  6
CONTINUOUS
 10
11.5810545009
 20
4.1085144491
 11
11.5803200786
 21
4.0927134561
  0
LINE
  5
2F5
100
AcDbEntity
  8
0
100
AcDbLine
 62
7
  6
CONTINUOUS
 10
11.5772268723
 20
4.0594756551
 11
11.5772306927
 21
4.0595454962
  0
LINE
  5
2F6
100
AcDbEntity
  8
0
100
AcDbLine
 62
7
  6
CONTINUOUS
 10
11.5750387261
 20
4.0438992155
 11
11.5750310674
 21
4.0438018933
  0
LINE
  5
2F7
100
AcDbEntity
  8
0
100
AcDbLine
 62
7
  6
CONTINUOUS
 10
11.5688853459
 20
4.0111187357
 11
11.5688748561
 21
4.0110047947
  0
LINE
  5
2F8
100
AcDbEntity
  8
0
100
AcDbLine
 62
7
  6
CONTINUOUS
 10
11.4631449943
 20
3.7914897744
 11
11.4631225726
 21
3.7912726694
  0
LINE
  5
2F9
100
AcDbEntity
  8
0
100
AcDbLine
 62
7
  6
CONTINUOUS
 10
11.556090371
 20
3.9636656103
 11
11.5560720773
 21
3.9635154822
  0
LINE
  5
2FA
100
AcDbEntity
  8
0
100
AcDbLine
 62
7
  6
CONTINUOUS
 10
11.5652325999
 20
3.9955823666
 11
11.5652535904
 21
3.9957406713
  0
LINE
  5
2FB
100
AcDbEntity
  8
0
100
AcDbLine
 62
7
  6
CONTINUOUS
 10
11.4922831522
 20
3.8311342448
 11
11.492254333
 21
3.8309237817
  0
LINE
  5
2FC
100
AcDbEntity
  8
0
100
AcDbLine
 62
7
  6
CONTINUOUS
 10
11.5772262671
 20
4.0594763825
 11
11.5750302328
 21
4.0438013255
  0
LINE
  5
2FD
100
AcDbEntity
  8
0
100
AcDbLine
 62
7
  6
CONTINUOUS
 10
11.5389549252
 20
3.9175909554
 11
11.5389296959
 21
3.9174128979
  0
LINE
  5
2FE
100
AcDbEntity
  8
0
100
AcDbLine
 62
7
  6
CONTINUOUS
 10
11.5176251958
 20
3.8732878464
 11
11.5175958905
 21
3.873089968
  0
LINE
  5
2FF
100
AcDbEntity
  8
0
100
AcDbLine
 62
7
  6
CONTINUOUS
 10
11.551008624
 20
3.9484689799
 11
11.55104981
 21
3.9486869567
  0
LINE
  5
300
100
AcDbEntity
  8
0
100
AcDbLine
 62
7
  6
CONTINUOUS
 10
10.7804910473
 20
3.6641861869
 11
10.78056199
 21
3.6644058945
  0
LINE
  5
301
100
AcDbEntity
  8
0
100
AcDbLine
 62
7
  6
CONTINUOUS
 10
10.555722049
 20
4.3331086013
 11
10.562172789
 21
4.3476571796
  0
LINE
  5
302
100
AcDbEntity
  8
0
100
AcDbLine
 62
7
  6
CONTINUOUS
 10
10.5770588428
 20
4.3774300128
 11
10.5848489179
 21
4.3913582329
  0
LINE
  5
303
100
AcDbEntity
  8
0
100
AcDbLine
 62
7
  6
CONTINUOUS
 10
7.1425189516
 20
10.7403289136
 11
7.6396219912
 21
10.4533263399
  0
LINE
  5
304
100
AcDbEntity
  8
0
100
AcDbLine
 62
7
  6
CONTINUOUS
 10
10.591616572
 20
10.060395279
 11
10.5784450758
 21
10.077481536
  0
LINE
  5
305
100
AcDbEntity
  8
0
100
AcDbLine
 62
7
  6
CONTINUOUS
 10
10.6730315414
 20
9.7089737569
 11
10.6619777525
 21
9.7236997681
  0
LINE
  5
306
100
AcDbEntity
  8
0
100
AcDbLine
 62
7
  6
CONTINUOUS
 10
10.989417338
 20
9.5299785752
 11
10.9766884994
 21
9.5473971043
  0
LINE
  5
307
100
AcDbEntity
  8
0
100
AcDbLine
 62
7
  6
CONTINUOUS
 10
10.6000947236
 20
10.1069413147
 11
10.5887499795
 21
10.1252913902
  0
LINE
  5
308
100
AcDbEntity
  8
0
100
AcDbLine
 62
7
  6
CONTINUOUS
 10
10.6449424191
 20
9.7490109197
 11
10.6354614592
 21
9.7647955025
  0
LINE
  5
309
100
AcDbEntity
  8
0
100
AcDbLine
 62
7
  6
CONTINUOUS
 10
10.9412455431
 20
9.5384314666
 11
10.9303752767
 21
9.5570665356
  0
LINE
  5
30A
100
AcDbEntity
  8
0
100
AcDbLine
 62
7
  6
CONTINUOUS
 10
10.6133141357
 20
10.1523688354
 11
10.6039164154
 21
10.1717881902
  0
LINE
  5
30B
100
AcDbEntity
  8
0
100
AcDbLine
 62
7
  6
CONTINUOUS
 10
10.8941982835
 20
9.5517929247
 11
10.885301831
 21
9.5714469732
  0
LINE
  5
30C
100
AcDbEntity
  8
0
100
AcDbLine
 62
7
  6
CONTINUOUS
 10
11.4529649661
 20
9.7855867618
 11
11.4592660505
 21
9.7649536617
  0
LINE
  5
30D
100
AcDbEntity
  8
0
100
AcDbLine
 62
7
  6
CONTINUOUS
 10
11.5006875169
 20
10.1431452068
 11
11.5058391064
 21
10.1254674587
  0
LINE
  5
30E
100
AcDbEntity
  8
0
100
AcDbLine
 62
7
  6
CONTINUOUS
 10
11.2677334994
 20
10.4222001711
 11
11.2735031984
 21
10.4014122163
  0
LINE
  5
30F
100
AcDbEntity
  8
0
100
AcDbLine
 62
9
  6
CONTINUOUS
 10
10.791782346
 20
10.934776148
 11
10.7934377388
 21
10.9287298614
  0
LINE
  5
310
100
AcDbEntity
  8
0
100
AcDbLine
 62
7
  6
CONTINUOUS
 10
11.4286195001
 20
9.7450194008
 11
11.4327655389
 21
9.7238477488
  0
LINE
  5
311
100
AcDbEntity
  8
0
100
AcDbLine
 62
7
  6
CONTINUOUS
 10
11.5128558392
 20
10.0957753311
 11
11.516162367
 21
10.0776615648
  0
LINE
  5
312
100
AcDbEntity
  8
0
100
AcDbLine
 62
7
  6
CONTINUOUS
 10
11.3098311146
 20
10.3973051116
 11
11.3134326614
 21
10.3760340668
  0
LINE
  5
313
100
AcDbEntity
  8
0
100
AcDbLine
 62
7
  6
CONTINUOUS
 10
11.5688742263
 20
4.0110057131
 11
11.5652315854
 21
3.9955818067
  0
LINE
  5
314
100
AcDbEntity
  8
0
100
AcDbLine
 62
7
  6
CONTINUOUS
 10
11.5324806807
 20
3.9028654501
 11
11.5325485611
 21
3.9031394996
  0
LINE
  5
315
100
AcDbEntity
  8
0
100
AcDbLine
 62
7
  6
CONTINUOUS
 10
11.5098076159
 20
3.8591626963
 11
11.509907683
 21
3.8594868775
  0
LINE
  5
316
100
AcDbEntity
  8
0
100
AcDbLine
 62
7
  6
CONTINUOUS
 10
11.483184162
 20
3.8177351583
 11
11.4833203908
 21
3.818101511
  0
LINE
  5
317
100
AcDbEntity
  8
0
100
AcDbLine
 62
7
  6
CONTINUOUS
 10
10.8242737947
 20
3.6416292207
 11
10.8243821483
 21
3.6418526955
  0
LINE
  5
318
100
AcDbEntity
  8
0
100
AcDbLine
 62
7
  6
CONTINUOUS
 10
10.602403225
 20
4.4195944599
 11
10.6114752394
 21
4.4327837947
  0
LINE
  5
319
100
AcDbEntity
  8
0
100
AcDbLine
 62
7
  6
CONTINUOUS
 10
10.6315376372
 20
4.4592436194
 11
10.6418230986
 21
4.4715794838
  0
LINE
  5
31A
100
AcDbEntity
  8
0
100
AcDbLine
 62
7
  6
CONTINUOUS
 10
15.1425194246
 20
9.2625441459
 11
15.0473183383
 21
9.2564363932
  0
LINE
  5
31B
100
AcDbEntity
  8
0
100
AcDbLine
 62
9
  6
CONTINUOUS
 10
10.6723183383
 20
8.7634363932
 11
11.4223183383
 21
8.7634363932
  0
LINE
  5
31C
100
AcDbEntity
  8
0
100
AcDbLine
 62
7
  6
CONTINUOUS
 10
11.4496465863
 20
8.9614363932
 11
10.6449900902
 21
8.9614363932
  0
LINE
  5
31D
100
AcDbEntity
  8
0
100
AcDbLine
 62
9
  6
CONTINUOUS
 10
11.4895221219
 20
9.0045894332
 11
10.6051145546
 21
9.0045894332
  0
LINE
  5
31E
100
AcDbEntity
  8
0
100
AcDbLine
 62
7
  6
CONTINUOUS
 10
11.5573183383
 20
9.1814363932
 11
10.5373183383
 21
9.1814363932
  0
LINE
  5
31F
100
AcDbEntity
  8
0
100
AcDbLine
 62
7
  6
CONTINUOUS
 10
7.0473183383
 20
9.2564363932
 11
6.952117252
 21
9.2625441459
  0
LINE
  5
320
100
AcDbEntity
  8
0
100
AcDbLine
 62
7
  6
CONTINUOUS
 10
10.8214813456
 20
9.5835576396
 11
10.805455255
 21
9.5926243961
  0
LINE
  5
321
100
AcDbEntity
  8
0
100
AcDbLine
 62
7
  6
CONTINUOUS
 10
10.2411372786
 20
9.3930137444
 11
10.4581282336
 21
9.2677339581
  0
LINE
  5
322
100
AcDbEntity
  8
0
100
AcDbLine
 62
7
  6
CONTINUOUS
 10
10.7117053402
 20
9.6721233042
 11
10.726776479
 21
9.6634219781
  0
LINE
  5
323
100
AcDbEntity
  8
0
100
AcDbLine
 62
7
  6
CONTINUOUS
 10
10.9207322726
 20
9.5514415485
 11
10.9402193558
 21
9.5401906757
  0
LINE
  5
324
100
AcDbEntity
  8
0
100
AcDbLine
 62
7
  6
CONTINUOUS
 10
10.5952719974
 20
9.9190085112
 11
10.5775279483
 21
9.9312795017
  0
LINE
  5
325
100
AcDbEntity
  8
0
100
AcDbLine
 62
7
  6
CONTINUOUS
 10
10.7797091294
 20
9.6089949182
 11
10.7647002991
 21
9.6196615329
  0
LINE
  5
326
100
AcDbEntity
  8
0
100
AcDbLine
 62
7
  6
CONTINUOUS
 10
11.1355459259
 20
9.5347021083
 11
11.1181225105
 21
9.5474242577
  0
LINE
  5
327
100
AcDbEntity
  8
0
100
AcDbLine
 62
7
  6
CONTINUOUS
 10
10.5891923587
 20
9.9659281285
 11
10.572804159
 21
9.9799586452
  0
LINE
  5
328
100
AcDbEntity
  8
0
100
AcDbLine
 62
7
  6
CONTINUOUS
 10
10.7407739837
 20
9.6385926821
 11
10.7269415306
 21
9.6507460724
  0
LINE
  5
329
100
AcDbEntity
  8
0
100
AcDbLine
 62
7
  6
CONTINUOUS
 10
11.0870852447
 20
9.5281039592
 11
11.0710623706
 21
9.5425502734
  0
LINE
  5
32A
100
AcDbEntity
  8
0
100
AcDbLine
 62
9
  6
CONTINUOUS
 10
11.7278462802
 20
9.313465855
 11
11.7234377388
 21
9.3179226104
  0
LINE
  5
32B
100
AcDbEntity
  8
0
100
AcDbLine
 62
9
  6
CONTINUOUS
 10
10.3667903964
 20
10.6894069315
 11
10.3711989378
 21
10.6849501761
  0
LINE
  5
32C
100
AcDbEntity
  8
0
100
AcDbLine
 62
7
  6
CONTINUOUS
 10
10.5879695624
 20
10.0132241881
 11
10.5731109524
 21
10.0288654859
  0
LINE
  5
32D
100
AcDbEntity
  8
0
100
AcDbLine
 62
7
  6
CONTINUOUS
 10
11.0382029729
 20
9.5265238643
 11
11.0237505073
 21
9.5425411902
  0
LINE
  5
32E
100
AcDbEntity
  8
0
100
AcDbLine
 62
7
  6
CONTINUOUS
 10
11.4993962958
 20
9.9191820906
 11
11.5116740986
 21
9.9014427545
  0
LINE
  5
32F
100
AcDbEntity
  8
0
100
AcDbLine
 62
7
  6
CONTINUOUS
 10
11.1293242783
 20
10.4693039234
 11
11.1411429639
 21
10.4512554564
  0
LINE
  5
330
100
AcDbEntity
  8
0
100
AcDbLine
 62
7
  6
CONTINUOUS
 10
11.4885419494
 20
9.8731321649
 11
11.4989305831
 21
9.8542243681
  0
LINE
  5
331
100
AcDbEntity
  8
0
100
AcDbLine
 62
7
  6
CONTINUOUS
 10
11.4621115918
 20
10.2328916952
 11
11.470770479
 21
10.2166416082
  0
LINE
  5
332
100
AcDbEntity
  8
0
100
AcDbLine
 62
7
  6
CONTINUOUS
 10
11.176999119
 20
10.4583914185
 11
11.186899282
 21
10.4392233393
  0
LINE
  5
333
100
AcDbEntity
  8
0
100
AcDbLine
 62
7
  6
CONTINUOUS
 10
11.4730099517
 20
9.828442462
 11
11.4813992808
 21
9.8085666565
  0
LINE
  5
334
100
AcDbEntity
  8
0
100
AcDbLine
 62
7
  6
CONTINUOUS
 10
11.4837127817
 20
10.1890127504
 11
11.4906548181
 21
10.1719584318
  0
LINE
  5
335
100
AcDbEntity
  8
0
100
AcDbLine
 62
7
  6
CONTINUOUS
 10
11.2232991432
 20
10.4426344851
 11
11.2311758268
 21
10.4225500049
  0
LINE
  5
336
100
AcDbEntity
  8
0
100
AcDbLine
 62
7
  6
CONTINUOUS
 10
11.4528389011
 20
3.7789372394
 11
11.4530133288
 21
3.7793364448
  0
LINE
  5
337
100
AcDbEntity
  8
0
100
AcDbLine
 62
7
  6
CONTINUOUS
 10
11.4190326964
 20
3.7431006894
 11
11.4192452337
 21
3.7435224191
  0
LINE
  5
338
100
AcDbEntity
  8
0
100
AcDbLine
 62
7
  6
CONTINUOUS
 10
11.3820558881
 20
3.7105313327
 11
11.3823041305
 21
3.7109649647
  0
LINE
  5
339
100
AcDbEntity
  8
0
100
AcDbLine
 62
7
  6
CONTINUOUS
 10
10.8699558164
 20
3.6231920878
 11
10.8701042351
 21
3.6234234394
  0
LINE
  5
33A
100
AcDbEntity
  8
0
100
AcDbLine
 62
7
  6
CONTINUOUS
 10
11.3422257469
 20
3.6815065299
 11
11.3425051735
 21
3.6819418378
  0
LINE
  5
33B
100
AcDbEntity
  8
0
100
AcDbLine
 62
7
  6
CONTINUOUS
 10
10.9171491681
 20
3.609031333
 11
10.917338183
 21
3.6092753512
  0
LINE
  5
33C
100
AcDbEntity
  8
0
100
AcDbLine
 62
7
  6
CONTINUOUS
 10
10.8007674532
 20
9.61368272
 11
10.7797091294
 21
9.6089949182
  0
LINE
  5
33D
100
AcDbEntity
  8
0
100
AcDbLine
 62
7
  6
CONTINUOUS
 10
11.1535689067
 20
9.5384722297
 11
11.1355459259
 21
9.5347021082
  0
LINE
  5
33E
100
AcDbEntity
  8
0
100
AcDbLine
 62
7
  6
CONTINUOUS
 10
11.4497911522
 20
9.7491654396
 11
11.4286195001
 21
9.7450194008
  0
LINE
  5
33F
100
AcDbEntity
  8
0
100
AcDbLine
 62
7
  6
CONTINUOUS
 10
10.762202716
 20
9.6410902653
 11
10.7407739837
 21
9.6385926821
  0
LINE
  5
340
100
AcDbEntity
  8
0
100
AcDbLine
 62
7
  6
CONTINUOUS
 10
11.1054003611
 20
9.5300008424
 11
11.0870852447
 21
9.5281039591
  0
LINE
  5
341
100
AcDbEntity
  8
0
100
AcDbLine
 62
7
  6
CONTINUOUS
 10
11.4217174052
 20
9.7091174943
 11
11.4002316534
 21
9.7071704556
  0
LINE
  5
342
100
AcDbEntity
  8
0
100
AcDbLine
 62
7
  6
CONTINUOUS
 10
7.1425194246
 20
9.2625441459
 11
7.0473183383
 21
9.2564363932
  0
LINE
  5
343
100
AcDbEntity
  8
0
100
AcDbLine
 62
7
  6
CONTINUOUS
 10
10.7266606444
 20
9.6723180356
 11
10.7050886813
 21
9.6720371494
  0
LINE
  5
344
100
AcDbEntity
  8
0
100
AcDbLine
 62
7
  6
CONTINUOUS
 10
11.0566160563
 20
9.5265273994
 11
11.0473183383
 21
9.5264363932
  0
LINE
  5
345
100
AcDbEntity
  8
0
100
AcDbLine
 62
9
  6
CONTINUOUS
 10
10.5052800194
 20
9.3347408687
 11
11.5893566571
 21
9.3347408687
  0
LINE
  5
346
100
AcDbEntity
  8
0
100
AcDbLine
 62
9
  6
CONTINUOUS
 10
11.575826264
 20
9.4176251031
 11
10.5188109828
 21
9.4176245986
  0
LINE
  5
347
100
AcDbEntity
  8
0
100
AcDbLine
 62
7
  6
CONTINUOUS
 10
7.6473183383
 20
9.8054363932
 11
7.6330424493
 21
9.8054363932
  0
LINE
  5
348
100
AcDbEntity
  8
0
100
AcDbLine
 62
7
  6
CONTINUOUS
 10
6.4615942521
 20
9.8054363932
 11
6.4381943536
 21
9.8054363932
  0
LINE
  5
349
100
AcDbEntity
  8
0
100
AcDbLine
 62
7
  6
CONTINUOUS
 10
14.4473183383
 20
9.8054363932
 11
14.4615942521
 21
9.8054363932
  0
LINE
  5
34A
100
AcDbEntity
  8
0
100
AcDbLine
 62
7
  6
CONTINUOUS
 10
15.6330424493
 20
9.8054363932
 11
15.656442323
 21
9.8054363932
  0
LINE
  5
34B
100
AcDbEntity
  8
0
100
AcDbLine
 62
7
  6
CONTINUOUS
 10
11.0473183383
 20
9.5264363932
 11
11.0382029729
 21
9.5265238643
  0
LINE
  5
34C
100
AcDbEntity
  8
0
100
AcDbLine
 62
7
  6
CONTINUOUS
 10
11.3896744502
 20
9.6721685804
 11
11.3681023809
 21
9.6724411835
  0
LINE
  5
34D
100
AcDbEntity
  8
0
100
AcDbLine
 62
7
  6
CONTINUOUS
 10
15.0473183383
 20
9.2564363932
 11
14.952117252
 21
9.2625441459
  0
LINE
  5
34E
100
AcDbEntity
  8
0
100
AcDbLine
 62
7
  6
CONTINUOUS
 10
10.6945180392
 20
9.7070349684
 11
10.6730315414
 21
9.7089737569
  0
LINE
  5
34F
100
AcDbEntity
  8
0
100
AcDbLine
 62
7
  6
CONTINUOUS
 10
11.0077331814
 20
9.5280887246
 11
10.989417338
 21
9.5299785752
  0
LINE
  5
350
100
AcDbEntity
  8
0
100
AcDbLine
 62
7
  6
CONTINUOUS
 10
11.3540019922
 20
9.6387104135
 11
11.3325723025
 21
9.6411997684
  0
LINE
  5
351
100
AcDbEntity
  8
0
100
AcDbLine
 62
7
  6
CONTINUOUS
 10
10.6661156616
 20
9.7448730106
 11
10.6449424192
 21
9.7490109197
  0
LINE
  5
352
100
AcDbEntity
  8
0
100
AcDbLine
 62
7
  6
CONTINUOUS
 10
10.9592699703
 20
9.5346682657
 11
10.9412455431
 21
9.5384314665
  0
LINE
  5
353
100
AcDbEntity
  8
0
100
AcDbLine
 62
7
  6
CONTINUOUS
 10
11.3150782141
 20
9.6090977017
 11
11.2940180919
 21
9.6137774173
  0
LINE
  5
354
100
AcDbEntity
  8
0
100
AcDbLine
 62
7
  6
CONTINUOUS
 10
10.6417546207
 20
9.7854310206
 11
10.6211191026
 21
9.7917241821
  0
LINE
  5
355
100
AcDbEntity
  8
0
100
AcDbLine
 62
7
  6
CONTINUOUS
 10
10.9117402077
 20
9.5461962692
 11
10.8941982836
 21
9.5517929246
  0
LINE
  5
356
100
AcDbEntity
  8
0
100
AcDbLine
 62
7
  6
CONTINUOUS
 10
11.2733157682
 20
9.5836443856
 11
11.2528484831
 21
9.5904648497
  0
LINE
  5
357
100
AcDbEntity
  8
0
100
AcDbLine
 62
7
  6
CONTINUOUS
 10
10.6216931811
 20
9.828279021
 11
10.6018141557
 21
9.8366607176
  0
LINE
  5
358
100
AcDbEntity
  8
0
100
AcDbLine
 62
7
  6
CONTINUOUS
 10
11.2291574007
 20
9.5626203095
 11
11.2094999377
 21
9.5715092147
  0
LINE
  5
359
100
AcDbEntity
  8
0
100
AcDbLine
 62
7
  6
CONTINUOUS
 10
10.606144025
 20
9.8729627567
 11
10.5872322407
 21
9.8833441295
  0
LINE
  5
35A
100
AcDbEntity
  8
0
100
AcDbLine
 62
7
  6
CONTINUOUS
 10
11.1830712585
 20
9.5462483611
 11
11.164432017
 21
9.5571114713
  0
LINE
  5
35B
100
AcDbEntity
  8
0
100
AcDbLine
 62
7
  6
CONTINUOUS
 10
11.5029974324
 20
10.0605702516
 11
11.5200887456
 21
10.047405317
  0
LINE
  5
35C
100
AcDbEntity
  8
0
100
AcDbLine
 62
7
  6
CONTINUOUS
 10
10.9833264746
 20
10.4721061727
 11
11.000069213
 21
10.4585006887
  0
LINE
  5
35D
100
AcDbEntity
  8
0
100
AcDbLine
 62
7
  6
CONTINUOUS
 10
11.5066625541
 20
10.0134005645
 11
11.522309556
 21
9.9985479614
  0
LINE
  5
35E
100
AcDbEntity
  8
0
100
AcDbLine
 62
7
  6
CONTINUOUS
 10
11.3720695311
 20
10.3480798164
 11
11.3852604284
 21
10.3352329536
  0
LINE
  5
35F
100
AcDbEntity
  8
0
100
AcDbLine
 62
7
  6
CONTINUOUS
 10
11.0320633639
 20
10.4761913676
 11
11.0473183383
 21
10.4609363932
  0
LINE
  5
360
100
AcDbEntity
  8
0
100
AcDbLine
 62
7
  6
CONTINUOUS
 10
11.5054579182
 20
9.9661040388
 11
11.5194947265
 21
9.9497212277
  0
LINE
  5
361
100
AcDbEntity
  8
0
100
AcDbLine
 62
7
  6
CONTINUOUS
 10
11.405992492
 20
10.3128490639
 11
11.4177924597
 21
10.2987139157
  0
LINE
  5
362
100
AcDbEntity
  8
0
100
AcDbLine
 62
7
  6
CONTINUOUS
 10
11.0807800481
 20
10.4752563104
 11
11.0943919599
 21
10.4585187973
  0
LINE
  5
363
100
AcDbEntity
  8
0
100
AcDbLine
 62
7
  6
CONTINUOUS
 10
11.4361129534
 20
10.2743168566
 11
11.4463968936
 21
10.2590432772
  0
LINE
  5
364
100
AcDbEntity
  8
0
100
AcDbLine
 62
7
  6
CONTINUOUS
 10
11.4922540613
 20
3.8309249396
 11
11.4831829911
 21
3.8177350028
  0
LINE
  5
365
100
AcDbEntity
  8
0
100
AcDbLine
 62
7
  6
CONTINUOUS
 10
11.2998838851
 20
3.6562730482
 11
11.3001878984
 21
3.6567006426
  0
LINE
  5
366
100
AcDbEntity
  8
0
100
AcDbLine
 62
7
  6
CONTINUOUS
 10
11.2553928684
 20
3.6350447653
 11
11.2557133252
 21
3.6354567184
  0
LINE
  5
367
100
AcDbEntity
  8
0
100
AcDbLine
 62
7
  6
CONTINUOUS
 10
11.4631224224
 20
3.7912737497
 11
11.4528378491
 21
3.7789371982
  0
LINE
  5
368
100
AcDbEntity
  8
0
100
AcDbLine
 62
7
  6
CONTINUOUS
 10
11.2091331841
 20
3.6180010922
 11
11.2094608784
 21
3.618391303
  0
LINE
  5
369
100
AcDbEntity
  8
0
100
AcDbLine
 62
7
  6
CONTINUOUS
 10
10.9654531236
 20
3.5992675361
 11
10.9656810265
 21
3.5995291319
  0
LINE
  5
36A
100
AcDbEntity
  8
0
100
AcDbLine
 62
7
  6
CONTINUOUS
 10
11.161500016
 20
3.6052855808
 11
11.16182515
 21
3.605649986
  0
LINE
  5
36B
100
AcDbEntity
  8
0
100
AcDbLine
 62
7
  6
CONTINUOUS
 10
11.0144575222
 20
3.5939842848
 11
11.0147203399
 21
3.5942679293
  0
LINE
  5
36C
100
AcDbEntity
  8
0
100
AcDbLine
 62
7
  6
CONTINUOUS
 10
11.1128996141
 20
3.5970047647
 11
11.1132125333
 21
3.5973414669
  0
LINE
  5
36D
100
AcDbEntity
  8
0
100
AcDbLine
 62
7
  6
CONTINUOUS
 10
11.0637460236
 20
3.5932274588
 11
11.0640377555
 21
3.593536628
  0
LINE
  5
36E
100
AcDbEntity
  8
0
100
AcDbLine
 62
7
  6
CONTINUOUS
 10
11.4304500264
 20
3.7544741699
 11
11.4190317752
 21
3.7431007388
  0
LINE
  5
36F
100
AcDbEntity
  8
0
100
AcDbLine
 62
7
  6
CONTINUOUS
 10
11.2735031984
 20
10.4014122163
 11
11.2942939354
 21
10.4071826876
  0
LINE
  5
370
100
AcDbEntity
  8
0
100
AcDbLine
 62
7
  6
CONTINUOUS
 10
10.917462109
 20
10.458341591
 11
10.9352679978
 21
10.4630311519
  0
LINE
  5
371
100
AcDbEntity
  8
0
100
AcDbLine
 62
9
  6
CONTINUOUS
 10
11.9833822724
 20
10.2468056098
 11
11.9773183383
 21
10.2452160786
  0
LINE
  5
372
100
AcDbEntity
  8
0
100
AcDbLine
 62
9
  6
CONTINUOUS
 10
10.1112544041
 20
9.7560671767
 11
10.1173183383
 21
9.7576567078
  0
LINE
  5
373
100
AcDbEntity
  8
0
100
AcDbLine
 62
7
  6
CONTINUOUS
 10
10.6324362429
 20
10.232732409
 11
10.6533673777
 21
10.2379588882
  0
LINE
  5
374
100
AcDbEntity
  8
0
100
AcDbLine
 62
7
  6
CONTINUOUS
 10
11.3134326614
 20
10.3760340668
 11
11.3347037063
 21
10.3796356135
  0
LINE
  5
375
100
AcDbEntity
  8
0
100
AcDbLine
 62
7
  6
CONTINUOUS
 10
10.6584189733
 20
10.2741675501
 11
10.6797765815
 21
10.2772140337
  0
LINE
  5
376
100
AcDbEntity
  8
0
100
AcDbLine
 62
7
  6
CONTINUOUS
 10
11.3505409019
 20
10.3466846038
 11
11.372069531
 21
10.3480798163
  0
LINE
  5
377
100
AcDbEntity
  8
0
100
AcDbLine
 62
7
  6
CONTINUOUS
 10
10.6885246372
 20
10.31271132
 11
10.7100822951
 21
10.3135455106
  0
LINE
  5
378
100
AcDbEntity
  8
0
100
AcDbLine
 62
7
  6
CONTINUOUS
 10
7.6473183383
 20
10.1974363932
 11
7.6330424245
 21
10.1974363932
  0
LINE
  5
379
100
AcDbEntity
  8
0
100
AcDbLine
 62
7
  6
CONTINUOUS
 10
6.4615942273
 20
10.1974363932
 11
6.4381943536
 21
10.1974363932
  0
LINE
  5
37A
100
AcDbEntity
  8
0
100
AcDbLine
 62
7
  6
CONTINUOUS
 10
14.4473183383
 20
10.1974363932
 11
14.4615942273
 21
10.1974363932
  0
LINE
  5
37B
100
AcDbEntity
  8
0
100
AcDbLine
 62
7
  6
CONTINUOUS
 10
15.6330424245
 20
10.1974363932
 11
15.656442323
 21
10.1974363932
  0
LINE
  5
37C
100
AcDbEntity
  8
0
100
AcDbLine
 62
7
  6
CONTINUOUS
 10
11.3844345153
 20
10.313674977
 11
11.4059924919
 21
10.3128490639
  0
LINE
  5
37D
100
AcDbEntity
  8
0
100
AcDbLine
 62
7
  6
CONTINUOUS
 10
10.722434068
 20
10.3479550953
 11
10.7439632312
 21
10.3465681492
  0
LINE
  5
37E
100
AcDbEntity
  8
0
100
AcDbLine
 62
7
  6
CONTINUOUS
 10
11.414754177
 20
10.2773551393
 11
11.4361129533
 21
10.2743168566
  0
LINE
  5
37F
100
AcDbEntity
  8
0
100
AcDbLine
 62
7
  6
CONTINUOUS
 10
10.7597877734
 20
10.3795252376
 11
10.7810601996
 21
10.3759318586
  0
LINE
  5
380
100
AcDbEntity
  8
0
100
AcDbLine
 62
7
  6
CONTINUOUS
 10
11.4411784517
 20
10.2381101371
 11
11.4621115918
 21
10.2328916952
  0
LINE
  5
381
100
AcDbEntity
  8
0
100
AcDbLine
 62
9
  6
CONTINUOUS
 10
11.9833822724
 20
9.7560671767
 11
11.9773183383
 21
9.7576567078
  0
LINE
  5
382
100
AcDbEntity
  8
0
100
AcDbLine
 62
9
  6
CONTINUOUS
 10
10.1112544041
 20
10.2468056098
 11
10.1173183383
 21
10.2452160786
  0
LINE
  5
383
100
AcDbEntity
  8
0
100
AcDbLine
 62
7
  6
CONTINUOUS
 10
11.1591914309
 20
10.4630741421
 11
11.1769991189
 21
10.4583914185
  0
LINE
  5
384
100
AcDbEntity
  8
0
100
AcDbLine
 62
7
  6
CONTINUOUS
 10
10.8001871698
 20
10.4070877688
 11
10.8209799152
 21
10.4013253381
  0
LINE
  5
385
100
AcDbEntity
  8
0
100
AcDbLine
 62
7
  6
CONTINUOUS
 10
11.4634272014
 20
10.196356028
 11
11.4837127816
 21
10.1890127505
  0
LINE
  5
386
100
AcDbEntity
  8
0
100
AcDbLine
 62
7
  6
CONTINUOUS
 10
11.2060673613
 20
10.4491235024
 11
11.2232991432
 21
10.4426344851
  0
LINE
  5
387
100
AcDbEntity
  8
0
100
AcDbLine
 62
7
  6
CONTINUOUS
 10
10.8432116642
 20
10.4303483487
 11
10.8632991673
 21
10.4224793776
  0
LINE
  5
388
100
AcDbEntity
  8
0
100
AcDbLine
 62
7
  6
CONTINUOUS
 10
11.481264555
 20
10.1525354699
 11
11.5006875169
 21
10.1431452068
  0
LINE
  5
389
100
AcDbEntity
  8
0
100
AcDbLine
 62
7
  6
CONTINUOUS
 10
11.251260307
 20
10.4304266884
 11
11.2677334994
 21
10.4222001711
  0
LINE
  5
38A
100
AcDbEntity
  8
0
100
AcDbLine
 62
7
  6
CONTINUOUS
 10
10.8883974275
 20
10.4490625141
 11
10.9075693067
 21
10.4391697118
  0
LINE
  5
38B
100
AcDbEntity
  8
0
100
AcDbLine
 62
7
  6
CONTINUOUS
 10
11.3975627535
 20
10.3223020297
 11
11.3850419757
 21
10.3295309041
  0
LINE
  5
38C
100
AcDbEntity
  8
0
100
AcDbLine
 62
7
  6
CONTINUOUS
 10
11.3548474844
 20
10.3469637018
 11
11.3503547104
 21
10.3495576061
  0
LINE
  5
38D
100
AcDbEntity
  8
0
100
AcDbLine
 62
7
  6
CONTINUOUS
 10
11.1912009092
 20
10.4414450961
 11
11.1834364135
 21
10.4459279298
  0
LINE
  5
38E
100
AcDbEntity
  8
0
100
AcDbLine
 62
7
  6
CONTINUOUS
 10
11.1565942389
 20
10.4614252665
 11
11.1500766719
 21
10.4651881855
  0
LINE
  5
38F
100
AcDbEntity
  8
0
100
AcDbLine
 62
7
  6
CONTINUOUS
 10
11.494501409
 20
10.1071130285
 11
11.5128558392
 21
10.0957753311
  0
LINE
  5
390
100
AcDbEntity
  8
0
100
AcDbLine
 62
7
  6
CONTINUOUS
 10
11.2942911531
 20
10.4071819153
 11
11.3098311146
 21
10.3973051117
  0
LINE
  5
391
100
AcDbEntity
  8
0
100
AcDbLine
 62
7
  6
CONTINUOUS
 10
10.9352679978
 20
10.4630311518
 11
10.9533210015
 21
10.4512193972
  0
LINE
  5
392
100
AcDbEntity
  8
0
100
AcDbLine
 62
7
  6
CONTINUOUS
 10
11.3347037063
 20
10.3796356135
 11
11.3491456894
 21
10.3682132329
  0
LINE
  5
393
100
AcDbEntity
  8
0
100
AcDbLine
 62
7
  6
CONTINUOUS
 10
14.2293183383
 20
10.1964363932
 11
14.2293183383
 21
9.8064363932
  0
LINE
  5
394
100
AcDbEntity
  8
0
100
AcDbLine
 62
7
  6
CONTINUOUS
 10
14.3093183383
 20
10.1964363932
 11
14.3093183383
 21
9.8064363932
  0
LINE
  5
395
100
AcDbEntity
  8
0
100
AcDbLine
 62
7
  6
CONTINUOUS
 10
14.3598183383
 20
9.7144352269
 11
14.3598183383
 21
9.8315855502
  0
LINE
  5
396
100
AcDbEntity
  8
0
100
AcDbLine
 62
7
  6
CONTINUOUS
 10
14.3598183383
 20
10.1712872363
 11
14.3598183383
 21
10.2884394864
  0
LINE
  5
397
100
AcDbEntity
  8
0
100
AcDbLine
 62
7
  6
CONTINUOUS
 10
14.4473183383
 20
10.1974363932
 11
14.4473183383
 21
9.8054363932
  0
LINE
  5
398
100
AcDbEntity
  8
0
100
AcDbLine
 62
7
  6
CONTINUOUS
 10
11.3945159998
 20
3.7208382422
 11
11.3820551144
 21
3.7105314466
  0
LINE
  5
399
100
AcDbEntity
  8
0
100
AcDbLine
 62
7
  6
CONTINUOUS
 10
11.3556267816
 20
3.6906510048
 11
11.3422251245
 21
3.6815066814
  0
LINE
  5
39A
100
AcDbEntity
  8
0
100
AcDbLine
 62
7
  6
CONTINUOUS
 10
11.3141134856
 20
3.6641681714
 11
11.2998834053
 21
3.6562732131
  0
LINE
  5
39B
100
AcDbEntity
  8
0
100
AcDbLine
 62
7
  6
CONTINUOUS
 10
10.9651327561
 20
10.4692724009
 11
10.9833264745
 21
10.4721061728
  0
LINE
  5
39C
100
AcDbEntity
  8
0
100
AcDbLine
 62
7
  6
CONTINUOUS
 10
14.952117252
 20
10.7403286406
 11
15.0473183383
 21
10.7464363932
  0
LINE
  5
39D
100
AcDbEntity
  8
0
100
AcDbLine
 62
7
  6
CONTINUOUS
 10
11.0136746972
 20
10.4752434272
 11
11.0320633638
 21
10.4761913677
  0
LINE
  5
39E
100
AcDbEntity
  8
0
100
AcDbLine
 62
9
  6
CONTINUOUS
 10
10.7595861836
 20
10.734489227
 11
11.3350425056
 21
10.7344923621
  0
LINE
  5
39F
100
AcDbEntity
  8
0
100
AcDbLine
 62
9
  6
CONTINUOUS
 10
10.7559147463
 20
10.8102028134
 11
11.3387219302
 21
10.8102028134
  0
LINE
  5
3A0
100
AcDbEntity
  8
0
100
AcDbLine
 62
7
  6
CONTINUOUS
 10
11.3223111496
 20
10.9279169552
 11
10.7723255269
 21
10.9279169552
  0
LINE
  5
3A1
100
AcDbEntity
  8
0
100
AcDbLine
 62
7
  6
CONTINUOUS
 10
11.0625733127
 20
10.4761913677
 11
11.0807800481
 21
10.4752563105
  0
LINE
  5
3A2
100
AcDbEntity
  8
0
100
AcDbLine
 62
7
  6
CONTINUOUS
 10
7.0473183383
 20
10.7464363932
 11
7.1425194246
 21
10.7403286406
  0
LINE
  5
3A3
100
AcDbEntity
  8
0
100
AcDbLine
 62
7
  6
CONTINUOUS
 10
11.1111294731
 20
10.4721307092
 11
11.1293242783
 21
10.4693039234
  0
LINE
  5
3A4
100
AcDbEntity
  8
0
100
AcDbLine
 62
7
  6
CONTINUOUS
 10
11.853499398
 20
10.6098590421
 11
11.3802727407
 21
10.88307658
  0
LINE
  5
3A5
100
AcDbEntity
  8
0
100
AcDbLine
 62
7
  6
CONTINUOUS
 10
11.3026069327
 20
10.9279169552
 11
11.2575603158
 21
10.9539246316
  0
LINE
  5
3A6
100
AcDbEntity
  8
0
100
AcDbLine
 62
7
  6
CONTINUOUS
 10
14.9521177249
 20
9.2625438728
 11
14.4550146854
 21
9.5495464465
  0
LINE
  5
3A7
100
AcDbEntity
  8
0
100
AcDbLine
 62
7
  6
CONTINUOUS
 10
11.2703291698
 20
3.6416141181
 11
11.2553925141
 21
3.635044925
  0
LINE
  5
3A8
100
AcDbEntity
  8
0
100
AcDbLine
 62
7
  6
CONTINUOUS
 10
11.2246458517
 20
3.6231800502
 11
11.2091329322
 21
3.6180012349
  0
LINE
  5
3A9
100
AcDbEntity
  8
0
100
AcDbLine
 62
7
  6
CONTINUOUS
 10
6.952117252
 20
10.7403286406
 11
7.0473183383
 21
10.7464363932
  0
LINE
  5
3AA
100
AcDbEntity
  8
0
100
AcDbLine
 62
7
  6
CONTINUOUS
 10
15.0473183383
 20
10.7464363932
 11
15.1425194246
 21
10.7403286406
  0
LINE
  5
3AB
100
AcDbEntity
  8
0
100
AcDbLine
 62
9
  6
CONTINUOUS
 10
15.656442323
 20
9.8054363932
 11
15.656442323
 21
10.1974363932
  0
LINE
  5
3AC
100
AcDbEntity
  8
0
100
AcDbLine
 62
7
  6
CONTINUOUS
 10
15.7348183383
 20
10.2884375596
 11
15.7348183383
 21
10.2069989573
  0
LINE
  5
3AD
100
AcDbEntity
  8
0
100
AcDbLine
 62
7
  6
CONTINUOUS
 10
15.7348183383
 20
9.7958738292
 11
15.7348183383
 21
9.7144333
  0
LINE
  5
3AE
100
AcDbEntity
  8
0
100
AcDbLine
 62
7
  6
CONTINUOUS
 10
15.8713183383
 20
10.2724363932
 11
15.8713183383
 21
9.7304363932
  0
LINE
  5
3AF
100
AcDbEntity
  8
0
100
AcDbLine
 62
7
  6
CONTINUOUS
 10
15.9713183383
 20
10.2724363932
 11
15.9713183383
 21
9.7304363932
  0
LINE
  5
3B0
100
AcDbEntity
  8
0
100
AcDbLine
 62
7
  6
CONTINUOUS
 10
15.1425189516
 20
10.7403289136
 11
15.6396219912
 21
10.4533263399
  0
LINE
  5
3B1
100
AcDbEntity
  8
0
100
AcDbLine
 62
9
  6
CONTINUOUS
 10
17.1788520695
 20
9.6569363932
 11
17.1788520695
 21
10.3459363932
  0
LINE
  5
3B2
100
AcDbEntity
  8
0
100
AcDbLine
 62
7
  6
CONTINUOUS
 10
18.4713183383
 20
10.3459352789
 11
18.4713183383
 21
9.6569365834
  0
LINE
  5
3B3
100
AcDbEntity
  8
0
100
AcDbLine
 62
7
  6
CONTINUOUS
 10
18.5723183383
 20
10.3459363932
 11
18.5723183383
 21
9.6569363932
  0
ARC
  5
3B4
100
AcDbEntity
  8
0
100
AcDbCircle
 62
9
  6
CONTINUOUS
 10
7.1635460729
 20
3.2745455046
 40
8.7167444688
100
AcDbArc
 50
59.2207058764
 51
60.7792941235
  0
ARC
  5
3B5
100
AcDbEntity
  8
0
100
AcDbCircle
 62
7
  6
CONTINUOUS
 10
5.650587765
 20
7.5408871691
 40
2.24
100
AcDbArc
 50
77.8166686749
 51
109.1496801392
  0
ARC
  5
3B6
100
AcDbEntity
  8
0
100
AcDbCircle
 62
7
  6
CONTINUOUS
 10
11.024840521
 20
3.7091543301
 40
0.6175622724
100
AcDbArc
 50
142.8629647915
 51
143.4979268298
  0
ARC
  5
3B7
100
AcDbEntity
  8
0
100
AcDbCircle
 62
7
  6
CONTINUOUS
 10
10.9447226967
 20
3.7546515912
 40
0.5587940324
100
AcDbArc
 50
137.8683032569
 51
138.5241611543
  0
ARC
  5
3B8
100
AcDbEntity
  8
0
100
AcDbCircle
 62
7
  6
CONTINUOUS
 10
11.0464003878
 20
4.1237126916
 40
0.5335684163
100
AcDbArc
 50
134.52016067
 51
135.7486622002
  0
ARC
  5
3B9
100
AcDbEntity
  8
0
100
AcDbCircle
 62
7
  6
CONTINUOUS
 10
11.045374618
 20
4.1258421781
 40
0.5321830312
100
AcDbArc
 50
208.3509258797
 51
210.0333200063
  0
ARC
  5
3BA
100
AcDbEntity
  8
0
100
AcDbCircle
 62
7
  6
CONTINUOUS
 10
11.0446629864
 20
4.1254683925
 40
0.5313784093
100
AcDbArc
 50
197.7407223526
 51
199.4289719765
  0
ARC
  5
3BB
100
AcDbEntity
  8
0
100
AcDbCircle
 62
7
  6
CONTINUOUS
 10
11.0442314674
 20
4.1252647765
 40
0.5309022923
100
AcDbArc
 50
203.0441267322
 51
204.7316174228
  0
ARC
  5
3BC
100
AcDbEntity
  8
0
100
AcDbCircle
 62
7
  6
CONTINUOUS
 10
11.044378814
 20
4.1320512899
 40
0.4520632452
100
AcDbArc
 50
145.4085330293
 51
179.9900839248
  0
ARC
  5
3BD
100
AcDbEntity
  8
0
100
AcDbCircle
 62
7
  6
CONTINUOUS
 10
11.0447186705
 20
4.145753922
 40
0.4313254307
100
AcDbArc
 50
149.9765200397
 51
179.9921550544
  0
ARC
  5
3BE
100
AcDbEntity
  8
0
100
AcDbCircle
 62
7
  6
CONTINUOUS
 10
11.0446110821
 20
4.1458469919
 40
0.4312161575
100
AcDbArc
 50
180.0045193424
 51
207.4132896998
  0
ARC
  5
3BF
100
AcDbEntity
  8
0
100
AcDbCircle
 62
9
  6
CONTINUOUS
 10
11.0444523604
 20
4.1492908941
 40
0.3910563898
100
AcDbArc
 50
162.1426450005
 51
179.484755855
  0
ARC
  5
3C0
100
AcDbEntity
  8
0
100
AcDbCircle
 62
9
  6
CONTINUOUS
 10
11.0443281405
 20
4.1492991994
 40
0.3909324587
100
AcDbArc
 50
179.4858093243
 51
179.9999986666
  0
ARC
  5
3C1
100
AcDbEntity
  8
0
100
AcDbCircle
 62
7
  6
CONTINUOUS
 10
11.0446050384
 20
4.141162666
 40
0.3847882377
100
AcDbArc
 50
165.7016887172
 51
175.08449399
  0
ARC
  5
3C2
100
AcDbEntity
  8
0
100
AcDbCircle
 62
7
  6
CONTINUOUS
 10
11.0444628489
 20
4.1492942621
 40
0.3846439545
100
AcDbArc
 50
165.6897605232
 51
179.9992631976
  0
ARC
  5
3C3
100
AcDbEntity
  8
0
100
AcDbCircle
 62
7
  6
CONTINUOUS
 10
11.0440667611
 20
4.1412165229
 40
0.3842473254
100
AcDbArc
 50
175.0856176486
 51
178.7956666856
  0
ARC
  5
3C4
100
AcDbEntity
  8
0
100
AcDbCircle
 62
7
  6
CONTINUOUS
 10
11.0446467935
 20
4.1411609802
 40
0.38188023
100
AcDbArc
 50
167.2027631523
 51
175.1125114438
  0
ARC
  5
3C5
100
AcDbEntity
  8
0
100
AcDbCircle
 62
7
  6
CONTINUOUS
 10
11.0445246535
 20
4.1412011259
 40
0.381755866
100
AcDbArc
 50
179.9495286573
 51
200.2104808381
  0
ARC
  5
3C6
100
AcDbEntity
  8
0
100
AcDbCircle
 62
7
  6
CONTINUOUS
 10
11.0443155621
 20
4.1412042958
 40
0.3815465127
100
AcDbArc
 50
175.1147545623
 51
179.9499770105
  0
ARC
  5
3C7
100
AcDbEntity
  8
0
100
AcDbCircle
 62
7
  6
CONTINUOUS
 10
11.0391897317
 20
4.1513241039
 40
0.3804170276
100
AcDbArc
 50
202.653221889
 51
208.4687991935
  0
ARC
  5
3C8
100
AcDbEntity
  8
0
100
AcDbCircle
 62
7
  6
CONTINUOUS
 10
11.0370455403
 20
4.1492132272
 40
0.3774959827
100
AcDbArc
 50
247.3682841475
 51
248.8636768092
  0
ARC
  5
3C9
100
AcDbEntity
  8
0
100
AcDbCircle
 62
7
  6
CONTINUOUS
 10
11.0366969222
 20
4.1482364156
 40
0.3764591793
100
AcDbArc
 50
248.8595580911
 51
255.9090583344
  0
ARC
  5
3CA
100
AcDbEntity
  8
0
100
AcDbCircle
 62
7
  6
CONTINUOUS
 10
11.0451413624
 20
4.1448610463
 40
0.3730396956
100
AcDbArc
 50
209.9657325677
 51
221.2818445043
  0
ARC
  5
3CB
100
AcDbEntity
  8
0
100
AcDbCircle
 62
9
  6
CONTINUOUS
 10
11.0450074382
 20
4.1724817094
 40
0.3726872047
100
AcDbArc
 50
179.9998575358
 51
183.6147507187
  0
ARC
  5
3CC
100
AcDbEntity
  8
0
100
AcDbCircle
 62
7
  6
CONTINUOUS
 10
11.0448435103
 20
4.1490003299
 40
0.3725245784
100
AcDbArc
 50
180.0076508146
 51
213.6969668963
  0
ARC
  5
3CD
100
AcDbEntity
  8
0
100
AcDbCircle
 62
7
  6
CONTINUOUS
 10
11.0444056542
 20
4.1443479695
 40
0.3721463563
100
AcDbArc
 50
197.919915614
 51
208.1913572217
  0
ARC
  5
3CE
100
AcDbEntity
  8
0
100
AcDbCircle
 62
7
  6
CONTINUOUS
 10
11.0443805188
 20
4.1442025972
 40
0.3720335214
100
AcDbArc
 50
221.2829487271
 51
221.956837788
  0
ARC
  5
3CF
100
AcDbEntity
  8
0
100
AcDbCircle
 62
7
  6
CONTINUOUS
 10
11.0439394117
 20
4.1439961882
 40
0.3716194666
100
AcDbArc
 50
179.6003656904
 51
180.6286095606
  0
ARC
  5
3D0
100
AcDbEntity
  8
0
100
AcDbCircle
 62
7
  6
CONTINUOUS
 10
11.0438846539
 20
4.1439955576
 40
0.3715647051
100
AcDbArc
 50
180.6286049725
 51
181.3743663619
  0
ARC
  5
3D1
100
AcDbEntity
  8
0
100
AcDbCircle
 62
7
  6
CONTINUOUS
 10
11.0436924796
 20
4.1440605862
 40
0.371378752
100
AcDbArc
 50
185.9289313847
 51
195.0500983952
  0
ARC
  5
3D2
100
AcDbEntity
  8
0
100
AcDbCircle
 62
7
  6
CONTINUOUS
 10
11.043665934
 20
4.1439473672
 40
0.371305134
100
AcDbArc
 50
208.1907980492
 51
209.9573084386
  0
ARC
  5
3D3
100
AcDbEntity
  8
0
100
AcDbCircle
 62
7
  6
CONTINUOUS
 10
11.0432490321
 20
4.14397418
 40
0.3709287535
100
AcDbArc
 50
181.3734200841
 51
185.9227314046
  0
ARC
  5
3D4
100
AcDbEntity
  8
0
100
AcDbCircle
 62
7
  6
CONTINUOUS
 10
11.0431930909
 20
4.1439001776
 40
0.3708548414
100
AcDbArc
 50
195.0461999042
 51
197.9117306909
  0
ARC
  5
3D5
100
AcDbEntity
  8
0
100
AcDbCircle
 62
7
  6
CONTINUOUS
 10
4.2695514727
 20
8.4849466738
 40
1.97
100
AcDbArc
 50
70.8503198608
 51
109.1496801392
  0
ARC
  5
3D6
100
AcDbEntity
  8
0
100
AcDbCircle
 62
9
  6
CONTINUOUS
 10
3.2785720067
 20
10.0014363932
 40
8.7179461876
100
AcDbArc
 50
359.2208133054
 51
0.7791866946
  0
ARC
  5
3D7
100
AcDbEntity
  8
0
100
AcDbCircle
 62
7
  6
CONTINUOUS
 10
3.7913183383
 20
10.0014363932
 40
0.39
100
AcDbArc
 50
133.6098152012
 51
226.3901847988
  0
ARC
  5
3D8
100
AcDbEntity
  8
0
100
AcDbCircle
 62
7
  6
CONTINUOUS
 10
3.5728183383
 20
10.3459363932
 40
0.0505
100
AcDbArc
 50
0.0
 51
180.0
  0
ARC
  5
3D9
100
AcDbEntity
  8
0
100
AcDbCircle
 62
7
  6
CONTINUOUS
 10
3.5728183383
 20
9.6569363932
 40
0.0505
100
AcDbArc
 50
180.0
 51
360.0
  0
ARC
  5
3DA
100
AcDbEntity
  8
0
100
AcDbCircle
 62
7
  6
CONTINUOUS
 10
6.4381943536
 20
9.4564363932
 40
0.349
100
AcDbArc
 50
90.0
 51
128.0042004746
  0
ARC
  5
3DB
100
AcDbEntity
  8
0
100
AcDbCircle
 62
7
  6
CONTINUOUS
 10
6.1733183383
 20
9.7304363932
 40
0.05
100
AcDbArc
 50
180.0
 51
360.0
  0
ARC
  5
3DC
100
AcDbEntity
  8
0
100
AcDbCircle
 62
7
  6
CONTINUOUS
 10
6.1733183383
 20
10.2724363932
 40
0.05
100
AcDbArc
 50
0.0
 51
180.0
  0
ARC
  5
3DD
100
AcDbEntity
  8
0
100
AcDbCircle
 62
7
  6
CONTINUOUS
 10
7.0473183383
 20
10.0014363932
 40
1.1825
100
AcDbArc
 50
191.443490707
 51
168.5569565871
  0
ARC
  5
3DE
100
AcDbEntity
  8
0
100
AcDbCircle
 62
9
  6
CONTINUOUS
 10
7.0473183383
 20
10.0014363932
 40
1.1513359873
100
AcDbArc
 50
191.8836505216
 51
168.1232607172
  0
ARC
  5
3DF
100
AcDbEntity
  8
0
100
AcDbCircle
 62
9
  6
CONTINUOUS
 10
7.0473183383
 20
10.0014363932
 40
1.1091205187
100
AcDbArc
 50
192.7592245104
 51
167.2476260779
  0
ARC
  5
3E0
100
AcDbEntity
  8
0
100
AcDbCircle
 62
9
  6
CONTINUOUS
 10
7.0473183383
 20
10.0014363932
 40
0.8288771883
100
AcDbArc
 50
197.3310711065
 51
343.7252446971
  0
ARC
  5
3E1
100
AcDbEntity
  8
0
100
AcDbCircle
 62
9
  6
CONTINUOUS
 10
7.0473183383
 20
10.0014363932
 40
0.8288771883
100
AcDbArc
 50
16.2788199063
 51
162.6686489517
  0
ARC
  5
3E2
100
AcDbEntity
  8
0
100
AcDbCircle
 62
7
  6
CONTINUOUS
 10
7.0473183383
 20
10.0014363932
 40
0.745
100
AcDbArc
 50
202.6582875747
 51
217.3417124253
  0
ARC
  5
3E3
100
AcDbEntity
  8
0
100
AcDbCircle
 62
7
  6
CONTINUOUS
 10
7.0473183383
 20
10.0014363932
 40
0.745
100
AcDbArc
 50
142.6582875747
 51
157.3417124253
  0
ARC
  5
3E4
100
AcDbEntity
  8
0
100
AcDbCircle
 62
7
  6
CONTINUOUS
 10
7.0473183383
 20
10.0014363932
 40
0.745
100
AcDbArc
 50
22.6582875747
 51
37.3417124253
  0
ARC
  5
3E5
100
AcDbEntity
  8
0
100
AcDbCircle
 62
7
  6
CONTINUOUS
 10
7.0473183383
 20
10.0014363932
 40
0.745
100
AcDbArc
 50
322.6582875747
 51
337.3417124253
  0
ARC
  5
3E6
100
AcDbEntity
  8
0
100
AcDbCircle
 62
7
  6
CONTINUOUS
 10
7.0473183383
 20
10.0014363932
 40
0.6665
100
AcDbArc
 50
197.2815065512
 51
345.0686682767
  0
ARC
  5
3E7
100
AcDbEntity
  8
0
100
AcDbCircle
 62
7
  6
CONTINUOUS
 10
7.0473183383
 20
10.0014363932
 40
0.6665
100
AcDbArc
 50
14.9313317233
 51
162.7184934488
  0
ARC
  5
3E8
100
AcDbEntity
  8
0
100
AcDbCircle
 62
7
  6
CONTINUOUS
 10
7.0473183383
 20
10.0014363932
 40
0.62
100
AcDbArc
 50
19.3079388237
 51
160.6920611763
  0
ARC
  5
3E9
100
AcDbEntity
  8
0
100
AcDbCircle
 62
7
  6
CONTINUOUS
 10
7.0473183383
 20
10.0014363932
 40
0.62
100
AcDbArc
 50
199.3079388237
 51
340.6920611763
  0
ARC
  5
3EA
100
AcDbEntity
  8
0
100
AcDbCircle
 62
9
  6
CONTINUOUS
 10
7.0473183383
 20
10.0014363932
 40
0.5777586961
100
AcDbArc
 50
270.0
 51
89.9942472677
  0
ARC
  5
3EB
100
AcDbEntity
  8
0
100
AcDbCircle
 62
9
  6
CONTINUOUS
 10
7.0473183383
 20
10.0014363932
 40
0.5777586962
100
AcDbArc
 50
90.0
 51
269.9943174731
  0
CIRCLE
  5
3EC
100
AcDbEntity
  8
0
100
AcDbCircle
 62
7
  6
CONTINUOUS
 10
7.0473183383
 20
10.0014363932
 40
0.5435140523
  0
CIRCLE
  5
3ED
100
AcDbEntity
  8
0
100
AcDbCircle
 62
9
  6
CONTINUOUS
 10
7.0473183383
 20
10.0014363932
 40
0.5225
  0
CIRCLE
  5
3EE
100
AcDbEntity
  8
0
100
AcDbCircle
 62
9
  6
CONTINUOUS
 10
7.0473183383
 20
10.0014363932
 40
0.4706292722
  0
CIRCLE
  5
3EF
100
AcDbEntity
  8
0
100
AcDbCircle
 62
9
  6
CONTINUOUS
 10
7.0473183383
 20
10.0014363932
 40
0.4547355589
  0
CIRCLE
  5
3F0
100
AcDbEntity
  8
0
100
AcDbCircle
 62
7
  6
CONTINUOUS
 10
7.0473183383
 20
10.0014363932
 40
0.4275
  0
CIRCLE
  5
3F1
100
AcDbEntity
  8
0
100
AcDbCircle
 62
7
  6
CONTINUOUS
 10
7.0473183383
 20
10.0014363932
 40
0.42
  0
CIRCLE
  5
3F2
100
AcDbEntity
  8
0
100
AcDbCircle
 62
9
  6
CONTINUOUS
 10
7.0473183383
 20
10.0014363932
 40
0.3865178571
  0
ARC
  5
3F3
100
AcDbEntity
  8
0
100
AcDbCircle
 62
7
  6
CONTINUOUS
 10
5.650587765
 20
12.4619856174
 40
2.24
100
AcDbArc
 50
250.8503198608
 51
282.1833313251
  0
ARC
  5
3F4
100
AcDbEntity
  8
0
100
AcDbCircle
 62
7
  6
CONTINUOUS
 10
4.2695514727
 20
11.5179261127
 40
1.97
100
AcDbArc
 50
250.8503198608
 51
289.1496801392
  0
ARC
  5
3F5
100
AcDbEntity
  8
0
100
AcDbCircle
 62
7
  6
CONTINUOUS
 10
6.4381943536
 20
10.5464363932
 40
0.349
100
AcDbArc
 50
231.9957995254
 51
270.0
  0
ARC
  5
3F6
100
AcDbEntity
  8
0
100
AcDbCircle
 62
7
  6
CONTINUOUS
 10
11.047317144
 20
10.0014361323
 40
0.7875006403
100
AcDbArc
 50
312.1535755169
 51
68.5698961211
  0
ARC
  5
3F7
100
AcDbEntity
  8
0
100
AcDbCircle
 62
7
  6
CONTINUOUS
 10
11.0473179903
 20
10.0014368403
 40
0.7874991365
100
AcDbArc
 50
111.4300189204
 51
227.846543159
  0
ARC
  5
3F8
100
AcDbEntity
  8
0
100
AcDbCircle
 62
7
  6
CONTINUOUS
 10
7.7613183383
 20
10.0014363932
 40
0.221
100
AcDbArc
 50
298.0724869359
 51
61.9275130641
  0
ARC
  5
3F9
100
AcDbEntity
  8
0
100
AcDbCircle
 62
7
  6
CONTINUOUS
 10
10.3857991085
 20
9.0219311488
 40
0.22
100
AcDbArc
 50
355.4789137776
 51
46.4708309535
  0
ARC
  5
3FA
100
AcDbEntity
  8
0
100
AcDbCircle
 62
7
  6
CONTINUOUS
 10
7.7168428115
 20
9.7335590837
 40
0.1
100
AcDbArc
 50
46.7836366413
 51
134.0467224409
  0
ARC
  5
3FB
100
AcDbEntity
  8
0
100
AcDbCircle
 62
7
  6
CONTINUOUS
 10
7.7168428115
 20
10.2693137027
 40
0.1
100
AcDbArc
 50
225.9532775591
 51
313.2163633587
  0
ARC
  5
3FC
100
AcDbEntity
  8
0
100
AcDbCircle
 62
7
  6
CONTINUOUS
 10
10.5373183383
 20
9.2614363932
 40
0.08
100
AcDbArc
 50
113.6081256053
 51
270.0
  0
ARC
  5
3FD
100
AcDbEntity
  8
0
100
AcDbCircle
 62
7
  6
CONTINUOUS
 10
10.4852560701
 20
9.3805561659
 40
0.05
100
AcDbArc
 50
293.6081256053
 51
47.8465016409
  0
ARC
  5
3FE
100
AcDbEntity
  8
0
100
AcDbCircle
 62
7
  6
CONTINUOUS
 10
7.8253183383
 20
10.1964363932
 40
0.04
100
AcDbArc
 50
0.0
 51
179.9999999999
  0
ARC
  5
3FF
100
AcDbEntity
  8
0
100
AcDbCircle
 62
7
  6
CONTINUOUS
 10
7.8253183383
 20
9.8064363932
 40
0.04
100
AcDbArc
 50
180.0000000001
 51
360.0
  0
ARC
  5
400
100
AcDbEntity
  8
0
100
AcDbCircle
 62
7
  6
CONTINUOUS
 10
10.6449900902
 20
9.0014363932
 40
0.04
100
AcDbArc
 50
175.4789136132
 51
270.0
  0
ARC
  5
401
100
AcDbEntity
  8
0
100
AcDbCircle
 62
9
  6
CONTINUOUS
 10
10.890386149
 20
10.5961807853
 40
0.3526608771
100
AcDbArc
 50
106.2386613578
 51
109.591643047
  0
ARC
  5
402
100
AcDbEntity
  8
0
100
AcDbCircle
 62
7
  6
CONTINUOUS
 10
10.7723183383
 20
10.8679169552
 40
0.06
100
AcDbArc
 50
90.0
 51
254.1337178145
  0
ARC
  5
403
100
AcDbEntity
  8
0
100
AcDbCircle
 62
7
  6
CONTINUOUS
 10
10.7449790184
 20
10.7717267188
 40
0.04
100
AcDbArc
 50
291.4300309648
 51
74.1337178145
  0
ARC
  5
404
100
AcDbEntity
  8
0
100
AcDbCircle
 62
9
  6
CONTINUOUS
 10
14.9310852927
 20
3.2745547034
 40
8.7167338893
100
AcDbArc
 50
119.2207049322
 51
120.7792950678
  0
ARC
  5
405
100
AcDbEntity
  8
0
100
AcDbCircle
 62
7
  6
CONTINUOUS
 10
16.4440489116
 20
7.5408871691
 40
2.24
100
AcDbArc
 50
70.8503198608
 51
102.1833313251
  0
ARC
  5
406
100
AcDbEntity
  8
0
100
AcDbCircle
 62
7
  6
CONTINUOUS
 10
11.0697277695
 20
3.7091202075
 40
0.6176131207
100
AcDbArc
 50
36.4983261588
 51
37.1332674404
  0
ARC
  5
407
100
AcDbEntity
  8
0
100
AcDbCircle
 62
7
  6
CONTINUOUS
 10
11.1483007438
 20
3.7531507909
 40
0.5609724252
100
AcDbArc
 50
41.4789130846
 51
42.1334162444
  0
ARC
  5
408
100
AcDbEntity
  8
0
100
AcDbCircle
 62
7
  6
CONTINUOUS
 10
11.0482367002
 20
4.1237131762
 40
0.5335677832
100
AcDbArc
 50
44.2393478429
 51
45.4799111829
  0
ARC
  5
409
100
AcDbEntity
  8
0
100
AcDbCircle
 62
7
  6
CONTINUOUS
 10
11.0492617118
 20
4.1258423948
 40
0.532183439
100
AcDbArc
 50
329.9626759353
 51
331.645068286
  0
ARC
  5
40A
100
AcDbEntity
  8
0
100
AcDbCircle
 62
7
  6
CONTINUOUS
 10
11.0499726619
 20
4.125468753
 40
0.5313794989
100
AcDbArc
 50
340.5670220901
 51
342.2552658964
  0
ARC
  5
40B
100
AcDbEntity
  8
0
100
AcDbCircle
 62
7
  6
CONTINUOUS
 10
11.0504060006
 20
4.1252644036
 40
0.5309014172
100
AcDbArc
 50
335.2643724921
 51
336.9518645308
  0
ARC
  5
40C
100
AcDbEntity
  8
0
100
AcDbCircle
 62
7
  6
CONTINUOUS
 10
11.0502578617
 20
4.1320512896
 40
0.4520632452
100
AcDbArc
 50
0.0099161117
 51
34.5914669364
  0
ARC
  5
40D
100
AcDbEntity
  8
0
100
AcDbCircle
 62
7
  6
CONTINUOUS
 10
11.0499764814
 20
4.1457698844
 40
0.4312656243
100
AcDbArc
 50
0.0057253106
 51
30.0255899207
  0
ARC
  5
40E
100
AcDbEntity
  8
0
100
AcDbCircle
 62
7
  6
CONTINUOUS
 10
11.0499858949
 20
4.1458568833
 40
0.4312566167
100
AcDbArc
 50
332.5879710551
 51
359.9941669236
  0
ARC
  5
40F
100
AcDbEntity
  8
0
100
AcDbCircle
 62
9
  6
CONTINUOUS
 10
11.0501970158
 20
4.1492928111
 40
0.391043601
100
AcDbArc
 50
0.0009373429
 51
17.7746858923
  0
ARC
  5
410
100
AcDbEntity
  8
0
100
AcDbCircle
 62
9
  6
CONTINUOUS
 10
11.0503085361
 20
4.1492992176
 40
0.3909324587
100
AcDbArc
 50
359.4858093243
 51
359.9999986666
  0
ARC
  5
411
100
AcDbEntity
  8
0
100
AcDbCircle
 62
7
  6
CONTINUOUS
 10
11.0499068475
 20
4.1411466146
 40
0.3849139535
100
AcDbArc
 50
4.9183322501
 51
11.0877361015
  0
ARC
  5
412
100
AcDbEntity
  8
0
100
AcDbCircle
 62
7
  6
CONTINUOUS
 10
11.0501735208
 20
4.1492941765
 40
0.3846442659
100
AcDbArc
 50
0.0007495559
 51
14.2997741382
  0
ARC
  5
413
100
AcDbEntity
  8
0
100
AcDbCircle
 62
7
  6
CONTINUOUS
 10
11.0504910744
 20
4.1412633769
 40
0.3843181771
100
AcDbArc
 50
11.0874037919
 51
14.3111534201
  0
ARC
  5
414
100
AcDbEntity
  8
0
100
AcDbCircle
 62
7
  6
CONTINUOUS
 10
11.0505526082
 20
4.1412158364
 40
0.384264636
100
AcDbArc
 50
1.2043457176
 51
4.9163041011
  0
ARC
  5
415
100
AcDbEntity
  8
0
100
AcDbCircle
 62
7
  6
CONTINUOUS
 10
11.0479338495
 20
4.1425696784
 40
0.3744564126
100
AcDbArc
 50
336.0733317129
 51
338.3514142566
  0
ARC
  5
416
100
AcDbEntity
  8
0
100
AcDbCircle
 62
7
  6
CONTINUOUS
 10
11.0481362597
 20
4.1423542489
 40
0.374197359
100
AcDbArc
 50
346.4344606143
 51
350.7754737628
  0
ARC
  5
417
100
AcDbEntity
  8
0
100
AcDbCircle
 62
7
  6
CONTINUOUS
 10
11.0486419652
 20
4.1461078457
 40
0.373816224
100
AcDbArc
 50
330.3940784562
 51
335.9874060417
  0
ARC
  5
418
100
AcDbEntity
  8
0
100
AcDbCircle
 62
7
  6
CONTINUOUS
 10
11.0553943356
 20
4.1554455838
 40
0.3737467547
100
AcDbArc
 50
317.1168972035
 51
323.5908363562
  0
ARC
  5
419
100
AcDbEntity
  8
0
100
AcDbCircle
 62
7
  6
CONTINUOUS
 10
11.0489667818
 20
4.1459026133
 40
0.3734324041
100
AcDbArc
 50
325.3548297431
 51
330.2718230344
  0
ARC
  5
41A
100
AcDbEntity
  8
0
100
AcDbCircle
 62
7
  6
CONTINUOUS
 10
11.0492620589
 20
4.1453397352
 40
0.3730561048
100
AcDbArc
 50
352.2549648289
 51
359.3793609104
  0
ARC
  5
41B
100
AcDbEntity
  8
0
100
AcDbCircle
 62
7
  6
CONTINUOUS
 10
11.0492575299
 20
4.1420620789
 40
0.3730388397
100
AcDbArc
 50
338.3488757938
 51
346.4376886176
  0
ARC
  5
41C
100
AcDbEntity
  8
0
100
AcDbCircle
 62
7
  6
CONTINUOUS
 10
11.0494960494
 20
4.1456302656
 40
0.3728430312
100
AcDbArc
 50
343.5650524832
 51
344.5630999067
  0
ARC
  5
41D
100
AcDbEntity
  8
0
100
AcDbCircle
 62
7
  6
CONTINUOUS
 10
11.049765647
 20
4.1490052193
 40
0.3725523749
100
AcDbArc
 50
324.907404658
 51
359.9915975593
  0
ARC
  5
41E
100
AcDbEntity
  8
0
100
AcDbCircle
 62
7
  6
CONTINUOUS
 10
11.0499638751
 20
4.1454831364
 40
0.372354099
100
AcDbArc
 50
348.0204157313
 51
351.98597533
  0
ARC
  5
41F
100
AcDbEntity
  8
0
100
AcDbCircle
 62
7
  6
CONTINUOUS
 10
11.0500045223
 20
4.1454933369
 40
0.3723164547
100
AcDbArc
 50
344.562583633
 51
348.0175818128
  0
ARC
  5
420
100
AcDbEntity
  8
0
100
AcDbCircle
 62
7
  6
CONTINUOUS
 10
11.0501178695
 20
4.1453172603
 40
0.3722001012
100
AcDbArc
 50
359.3813934312
 51
0.0064625076
  0
ARC
  5
421
100
AcDbEntity
  8
0
100
AcDbCircle
 62
7
  6
CONTINUOUS
 10
11.0501328575
 20
4.1453962996
 40
0.372164929
100
AcDbArc
 50
336.6462260895
 51
341.4004944454
  0
ARC
  5
422
100
AcDbEntity
  8
0
100
AcDbCircle
 62
7
  6
CONTINUOUS
 10
11.0504294773
 20
4.1454494023
 40
0.3718883421
100
AcDbArc
 50
351.9811210424
 51
359.4291708112
  0
ARC
  5
423
100
AcDbEntity
  8
0
100
AcDbCircle
 62
7
  6
CONTINUOUS
 10
11.0506532789
 20
4.1451797417
 40
0.3716012982
100
AcDbArc
 50
335.9919242107
 51
336.6450723747
  0
ARC
  5
424
100
AcDbEntity
  8
0
100
AcDbCircle
 62
7
  6
CONTINUOUS
 10
11.0508760471
 20
4.1454251839
 40
0.3714415673
100
AcDbArc
 50
0.0060423484
 51
0.2168302003
  0
ARC
  5
425
100
AcDbEntity
  8
0
100
AcDbCircle
 62
7
  6
CONTINUOUS
 10
11.0512202447
 20
4.1454248495
 40
0.3710973697
100
AcDbArc
 50
359.4317451221
 51
0.0060995873
  0
ARC
  5
426
100
AcDbEntity
  8
0
100
AcDbCircle
 62
7
  6
CONTINUOUS
 10
11.0574150608
 20
4.1534759648
 40
0.3709249192
100
AcDbArc
 50
308.8936056959
 51
315.9495675644
  0
ARC
  5
427
100
AcDbEntity
  8
0
100
AcDbCircle
 62
7
  6
CONTINUOUS
 10
11.708837568
 20
9.0219311488
 40
0.22
100
AcDbArc
 50
133.5291690465
 51
184.5210862224
  0
ARC
  5
428
100
AcDbEntity
  8
0
100
AcDbCircle
 62
7
  6
CONTINUOUS
 10
11.5573183383
 20
9.2614363932
 40
0.08
100
AcDbArc
 50
270.0
 51
66.3918743947
  0
ARC
  5
429
100
AcDbEntity
  8
0
100
AcDbCircle
 62
7
  6
CONTINUOUS
 10
11.6093806064
 20
9.3805561659
 40
0.05
100
AcDbArc
 50
132.1534983591
 51
246.3918743947
  0
ARC
  5
42A
100
AcDbEntity
  8
0
100
AcDbCircle
 62
7
  6
CONTINUOUS
 10
11.4496465863
 20
9.0014363932
 40
0.04
100
AcDbArc
 50
270.0
 51
4.5210863868
  0
ARC
  5
42B
100
AcDbEntity
  8
0
100
AcDbCircle
 62
7
  6
CONTINUOUS
 10
11.0473183383
 20
10.0014363932
 40
1.37
100
AcDbArc
 50
285.8903122291
 51
254.1102937772
  0
ARC
  5
42C
100
AcDbEntity
  8
0
100
AcDbCircle
 62
9
  6
CONTINUOUS
 10
11.0473183383
 20
10.0014363932
 40
1.3376192143
100
AcDbArc
 50
286.2947454996
 51
253.7108480249
  0
ARC
  5
42D
100
AcDbEntity
  8
0
100
AcDbCircle
 62
9
  6
CONTINUOUS
 10
11.0473183383
 20
10.0014363932
 40
1.3054525101
100
AcDbArc
 50
286.7150351734
 51
253.2898082712
  0
ARC
  5
42E
100
AcDbEntity
  8
0
100
AcDbCircle
 62
9
  6
CONTINUOUS
 10
11.0473183383
 20
10.0014363932
 40
1.0770634572
100
AcDbArc
 50
294.257302413
 51
245.742697587
  0
ARC
  5
42F
100
AcDbEntity
  8
0
100
AcDbCircle
 62
7
  6
CONTINUOUS
 10
11.0473183383
 20
10.0014363932
 40
1.01
100
AcDbArc
 50
322.957845438
 51
337.042154562
  0
ARC
  5
430
100
AcDbEntity
  8
0
100
AcDbCircle
 62
7
  6
CONTINUOUS
 10
11.0473183383
 20
10.0014363932
 40
1.01
100
AcDbArc
 50
22.957845438
 51
37.0421545621
  0
ARC
  5
431
100
AcDbEntity
  8
0
100
AcDbCircle
 62
7
  6
CONTINUOUS
 10
11.0473183383
 20
10.0014363932
 40
1.01
100
AcDbArc
 50
142.957845438
 51
157.042154562
  0
ARC
  5
432
100
AcDbEntity
  8
0
100
AcDbCircle
 62
7
  6
CONTINUOUS
 10
11.0473183383
 20
10.0014363932
 40
1.01
100
AcDbArc
 50
202.957845438
 51
217.0421545621
  0
ARC
  5
433
100
AcDbEntity
  8
0
100
AcDbCircle
 62
9
  6
CONTINUOUS
 10
11.0473183383
 20
10.0014363932
 40
0.9676888659
100
AcDbArc
 50
134.6873590455
 51
135.8196055422
  0
ARC
  5
434
100
AcDbEntity
  8
0
100
AcDbCircle
 62
9
  6
CONTINUOUS
 10
11.0473183383
 20
10.0014363932
 40
0.9676888659
100
AcDbArc
 50
164.1803704121
 51
165.3124953113
  0
ARC
  5
435
100
AcDbEntity
  8
0
100
AcDbCircle
 62
9
  6
CONTINUOUS
 10
11.0473183383
 20
10.0014363932
 40
0.9676888659
100
AcDbArc
 50
314.6873590455
 51
315.8196055422
  0
ARC
  5
436
100
AcDbEntity
  8
0
100
AcDbCircle
 62
9
  6
CONTINUOUS
 10
11.0473183383
 20
10.0014363932
 40
0.9676888659
100
AcDbArc
 50
344.1803704121
 51
345.3124953113
  0
ARC
  5
437
100
AcDbEntity
  8
0
100
AcDbCircle
 62
9
  6
CONTINUOUS
 10
11.0473183383
 20
10.0014363932
 40
0.9676888659
100
AcDbArc
 50
14.6868461955
 51
15.8195204252
  0
ARC
  5
438
100
AcDbEntity
  8
0
100
AcDbCircle
 62
9
  6
CONTINUOUS
 10
11.0473183383
 20
10.0014363932
 40
0.9676888659
100
AcDbArc
 50
44.1803695791
 51
45.3124614067
  0
ARC
  5
439
100
AcDbEntity
  8
0
100
AcDbCircle
 62
9
  6
CONTINUOUS
 10
11.0473183383
 20
10.0014363932
 40
0.9676888659
100
AcDbArc
 50
74.68734884
 51
75.9000634365
  0
ARC
  5
43A
100
AcDbEntity
  8
0
100
AcDbCircle
 62
9
  6
CONTINUOUS
 10
11.0473183383
 20
10.0014363932
 40
0.9676888659
100
AcDbArc
 50
194.6868461955
 51
195.8195204252
  0
ARC
  5
43B
100
AcDbEntity
  8
0
100
AcDbCircle
 62
9
  6
CONTINUOUS
 10
11.0473183383
 20
10.0014363932
 40
0.9676888659
100
AcDbArc
 50
224.1803695791
 51
225.3124614067
  0
ARC
  5
43C
100
AcDbEntity
  8
0
100
AcDbCircle
 62
9
  6
CONTINUOUS
 10
11.0473183383
 20
10.0014363932
 40
0.9676888659
100
AcDbArc
 50
104.0959865223
 51
105.312456402
  0
ARC
  5
43D
100
AcDbEntity
  8
0
100
AcDbCircle
 62
9
  6
CONTINUOUS
 10
11.0473183383
 20
10.0014363932
 40
0.87
100
AcDbArc
 50
309.3152846043
 51
69.6196713997
  0
ARC
  5
43E
100
AcDbEntity
  8
0
100
AcDbCircle
 62
9
  6
CONTINUOUS
 10
11.0473183383
 20
10.0014363932
 40
0.87
100
AcDbArc
 50
110.3811003951
 51
230.6858570277
  0
ARC
  5
43F
100
AcDbEntity
  8
0
100
AcDbCircle
 62
7
  6
CONTINUOUS
 10
11.0473183383
 20
10.0014363932
 40
0.815
100
AcDbArc
 50
108.7916752434
 51
230.868098187
  0
ARC
  5
440
100
AcDbEntity
  8
0
100
AcDbCircle
 62
7
  6
CONTINUOUS
 10
11.0473183383
 20
10.0014363932
 40
0.815
100
AcDbArc
 50
309.1326675956
 51
71.204948538
  0
ARC
  5
441
100
AcDbEntity
  8
0
100
AcDbCircle
 62
7
  6
CONTINUOUS
 10
11.0473183383
 20
10.0014363932
 40
0.475
100
AcDbArc
 50
99.9635017638
 51
102.4937628314
  0
ARC
  5
442
100
AcDbEntity
  8
0
100
AcDbCircle
 62
7
  6
CONTINUOUS
 10
11.0473183383
 20
10.0014363932
 40
0.475
100
AcDbArc
 50
94.061562498
 51
97.7430435108
  0
ARC
  5
443
100
AcDbEntity
  8
0
100
AcDbCircle
 62
7
  6
CONTINUOUS
 10
11.0473183383
 20
10.0014363932
 40
0.475
100
AcDbArc
 50
158.9835933602
 51
162.4937628314
  0
ARC
  5
444
100
AcDbEntity
  8
0
100
AcDbCircle
 62
7
  6
CONTINUOUS
 10
11.0473183383
 20
10.0014363932
 40
0.475
100
AcDbArc
 50
153.0827903376
 51
156.7615705621
  0
ARC
  5
445
100
AcDbEntity
  8
0
100
AcDbCircle
 62
7
  6
CONTINUOUS
 10
11.0473183383
 20
10.0014363932
 40
0.475
100
AcDbArc
 50
147.1797403881
 51
150.8599912257
  0
ARC
  5
446
100
AcDbEntity
  8
0
100
AcDbCircle
 62
7
  6
CONTINUOUS
 10
11.0473183383
 20
10.0014363932
 40
0.475
100
AcDbArc
 50
141.2763193595
 51
144.9596380486
  0
ARC
  5
447
100
AcDbEntity
  8
0
100
AcDbCircle
 62
7
  6
CONTINUOUS
 10
11.0473183383
 20
10.0014363932
 40
0.475
100
AcDbArc
 50
137.5062371686
 51
139.0564146296
  0
ARC
  5
448
100
AcDbEntity
  8
0
100
AcDbCircle
 62
7
  6
CONTINUOUS
 10
11.0473183383
 20
10.0014363932
 40
0.475
100
AcDbArc
 50
212.1024195129
 51
215.7815884627
  0
ARC
  5
449
100
AcDbEntity
  8
0
100
AcDbCircle
 62
7
  6
CONTINUOUS
 10
11.0473183383
 20
10.0014363932
 40
0.475
100
AcDbArc
 50
206.1982509284
 51
209.8813723841
  0
ARC
  5
44A
100
AcDbEntity
  8
0
100
AcDbCircle
 62
7
  6
CONTINUOUS
 10
11.0473183383
 20
10.0014363932
 40
0.475
100
AcDbArc
 50
200.2971488316
 51
204.4298665609
  0
ARC
  5
44B
100
AcDbEntity
  8
0
100
AcDbCircle
 62
7
  6
CONTINUOUS
 10
11.0473183383
 20
10.0014363932
 40
0.475
100
AcDbArc
 50
197.5062371686
 51
198.0758600826
  0
ARC
  5
44C
100
AcDbEntity
  8
0
100
AcDbCircle
 62
7
  6
CONTINUOUS
 10
11.0473183383
 20
10.0014363932
 40
0.475
100
AcDbArc
 50
257.5062371686
 51
282.4937628314
  0
ARC
  5
44D
100
AcDbEntity
  8
0
100
AcDbCircle
 62
7
  6
CONTINUOUS
 10
11.0473183383
 20
10.0014363932
 40
0.475
100
AcDbArc
 50
40.9090909091
 51
42.4937628314
  0
ARC
  5
44E
100
AcDbEntity
  8
0
100
AcDbCircle
 62
7
  6
CONTINUOUS
 10
11.0473183383
 20
10.0014363932
 40
0.475
100
AcDbArc
 50
17.5062371686
 51
38.7456870405
  0
ARC
  5
44F
100
AcDbEntity
  8
0
100
AcDbCircle
 62
7
  6
CONTINUOUS
 10
11.0473183383
 20
10.0014363932
 40
0.475
100
AcDbArc
 50
88.1609215866
 51
91.8390784137
  0
ARC
  5
450
100
AcDbEntity
  8
0
100
AcDbCircle
 62
7
  6
CONTINUOUS
 10
11.0473183383
 20
10.0014363932
 40
0.475
100
AcDbArc
 50
82.2789307613
 51
85.960456197
  0
ARC
  5
451
100
AcDbEntity
  8
0
100
AcDbCircle
 62
7
  6
CONTINUOUS
 10
11.0473183383
 20
10.0014363932
 40
0.475
100
AcDbArc
 50
77.5062371686
 51
80.0585029284
  0
ARC
  5
452
100
AcDbEntity
  8
0
100
AcDbCircle
 62
7
  6
CONTINUOUS
 10
11.0473183383
 20
10.0014363932
 40
0.475
100
AcDbArc
 50
218.0045105735
 51
223.9055874249
  0
ARC
  5
453
100
AcDbEntity
  8
0
100
AcDbCircle
 62
7
  6
CONTINUOUS
 10
11.0473183383
 20
10.0014363932
 40
0.475
100
AcDbArc
 50
245.2924125751
 51
247.5135874249
  0
ARC
  5
454
100
AcDbEntity
  8
0
100
AcDbCircle
 62
7
  6
CONTINUOUS
 10
11.0473183383
 20
10.0014363932
 40
0.475
100
AcDbArc
 50
292.5084125751
 51
294.7295874249
  0
ARC
  5
455
100
AcDbEntity
  8
0
100
AcDbCircle
 62
7
  6
CONTINUOUS
 10
11.0473183383
 20
10.0014363932
 40
0.475
100
AcDbArc
 50
316.1164125751
 51
342.4937628314
  0
CIRCLE
  5
456
100
AcDbEntity
  8
0
100
AcDbCircle
 62
9
  6
CONTINUOUS
 10
11.0473183383
 20
10.0014363932
 40
0.395
  0
CIRCLE
  5
457
100
AcDbEntity
  8
0
100
AcDbCircle
 62
7
  6
CONTINUOUS
 10
11.0473183383
 20
10.0014363932
 40
0.3305676935
  0
ARC
  5
458
100
AcDbEntity
  8
0
100
AcDbCircle
 62
7
  6
CONTINUOUS
 10
14.3333183383
 20
10.0014363932
 40
0.221
100
AcDbArc
 50
118.0724869359
 51
241.9275130641
  0
ARC
  5
459
100
AcDbEntity
  8
0
100
AcDbCircle
 62
7
  6
CONTINUOUS
 10
14.377793865
 20
10.2693137027
 40
0.1
100
AcDbArc
 50
226.7836366413
 51
314.0467224409
  0
ARC
  5
45A
100
AcDbEntity
  8
0
100
AcDbCircle
 62
7
  6
CONTINUOUS
 10
14.377793865
 20
9.7335590837
 40
0.1
100
AcDbArc
 50
45.9532775591
 51
133.2163633587
  0
ARC
  5
45B
100
AcDbEntity
  8
0
100
AcDbCircle
 62
7
  6
CONTINUOUS
 10
14.2693183383
 20
9.8064363932
 40
0.04
100
AcDbArc
 50
180.0
 51
359.9999999999
  0
ARC
  5
45C
100
AcDbEntity
  8
0
100
AcDbCircle
 62
7
  6
CONTINUOUS
 10
14.2693183383
 20
10.1964363932
 40
0.04
100
AcDbArc
 50
0.0000000001
 51
180.0
  0
ARC
  5
45D
100
AcDbEntity
  8
0
100
AcDbCircle
 62
9
  6
CONTINUOUS
 10
11.1999657686
 20
10.5841434906
 40
0.3654169573
100
AcDbArc
 50
70.4092401264
 51
73.6435833155
  0
ARC
  5
45E
100
AcDbEntity
  8
0
100
AcDbCircle
 62
7
  6
CONTINUOUS
 10
11.0473183383
 20
10.7414363932
 40
0.3
100
AcDbArc
 50
38.4332063408
 51
141.5667936592
  0
ARC
  5
45F
100
AcDbEntity
  8
0
100
AcDbCircle
 62
7
  6
CONTINUOUS
 10
11.3223183383
 20
10.8679169552
 40
0.06
100
AcDbArc
 50
285.8662821855
 51
90.0
  0
ARC
  5
460
100
AcDbEntity
  8
0
100
AcDbCircle
 62
7
  6
CONTINUOUS
 10
11.3496576582
 20
10.7717267188
 40
0.04
100
AcDbArc
 50
105.8662821855
 51
248.5699690352
  0
ARC
  5
461
100
AcDbEntity
  8
0
100
AcDbCircle
 62
7
  6
CONTINUOUS
 10
15.0473183383
 20
10.0014363932
 40
1.1825
100
AcDbArc
 50
11.443490707
 51
348.5569565871
  0
ARC
  5
462
100
AcDbEntity
  8
0
100
AcDbCircle
 62
9
  6
CONTINUOUS
 10
15.0473183383
 20
10.0014363932
 40
1.1513359873
100
AcDbArc
 50
11.8836505216
 51
348.1232607172
  0
ARC
  5
463
100
AcDbEntity
  8
0
100
AcDbCircle
 62
9
  6
CONTINUOUS
 10
15.0473183383
 20
10.0014363932
 40
1.1091205187
100
AcDbArc
 50
12.7592245104
 51
347.2476260779
  0
ARC
  5
464
100
AcDbEntity
  8
0
100
AcDbCircle
 62
9
  6
CONTINUOUS
 10
15.0473183383
 20
10.0014363932
 40
0.8288771883
100
AcDbArc
 50
17.3310711065
 51
163.7252446971
  0
ARC
  5
465
100
AcDbEntity
  8
0
100
AcDbCircle
 62
9
  6
CONTINUOUS
 10
15.0473183383
 20
10.0014363932
 40
0.8288771883
100
AcDbArc
 50
196.2788199063
 51
342.6686489517
  0
ARC
  5
466
100
AcDbEntity
  8
0
100
AcDbCircle
 62
7
  6
CONTINUOUS
 10
15.0473183383
 20
10.0014363932
 40
0.745
100
AcDbArc
 50
22.6582875747
 51
37.3417124253
  0
ARC
  5
467
100
AcDbEntity
  8
0
100
AcDbCircle
 62
7
  6
CONTINUOUS
 10
15.0473183383
 20
10.0014363932
 40
0.745
100
AcDbArc
 50
322.6582875747
 51
337.3417124253
  0
ARC
  5
468
100
AcDbEntity
  8
0
100
AcDbCircle
 62
7
  6
CONTINUOUS
 10
15.0473183383
 20
10.0014363932
 40
0.745
100
AcDbArc
 50
202.6582875747
 51
217.3417124253
  0
ARC
  5
469
100
AcDbEntity
  8
0
100
AcDbCircle
 62
7
  6
CONTINUOUS
 10
15.0473183383
 20
10.0014363932
 40
0.745
100
AcDbArc
 50
142.6582875747
 51
157.3417124253
  0
ARC
  5
46A
100
AcDbEntity
  8
0
100
AcDbCircle
 62
7
  6
CONTINUOUS
 10
15.0473183383
 20
10.0014363932
 40
0.6665
100
AcDbArc
 50
17.2815065512
 51
165.0686682767
  0
ARC
  5
46B
100
AcDbEntity
  8
0
100
AcDbCircle
 62
7
  6
CONTINUOUS
 10
15.0473183383
 20
10.0014363932
 40
0.6665
100
AcDbArc
 50
194.9313317233
 51
342.7184934488
  0
ARC
  5
46C
100
AcDbEntity
  8
0
100
AcDbCircle
 62
7
  6
CONTINUOUS
 10
15.0473183383
 20
10.0014363932
 40
0.62
100
AcDbArc
 50
199.3079388237
 51
340.6920611763
  0
ARC
  5
46D
100
AcDbEntity
  8
0
100
AcDbCircle
 62
7
  6
CONTINUOUS
 10
15.0473183383
 20
10.0014363932
 40
0.62
100
AcDbArc
 50
19.3079388237
 51
160.6920611763
  0
ARC
  5
46E
100
AcDbEntity
  8
0
100
AcDbCircle
 62
9
  6
CONTINUOUS
 10
15.0473183383
 20
10.0014363932
 40
0.5777586961
100
AcDbArc
 50
90.0
 51
269.9942472677
  0
ARC
  5
46F
100
AcDbEntity
  8
0
100
AcDbCircle
 62
9
  6
CONTINUOUS
 10
15.0473183383
 20
10.0014363932
 40
0.5777586962
100
AcDbArc
 50
270.0
 51
89.9943174731
  0
CIRCLE
  5
470
100
AcDbEntity
  8
0
100
AcDbCircle
 62
7
  6
CONTINUOUS
 10
15.0473183383
 20
10.0014363932
 40
0.5435140523
  0
CIRCLE
  5
471
100
AcDbEntity
  8
0
100
AcDbCircle
 62
9
  6
CONTINUOUS
 10
15.0473183383
 20
10.0014363932
 40
0.5225
  0
CIRCLE
  5
472
100
AcDbEntity
  8
0
100
AcDbCircle
 62
9
  6
CONTINUOUS
 10
15.0473183383
 20
10.0014363932
 40
0.4706292722
  0
CIRCLE
  5
473
100
AcDbEntity
  8
0
100
AcDbCircle
 62
9
  6
CONTINUOUS
 10
15.0473183383
 20
10.0014363932
 40
0.4547355589
  0
CIRCLE
  5
474
100
AcDbEntity
  8
0
100
AcDbCircle
 62
7
  6
CONTINUOUS
 10
15.0473183383
 20
10.0014363932
 40
0.4275
  0
CIRCLE
  5
475
100
AcDbEntity
  8
0
100
AcDbCircle
 62
7
  6
CONTINUOUS
 10
15.0473183383
 20
10.0014363932
 40
0.42
  0
ARC
  5
476
100
AcDbEntity
  8
0
100
AcDbCircle
 62
7
  6
CONTINUOUS
 10
15.0473183383
 20
10.0014363932
 40
0.42
100
AcDbArc
 50
270.0
 51
277.8260869565
  0
CIRCLE
  5
477
100
AcDbEntity
  8
0
100
AcDbCircle
 62
9
  6
CONTINUOUS
 10
15.0473183383
 20
10.0014363932
 40
0.3865178571
  0
ARC
  5
478
100
AcDbEntity
  8
0
100
AcDbCircle
 62
7
  6
CONTINUOUS
 10
15.656442323
 20
9.4564363932
 40
0.349
100
AcDbArc
 50
51.9957995254
 51
90.0
  0
ARC
  5
479
100
AcDbEntity
  8
0
100
AcDbCircle
 62
7
  6
CONTINUOUS
 10
15.9213183383
 20
9.7304363932
 40
0.05
100
AcDbArc
 50
180.0
 51
360.0
  0
ARC
  5
47A
100
AcDbEntity
  8
0
100
AcDbCircle
 62
7
  6
CONTINUOUS
 10
15.9213183383
 20
10.2724363932
 40
0.05
100
AcDbArc
 50
0.0
 51
180.0
  0
ARC
  5
47B
100
AcDbEntity
  8
0
100
AcDbCircle
 62
7
  6
CONTINUOUS
 10
17.8250852039
 20
8.4849466738
 40
1.97
100
AcDbArc
 50
70.8503198608
 51
109.1496801392
  0
ARC
  5
47C
100
AcDbEntity
  8
0
100
AcDbCircle
 62
9
  6
CONTINUOUS
 10
18.8160646698
 20
10.0014363932
 40
8.7179461876
100
AcDbArc
 50
179.2208133054
 51
180.7791866946
  0
ARC
  5
47D
100
AcDbEntity
  8
0
100
AcDbCircle
 62
7
  6
CONTINUOUS
 10
18.3033183383
 20
10.0014363932
 40
0.39
100
AcDbArc
 50
313.6098152012
 51
46.3901847988
  0
ARC
  5
47E
100
AcDbEntity
  8
0
100
AcDbCircle
 62
7
  6
CONTINUOUS
 10
18.5218183383
 20
9.6569363932
 40
0.0505
100
AcDbArc
 50
180.0
 51
360.0
  0
ARC
  5
47F
100
AcDbEntity
  8
0
100
AcDbCircle
 62
7
  6
CONTINUOUS
 10
18.5218183383
 20
10.3459363932
 40
0.0505
100
AcDbArc
 50
0.0
 51
180.0
  0
ARC
  5
480
100
AcDbEntity
  8
0
100
AcDbCircle
 62
7
  6
CONTINUOUS
 10
16.4440489116
 20
12.4619856174
 40
2.24
100
AcDbArc
 50
257.8166686749
 51
289.1496801392
  0
ARC
  5
481
100
AcDbEntity
  8
0
100
AcDbCircle
 62
7
  6
CONTINUOUS
 10
17.8250852039
 20
11.5179261127
 40
1.97
100
AcDbArc
 50
250.8503198608
 51
289.1496801392
  0
ARC
  5
482
100
AcDbEntity
  8
0
100
AcDbCircle
 62
7
  6
CONTINUOUS
 10
15.656442323
 20
10.5464363932
 40
0.349
100
AcDbArc
 50
270.0
 51
308.0042004746
  0
LINE
  5
483
100
AcDbEntity
  8
0
100
AcDbLine
 62
7
  6
CONTINUOUS
 10
11.5681689125
 20
4.1252415719
 11
11.5685799196
 21
4.1257061408
  0
SPLINE
  5
484
100
AcDbEntity
  8
0
100
AcDbSpline
 62
7
  6
CONTINUOUS
 70
0
 71
3
 72
19
 73
15
 74
0
 42
0.0000001
 43
0.0000001
 44
0.0000000001
 40
0.0
 40
0.0
 40
0.0
 40
0.0
 40
0.2004238128
 40
0.3836588162
 40
0.5473212984
 40
0.6891360258
 40
0.8068451208
 40
0.8561046347
 40
0.8987231297
 40
0.9344449557
 40
0.9630388391
 40
0.984645116
 40
0.9930407903
 40
1.0
 40
1.0
 40
1.0
 40
1.0
 10
11.5685799196
 20
4.1257061408
 30
0.0
 10
11.5694869695
 20
4.1267327029
 30
0.0
 10
11.5712151542
 20
4.1287050002
 30
0.0
 10
11.5736496233
 20
4.1315454729
 30
0.0
 10
11.5757871855
 20
4.1341124916
 30
0.0
 10
11.5775953308
 20
4.1363703343
 30
0.0
 10
11.5788698663
 20
4.1380531832
 30
0.0
 10
11.5796949309
 20
4.1392244366
 30
0.0
 10
11.5801760457
 20
4.1399520081
 30
0.0
 10
11.58055432
 20
4.1405778646
 30
0.0
 10
11.5808262587
 20
4.1410986724
 30
0.0
 10
11.5809762893
 20
4.1414718241
 30
0.0
 10
11.5810354785
 20
4.141717841
 30
0.0
 10
11.5810463999
 20
4.1418227862
 30
0.0
 10
11.5810463999
 20
4.1418703518
 30
0.0
  0
SPLINE
  5
485
100
AcDbEntity
  8
0
100
AcDbSpline
 62
7
  6
CONTINUOUS
 70
0
 71
3
 72
19
 73
15
 74
0
 42
0.0000001
 43
0.0000001
 44
0.0000000001
 40
0.0
 40
0.0
 40
0.0
 40
0.0
 40
0.0070028858
 40
0.0155256693
 40
0.0374858458
 40
0.0662763518
 40
0.1019568354
 40
0.1444623234
 40
0.1936650541
 40
0.3113247362
 40
0.4530328233
 40
0.616587638
 40
0.7996626438
 40
1.0
 40
1.0
 40
1.0
 40
1.0
 10
10.5135802918
 20
4.1419185766
 30
0.0
 10
10.5135802918
 20
4.1418706882
 30
0.0
 10
10.5135922208
 20
4.1417645531
 30
0.0
 10
10.5136549207
 20
4.1415155938
 30
0.0
 10
10.513809668
 20
4.1411392161
 30
0.0
 10
10.5140840426
 20
4.1406154973
 30
0.0
 10
10.514462272
 20
4.1399888404
 30
0.0
 10
10.5149424309
 20
4.139261834
 30
0.0
 10
10.5157669689
 20
4.138091148
 30
0.0
 10
10.517041274
 20
4.136408609
 30
0.0
 10
10.5188489537
 20
4.1341508228
 30
0.0
 10
10.5209858567
 20
4.131584378
 30
0.0
 10
10.5234196256
 20
4.1287439943
 30
0.0
 10
10.5251474498
 20
4.1267718491
 30
0.0
 10
10.5260546077
 20
4.1257452431
 30
0.0
  0
LINE
  5
486
100
AcDbEntity
  8
0
100
AcDbLine
 62
7
  6
CONTINUOUS
 10
10.5260546077
 20
4.1257452431
 11
10.5264652915
 21
4.1252810828
  0
LINE
  5
487
100
AcDbEntity
  8
0
100
AcDbLine
 62
7
  6
CONTINUOUS
 10
11.5658898794
 20
4.1734966468
 11
11.5662180349
 21
4.1739397219
  0
LINE
  5
488
100
AcDbEntity
  8
0
100
AcDbLine
 62
7
  6
CONTINUOUS
 10
11.5662180349
 20
4.1739397219
 11
11.5663410299
 21
4.1741060405
  0
SPLINE
  5
489
100
AcDbEntity
  8
0
100
AcDbSpline
 62
7
  6
CONTINUOUS
 70
0
 71
3
 72
19
 73
15
 74
0
 42
0.0000001
 43
0.0000001
 44
0.0000000001
 40
0.0
 40
0.0
 40
0.0
 40
0.0
 40
0.1999036822
 40
0.3825799077
 40
0.5458190786
 40
0.6873594364
 40
0.8050597886
 40
0.8543746683
 40
0.8970568555
 40
0.9329753543
 40
0.962047915
 40
0.9842951815
 40
0.992932647
 40
1.0
 40
1.0
 40
1.0
 40
1.0
 10
11.5663410299
 20
4.1741060405
 30
0.0
 10
11.5671357711
 20
4.1751811701
 30
0.0
 10
11.5686488659
 20
4.1772446408
 30
0.0
 10
11.5707781489
 20
4.1802099133
 30
0.0
 10
11.572645834
 20
4.1828822332
 30
0.0
 10
11.5742242845
 20
4.1852260113
 30
0.0
 10
11.575335485
 20
4.1869654313
 30
0.0
 10
11.5760537378
 20
4.1881701911
 30
0.0
 10
11.5764721498
 20
4.1889165191
 30
0.0
 10
11.5768016211
 20
4.1895572125
 30
0.0
 10
11.5770404828
 20
4.1900896996
 30
0.0
 10
11.577174935
 20
4.1904687797
 30
0.0
 10
11.5772294462
 20
4.1907169762
 30
0.0
 10
11.5772398975
 20
4.1908219765
 30
0.0
 10
11.5772398975
 20
4.1908692439
 30
0.0
  0
SPLINE
  5
48A
100
AcDbEntity
  8
0
100
AcDbSpline
 62
7
  6
CONTINUOUS
 70
0
 71
3
 72
21
 73
17
 74
0
 42
0.0000001
 43
0.0000001
 44
0.0000000001
 40
0.0
 40
0.0
 40
0.0
 40
0.0
 40
0.1971854844
 40
0.3790213487
 40
0.5428070823
 40
0.6857723111
 40
0.7485613189
 40
0.8051024944
 40
0.8550821265
 40
0.8982282321
 40
0.9343142968
 40
0.9632251592
 40
0.9749904093
 40
0.9849910054
 40
0.9932876672
 40
1.0
 40
1.0
 40
1.0
 40
1.0
 10
11.5621163343
 20
4.1769956587
 30
0.0
 10
11.5633997138
 20
4.1758036559
 30
0.0
 10
11.565856997
 20
4.1735020934
 30
0.0
 10
11.5693406667
 20
4.1701684295
 30
0.0
 10
11.5724346146
 20
4.1671246877
 30
0.0
 10
11.5747321355
 20
4.1647797725
 30
0.0
 10
11.5763272223
 20
4.1630813722
 30
0.0
 10
11.577337888
 20
4.1619675119
 30
0.0
 10
11.5782094596
 20
4.1609634549
 30
0.0
 10
11.5789365754
 20
4.1600750484
 30
0.0
 10
11.5795142078
 20
4.1593072248
 30
0.0
 10
11.5798918036
 20
4.1587383854
 30
0.0
 10
11.580109922
 20
4.1583443339
 30
0.0
 10
11.5802225788
 20
4.1581018401
 30
0.0
 10
11.5802960495
 20
4.1578918072
 30
0.0
 10
11.5803214045
 20
4.1577599017
 30
0.0
 10
11.5803250843
 20
4.1577003913
 30
0.0
  0
LINE
  5
48B
100
AcDbEntity
  8
0
100
AcDbLine
 62
7
  6
CONTINUOUS
 10
11.559093382
 20
4.2213173321
 11
11.5592597801
 21
4.2215879551
  0
LINE
  5
48C
100
AcDbEntity
  8
0
100
AcDbLine
 62
7
  6
CONTINUOUS
 10
11.5592597801
 20
4.2215879551
 11
11.5593808895
 21
4.221785128
  0
SPLINE
  5
48D
100
AcDbEntity
  8
0
100
AcDbSpline
 62
7
  6
CONTINUOUS
 70
0
 71
3
 72
19
 73
15
 74
0
 42
0.0000001
 43
0.0000001
 44
0.0000000001
 40
0.0
 40
0.0
 40
0.0
 40
0.0
 40
0.1994140088
 40
0.3817202181
 40
0.5447306462
 40
0.6862088325
 40
0.8040310835
 40
0.8534761203
 40
0.8963313964
 40
0.9324579334
 40
0.9617555226
 40
0.9842077975
 40
0.9929135201
 40
1.0
 40
1.0
 40
1.0
 40
1.0
 10
11.5593808895
 20
4.221785128
 30
0.0
 10
11.5600759427
 20
4.2229172171
 30
0.0
 10
11.5613990892
 20
4.2250887933
 30
0.0
 10
11.5632600485
 20
4.2282041575
 30
0.0
 10
11.5648917778
 20
4.2310067076
 30
0.0
 10
11.5662703413
 20
4.2334592155
 30
0.0
 10
11.5672400974
 20
4.235273351
 30
0.0
 10
11.5678666102
 20
4.2365251939
 30
0.0
 10
11.5682317359
 20
4.2372989848
 30
0.0
 10
11.5685191884
 20
4.2379608099
 30
0.0
 10
11.568727494
 20
4.238508013
 30
0.0
 10
11.5688446216
 20
4.2388942833
 30
0.0
 10
11.5688921538
 20
4.2391447887
 30
0.0
 10
11.5689013381
 20
4.2392499572
 30
0.0
 10
11.5689013381
 20
4.2392971649
 30
0.0
  0
SPLINE
  5
48E
100
AcDbEntity
  8
0
100
AcDbSpline
 62
7
  6
CONTINUOUS
 70
0
 71
3
 72
21
 73
17
 74
0
 42
0.0000001
 43
0.0000001
 44
0.0000000001
 40
0.0
 40
0.0
 40
0.0
 40
0.0
 40
0.1962500869
 40
0.377266668
 40
0.5404178126
 40
0.6830131704
 40
0.7457420927
 40
0.8023205187
 40
0.8524434313
 40
0.8958496403
 40
0.9323202236
 40
0.9617483515
 40
0.973827
 40
0.9841781137
 40
0.9928635976
 40
1.0
 40
1.0
 40
1.0
 40
1.0
 10
11.5555224517
 20
4.2241108756
 30
0.0
 10
11.5568830494
 20
4.2230535264
 30
0.0
 10
11.5594895432
 20
4.2210091581
 30
0.0
 10
11.5631894685
 20
4.2180380744
 30
0.0
 10
11.5664822162
 20
4.2153130436
 30
0.0
 10
11.5689340716
 20
4.2132015971
 30
0.0
 10
11.5706425335
 20
4.2116622086
 30
0.0
 10
11.5717295271
 20
4.210646393
 30
0.0
 10
11.5726714507
 20
4.2097243095
 30
0.0
 10
11.5734626307
 20
4.2089011608
 30
0.0
 10
11.5740977718
 20
4.2081813076
 30
0.0
 10
11.5745191476
 20
4.2076404847
 30
0.0
 10
11.574768987
 20
4.2072595175
 30
0.0
 10
11.5749024624
 20
4.2070207485
 30
0.0
 10
11.5749948338
 20
4.2068099149
 30
0.0
 10
11.5750324394
 20
4.2066752344
 30
0.0
 10
11.5750420903
 20
4.2066133222
 30
0.0
  0
LINE
  5
48F
100
AcDbEntity
  8
0
100
AcDbLine
 62
7
  6
CONTINUOUS
 10
11.5478110204
 20
4.2682164545
 11
11.5480672034
 21
4.2687266505
  0
SPLINE
  5
490
100
AcDbEntity
  8
0
100
AcDbSpline
 62
7
  6
CONTINUOUS
 70
0
 71
3
 72
19
 73
15
 74
0
 42
0.0000001
 43
0.0000001
 44
0.0000000001
 40
0.0
 40
0.0
 40
0.0
 40
0.0
 40
0.199041327
 40
0.3810405303
 40
0.5438363469
 40
0.6852275631
 40
0.8031195249
 40
0.8526627169
 40
0.8956582136
 40
0.9319618558
 40
0.961459208
 40
0.9841040219
 40
0.9928810763
 40
1.0
 40
1.0
 40
1.0
 40
1.0
 10
11.5480672034
 20
4.2687266505
 30
0.0
 10
11.5486555095
 20
4.2698995169
 30
0.0
 10
11.5497752149
 20
4.2721481191
 30
0.0
 10
11.5513490887
 20
4.2753693652
 30
0.0
 10
11.5527283461
 20
4.2782625885
 30
0.0
 10
11.5538930163
 20
4.2807896749
 30
0.0
 10
11.5547116205
 20
4.2826539691
 30
0.0
 10
11.5552401652
 20
4.2839366363
 30
0.0
 10
11.5555482909
 20
4.284728202
 30
0.0
 10
11.555790815
 20
4.2854033506
 30
0.0
 10
11.5559664911
 20
4.2859593976
 30
0.0
 10
11.5560651619
 20
4.2863493417
 30
0.0
 10
11.5561052271
 20
4.2866003761
 30
0.0
 10
11.5561130141
 20
4.2867051395
 30
0.0
 10
11.5561130141
 20
4.2867520697
 30
0.0
  0
SPLINE
  5
491
100
AcDbEntity
  8
0
100
AcDbSpline
 62
7
  6
CONTINUOUS
 70
0
 71
3
 72
21
 73
17
 74
0
 42
0.0000001
 43
0.0000001
 44
0.0000000001
 40
0.0
 40
0.0
 40
0.0
 40
0.0
 40
0.1954286748
 40
0.3757170156
 40
0.5382973431
 40
0.6805544983
 40
0.7432256758
 40
0.7998337998
 40
0.8500823406
 40
0.8937195597
 40
0.9305348898
 40
0.9604269975
 40
0.9727870007
 40
0.9834524834
 40
0.9924856203
 40
1.0
 40
1.0
 40
1.0
 40
1.0
 10
11.5445929433
 20
4.2704190381
 30
0.0
 10
11.5460173166
 20
4.2695012954
 30
0.0
 10
11.5487473719
 20
4.2677239006
 30
0.0
 10
11.5526276813
 20
4.2651301628
 30
0.0
 10
11.5560878807
 20
4.2627383767
 30
0.0
 10
11.5586713853
 20
4.2608725417
 30
0.0
 10
11.5604779758
 20
4.2595018742
 30
0.0
 10
11.5616319269
 20
4.2585912531
 30
0.0
 10
11.5626364752
 20
4.2577582803
 30
0.0
 10
11.5634856926
 20
4.2570074812
 30
0.0
 10
11.5641740863
 20
4.2563426577
 30
0.0
 10
11.5646370124
 20
4.2558357282
 30
0.0
 10
11.5649177805
 20
4.2554725249
 30
0.0
 10
11.5650720513
 20
4.2552409033
 30
0.0
 10
11.5651837735
 20
4.255032655
 30
0.0
 10
11.5652342032
 20
4.2548974426
 30
0.0
 10
11.5652501697
 20
4.2548342772
 30
0.0
  0
LINE
  5
492
100
AcDbEntity
  8
0
100
AcDbLine
 62
7
  6
CONTINUOUS
 10
11.5322665566
 20
4.3140291037
 11
11.5324096727
 21
4.3143874636
  0
SPLINE
  5
493
100
AcDbEntity
  8
0
100
AcDbSpline
 62
7
  6
CONTINUOUS
 70
0
 71
3
 72
19
 73
15
 74
0
 42
0.0000001
 43
0.0000001
 44
0.0000000001
 40
0.0
 40
0.0
 40
0.0
 40
0.0
 40
0.198730336
 40
0.3804742504
 40
0.5430924682
 40
0.6844128831
 40
0.8023643487
 40
0.8519895752
 40
0.895101813
 40
0.9315523252
 40
0.961214814
 40
0.9840183979
 40
0.9928542595
 40
1.0
 40
1.0
 40
1.0
 40
1.0
 10
11.5324096727
 20
4.3143874636
 30
0.0
 10
11.5328910086
 20
4.3155935613
 30
0.0
 10
11.5338069629
 20
4.3179048997
 30
0.0
 10
11.5350937875
 20
4.3212122256
 30
0.0
 10
11.5362209788
 20
4.3241790408
 30
0.0
 10
11.5371723957
 20
4.3267665506
 30
0.0
 10
11.5378406439
 20
4.3286713602
 30
0.0
 10
11.5382718967
 20
4.3299788653
 30
0.0
 10
11.5385233681
 20
4.330784752
 30
0.0
 10
11.5387212635
 20
4.3314706122
 30
0.0
 10
11.5388645638
 20
4.332033738
 30
0.0
 10
11.5389449793
 20
4.3324265871
 30
0.0
 10
11.5389776467
 20
4.3326780033
 30
0.0
 10
11.5389840261
 20
4.332782414
 30
0.0
 10
11.5389840261
 20
4.3328291076
 30
0.0
  0
SPLINE
  5
494
100
AcDbEntity
  8
0
100
AcDbSpline
 62
7
  6
CONTINUOUS
 70
0
 71
3
 72
21
 73
17
 74
0
 42
0.0000001
 43
0.0000001
 44
0.0000000001
 40
0.0
 40
0.0
 40
0.0
 40
0.0
 40
0.1947363298
 40
0.3743999325
 40
0.5364822074
 40
0.6784373573
 40
0.7410534139
 40
0.7976824257
 40
0.8480360975
 40
0.891870709
 40
0.928984422
 40
0.9592792533
 40
0.9718837714
 40
0.9828228188
 40
0.9921578869
 40
1.0
 40
1.0
 40
1.0
 40
1.0
 10
11.5294210518
 20
4.3155250788
 30
0.0
 10
11.5308957359
 20
4.3147504687
 30
0.0
 10
11.5337235958
 20
4.3132471004
 30
0.0
 10
11.5377480751
 20
4.3110416685
 30
0.0
 10
11.5413437659
 20
4.3089943224
 30
0.0
 10
11.5440354928
 20
4.3073838235
 30
0.0
 10
11.5459241763
 20
4.3061899527
 30
0.0
 10
11.5471349988
 20
4.3053906618
 30
0.0
 10
11.5481936199
 20
4.3046530963
 30
0.0
 10
11.5490939176
 20
4.3039810817
 30
0.0
 10
11.5498302606
 20
4.3033778757
 30
0.0
 10
11.5503315588
 20
4.3029104756
 30
0.0
 10
11.5506416224
 20
4.3025696138
 30
0.0
 10
11.550816024
 20
4.3023485586
 30
0.0
 10
11.5509468814
 20
4.3021463206
 30
0.0
 10
11.5510102332
 20
4.302012885
 30
0.0
 10
11.5510326209
 20
4.3019496509
 30
0.0
  0
SPLINE
  5
495
100
AcDbEntity
  8
0
100
AcDbSpline
 62
7
  6
CONTINUOUS
 70
0
 71
3
 72
18
 73
14
 74
0
 42
0.0000001
 43
0.0000001
 44
0.0000000001
 40
0.0
 40
0.0
 40
0.0
 40
0.0
 40
0.1983940495
 40
0.3799220068
 40
0.5424441906
 40
0.6837826592
 40
0.8018545312
 40
0.8515714242
 40
0.8947905542
 40
0.9313559583
 40
0.9611297119
 40
0.9840188116
 40
1.0
 40
1.0
 40
1.0
 40
1.0
 10
11.5124693937
 20
4.3580922908
 30
0.0
 10
11.5128494365
 20
4.3593420652
 30
0.0
 10
11.5135726934
 20
4.3617367466
 30
0.0
 10
11.5145886596
 20
4.3651608163
 30
0.0
 10
11.5154786897
 20
4.3682303472
 30
0.0
 10
11.5162299979
 20
4.3709049779
 30
0.0
 10
11.5167576298
 20
4.3728708768
 30
0.0
 10
11.5170981016
 20
4.3742178667
 30
0.0
 10
11.5172967508
 20
4.3750471214
 30
0.0
 10
11.5174529102
 20
4.3757513821
 30
0.0
 10
11.5175664044
 20
4.3763280165
 30
0.0
 10
11.517636369
 20
4.3767744382
 30
0.0
 10
11.5176605061
 20
4.3770299587
 30
0.0
 10
11.5176605061
 20
4.3771351832
 30
0.0
  0
SPLINE
  5
496
100
AcDbEntity
  8
0
100
AcDbSpline
 62
7
  6
CONTINUOUS
 70
0
 71
3
 72
19
 73
15
 74
0
 42
0.0000001
 43
0.0000001
 44
0.0000000001
 40
0.0
 40
0.0
 40
0.0
 40
0.0
 40
0.1941792477
 40
0.3733274243
 40
0.5349896002
 40
0.6766831872
 40
0.7958843968
 40
0.846323452
 40
0.890322152
 40
0.9276873178
 40
0.958322748
 40
0.9822901445
 40
0.9918808589
 40
1.0
 40
1.0
 40
1.0
 40
1.0
 10
11.5101362126
 20
4.359044186
 30
0.0
 10
11.5116477495
 20
4.3584149444
 30
0.0
 10
11.5145476305
 20
4.3571901878
 30
0.0
 10
11.5186797836
 20
4.355380467
 30
0.0
 10
11.5223787193
 20
4.3536858028
 30
0.0
 10
11.5255837942
 20
4.352128871
 30
0.0
 10
11.5279086146
 20
4.3509078476
 30
0.0
 10
11.529469195
 20
4.3500075874
 30
0.0
 10
11.5304127194
 20
4.3494199387
 30
0.0
 10
11.5311912091
 20
4.348884321
 30
0.0
 10
11.5317998862
 20
4.3484031851
 30
0.0
 10
11.5321907248
 20
4.3480255323
 30
0.0
 10
11.532406269
 20
4.3477472775
 30
0.0
 10
11.5324822262
 20
4.3476178617
 30
0.0
 10
11.5325109469
 20
4.3475557187
 30
0.0
  0
LINE
  5
497
100
AcDbEntity
  8
0
100
AcDbLine
 62
7
  6
CONTINUOUS
 10
11.4886388628
 20
4.4000943449
 11
11.488679814
 21
4.4002859917
  0
SPLINE
  5
498
100
AcDbEntity
  8
0
100
AcDbSpline
 62
7
  6
CONTINUOUS
 70
0
 71
3
 72
18
 73
14
 74
0
 42
0.0000001
 43
0.0000001
 44
0.0000000001
 40
0.0
 40
0.0
 40
0.0
 40
0.0
 40
0.1982951946
 40
0.3796832215
 40
0.5420553204
 40
0.6832796055
 40
0.8013168198
 40
0.8510573484
 40
0.8943329049
 40
0.9309879689
 40
0.9608796452
 40
0.9839029864
 40
1.0
 40
1.0
 40
1.0
 40
1.0
 10
11.488679814
 20
4.4002859917
 30
0.0
 10
11.4889471317
 20
4.401537438
 30
0.0
 10
11.4894556982
 20
4.4039343314
 30
0.0
 10
11.4901696712
 20
4.4073588024
 30
0.0
 10
11.4907946772
 20
4.4104255769
 30
0.0
 10
11.4913219018
 20
4.4130949962
 30
0.0
 10
11.4916918569
 20
4.4150545414
 30
0.0
 10
11.4919304267
 20
4.4163955064
 30
0.0
 10
11.4920696278
 20
4.4172206895
 30
0.0
 10
11.4921790323
 20
4.417920924
 30
0.0
 10
11.4922585236
 20
4.4184935617
 30
0.0
 10
11.4923074895
 20
4.4189361738
 30
0.0
 10
11.4923243708
 20
4.4191884289
 30
0.0
 10
11.4923243708
 20
4.4192923094
 30
0.0
  0
SPLINE
  5
499
100
AcDbEntity
  8
0
100
AcDbSpline
 62
7
  6
CONTINUOUS
 70
0
 71
3
 72
19
 73
15
 74
0
 42
0.0000001
 43
0.0000001
 44
0.0000000001
 40
0.0
 40
0.0
 40
0.0
 40
0.0
 40
0.1937564935
 40
0.3724970542
 40
0.5338146981
 40
0.6752834899
 40
0.7944382755
 40
0.8449394166
 40
0.8890648467
 40
0.9266295765
 40
0.9575382034
 40
0.9818595742
 40
0.9916569898
 40
1.0
 40
1.0
 40
1.0
 40
1.0
 10
11.4869029498
 20
4.4006050864
 30
0.0
 10
11.4884380678
 20
4.4001221933
 30
0.0
 10
11.4913844606
 20
4.3991781821
 30
0.0
 10
11.4955881526
 20
4.3977682475
 30
0.0
 10
11.49935769
 20
4.3964310218
 30
0.0
 10
11.5026327671
 20
4.3951829691
 30
0.0
 10
11.5050174021
 20
4.3941851439
 30
0.0
 10
11.5066265739
 20
4.3934339501
 30
0.0
 10
11.5076050767
 20
4.3929354391
 30
0.0
 10
11.5084183645
 20
4.3924725252
 30
0.0
 10
11.5090615543
 20
4.3920470743
 30
0.0
 10
11.5094818019
 20
4.3917043659
 30
0.0
 10
11.5097212875
 20
4.3914447267
 30
0.0
 10
11.5098091851
 20
4.3913214993
 30
0.0
 10
11.5098439467
 20
4.391261555
 30
0.0
  0
SPLINE
  5
49A
100
AcDbEntity
  8
0
100
AcDbSpline
 62
7
  6
CONTINUOUS
 70
0
 71
3
 72
17
 73
13
 74
0
 42
0.0000001
 43
0.0000001
 44
0.0000000001
 40
0.0
 40
0.0
 40
0.0
 40
0.0
 40
0.1981702993
 40
0.379456377
 40
0.5417581713
 40
0.6829551621
 40
0.8010169998
 40
0.8941120868
 40
0.930825238
 40
0.960781866
 40
0.9838673817
 40
1.0
 40
1.0
 40
1.0
 40
1.0
 10
11.4610061433
 20
4.4397770811
 30
0.0
 10
11.4611665359
 20
4.4410412287
 30
0.0
 10
11.4614716562
 20
4.4434620722
 30
0.0
 10
11.4618999353
 20
4.4469192831
 30
0.0
 10
11.4622747463
 20
4.4500139537
 30
0.0
 10
11.4625909626
 20
4.4527061934
 30
0.0
 10
11.4628436086
 20
4.454957787
 30
0.0
 10
11.4630093721
 20
4.4565430525
 30
0.0
 10
11.4631046845
 20
4.4575659499
 30
0.0
 10
11.4631523149
 20
4.4581411641
 30
0.0
 10
11.4631816454
 20
4.4585849877
 30
0.0
 10
11.4631917695
 20
4.4588370958
 30
0.0
 10
11.4631917695
 20
4.4589408324
 30
0.0
  0
SPLINE
  5
49B
100
AcDbEntity
  8
0
100
AcDbSpline
 62
7
  6
CONTINUOUS
 70
0
 71
3
 72
19
 73
15
 74
0
 42
0.0000001
 43
0.0000001
 44
0.0000000001
 40
0.0
 40
0.0
 40
0.0
 40
0.0
 40
0.1934791592
 40
0.3719294599
 40
0.5329857031
 40
0.674271525
 40
0.793373314
 40
0.8439129517
 40
0.8881265744
 40
0.9258363175
 40
0.9569472037
 40
0.9815338705
 40
0.9914875888
 40
1.0
 40
1.0
 40
1.0
 40
1.0
 10
11.4599194726
 20
4.439853213
 30
0.0
 10
11.4614651984
 20
4.4395164779
 30
0.0
 10
11.4644331304
 20
4.4388530896
 30
0.0
 10
11.4686727331
 20
4.437843706
 30
0.0
 10
11.4724806731
 20
4.4368658403
 30
0.0
 10
11.4757974323
 20
4.4359300129
 30
0.0
 10
11.4782210899
 20
4.4351594906
 30
0.0
 10
11.4798646009
 20
4.4345616715
 30
0.0
 10
11.4808691167
 20
4.4341560438
 30
0.0
 10
11.4817095402
 20
4.4337700806
 30
0.0
 10
11.4823809506
 20
4.4334050809
 30
0.0
 10
11.4828263812
 20
4.4331017129
 30
0.0
 10
11.4830872005
 20
4.4328644992
 30
0.0
 10
11.4831859883
 20
4.4327494356
 30
0.0
 10
11.4832263175
 20
4.4326927087
 30
0.0
  0
LINE
  5
49C
100
AcDbEntity
  8
0
100
AcDbLine
 62
7
  6
CONTINUOUS
 10
11.4297820697
 20
4.4765006576
 11
11.4305112404
 21
4.4957425
  0
SPLINE
  5
49D
100
AcDbEntity
  8
0
100
AcDbSpline
 62
7
  6
CONTINUOUS
 70
0
 71
3
 72
18
 73
14
 74
0
 42
0.0000001
 43
0.0000001
 44
0.0000000001
 40
0.0
 40
0.0
 40
0.0
 40
0.0
 40
0.1933557978
 40
0.3716411946
 40
0.5325263998
 40
0.6736773867
 40
0.792724765
 40
0.8432809932
 40
0.8875456404
 40
0.9253472745
 40
0.9565909084
 40
0.9813531014
 40
1.0
 40
1.0
 40
1.0
 40
1.0
 10
11.4294159844
 20
4.4764537293
 30
0.0
 10
11.4309596675
 20
4.4762618951
 30
0.0
 10
11.433924747
 20
4.4758769283
 30
0.0
 10
11.4381653026
 20
4.4752658503
 30
0.0
 10
11.4419798565
 20
4.4746464413
 30
0.0
 10
11.4453100637
 20
4.4740235627
 30
0.0
 10
11.4477517762
 20
4.473482413
 30
0.0
 10
11.4494149645
 20
4.473040779
 30
0.0
 10
11.4504362141
 20
4.4727307182
 30
0.0
 10
11.4512953692
 20
4.472425023
 30
0.0
 10
11.4519887842
 20
4.4721242141
 30
0.0
 10
11.4525132806
 20
4.4718304367
 30
0.0
 10
11.452788695
 20
4.4716084942
 30
0.0
 10
11.452886526
 20
4.4714947679
 30
0.0
  0
SPLINE
  5
49E
100
AcDbEntity
  8
0
100
AcDbSpline
 62
7
  6
CONTINUOUS
 70
0
 71
3
 72
30
 73
26
 74
0
 42
0.0000001
 43
0.0000001
 44
0.0000000001
 40
0.0
 40
0.0
 40
0.0
 40
0.0
 40
0.0311957521
 40
0.0623919867
 40
0.0935894455
 40
0.1247886029
 40
0.1871750933
 40
0.2495745613
 40
0.2807897682
 40
0.3120095144
 40
0.3432340302
 40
0.3744637797
 40
0.4369207799
 40
0.4994008144
 40
0.5306589726
 40
0.5619230449
 40
0.6244492238
 40
0.6869968016
 40
0.7182878663
 40
0.749583944
 40
0.8121672027
 40
0.8747609047
 40
0.9060767763
 40
0.9373999748
 40
1.0
 40
1.0
 40
1.0
 40
1.0
 10
10.6598191049
 20
4.1492992085
 30
0.0
 10
10.6598191019
 20
4.1429835081
 30
0.0
 10
10.6601299586
 20
4.1303497712
 30
0.0
 10
10.6615296421
 20
4.1114467504
 30
0.0
 10
10.6638596185
 20
4.0926341641
 30
0.0
 10
10.6681949353
 20
4.0677374821
 30
0.0
 10
10.6759097652
 20
4.0370583645
 30
0.0
 10
10.686603932
 20
4.0072831796
 30
0.0
 10
10.6968830483
 20
3.9841854063
 30
0.0
 10
10.7054374493
 20
3.967254135
 30
0.0
 10
10.7148158911
 20
3.9507615974
 30
0.0
 10
10.7283874283
 20
3.9294129259
 30
0.0
 10
10.7472989158
 20
3.9040081767
 30
0.0
 10
10.7686175575
 20
3.8805794624
 30
0.0
 10
10.7869855597
 20
3.863157617
 30
0.0
 10
10.8061939709
 20
3.8466526538
 30
0.0
 10
10.8316931559
 20
3.8278110089
 30
0.0
 10
10.8589206512
 20
3.8115561017
 30
0.0
 10
10.8815746911
 20
3.8001958346
 30
0.0
 10
10.9047649689
 20
3.7899568009
 30
0.0
 10
10.9346545641
 20
3.7793005275
 30
0.0
 10
10.9654468601
 20
3.7716181795
 30
0.0
 10
10.9904393488
 20
3.7672980003
 30
0.0
 10
11.0156126058
 20
3.7642070973
 30
0.0
 10
11.0346447216
 20
3.763273763
 30
0.0
 10
11.0473183383
 20
3.763273763
 30
0.0
  0
SPLINE
  5
49F
100
AcDbEntity
  8
0
100
AcDbSpline
 62
7
  6
CONTINUOUS
 70
0
 71
3
 72
19
 73
15
 74
0
 42
0.0000001
 43
0.0000001
 44
0.0000000001
 40
0.0
 40
0.0
 40
0.0
 40
0.0
 40
0.0072110318
 40
0.015914192
 40
0.038182223
 40
0.0672419634
 40
0.1031636702
 40
0.1458896565
 40
0.1952808287
 40
0.3131932611
 40
0.4549279423
 40
0.6182126137
 40
0.8006654847
 40
1.0
 40
1.0
 40
1.0
 40
1.0
 10
10.5143138683
 20
4.0927509422
 30
0.0
 10
10.5143170511
 20
4.0926995267
 30
0.0
 10
10.5143367919
 20
4.0925868657
 30
0.0
 10
10.5144205345
 20
4.0923267956
 30
0.0
 10
10.5146117313
 20
4.0919408751
 30
0.0
 10
10.5149415696
 20
4.0914117216
 30
0.0
 10
10.5153895412
 20
4.0907855625
 30
0.0
 10
10.5159533789
 20
4.0900651414
 30
0.0
 10
10.5169151577
 20
4.0889132747
 30
0.0
 10
10.5183917106
 20
4.0872711989
 30
0.0
 10
10.5204754334
 20
4.0850830968
 30
0.0
 10
10.5229280635
 20
4.0826106401
 30
0.0
 10
10.5257116899
 20
4.0798876922
 30
0.0
 10
10.5276836601
 20
4.0780034448
 30
0.0
 10
10.5287176691
 20
4.0770243613
 30
0.0
  0
SPLINE
  5
4A0
100
AcDbEntity
  8
0
100
AcDbSpline
 62
7
  6
CONTINUOUS
 70
0
 71
3
 72
19
 73
15
 74
0
 42
0.0000001
 43
0.0000001
 44
0.0000000001
 40
0.0
 40
0.0
 40
0.0
 40
0.0
 40
0.0076041082
 40
0.016675496
 40
0.0395967421
 40
0.0692005807
 40
0.1055605284
 40
0.1486259718
 40
0.198251565
 40
0.3163287535
 40
0.4578285123
 40
0.6204930356
 40
0.8019686295
 40
1.0
 40
1.0
 40
1.0
 40
1.0
 10
10.5196002907
 20
4.0438383767
 30
0.0
 10
10.5196087758
 20
4.0437839685
 30
0.0
 10
10.519639837
 20
4.0436665973
 30
0.0
 10
10.5197494259
 20
4.0434011165
 30
0.0
 10
10.5199786546
 20
4.0430162902
 30
0.0
 10
10.520361157
 20
4.042498219
 30
0.0
 10
10.5208706627
 20
4.0418944347
 30
0.0
 10
10.5215046698
 20
4.0412076169
 30
0.0
 10
10.5225762892
 20
4.0401204736
 30
0.0
 10
10.5242084615
 20
4.0385866223
 30
0.0
 10
10.5264986767
 20
4.036560322
 30
0.0
 10
10.5291821884
 20
4.0342869389
 30
0.0
 10
10.532217925
 20
4.0317969311
 30
0.0
 10
10.5343643166
 20
4.0300804876
 30
0.0
 10
10.5354885931
 20
4.0291902402
 30
0.0
  0
SPLINE
  5
4A1
100
AcDbEntity
  8
0
100
AcDbSpline
 62
7
  6
CONTINUOUS
 70
0
 71
3
 72
19
 73
15
 74
0
 42
0.0000001
 43
0.0000001
 44
0.0000000001
 40
0.0
 40
0.0
 40
0.0
 40
0.0
 40
0.0079366837
 40
0.0173214112
 40
0.0408041973
 40
0.0708799084
 40
0.1076253193
 40
0.1509927328
 40
0.200829943
 40
0.31906789
 40
0.4603769468
 40
0.6225058268
 40
0.803124999
 40
1.0
 40
1.0
 40
1.0
 40
1.0
 10
10.5293955915
 20
3.9956181017
 30
0.0
 10
10.5294098803
 20
3.9955615901
 30
0.0
 10
10.5294532295
 20
3.9954413194
 30
0.0
 10
10.5295903564
 20
3.9951743172
 30
0.0
 10
10.529859227
 20
3.9947959447
 30
0.0
 10
10.5302954443
 20
3.9942958871
 30
0.0
 10
10.5308668052
 20
3.9937220593
 30
0.0
 10
10.5315704986
 20
3.9930770228
 30
0.0
 10
10.532750082
 20
3.9920666531
 30
0.0
 10
10.5345333816
 20
3.9906573096
 30
0.0
 10
10.5370220205
 20
3.9888135707
 30
0.0
 10
10.5399254067
 20
3.9867615397
 30
0.0
 10
10.5431994588
 20
3.9845280399
 30
0.0
 10
10.5455098881
 20
3.9829954351
 30
0.0
 10
10.5467188231
 20
3.9822022279
 30
0.0
  0
LINE
  5
4A2
100
AcDbEntity
  8
0
100
AcDbLine
 62
7
  6
CONTINUOUS
 10
10.6642240028
 20
4.4947506346
 11
10.6649292089
 21
4.4765805133
  0
LINE
  5
4A3
100
AcDbEntity
  8
0
100
AcDbLine
 62
7
  6
CONTINUOUS
 10
10.6315150727
 20
4.4590275914
 11
10.6315769999
 21
4.4579595902
  0
LINE
  5
4A4
100
AcDbEntity
  8
0
100
AcDbLine
 62
7
  6
CONTINUOUS
 10
10.6315769999
 20
4.4579595902
 11
10.6336973947
 21
4.4398635785
  0
SPLINE
  5
4A5
100
AcDbEntity
  8
0
100
AcDbSpline
 62
7
  6
CONTINUOUS
 70
0
 71
3
 72
19
 73
15
 74
0
 42
0.0000001
 43
0.0000001
 44
0.0000000001
 40
0.0
 40
0.0
 40
0.0
 40
0.0
 40
0.0082060773
 40
0.0178461525
 40
0.0417916395
 40
0.0722607733
 40
0.1093338409
 40
0.1529610963
 40
0.2029847293
 40
0.3213778314
 40
0.4625434705
 40
0.6242284366
 40
0.8041223107
 40
1.0
 40
1.0
 40
1.0
 40
1.0
 10
10.543616443
 20
3.9485037175
 30
0.0
 10
10.5436368571
 20
3.9484460708
 30
0.0
 10
10.5436930987
 20
3.9483248757
 30
0.0
 10
10.5438587329
 20
3.9480605575
 30
0.0
 10
10.5441679483
 20
3.9476943698
 30
0.0
 10
10.5446578753
 20
3.9472196492
 30
0.0
 10
10.5452903499
 20
3.9466837295
 30
0.0
 10
10.5460621858
 20
3.946088967
 30
0.0
 10
10.5473464564
 20
3.9451678125
 30
0.0
 10
10.5492746796
 20
3.943899601
 30
0.0
 10
10.5519516909
 20
3.9422594018
 30
0.0
 10
10.5550620286
 20
3.9404510231
 30
0.0
 10
10.5585587423
 20
3.9384974199
 30
0.0
 10
10.5610216241
 20
3.9371644633
 30
0.0
 10
10.5623090129
 20
3.9364763568
 30
0.0
  0
LINE
  5
4A6
100
AcDbEntity
  8
0
100
AcDbLine
 62
7
  6
CONTINUOUS
 10
10.6023741366
 20
4.4193851477
 11
10.6024767981
 21
4.4183247267
  0
SPLINE
  5
4A7
100
AcDbEntity
  8
0
100
AcDbSpline
 62
7
  6
CONTINUOUS
 70
0
 71
3
 72
13
 73
9
 74
0
 42
0.0000001
 43
0.0000001
 44
0.0000000001
 40
0.0
 40
0.0
 40
0.0
 40
0.0
 40
0.063964874
 40
0.1475880291
 40
0.2499491877
 40
0.3699137599
 40
0.65757033
 40
1.0
 40
1.0
 40
1.0
 40
1.0
 10
10.6024767981
 20
4.4183247267
 30
0.0
 10
10.6025298828
 20
4.4179382967
 30
0.0
 10
10.6026697923
 20
4.4170491109
 30
0.0
 10
10.6029327298
 20
4.4155477517
 30
0.0
 10
10.6032755246
 20
4.4137137924
 30
0.0
 10
10.6038708151
 20
4.4106613996
 30
0.0
 10
10.6047859675
 20
4.4061799862
 30
0.0
 10
10.6055795705
 20
4.4024205445
 30
0.0
 10
10.6060153816
 20
4.4003783862
 30
0.0
  0
LINE
  5
4A8
100
AcDbEntity
  8
0
100
AcDbLine
 62
7
  6
CONTINUOUS
 10
10.6060153816
 20
4.4003783862
 11
10.6060562535
 21
4.400186931
  0
SPLINE
  5
4A9
100
AcDbEntity
  8
0
100
AcDbSpline
 62
7
  6
CONTINUOUS
 70
0
 71
3
 72
18
 73
14
 74
0
 42
0.0000001
 43
0.0000001
 44
0.0000000001
 40
0.0
 40
0.0
 40
0.0
 40
0.0
 40
0.0182177255
 40
0.0425295787
 40
0.0733162547
 40
0.1106611693
 40
0.1545076966
 40
0.2046946508
 40
0.3232407266
 40
0.4643138318
 40
0.6256511164
 40
0.8049554162
 40
1.0
 40
1.0
 40
1.0
 40
1.0
 10
10.5621413135
 20
3.9028989399
 30
0.0
 10
10.5621991306
 20
3.9027738641
 30
0.0
 10
10.5623879477
 20
3.9025082329
 30
0.0
 10
10.5627807612
 20
3.9021160993
 30
0.0
 10
10.5633238827
 20
3.9016740151
 30
0.0
 10
10.5640153123
 20
3.9011843414
 30
0.0
 10
10.5648525683
 20
3.9006485746
 30
0.0
 10
10.5662364315
 20
3.8998294893
 30
0.0
 10
10.568301058
 20
3.8987194448
 30
0.0
 10
10.5711535031
 20
3.8973041572
 30
0.0
 10
10.5744548831
 20
3.8957620221
 30
0.0
 10
10.5781555311
 20
3.8941118768
 30
0.0
 10
10.5807572273
 20
3.8929944081
 30
0.0
 10
10.5821158263
 20
3.8924194574
 30
0.0
  0
LINE
  5
4AA
100
AcDbEntity
  8
0
100
AcDbLine
 62
7
  6
CONTINUOUS
 10
10.577029139
 20
4.3772333087
 11
10.5771716588
 21
4.3761841797
  0
SPLINE
  5
4AB
100
AcDbEntity
  8
0
100
AcDbSpline
 62
7
  6
CONTINUOUS
 70
0
 71
3
 72
14
 73
10
 74
0
 42
0.0000001
 43
0.0000001
 44
0.0000000001
 40
0.0
 40
0.0
 40
0.0
 40
0.0
 40
0.0634703249
 40
0.1467886632
 40
0.2490223045
 40
0.369010527
 40
0.5054628636
 40
0.6570271812
 40
1.0
 40
1.0
 40
1.0
 40
1.0
 10
10.5771716588
 20
4.3761841797
 30
0.0
 10
10.5772468389
 20
4.3757959187
 30
0.0
 10
10.5774457739
 20
4.3749029253
 30
0.0
 10
10.5778199751
 20
4.3733970815
 30
0.0
 10
10.5783086517
 20
4.3715570197
 30
0.0
 10
10.578905711
 20
4.3694033909
 30
0.0
 10
10.5796044557
 20
4.3669590708
 30
0.0
 10
10.5807082856
 20
4.3631856025
 30
0.0
 10
10.5815954764
 20
4.3602346595
 30
0.0
 10
10.5822168131
 20
4.3581899759
 30
0.0
  0
SPLINE
  5
4AC
100
AcDbEntity
  8
0
100
AcDbSpline
 62
7
  6
CONTINUOUS
 70
0
 71
3
 72
19
 73
15
 74
0
 42
0.0000001
 43
0.0000001
 44
0.0000000001
 40
0.0
 40
0.0
 40
0.0
 40
0.0
 40
0.0069990724
 40
0.0155111612
 40
0.037441777
 40
0.0662157386
 40
0.101899109
 40
0.1444133221
 40
0.193620132
 40
0.3112802424
 40
0.4529948516
 40
0.616562316
 40
0.7996121452
 40
1.0
 40
1.0
 40
1.0
 40
1.0
 10
11.5810542981
 20
4.1085336636
 30
0.0
 10
11.5810542981
 20
4.1085815261
 30
0.0
 10
11.5810424536
 20
4.1086875651
 30
0.0
 10
11.5809800463
 20
4.1089362895
 30
0.0
 10
11.5808256954
 20
4.1093124171
 30
0.0
 10
11.5805515378
 20
4.1098359238
 30
0.0
 10
11.5801733256
 20
4.1104625536
 30
0.0
 10
11.5796931133
 20
4.1111896555
 30
0.0
 10
11.578868581
 20
4.1123604598
 30
0.0
 10
11.5775943402
 20
4.1140431482
 30
0.0
 10
11.5757867044
 20
4.1163011507
 30
0.0
 10
11.5736499268
 20
4.1188676562
 30
0.0
 10
11.5712162889
 20
4.1217085048
 30
0.0
 10
11.5694884481
 20
4.1236808759
 30
0.0
 10
11.5685810257
 20
4.1247077132
 30
0.0
  0
SPLINE
  5
4AD
100
AcDbEntity
  8
0
100
AcDbSpline
 62
7
  6
CONTINUOUS
 70
0
 71
3
 72
18
 73
14
 74
0
 42
0.0000001
 43
0.0000001
 44
0.0000000001
 40
0.0
 40
0.0
 40
0.0
 40
0.0
 40
0.0185064923
 40
0.0430851523
 40
0.0741102114
 40
0.1116667725
 40
0.1556882251
 40
0.2060114863
 40
0.3246994183
 40
0.4657213086
 40
0.6267973815
 40
0.8056366503
 40
1.0
 40
1.0
 40
1.0
 40
1.0
 10
10.5848113768
 20
3.8591946831
 30
0.0
 10
10.5848826724
 20
3.8590717579
 30
0.0
 10
10.5851003363
 20
3.8588170267
 30
0.0
 10
10.5855374543
 20
3.8584517862
 30
0.0
 10
10.5861308758
 20
3.8580503619
 30
0.0
 10
10.5868783173
 20
3.8576150686
 30
0.0
 10
10.5877769002
 20
3.857147113
 30
0.0
 10
10.5892536202
 20
3.8564429221
 30
0.0
 10
10.5914439415
 20
3.855507999
 30
0.0
 10
10.5944563248
 20
3.8543387167
 30
0.0
 10
10.597930248
 20
3.853085009
 30
0.0
 10
10.6018135167
 20
3.8517613197
 30
0.0
 10
10.6045386908
 20
3.8508747138
 30
0.0
 10
10.6059604051
 20
3.8504207167
 30
0.0
  0
SPLINE
  5
4AE
100
AcDbEntity
  8
0
100
AcDbSpline
 62
7
  6
CONTINUOUS
 70
0
 71
3
 72
19
 73
15
 74
0
 42
0.0000001
 43
0.0000001
 44
0.0000000001
 40
0.0
 40
0.0
 40
0.0
 40
0.0
 40
0.0070028906
 40
0.015525688
 40
0.0374859031
 40
0.0662764304
 40
0.1019569094
 40
0.1444623852
 40
0.1936651099
 40
0.3113247872
 40
0.4530328631
 40
0.6165876656
 40
0.7996626584
 40
1.0
 40
1.0
 40
1.0
 40
1.0
 10
10.5135802906
 20
4.1085698692
 30
0.0
 10
10.5135802906
 20
4.1086177576
 30
0.0
 10
10.5135922197
 20
4.1087238929
 30
0.0
 10
10.51365492
 20
4.1089728524
 30
0.0
 10
10.5138096678
 20
4.1093492305
 30
0.0
 10
10.5140840427
 20
4.1098729496
 30
0.0
 10
10.5144622721
 20
4.1104996067
 30
0.0
 10
10.5149424309
 20
4.111226613
 30
0.0
 10
10.5157669689
 20
4.1123972989
 30
0.0
 10
10.517041274
 20
4.114079838
 30
0.0
 10
10.5188489537
 20
4.1163376241
 30
0.0
 10
10.5209858567
 20
4.118904069
 30
0.0
 10
10.5234196256
 20
4.1217444526
 30
0.0
 10
10.5251474498
 20
4.1237165979
 30
0.0
 10
10.5260546077
 20
4.1247432039
 30
0.0
  0
SPLINE
  5
4AF
100
AcDbEntity
  8
0
100
AcDbSpline
 62
7
  6
CONTINUOUS
 70
0
 71
3
 72
21
 73
17
 74
0
 42
0.0000001
 43
0.0000001
 44
0.0000000001
 40
0.0
 40
0.0
 40
0.0
 40
0.0
 40
0.0064187858
 40
0.0145852907
 40
0.0245570971
 40
0.0363578789
 40
0.0654545281
 40
0.1017956383
 40
0.145214518
 40
0.1954566915
 40
0.252229171
 40
0.3152052752
 40
0.4583725253
 40
0.6220840368
 40
0.8035328062
 40
1.0
 40
1.0
 40
1.0
 40
1.0
 10
10.5257433326
 20
4.0111550075
 30
0.0
 10
10.5257433326
 20
4.0112134076
 30
0.0
 10
10.5257573966
 20
4.0113459857
 30
0.0
 10
10.5258048518
 20
4.0115644717
 30
0.0
 10
10.5258815764
 20
4.0118260443
 30
0.0
 10
10.5260340532
 20
4.0122631547
 30
0.0
 10
10.5263031959
 20
4.01291282
 30
0.0
 10
10.5267200294
 20
4.0138113693
 30
0.0
 10
10.5272487215
 20
4.0148695896
 30
0.0
 10
10.5278855104
 20
4.0160811916
 30
0.0
 10
10.5286263875
 20
4.0174388799
 30
0.0
 10
10.5297978726
 20
4.019524526
 30
0.0
 10
10.5314900238
 20
4.0224333701
 30
0.0
 10
10.5337745904
 20
4.0262440483
 30
0.0
 10
10.5363503867
 20
4.0304452417
 30
0.0
 10
10.5381702061
 20
4.0333626068
 30
0.0
 10
10.5391208556
 20
4.0348763723
 30
0.0
  0
SPLINE
  5
4B0
100
AcDbEntity
  8
0
100
AcDbSpline
 62
7
  6
CONTINUOUS
 70
0
 71
3
 72
18
 73
14
 74
0
 42
0.0000001
 43
0.0000001
 44
0.0000000001
 40
0.0
 40
0.0
 40
0.0
 40
0.0
 40
0.0186775943
 40
0.0434237243
 40
0.074608104
 40
0.1123158834
 40
0.1564692506
 40
0.2069033871
 40
0.3257262424
 40
0.4667436942
 40
0.6276521877
 40
0.8061582871
 40
1.0
 40
1.0
 40
1.0
 40
1.0
 10
10.6114319091
 20
3.8177653847
 30
0.0
 10
10.6115162964
 20
3.8176467034
 30
0.0
 10
10.611761774
 20
3.817407378
 30
0.0
 10
10.6122405656
 20
3.8170759844
 30
0.0
 10
10.6128807852
 20
3.8167227714
 30
0.0
 10
10.6136798142
 20
3.8163499705
 30
0.0
 10
10.614634431
 20
3.8159584415
 30
0.0
 10
10.6161954599
 20
3.8153817595
 30
0.0
 10
10.6184985391
 20
3.8146385257
 30
0.0
 10
10.6216526685
 20
3.8137357521
 30
0.0
 10
10.6252779285
 20
3.8127919372
 30
0.0
 10
10.6293197873
 20
3.8118168425
 30
0.0
 10
10.6321513262
 20
3.8111758202
 30
0.0
 10
10.6336271703
 20
3.8108502228
 30
0.0
  0
SPLINE
  5
4B1
100
AcDbEntity
  8
0
100
AcDbSpline
 62
7
  6
CONTINUOUS
 70
0
 71
3
 72
20
 73
16
 74
0
 42
0.0000001
 43
0.0000001
 44
0.0000000001
 40
0.0
 40
0.0
 40
0.0
 40
0.0
 40
0.0064233666
 40
0.0146393683
 40
0.0365655383
 40
0.0658455832
 40
0.1023621627
 40
0.1459338717
 40
0.1962983111
 40
0.2531579496
 40
0.316183618
 40
0.4593333811
 40
0.6228715054
 40
0.803996826
 40
1.0
 40
1.0
 40
1.0
 40
1.0
 10
10.5385349822
 20
3.9637009923
 30
0.0
 10
10.5385349822
 20
3.9637597668
 30
0.0
 10
10.5385471519
 20
3.963893622
 30
0.0
 10
10.5386078308
 20
3.9642228187
 30
0.0
 10
10.5387559239
 20
3.9647469355
 30
0.0
 10
10.5390165743
 20
3.9655061367
 30
0.0
 10
10.5393757826
 20
3.9664404193
 30
0.0
 10
10.5398308877
 20
3.9675439636
 30
0.0
 10
10.5403792348
 20
3.968810189
 30
0.0
 10
10.5410171609
 20
3.9702314201
 30
0.0
 10
10.5420255542
 20
3.9724168227
 30
0.0
 10
10.5434822828
 20
3.9754701684
 30
0.0
 10
10.5454494887
 20
3.9794768889
 30
0.0
 10
10.5476674423
 20
3.9838990482
 30
0.0
 10
10.5492348526
 20
3.9869733207
 30
0.0
 10
10.5500536092
 20
3.9885689701
 30
0.0
  0
SPLINE
  5
4B2
100
AcDbEntity
  8
0
100
AcDbSpline
 62
7
  6
CONTINUOUS
 70
0
 71
3
 72
20
 73
16
 74
0
 42
0.0000001
 43
0.0000001
 44
0.0000000001
 40
0.0
 40
0.0
 40
0.0
 40
0.0
 40
0.0064272199
 40
0.0146841029
 40
0.0367429444
 40
0.066174297
 40
0.1028358121
 40
0.1465338821
 40
0.1969994854
 40
0.2539312653
 40
0.3169979381
 40
0.4601329676
 40
0.6235268183
 40
0.8043830153
 40
1.0
 40
1.0
 40
1.0
 40
1.0
 10
10.5556671992
 20
3.9176251457
 30
0.0
 10
10.5556671992
 20
3.9176842353
 30
0.0
 10
10.5556773599
 20
3.9178191647
 30
0.0
 10
10.5557277006
 20
3.9181532988
 30
0.0
 10
10.555850512
 20
3.9186893206
 30
0.0
 10
10.5560668084
 20
3.9194703756
 30
0.0
 10
10.5563649566
 20
3.9204348761
 30
0.0
 10
10.5567427293
 20
3.9215768043
 30
0.0
 10
10.5571979082
 20
3.922889275
 30
0.0
 10
10.5577274495
 20
3.9243643095
 30
0.0
 10
10.5585642893
 20
3.9266341403
 30
0.0
 10
10.5597733029
 20
3.9298097985
 30
0.0
 10
10.5614063184
 20
3.9339825196
 30
0.0
 10
10.5632474683
 20
3.9385917829
 30
0.0
 10
10.5645488792
 20
3.9417989743
 30
0.0
 10
10.5652286618
 20
3.9434639847
 30
0.0
  0
LINE
  5
4B3
100
AcDbEntity
  8
0
100
AcDbLine
 62
7
  6
CONTINUOUS
 10
10.5769938241
 20
3.8733205533
 11
10.577136404
 21
3.8743696646
  0
SPLINE
  5
4B4
100
AcDbEntity
  8
0
100
AcDbSpline
 62
7
  6
CONTINUOUS
 70
0
 71
3
 72
15
 73
11
 74
0
 42
0.0000001
 43
0.0000001
 44
0.0000000001
 40
0.0
 40
0.0
 40
0.0
 40
0.0
 40
0.0267155562
 40
0.0591503559
 40
0.1405969497
 40
0.242843342
 40
0.3640826537
 40
0.5023610178
 40
0.6556896995
 40
1.0
 40
1.0
 40
1.0
 40
1.0
 10
10.577136404
 20
3.8743696646
 30
0.0
 10
10.5771814986
 20
3.8746024481
 30
0.0
 10
10.5772905337
 20
3.8751160621
 30
0.0
 10
10.5775747772
 20
3.8763311559
 30
0.0
 10
10.5780538502
 20
3.8781887942
 30
0.0
 10
10.5787701863
 20
3.8807987027
 30
0.0
 10
10.5796530108
 20
3.8838858058
 30
0.0
 10
10.5806868758
 20
3.8874011239
 30
0.0
 10
10.5823102952
 20
3.8928066507
 30
0.0
 10
10.5836096298
 20
3.8970280065
 30
0.0
 10
10.5845165508
 20
3.8999462188
 30
0.0
  0
SPLINE
  5
4B5
100
AcDbEntity
  8
0
100
AcDbSpline
 62
7
  6
CONTINUOUS
 70
0
 71
3
 72
18
 73
14
 74
0
 42
0.0000001
 43
0.0000001
 44
0.0000000001
 40
0.0
 40
0.0
 40
0.0
 40
0.0
 40
0.0187305446
 40
0.0435465209
 40
0.0748147862
 40
0.1126157512
 40
0.156859937
 40
0.2073803618
 40
0.3263329513
 40
0.4673922596
 40
0.6282250739
 40
0.8065258706
 40
1.0
 40
1.0
 40
1.0
 40
1.0
 10
10.6417744177
 20
3.7789654406
 30
0.0
 10
10.6418711387
 20
3.7788530205
 30
0.0
 10
10.6421426203
 20
3.7786334746
 30
0.0
 10
10.6426593273
 20
3.7783426049
 30
0.0
 10
10.6433416875
 20
3.7780448717
 30
0.0
 10
10.6441866709
 20
3.7777423427
 30
0.0
 10
10.645190764
 20
3.7774355227
 30
0.0
 10
10.6468257361
 20
3.7769985009
 30
0.0
 10
10.6492262995
 20
3.7764628797
 30
0.0
 10
10.6525011442
 20
3.7758461949
 30
0.0
 10
10.65625361
 20
3.775232708
 30
0.0
 10
10.6604270475
 20
3.7746271801
 30
0.0
 10
10.6633458748
 20
3.7742456107
 30
0.0
 10
10.6648658736
 20
3.7740554092
 30
0.0
  0
LINE
  5
4B6
100
AcDbEntity
  8
0
100
AcDbLine
 62
7
  6
CONTINUOUS
 10
10.6023329137
 20
3.8311651893
 11
10.6024356366
 21
3.8322255982
  0
SPLINE
  5
4B7
100
AcDbEntity
  8
0
100
AcDbSpline
 62
7
  6
CONTINUOUS
 70
0
 71
3
 72
15
 73
11
 74
0
 42
0.0000001
 43
0.0000001
 44
0.0000000001
 40
0.0
 40
0.0
 40
0.0
 40
0.0
 40
0.0267998072
 40
0.0593172096
 40
0.1409051882
 40
0.2432443092
 40
0.3645194943
 40
0.5027744123
 40
0.6560208422
 40
1.0
 40
1.0
 40
1.0
 40
1.0
 10
10.6024356366
 20
3.8322255982
 30
0.0
 10
10.6024681163
 20
3.8324618889
 30
0.0
 10
10.6025466422
 20
3.8329839661
 30
0.0
 10
10.6027513581
 20
3.834221192
 30
0.0
 10
10.6030964324
 20
3.8361164452
 30
0.0
 10
10.6036125353
 20
3.8387832158
 30
0.0
 10
10.6042485875
 20
3.8419403685
 30
0.0
 10
10.604993459
 20
3.8455376938
 30
0.0
 10
10.6061629059
 20
3.8510711188
 30
0.0
 10
10.607099176
 20
3.8553961686
 30
0.0
 10
10.6077527261
 20
3.8583869342
 30
0.0
  0
LINE
  5
4B8
100
AcDbEntity
  8
0
100
AcDbLine
 62
7
  6
CONTINUOUS
 10
10.6314682934
 20
3.7915186925
 11
10.631530283
 21
3.7925866874
  0
LINE
  5
4B9
100
AcDbEntity
  8
0
100
AcDbLine
 62
7
  6
CONTINUOUS
 10
10.631530283
 20
3.7925866874
 11
10.6347389536
 21
3.8191406844
  0
LINE
  5
4BA
100
AcDbEntity
  8
0
100
AcDbLine
 62
7
  6
CONTINUOUS
 10
10.6641514016
 20
3.7547192978
 11
10.6652450067
 21
3.7825422896
  0
LINE
  5
4BB
100
AcDbEntity
  8
0
100
AcDbLine
 62
7
  6
CONTINUOUS
 10
10.69901063
 20
3.7403698355
 11
10.7000923742
 21
3.7208623022
  0
SPLINE
  5
4BC
100
AcDbEntity
  8
0
100
AcDbSpline
 62
7
  6
CONTINUOUS
 70
0
 71
3
 72
26
 73
22
 74
0
 42
0.0000001
 43
0.0000001
 44
0.0000000001
 40
0.0
 40
0.0
 40
0.0
 40
0.0
 40
0.2113630583
 40
0.4033289065
 40
0.491194838
 40
0.5732056542
 40
0.6490237481
 40
0.7183018976
 40
0.7806935362
 40
0.8358708023
 40
0.8835185412
 40
0.9233400744
 40
0.9402360432
 40
0.9550809635
 40
0.9678450316
 40
0.9785067895
 40
0.9870519559
 40
0.9934701346
 40
0.9977622583
 40
0.999125365
 40
1.0
 40
1.0
 40
1.0
 40
1.0
 10
10.7357477598
 20
3.7099785897
 30
0.0
 10
10.7359551485
 20
3.7086144743
 30
0.0
 10
10.7363531897
 20
3.7060117793
 30
0.0
 10
10.7368452721
 20
3.7028432096
 30
0.0
 10
10.7372133313
 20
3.7005099304
 30
0.0
 10
10.7374661568
 20
3.6989260712
 30
0.0
 10
10.7377030561
 20
3.6974625513
 30
0.0
 10
10.7379230391
 20
3.6961260395
 30
0.0
 10
10.7381251287
 20
3.6949231463
 30
0.0
 10
10.7383083291
 20
3.6938602709
 30
0.0
 10
10.738471695
 20
3.6929435026
 30
0.0
 10
10.7385964589
 20
3.6922737089
 30
0.0
 10
10.7386863687
 20
3.6918152735
 30
0.0
 10
10.7387445422
 20
3.6915306262
 30
0.0
 10
10.738797108
 20
3.6912863674
 30
0.0
 10
10.7388440022
 20
3.6910830178
 30
0.0
 10
10.7388849463
 20
3.6909207187
 30
0.0
 10
10.7389200568
 20
3.6908001849
 30
0.0
 10
10.7389462788
 20
3.6907253968
 30
0.0
 10
10.738965804
 20
3.6906876833
 30
0.0
 10
10.7389748275
 20
3.690675682
 30
0.0
 10
10.7389794865
 20
3.6906723813
 30
0.0
  0
SPLINE
  5
4BD
100
AcDbEntity
  8
0
100
AcDbSpline
 62
7
  6
CONTINUOUS
 70
0
 71
3
 72
24
 73
20
 74
0
 42
0.0000001
 43
0.0000001
 44
0.0000000001
 40
0.0
 40
0.0
 40
0.0
 40
0.0
 40
0.2094695041
 40
0.3999366408
 40
0.4872223132
 40
0.5687768448
 40
0.6442717394
 40
0.7133689724
 40
0.7757309154
 40
0.8310376077
 40
0.8789833401
 40
0.9192791207
 40
0.9516807606
 40
0.9648506522
 40
0.9759706069
 40
0.9850311171
 40
0.9920306816
 40
0.996988232
 40
1.0
 40
1.0
 40
1.0
 40
1.0
 10
10.7751429819
 20
3.6830936829
 30
0.0
 10
10.7754844943
 20
3.6817634647
 30
0.0
 10
10.7761402163
 20
3.6792246432
 30
0.0
 10
10.7769507524
 20
3.6761347677
 30
0.0
 10
10.7775573459
 20
3.673858453
 30
0.0
 10
10.7779744669
 20
3.6723117599
 30
0.0
 10
10.7783656194
 20
3.6708815825
 30
0.0
 10
10.7787292015
 20
3.6695743314
 30
0.0
 10
10.7790636175
 20
3.6683963685
 30
0.0
 10
10.7793672837
 20
3.6673538587
 30
0.0
 10
10.7796385872
 20
3.6664526323
 30
0.0
 10
10.7798761203
 20
3.6656981496
 30
0.0
 10
10.780054856
 20
3.6651642075
 30
0.0
 10
10.7801815059
 20
3.6648147692
 30
0.0
 10
10.7802605071
 20
3.6646107893
 30
0.0
 10
10.7803300022
 20
3.6644468414
 30
0.0
 10
10.7803898967
 20
3.6643221632
 30
0.0
 10
10.7804395953
 20
3.6642384257
 30
0.0
 10
10.7804738252
 20
3.6641965387
 30
0.0
 10
10.7804909327
 20
3.6641866771
 30
0.0
  0
SPLINE
  5
4BE
100
AcDbEntity
  8
0
100
AcDbSpline
 62
7
  6
CONTINUOUS
 70
0
 71
3
 72
23
 73
19
 74
0
 42
0.0000001
 43
0.0000001
 44
0.0000000001
 40
0.0
 40
0.0
 40
0.0
 40
0.0
 40
0.2075794853
 40
0.3965545003
 40
0.564363919
 40
0.6395373671
 40
0.7084540034
 40
0.7707849462
 40
0.8262181927
 40
0.8744575279
 40
0.9152227474
 40
0.9482811503
 40
0.9618557161
 40
0.9734341846
 40
0.9830119412
 40
0.9905960876
 40
0.9962202535
 40
1.0
 40
1.0
 40
1.0
 40
1.0
 10
10.8168602051
 20
3.6599444776
 30
0.0
 10
10.8173316977
 20
3.6586587721
 30
0.0
 10
10.8182372955
 20
3.6562043728
 30
0.0
 10
10.8195443152
 20
3.6527181169
 30
0.0
 10
10.8205627671
 20
3.6500565964
 30
0.0
 10
10.8213123423
 20
3.6481403284
 30
0.0
 10
10.8218158343
 20
3.6468750256
 30
0.0
 10
10.8222794204
 20
3.6457340331
 30
0.0
 10
10.8227009537
 20
3.6447232419
 30
0.0
 10
10.8230782505
 20
3.6438482025
 30
0.0
 10
10.8234093854
 20
3.6431141356
 30
0.0
 10
10.8236589028
 20
3.6425942053
 30
0.0
 10
10.8238359018
 20
3.6422533735
 30
0.0
 10
10.823947097
 20
3.6420529622
 30
0.0
 10
10.8240453681
 20
3.6418908335
 30
0.0
 10
10.824130733
 20
3.6417666833
 30
0.0
 10
10.8242025499
 20
3.6416809794
 30
0.0
 10
10.8242510102
 20
3.6416399965
 30
0.0
 10
10.8242736712
 20
3.6416295916
 30
0.0
  0
SPLINE
  5
4BF
100
AcDbEntity
  8
0
100
AcDbSpline
 62
7
  6
CONTINUOUS
 70
0
 71
3
 72
22
 73
18
 74
0
 42
0.0000001
 43
0.0000001
 44
0.0000000001
 40
0.0
 40
0.0
 40
0.0
 40
0.0
 40
0.2057342031
 40
0.3932576615
 40
0.5600683065
 40
0.6349314996
 40
0.7036747814
 40
0.7659775887
 40
0.8215356922
 40
0.8700620557
 40
0.9112857389
 40
0.9449857137
 40
0.970979613
 40
0.9810637328
 40
0.9892191628
 40
0.9954901015
 40
1.0
 40
1.0
 40
1.0
 40
1.0
 10
10.8605435284
 20
3.6407284658
 30
0.0
 10
10.8611402262
 20
3.6394974177
 30
0.0
 10
10.8622866747
 20
3.6371471229
 30
0.0
 10
10.8639412781
 20
3.6338106371
 30
0.0
 10
10.8652308982
 20
3.6312645965
 30
0.0
 10
10.8661805152
 20
3.62943186
 30
0.0
 10
10.8668192307
 20
3.6282207456
 30
0.0
 10
10.8674078349
 20
3.6271283828
 30
0.0
 10
10.8679436287
 20
3.6261603338
 30
0.0
 10
10.8684239533
 20
3.6253219081
 30
0.0
 10
10.8688462351
 20
3.6246178384
 30
0.0
 10
10.8692080969
 20
3.6240526594
 30
0.0
 10
10.8694754093
 20
3.6236728764
 30
0.0
 10
10.8696606132
 20
3.6234442864
 30
0.0
 10
10.8697713049
 20
3.6233242705
 30
0.0
 10
10.8698654383
 20
3.6232406373
 30
0.0
 10
10.8699274078
 20
3.6232023051
 30
0.0
 10
10.8699556984
 20
3.6231923569
 30
0.0
  0
SPLINE
  5
4C0
100
AcDbEntity
  8
0
100
AcDbSpline
 62
7
  6
CONTINUOUS
 70
0
 71
3
 72
22
 73
18
 74
0
 42
0.0000001
 43
0.0000001
 44
0.0000000001
 40
0.0
 40
0.0
 40
0.0
 40
0.0
 40
0.2039608873
 40
0.390095192
 40
0.5559546417
 40
0.6305241173
 40
0.6991047792
 40
0.7613837709
 40
0.8170642498
 40
0.8658677701
 40
0.9075326006
 40
0.9418489969
 40
0.9686524387
 40
0.9792219647
 40
0.9879232958
 40
0.9948076467
 40
1.0
 40
1.0
 40
1.0
 40
1.0
 10
10.9058202778
 20
3.6256095844
 30
0.0
 10
10.9065368166
 20
3.6244428872
 30
0.0
 10
10.9079139027
 20
3.6222155231
 30
0.0
 10
10.9099011054
 20
3.6190564804
 30
0.0
 10
10.9114501142
 20
3.6166480641
 30
0.0
 10
10.9125910921
 20
3.6149156815
 30
0.0
 10
10.9133594147
 20
3.6137705028
 30
0.0
 10
10.9140679293
 20
3.6127379667
 30
0.0
 10
10.9147134364
 20
3.6118233025
 30
0.0
 10
10.9152927754
 20
3.6110314823
 30
0.0
 10
10.9158029478
 20
3.6103669241
 30
0.0
 10
10.9162411279
 20
3.6098338355
 30
0.0
 10
10.9165650379
 20
3.6094772244
 30
0.0
 10
10.9167892651
 20
3.6092640194
 30
0.0
 10
10.9169245934
 20
3.6091517367
 30
0.0
 10
10.9170404809
 20
3.609073865
 30
0.0
 10
10.9171152564
 20
3.6090400086
 30
0.0
 10
10.9171490632
 20
3.6090315227
 30
0.0
  0
SPLINE
  5
4C1
100
AcDbEntity
  8
0
100
AcDbSpline
 62
7
  6
CONTINUOUS
 70
0
 71
3
 72
21
 73
17
 74
0
 42
0.0000001
 43
0.0000001
 44
0.0000000001
 40
0.0
 40
0.0
 40
0.0
 40
0.0
 40
0.2022828172
 40
0.387109018
 40
0.5520783164
 40
0.6948052791
 40
0.7570660736
 40
0.8128658539
 40
0.8619339664
 40
0.9040174066
 40
0.9389169254
 40
0.9664841032
 40
0.9775103846
 40
0.986723496
 40
0.9941789743
 40
1.0
 40
1.0
 40
1.0
 40
1.0
 10
10.9523041852
 20
3.6147168168
 30
0.0
 10
10.9531346414
 20
3.6136237227
 30
0.0
 10
10.9547310469
 20
3.6115372875
 30
0.0
 10
10.9570341003
 20
3.6085820026
 30
0.0
 10
10.9591190834
 20
3.6059694507
 30
0.0
 10
10.9607156337
 20
3.6040315426
 30
0.0
 10
10.961865627
 20
3.6026862091
 30
0.0
 10
10.9626153845
 20
3.6018350842
 30
0.0
 10
10.9632888251
 20
3.6010994468
 30
0.0
 10
10.9638825729
 20
3.6004833986
 30
0.0
 10
10.9643933878
 20
3.5999907964
 30
0.0
 10
10.9647709522
 20
3.599664009
 30
0.0
 10
10.9650319874
 20
3.5994710904
 30
0.0
 10
10.9651907522
 20
3.5993700063
 30
0.0
 10
10.9653272739
 20
3.5993012868
 30
0.0
 10
10.9654139949
 20
3.5992737241
 30
0.0
 10
10.9654530323
 20
3.5992676706
 30
0.0
  0
SPLINE
  5
4C2
100
AcDbEntity
  8
0
100
AcDbSpline
 62
7
  6
CONTINUOUS
 70
0
 71
3
 72
21
 73
17
 74
0
 42
0.0000001
 43
0.0000001
 44
0.0000000001
 40
0.0
 40
0.0
 40
0.0
 40
0.0
 40
0.2007201589
 40
0.38433509
 40
0.5484861514
 40
0.6908314485
 40
0.7530799587
 40
0.8089944944
 40
0.8583112297
 40
0.9007850906
 40
0.9362262689
 40
0.9645002543
 40
0.9759479292
 40
0.9856314889
 40
0.9936089016
 40
1.0
 40
1.0
 40
1.0
 40
1.0
 10
10.9995986838
 20
3.6081430921
 30
0.0
 10
11.0005366111
 20
3.6071323971
 30
0.0
 10
11.0023399433
 20
3.6052039866
 30
0.0
 10
11.0049406076
 20
3.6024775186
 30
0.0
 10
11.0072956453
 20
3.6000712996
 30
0.0
 10
11.0090985706
 20
3.5982916502
 30
0.0
 10
11.0103970947
 20
3.5970601609
 30
0.0
 10
11.0112447539
 20
3.5962821626
 30
0.0
 10
11.0120065048
 20
3.5956117642
 30
0.0
 10
11.0126786029
 20
3.5950527265
 30
0.0
 10
11.0132574315
 20
3.5946085391
 30
0.0
 10
11.0136849201
 20
3.5943177994
 30
0.0
 10
11.0139799669
 20
3.5941497178
 30
0.0
 10
11.014160479
 20
3.5940630787
 30
0.0
 10
11.0143160374
 20
3.5940066186
 30
0.0
 10
11.0144136178
 20
3.5939870965
 30
0.0
 10
11.0144574377
 20
3.5939843875
 30
0.0
  0
SPLINE
  5
4C3
100
AcDbEntity
  8
0
100
AcDbSpline
 62
7
  6
CONTINUOUS
 70
0
 71
3
 72
19
 73
15
 74
0
 42
0.0000001
 43
0.0000001
 44
0.0000000001
 40
0.0
 40
0.0
 40
0.0
 40
0.0
 40
0.1992911182
 40
0.3818063133
 40
0.5452218774
 40
0.6872321842
 40
0.8054958555
 40
0.855043833
 40
0.8978768316
 40
0.9338132571
 40
0.9627301568
 40
0.9846536795
 40
0.9930999269
 40
1.0
 40
1.0
 40
1.0
 40
1.0
 10
11.0473002916
 20
3.6059444924
 30
0.0
 10
11.0483387233
 20
3.6050245564
 30
0.0
 10
11.0503355545
 20
3.6032704149
 30
0.0
 10
11.0532139972
 20
3.6007964916
 30
0.0
 10
11.0558207176
 20
3.598618546
 30
0.0
 10
11.058119667
 20
3.5967706323
 30
0.0
 10
11.0598365475
 20
3.5954644665
 30
0.0
 10
11.0610336179
 20
3.5946172892
 30
0.0
 10
11.0617779896
 20
3.5941233094
 30
0.0
 10
11.0624194224
 20
3.5937345022
 30
0.0
 10
11.0629544518
 20
3.5934537024
 30
0.0
 10
11.063338149
 20
3.5932968421
 30
0.0
 10
11.0635907977
 20
3.5932359453
 30
0.0
 10
11.0636979223
 20
3.5932260936
 30
0.0
 10
11.0637459331
 20
3.5932275503
 30
0.0
  0
SPLINE
  5
4C4
100
AcDbEntity
  8
0
100
AcDbSpline
 62
7
  6
CONTINUOUS
 70
0
 71
3
 72
19
 73
15
 74
0
 42
0.0000001
 43
0.0000001
 44
0.0000000001
 40
0.0
 40
0.0
 40
0.0
 40
0.0
 40
0.1980005002
 40
0.3795300777
 40
0.5422930458
 40
0.6840124981
 40
0.8023781209
 40
0.8521357796
 40
0.8952914224
 40
0.9316703515
 40
0.961158862
 40
0.983795658
 40
0.9926542925
 40
1.0
 40
1.0
 40
1.0
 40
1.0
 10
11.0950020533
 20
3.6081397745
 30
0.0
 10
11.0961335159
 20
3.6073185078
 30
0.0
 10
11.09830942
 20
3.6057540236
 30
0.0
 10
11.10144425
 20
3.6035548786
 30
0.0
 10
11.1042829509
 20
3.6016260962
 30
0.0
 10
11.106786231
 20
3.5999983252
 30
0.0
 10
11.1086540424
 20
3.5988579413
 30
0.0
 10
11.1099549556
 20
3.5981272801
 30
0.0
 10
11.1107647516
 20
3.5977054142
 30
0.0
 10
11.1114624821
 20
3.5973790473
 30
0.0
 10
11.1120444351
 20
3.5971506178
 30
0.0
 10
11.1124604371
 20
3.5970324431
 30
0.0
 10
11.1127329048
 20
3.5969973324
 30
0.0
 10
11.1128480189
 20
3.5969985269
 30
0.0
 10
11.1128994994
 20
3.5970048611
 30
0.0
  0
SPLINE
  5
4C5
100
AcDbEntity
  8
0
100
AcDbSpline
 62
7
  6
CONTINUOUS
 70
0
 71
3
 72
19
 73
15
 74
0
 42
0.0000001
 43
0.0000001
 44
0.0000000001
 40
0.0
 40
0.0
 40
0.0
 40
0.0
 40
0.1968602837
 40
0.3775279639
 40
0.539728251
 40
0.681205138
 40
0.7996709219
 40
0.8496158212
 40
0.8930557694
 40
0.92982159
 40
0.9598066625
 40
0.9830597998
 40
0.9922728246
 40
1.0
 40
1.0
 40
1.0
 40
1.0
 10
11.1422970125
 20
3.6147102101
 30
0.0
 10
11.1435135196
 20
3.6139950682
 30
0.0
 10
11.1458530426
 20
3.6126347189
 30
0.0
 10
11.149221407
 20
3.6107312104
 30
0.0
 10
11.1522708267
 20
3.6090709068
 30
0.0
 10
11.1549589385
 20
3.6076808559
 30
0.0
 10
11.1569622628
 20
3.6067196036
 30
0.0
 10
11.1583555419
 20
3.6061149918
 30
0.0
 10
11.159223219
 20
3.6057716956
 30
0.0
 10
11.1599702634
 20
3.6055136432
 30
0.0
 10
11.1605927445
 20
3.6053428936
 30
0.0
 10
11.1610358694
 20
3.6052672215
 30
0.0
 10
11.1613243769
 20
3.6052604956
 30
0.0
 10
11.1614457348
 20
3.6052739004
 30
0.0
 10
11.1614998552
 20
3.6052856926
 30
0.0
  0
SPLINE
  5
4C6
100
AcDbEntity
  8
0
100
AcDbSpline
 62
7
  6
CONTINUOUS
 70
0
 71
3
 72
19
 73
15
 74
0
 42
0.0000001
 43
0.0000001
 44
0.0000000001
 40
0.0
 40
0.0
 40
0.0
 40
0.0
 40
0.1958759828
 40
0.3758095266
 40
0.5375395298
 40
0.6788229289
 40
0.7973860212
 40
0.8474944123
 40
0.8911785044
 40
0.9282732334
 40
0.9586771158
 40
0.9824471156
 40
0.9919557483
 40
1.0
 40
1.0
 40
1.0
 40
1.0
 10
11.1887816831
 20
3.6255997448
 30
0.0
 10
11.190074726
 20
3.6249977109
 30
0.0
 10
11.1925613814
 20
3.6238550337
 30
0.0
 10
11.1961389401
 20
3.6222665334
 30
0.0
 10
11.1993763814
 20
3.6208925195
 30
0.0
 10
11.2022284416
 20
3.6197562304
 30
0.0
 10
11.2043507763
 20
3.6189860989
 30
0.0
 10
11.2058241362
 20
3.6185159438
 30
0.0
 10
11.2067415297
 20
3.6182568369
 30
0.0
 10
11.2075302998
 20
3.6180721178
 30
0.0
 10
11.2081863197
 20
3.6179634752
 30
0.0
 10
11.2086509655
 20
3.6179333642
 30
0.0
 10
11.2089514165
 20
3.6179570415
 30
0.0
 10
11.2090771094
 20
3.6179835405
 30
0.0
 10
11.2091329533
 20
3.6180012229
 30
0.0
  0
SPLINE
  5
4C7
100
AcDbEntity
  8
0
100
AcDbSpline
 62
7
  6
CONTINUOUS
 70
0
 71
3
 72
19
 73
15
 74
0
 42
0.0000001
 43
0.0000001
 44
0.0000000001
 40
0.0
 40
0.0
 40
0.0
 40
0.0
 40
0.1950527636
 40
0.3743837028
 40
0.5357380924
 40
0.6768777078
 40
0.7955341093
 40
0.8457809453
 40
0.8896672827
 40
0.9270307324
 40
0.9577732719
 40
0.9819584856
 40
0.9917032727
 40
1.0
 40
1.0
 40
1.0
 40
1.0
 10
11.2340594919
 20
3.6407154772
 30
0.0
 10
11.2354200464
 20
3.6402330251
 30
0.0
 10
11.2380363337
 20
3.6393205428
 30
0.0
 10
11.241797306
 20
3.6380648312
 30
0.0
 10
11.2451987017
 20
3.6369933066
 30
0.0
 10
11.2481925319
 20
3.6361251747
 30
0.0
 10
11.2504163866
 20
3.6355567067
 30
0.0
 10
11.2519568249
 20
3.6352282236
 30
0.0
 10
11.2529152276
 20
3.6350580306
 30
0.0
 10
11.2537376207
 20
3.6349507491
 30
0.0
 10
11.2544196983
 20
3.634907699
 30
0.0
 10
11.2548999274
 20
3.6349254112
 30
0.0
 10
11.2552079704
 20
3.6349808929
 30
0.0
 10
11.2553359604
 20
3.6350210654
 30
0.0
 10
11.2553925439
 20
3.6350449115
 30
0.0
  0
SPLINE
  5
4C8
100
AcDbEntity
  8
0
100
AcDbSpline
 62
7
  6
CONTINUOUS
 70
0
 71
3
 72
18
 73
14
 74
0
 42
0.0000001
 43
0.0000001
 44
0.0000000001
 40
0.0
 40
0.0
 40
0.0
 40
0.0
 40
0.1943975268
 40
0.3732634952
 40
0.5343422655
 40
0.6753923324
 40
0.7941418098
 40
0.8445036247
 40
0.888551752
 40
0.9261250009
 40
0.9571274094
 40
0.9816278642
 40
1.0
 40
1.0
 40
1.0
 40
1.0
 10
11.2777441618
 20
3.6599284509
 30
0.0
 10
11.2791626478
 20
3.6595715189
 30
0.0
 10
11.2818899851
 20
3.6589006824
 30
0.0
 10
11.2858070781
 20
3.6579938649
 30
0.0
 10
11.2893469753
 20
3.6572393206
 30
0.0
 10
11.2924591366
 20
3.6566519845
 30
0.0
 10
11.2947661373
 20
3.6562941751
 30
0.0
 10
11.2963600017
 20
3.6561133099
 30
0.0
 10
11.2973503532
 20
3.6560357712
 30
0.0
 10
11.2981976412
 20
3.6560090843
 30
0.0
 10
11.298898633
 20
3.6560339677
 30
0.0
 10
11.2994497689
 20
3.6561098752
 30
0.0
 10
11.2997615426
 20
3.6562080149
 30
0.0
 10
11.2998834467
 20
3.6562731989
 30
0.0
  0
SPLINE
  5
4C9
100
AcDbEntity
  8
0
100
AcDbSpline
 62
7
  6
CONTINUOUS
 70
0
 71
3
 72
18
 73
14
 74
0
 42
0.0000001
 43
0.0000001
 44
0.0000000001
 40
0.0
 40
0.0
 40
0.0
 40
0.0
 40
0.1938971953
 40
0.3724233822
 40
0.533314901
 40
0.6743189956
 40
0.7931518463
 40
0.8436009447
 40
0.8877666029
 40
0.925487342
 40
0.9566681876
 40
0.9813821281
 40
1.0
 40
1.0
 40
1.0
 40
1.0
 10
11.3194630072
 20
3.6830747548
 30
0.0
 10
11.3209293086
 20
3.6828486831
 30
0.0
 10
11.3237480759
 20
3.6824297502
 30
0.0
 10
11.3277925686
 20
3.6818860909
 30
0.0
 10
11.3314442188
 20
3.6814611615
 30
0.0
 10
11.3346501559
 20
3.6811653664
 30
0.0
 10
11.3370211019
 20
3.6810255873
 30
0.0
 10
11.3386542995
 20
3.6809969375
 30
0.0
 10
11.339667032
 20
3.6810148222
 30
0.0
 10
11.340530684
 20
3.6810707481
 30
0.0
 10
11.3412418635
 20
3.6811651794
 30
0.0
 10
11.3417970713
 20
3.681297183
 30
0.0
 10
11.3421062767
 20
3.6814282097
 30
0.0
 10
11.3422251813
 20
3.6815066675
 30
0.0
  0
SPLINE
  5
4CA
100
AcDbEntity
  8
0
100
AcDbSpline
 62
7
  6
CONTINUOUS
 70
0
 71
3
 72
18
 73
14
 74
0
 42
0.0000001
 43
0.0000001
 44
0.0000000001
 40
0.0
 40
0.0
 40
0.0
 40
0.0
 40
0.1935593731
 40
0.3718776887
 40
0.5326761181
 40
0.6736826104
 40
0.7925929377
 40
0.843103166
 40
0.887343442
 40
0.9251504891
 40
0.9564295931
 40
0.9812566076
 40
1.0
 40
1.0
 40
1.0
 40
1.0
 10
11.3588601133
 20
3.7099569217
 30
0.0
 10
11.3603635833
 20
3.7098663929
 30
0.0
 10
11.3632531408
 20
3.709708313
 30
0.0
 10
11.3673949276
 20
3.7095400784
 30
0.0
 10
11.3711303712
 20
3.7094553965
 30
0.0
 10
11.3744044995
 20
3.7094598706
 30
0.0
 10
11.3768195477
 20
3.7095437647
 30
0.0
 10
11.3784775589
 20
3.7096705439
 30
0.0
 10
11.3795029511
 20
3.7097855436
 30
0.0
 10
11.3803740241
 20
3.7099251125
 30
0.0
 10
11.3810872579
 20
3.7100894263
 30
0.0
 10
11.3816392343
 20
3.710277148
 30
0.0
 10
11.3819413767
 20
3.710440226
 30
0.0
 10
11.382055192
 20
3.7105314352
 30
0.0
  0
SPLINE
  5
4CB
100
AcDbEntity
  8
0
100
AcDbSpline
 62
7
  6
CONTINUOUS
 70
0
 71
3
 72
18
 73
14
 74
0
 42
0.0000001
 43
0.0000001
 44
0.0000000001
 40
0.0
 40
0.0
 40
0.0
 40
0.0
 40
0.1933789886
 40
0.3716171359
 40
0.5324135682
 40
0.6734691517
 40
0.7924511102
 40
0.8429970914
 40
0.8872703933
 40
0.9251044165
 40
0.9564043202
 40
0.9812472667
 40
1.0
 40
1.0
 40
1.0
 40
1.0
 10
11.3955993728
 20
3.7403456125
 30
0.0
 10
11.3971287959
 20
3.7403945835
 30
0.0
 10
11.400067425
 20
3.7405048647
 30
0.0
 10
11.4042749607
 20
3.7407221398
 30
0.0
 10
11.4080650294
 20
3.7409861703
 30
0.0
 10
11.411380823
 20
3.7412974756
 30
0.0
 10
11.4138195867
 20
3.7416088603
 30
0.0
 10
11.41548764
 20
3.7418928173
 30
0.0
 10
11.4165158762
 20
3.7421055264
 30
0.0
 10
11.4173854265
 20
3.7423286714
 30
0.0
 10
11.4180926822
 20
3.7425621011
 30
0.0
 10
11.4186343331
 20
3.7428040698
 30
0.0
 10
11.4189251303
 20
3.7429976599
 30
0.0
 10
11.4190318804
 20
3.7431007332
 30
0.0
  0
SPLINE
  5
4CC
100
AcDbEntity
  8
0
100
AcDbSpline
 62
7
  6
CONTINUOUS
 70
0
 71
3
 72
18
 73
14
 74
0
 42
0.0000001
 43
0.0000001
 44
0.0000000001
 40
0.0
 40
0.0
 40
0.0
 40
0.0
 40
0.1934739045
 40
0.3717745935
 40
0.5326073833
 40
0.6736667368
 40
0.7926194136
 40
0.8431398945
 40
0.8873841334
 40
0.925185141
 40
0.9564534254
 40
0.9812694201
 40
1.0
 40
1.0
 40
1.0
 40
1.0
 10
11.4297459192
 20
3.7740287403
 30
0.0
 10
11.4312659473
 20
3.774218837
 30
0.0
 10
11.4341848328
 20
3.7746002054
 30
0.0
 10
11.4383583588
 20
3.7752054465
 30
0.0
 10
11.442110911
 20
3.7758186765
 30
0.0
 10
11.4453858381
 20
3.776435138
 30
0.0
 10
11.4477864687
 20
3.7769705966
 30
0.0
 10
11.4494214923
 20
3.7774075084
 30
0.0
 10
11.45042562
 20
3.7777142614
 30
0.0
 10
11.4512706354
 20
3.7780167344
 30
0.0
 10
11.4519530252
 20
3.7783144232
 30
0.0
 10
11.4524697593
 20
3.7786052601
 30
0.0
 10
11.4527412602
 20
3.7788247892
 30
0.0
 10
11.4528379907
 20
3.7789372037
 30
0.0
  0
LINE
  5
4CD
100
AcDbEntity
  8
0
100
AcDbLine
 62
7
  6
CONTINUOUS
 10
11.4293673534
 20
3.7825157182
 11
11.4304593076
 21
3.7546926529
  0
SPLINE
  5
4CE
100
AcDbEntity
  8
0
100
AcDbSpline
 62
7
  6
CONTINUOUS
 70
0
 71
3
 72
18
 73
14
 74
0
 42
0.0000001
 43
0.0000001
 44
0.0000000001
 40
0.0
 40
0.0
 40
0.0
 40
0.0
 40
0.1938414169
 40
0.3723473533
 40
0.5332557867
 40
0.674273281
 40
0.793096256
 40
0.8435304624
 40
0.8876839147
 40
0.9253918261
 40
0.9565763411
 40
0.9813225034
 40
1.0
 40
1.0
 40
1.0
 40
1.0
 10
11.4609872192
 20
3.8108213319
 30
0.0
 10
11.4624631006
 20
3.8111468296
 30
0.0
 10
11.4652947128
 20
3.8117876609
 30
0.0
 10
11.4693366814
 20
3.8127624841
 30
0.0
 10
11.4729620469
 20
3.813706057
 30
0.0
 10
11.4761162757
 20
3.8146086217
 30
0.0
 10
11.4784194343
 20
3.8153517044
 30
0.0
 10
11.479980523
 20
3.8159282855
 30
0.0
 10
11.4809351798
 20
3.8163197536
 30
0.0
 10
11.4817342463
 20
3.8166925043
 30
0.0
 10
11.4823744999
 20
3.8170456777
 30
0.0
 10
11.4828533205
 20
3.8173770421
 30
0.0
 10
11.4830988155
 20
3.8176163548
 30
0.0
 10
11.4831832101
 20
3.8177350319
 30
0.0
  0
SPLINE
  5
4CF
100
AcDbEntity
  8
0
100
AcDbSpline
 62
7
  6
CONTINUOUS
 70
0
 71
3
 72
18
 73
14
 74
0
 42
0.0000001
 43
0.0000001
 44
0.0000000001
 40
0.0
 40
0.0
 40
0.0
 40
0.0
 40
0.1949259909
 40
0.3753015073
 40
0.5384386662
 40
0.6815489949
 40
0.8017510055
 40
0.8523978218
 40
0.8963217536
 40
0.9332418089
 40
0.9629425256
 40
0.9852372537
 40
1.0
 40
1.0
 40
1.0
 40
1.0
 10
11.4598759712
 20
3.8191119913
 30
0.0
 10
11.4601084748
 20
3.8173195051
 30
0.0
 10
11.4605536247
 20
3.8138680093
 30
0.0
 10
11.4611831269
 20
3.8089150359
 30
0.0
 10
11.4617415253
 20
3.8044373739
 30
0.0
 10
11.4622184729
 20
3.8005118719
 30
0.0
 10
11.462556931
 20
3.7976203234
 30
0.0
 10
11.462777381
 20
3.7956410228
 30
0.0
 10
11.462906575
 20
3.794428591
 30
0.0
 10
11.4630083672
 20
3.7934086113
 30
0.0
 10
11.4630826244
 20
3.7925874031
 30
0.0
 10
11.4631281703
 20
3.7919701171
 30
0.0
 10
11.4631449943
 20
3.7916266659
 30
0.0
 10
11.4631449943
 20
3.7914897744
 30
0.0
  0
SPLINE
  5
4D0
100
AcDbEntity
  8
0
100
AcDbSpline
 62
7
  6
CONTINUOUS
 70
0
 71
3
 72
18
 73
14
 74
0
 42
0.0000001
 43
0.0000001
 44
0.0000000001
 40
0.0
 40
0.0
 40
0.0
 40
0.0
 40
0.1943628888
 40
0.3732018528
 40
0.5342777576
 40
0.675299619
 40
0.7939876452
 40
0.8443109998
 40
0.8883325658
 40
0.9258892537
 40
0.9569144491
 40
0.9814932895
 40
1.0
 40
1.0
 40
1.0
 40
1.0
 10
11.4886567827
 20
3.8503898571
 30
0.0
 10
11.4900785413
 20
3.8508437599
 30
0.0
 10
11.4928038024
 20
3.8517301856
 30
0.0
 10
11.4966872
 20
3.8530536197
 30
0.0
 10
11.5001612456
 20
3.8543071012
 30
0.0
 10
11.5031737429
 20
3.8554761897
 30
0.0
 10
11.5053641544
 20
3.8564109741
 30
0.0
 10
11.5068409414
 20
3.8571150733
 30
0.0
 10
11.5077395686
 20
3.8575829743
 30
0.0
 10
11.5084870507
 20
3.8580182233
 30
0.0
 10
11.5090805089
 20
3.8584196141
 30
0.0
 10
11.5095176597
 20
3.8587848318
 30
0.0
 10
11.509735346
 20
3.8590395529
 30
0.0
 10
11.5098066521
 20
3.8591624758
 30
0.0
  0
SPLINE
  5
4D1
100
AcDbEntity
  8
0
100
AcDbSpline
 62
7
  6
CONTINUOUS
 70
0
 71
3
 72
20
 73
16
 74
0
 42
0.0000001
 43
0.0000001
 44
0.0000000001
 40
0.0
 40
0.0
 40
0.0
 40
0.0
 40
0.1950788138
 40
0.3755605045
 40
0.5387541893
 40
0.6818696699
 40
0.7449938844
 40
0.8020264553
 40
0.852633075
 40
0.8965069809
 40
0.9333698423
 40
0.9630110291
 40
0.9852536495
 40
0.9935672786
 40
1.0
 40
1.0
 40
1.0
 40
1.0
 10
11.4868649491
 20
3.8583563642
 30
0.0
 10
11.4872502765
 20
3.8565924843
 30
0.0
 10
11.4879880062
 20
3.8531958136
 30
0.0
 10
11.4890313756
 20
3.8483199533
 30
0.0
 10
11.4899568071
 20
3.8439107036
 30
0.0
 10
11.4906417622
 20
3.8405608369
 30
0.0
 10
11.4911158055
 20
3.8381707705
 30
0.0
 10
11.4914158864
 20
3.8366190781
 30
0.0
 10
11.4916738249
 20
3.8352407201
 30
0.0
 10
11.4918878938
 20
3.8340441085
 30
0.0
 10
11.4920568251
 20
3.8330365638
 30
0.0
 10
11.4921793423
 20
3.8322243879
 30
0.0
 10
11.492248845
 20
3.8316714126
 30
0.0
 10
11.4922773486
 20
3.8313302348
 30
0.0
 10
11.4922831522
 20
3.8311937804
 30
0.0
 10
11.4922831522
 20
3.8311342448
 30
0.0
  0
SPLINE
  5
4D2
100
AcDbEntity
  8
0
100
AcDbSpline
 62
7
  6
CONTINUOUS
 70
0
 71
3
 72
18
 73
14
 74
0
 42
0.0000001
 43
0.0000001
 44
0.0000000001
 40
0.0
 40
0.0
 40
0.0
 40
0.0
 40
0.1950440046
 40
0.3743479009
 40
0.5356849466
 40
0.6767579858
 40
0.7953041605
 40
0.8454912258
 40
0.8893378964
 40
0.9266829783
 40
0.9574698512
 40
0.9817819667
 40
1.0
 40
1.0
 40
1.0
 40
1.0
 10
11.5125043361
 20
3.8923869007
 30
0.0
 10
11.5138629858
 20
3.8929617628
 30
0.0
 10
11.5164647811
 20
3.8940790628
 30
0.0
 10
11.5201655752
 20
3.8957289699
 30
0.0
 10
11.5234670925
 20
3.8972708952
 30
0.0
 10
11.5263196642
 20
3.8986860047
 30
0.0
 10
11.5283843897
 20
3.8997959232
 30
0.0
 10
11.5297683257
 20
3.9006149264
 30
0.0
 10
11.5306056294
 20
3.9011506452
 30
0.0
 10
11.5312971024
 20
3.9016402808
 30
0.0
 10
11.5318402627
 20
3.9020823373
 30
0.0
 10
11.5322331108
 20
3.9024744534
 30
0.0
 10
11.5324219507
 20
3.9027400779
 30
0.0
 10
11.5324797784
 20
3.9028651531
 30
0.0
  0
SPLINE
  5
4D3
100
AcDbEntity
  8
0
100
AcDbSpline
 62
7
  6
CONTINUOUS
 70
0
 71
3
 72
20
 73
16
 74
0
 42
0.0000001
 43
0.0000001
 44
0.0000000001
 40
0.0
 40
0.0
 40
0.0
 40
0.0
 40
0.1953089707
 40
0.3759507545
 40
0.5392299232
 40
0.6823536325
 40
0.7454531853
 40
0.8024426185
 40
0.8529889288
 40
0.8967876815
 40
0.9335645335
 40
0.9631161209
 40
0.9852802753
 40
0.9935696555
 40
1.0
 40
1.0
 40
1.0
 40
1.0
 10
11.5101040368
 20
3.8999140326
 30
0.0
 10
11.5106388525
 20
3.8981927531
 30
0.0
 10
11.5116627621
 20
3.8948777258
 30
0.0
 10
11.5131110669
 20
3.8901167199
 30
0.0
 10
11.5143956554
 20
3.8858093707
 30
0.0
 10
11.5153465547
 20
3.8825345459
 30
0.0
 10
11.5160046882
 20
3.8801962703
 30
0.0
 10
11.5164212358
 20
3.8786776027
 30
0.0
 10
11.5167792865
 20
3.8773276292
 30
0.0
 10
11.517076444
 20
3.8761545749
 30
0.0
 10
11.5173109545
 20
3.8751655727
 30
0.0
 10
11.5174810546
 20
3.8743668021
 30
0.0
 10
11.5175775865
 20
3.8738211298
 30
0.0
 10
11.5176171667
 20
3.8734829881
 30
0.0
 10
11.5176251958
 20
3.8733471902
 30
0.0
 10
11.5176251958
 20
3.8732878464
 30
0.0
  0
SPLINE
  5
4D4
100
AcDbEntity
  8
0
100
AcDbSpline
 62
7
  6
CONTINUOUS
 70
0
 71
3
 72
19
 73
15
 74
0
 42
0.0000001
 43
0.0000001
 44
0.0000000001
 40
0.0
 40
0.0
 40
0.0
 40
0.0
 40
0.1958769864
 40
0.375770354
 40
0.5374550086
 40
0.6786205435
 40
0.79701375
 40
0.8470375127
 40
0.8906649426
 40
0.9277382199
 40
0.9582076154
 40
0.9821534494
 40
0.9917937214
 40
1.0
 40
1.0
 40
1.0
 40
1.0
 10
11.5323142732
 20
3.9364423904
 30
0.0
 10
11.5336017185
 20
3.9371304143
 30
0.0
 10
11.5360647102
 20
3.9384632139
 30
0.0
 10
11.5395615848
 20
3.9404165963
 30
0.0
 10
11.5426720727
 20
3.9422247821
 30
0.0
 10
11.5453492212
 20
3.9438648192
 30
0.0
 10
11.5472775506
 20
3.9451329174
 30
0.0
 10
11.5485618983
 20
3.9460539995
 30
0.0
 10
11.5493337845
 20
3.9466487206
 30
0.0
 10
11.5499663044
 20
3.9471846084
 30
0.0
 10
11.5504562716
 20
3.9476593071
 30
0.0
 10
11.550765518
 20
3.9480254835
 30
0.0
 10
11.5509311747
 20
3.9482897981
 30
0.0
 10
11.5509874267
 20
3.9484109933
 30
0.0
 10
11.5510078456
 20
3.9484686405
 30
0.0
  0
SPLINE
  5
4D5
100
AcDbEntity
  8
0
100
AcDbSpline
 62
7
  6
CONTINUOUS
 70
0
 71
3
 72
20
 73
16
 74
0
 42
0.0000001
 43
0.0000001
 44
0.0000000001
 40
0.0
 40
0.0
 40
0.0
 40
0.0
 40
0.1956167419
 40
0.3764727789
 40
0.5398665494
 40
0.6830015832
 40
0.7460682878
 40
0.803000119
 40
0.8534657922
 40
0.8971639579
 40
0.9338255817
 40
0.9632570203
 40
0.9853158992
 40
0.9935727866
 40
1.0
 40
1.0
 40
1.0
 40
1.0
 10
11.5293949755
 20
3.943430457
 30
0.0
 10
11.5300746507
 20
3.9417653991
 30
0.0
 10
11.531375856
 20
3.9385581165
 30
0.0
 10
11.5332167149
 20
3.933948725
 30
0.0
 10
11.5348494723
 20
3.9297758902
 30
0.0
 10
11.5360582946
 20
3.9266001481
 30
0.0
 10
11.536895002
 20
3.9243302596
 30
0.0
 10
11.5374244595
 20
3.9228551883
 30
0.0
 10
11.5378795664
 20
3.9215426859
 30
0.0
 10
11.5382572794
 20
3.9204007313
 30
0.0
 10
11.5385553805
 20
3.9194362102
 30
0.0
 10
11.5387716425
 20
3.9186551408
 30
0.0
 10
11.538894434
 20
3.9181191117
 30
0.0
 10
11.5389447662
 20
3.9177849749
 30
0.0
 10
11.5389549252
 20
3.9176500451
 30
0.0
 10
11.5389549252
 20
3.9175909554
 30
0.0
  0
SPLINE
  5
4D6
100
AcDbEntity
  8
0
100
AcDbSpline
 62
7
  6
CONTINUOUS
 70
0
 71
3
 72
19
 73
15
 74
0
 42
0.0000001
 43
0.0000001
 44
0.0000000001
 40
0.0
 40
0.0
 40
0.0
 40
0.0
 40
0.1968741768
 40
0.3774927416
 40
0.5396212394
 40
0.6809301545
 40
0.799168211
 40
0.8490055689
 40
0.8923731866
 40
0.9291188489
 40
0.9591948869
 40
0.9826781024
 40
0.9920630702
 40
1.0
 40
1.0
 40
1.0
 40
1.0
 10
11.5479077076
 20
3.9821671522
 30
0.0
 10
11.5491167042
 20
3.982960283
 30
0.0
 10
11.5514272529
 20
3.9844927428
 30
0.0
 10
11.5547014789
 20
3.9867260396
 30
0.0
 10
11.5576050262
 20
3.9887778947
 30
0.0
 10
11.5600938111
 20
3.9906214874
 30
0.0
 10
11.5618772224
 20
3.9920307305
 30
0.0
 10
11.5630568862
 20
3.9930410373
 30
0.0
 10
11.5637606315
 20
3.9936860389
 30
0.0
 10
11.5643320388
 20
3.994259841
 30
0.0
 10
11.5647682968
 20
3.9947598824
 30
0.0
 10
11.5650371983
 20
3.9951382481
 30
0.0
 10
11.5651743473
 20
3.9954052501
 30
0.0
 10
11.5652177064
 20
3.9955255225
 30
0.0
 10
11.5652319998
 20
3.9955820354
 30
0.0
  0
SPLINE
  5
4D7
100
AcDbEntity
  8
0
100
AcDbSpline
 62
7
  6
CONTINUOUS
 70
0
 71
3
 72
20
 73
16
 74
0
 42
0.0000001
 43
0.0000001
 44
0.0000000001
 40
0.0
 40
0.0
 40
0.0
 40
0.0
 40
0.1960028715
 40
0.3771279902
 40
0.5406660116
 40
0.6838157762
 40
0.7468414824
 40
0.8037011832
 40
0.8540657079
 40
0.8976375322
 40
0.934154243
 40
0.9634343977
 40
0.9853606262
 40
0.9935766392
 40
1.0
 40
1.0
 40
1.0
 40
1.0
 10
11.5445731889
 20
3.9885343869
 30
0.0
 10
11.545391843
 20
3.9869386803
 30
0.0
 10
11.5469590573
 20
3.9838642981
 30
0.0
 10
11.549176733
 20
3.9794419843
 30
0.0
 10
11.5511436924
 20
3.9754351267
 30
0.0
 10
11.5526002382
 20
3.9723816801
 30
0.0
 10
11.5536085049
 20
3.9701962078
 30
0.0
 10
11.554246351
 20
3.9687749324
 30
0.0
 10
11.5547946294
 20
3.9675086689
 30
0.0
 10
11.5552496775
 20
3.9664050928
 30
0.0
 10
11.5556088408
 20
3.9654707853
 30
0.0
 10
11.5558694582
 20
3.9647115667
 30
0.0
 10
11.5560175321
 20
3.9641874407
 30
0.0
 10
11.556078203
 20
3.9638582407
 30
0.0
 10
11.556090371
 20
3.9637243849
 30
0.0
 10
11.556090371
 20
3.9636656103
 30
0.0
  0
SPLINE
  5
4D8
100
AcDbEntity
  8
0
100
AcDbSpline
 62
7
  6
CONTINUOUS
 70
0
 71
3
 72
21
 73
17
 74
0
 42
0.0000001
 43
0.0000001
 44
0.0000000001
 40
0.0
 40
0.0
 40
0.0
 40
0.0
 40
0.1964668313
 40
0.3779153565
 40
0.5416267419
 40
0.6847939905
 40
0.7477701387
 40
0.8045426916
 40
0.8547849661
 40
0.8982039811
 40
0.9345452456
 40
0.9636420291
 40
0.9754428573
 40
0.985414696
 40
0.9935812192
 40
1.0
 40
1.0
 40
1.0
 40
1.0
 10
11.5555091877
 20
4.0348410287
 30
0.0
 10
11.5564597406
 20
4.0333271967
 30
0.0
 10
11.5582793749
 20
4.0304097043
 30
0.0
 10
11.5608549088
 20
4.0262083315
 30
0.0
 10
11.5631392428
 20
4.0223974942
 30
0.0
 10
11.5648312213
 20
4.0194885328
 30
0.0
 10
11.5660025866
 20
4.0174028058
 30
0.0
 10
11.5667433882
 20
4.0160450659
 30
0.0
 10
11.5673801122
 20
4.0148334196
 30
0.0
 10
11.5679087505
 20
4.0137751624
 30
0.0
 10
11.5683255415
 20
4.0128765842
 30
0.0
 10
11.5685946565
 20
4.0122269008
 30
0.0
 10
11.5687471172
 20
4.0117897805
 30
0.0
 10
11.5688238335
 20
4.0115282033
 30
0.0
 10
11.5688712835
 20
4.0113097148
 30
0.0
 10
11.5688853459
 20
4.0111771359
 30
0.0
 10
11.5688853459
 20
4.0111187357
 30
0.0
  0
SPLINE
  5
4D9
100
AcDbEntity
  8
0
100
AcDbSpline
 62
7
  6
CONTINUOUS
 70
0
 71
3
 72
18
 73
14
 74
0
 42
0.0000001
 43
0.0000001
 44
0.0000000001
 40
0.0
 40
0.0
 40
0.0
 40
0.0
 40
0.0187526633
 40
0.0435955881
 40
0.0748954929
 40
0.1127295181
 40
0.1570028286
 40
0.2075488273
 40
0.3265308452
 40
0.4675864856
 40
0.6283829509
 40
0.8066210848
 40
1.0
 40
1.0
 40
1.0
 40
1.0
 10
10.6755780189
 20
3.7431266137
 30
0.0
 10
10.6756847624
 20
3.7430235318
 30
0.0
 10
10.6759755492
 20
3.7428299191
 30
0.0
 10
10.6765171895
 20
3.7425879105
 30
0.0
 10
10.6772244379
 20
3.7423544292
 30
0.0
 10
10.6780939839
 20
3.7421312213
 30
0.0
 10
10.6791222184
 20
3.7419184384
 30
0.0
 10
10.6807902737
 20
3.7416343623
 30
0.0
 10
10.6832290475
 20
3.7413228049
 30
0.0
 10
10.6865448624
 20
3.7410112658
 30
0.0
 10
10.690334961
 20
3.7407469693
 30
0.0
 10
10.694542534
 20
3.7405293996
 30
0.0
 10
10.6974811916
 20
3.7404189133
 30
0.0
 10
10.69901063
 20
3.7403698355
 30
0.0
  0
SPLINE
  5
4DA
100
AcDbEntity
  8
0
100
AcDbSpline
 62
7
  6
CONTINUOUS
 70
0
 71
3
 72
19
 73
15
 74
0
 42
0.0000001
 43
0.0000001
 44
0.0000000001
 40
0.0
 40
0.0
 40
0.0
 40
0.0
 40
0.0070673311
 40
0.0157048211
 40
0.0379522124
 40
0.0670249397
 40
0.1029436148
 40
0.1456259625
 40
0.1949409778
 40
0.3126415135
 40
0.4541819063
 40
0.6174209348
 40
0.8000968336
 40
1.0
 40
1.0
 40
1.0
 40
1.0
 10
10.5174013794
 20
4.0595823485
 30
0.0
 10
10.5174013794
 20
4.0596296163
 30
0.0
 10
10.5174118299
 20
4.059734618
 30
0.0
 10
10.5174663371
 20
4.0599828196
 30
0.0
 10
10.5176007789
 20
4.0603619108
 30
0.0
 10
10.5178396223
 20
4.0608944176
 30
0.0
 10
10.5181690686
 20
4.061535138
 30
0.0
 10
10.5185874487
 20
4.0622814999
 30
0.0
 10
10.5193056464
 20
4.0634863172
 30
0.0
 10
10.5204167617
 20
4.0652258257
 30
0.0
 10
10.5219950913
 20
4.0675697292
 30
0.0
 10
10.523862633
 20
4.0702421966
 30
0.0
 10
10.525991752
 20
4.0732076362
 30
0.0
 10
10.5275047305
 20
4.0752712258
 30
0.0
 10
10.5282994104
 20
4.0763464177
 30
0.0
  0
LINE
  5
4DB
100
AcDbEntity
  8
0
100
AcDbLine
 62
7
  6
CONTINUOUS
 10
10.5282994104
 20
4.0763464177
 11
10.5284221435
 21
4.0765124045
  0
SPLINE
  5
4DC
100
AcDbEntity
  8
0
100
AcDbSpline
 62
7
  6
CONTINUOUS
 70
0
 71
3
 72
18
 73
14
 74
0
 42
0.0000001
 43
0.0000001
 44
0.0000000001
 40
0.0
 40
0.0
 40
0.0
 40
0.0
 40
0.0187434135
 40
0.0435704826
 40
0.0748496449
 40
0.1126567378
 40
0.1568970533
 40
0.2074073183
 40
0.3263177089
 40
0.4673242223
 40
0.6281226152
 40
0.8064408201
 40
1.0
 40
1.0
 40
1.0
 40
1.0
 10
10.7125524281
 20
3.7105547387
 30
0.0
 10
10.7126662383
 20
3.7104635201
 30
0.0
 10
10.7129683735
 20
3.7103004181
 30
0.0
 10
10.7135203447
 20
3.710112655
 30
0.0
 10
10.7142335771
 20
3.7099482886
 30
0.0
 10
10.7151046525
 20
3.7098086564
 30
0.0
 10
10.7161300505
 20
3.7096935829
 30
0.0
 10
10.7177880749
 20
3.7095666855
 30
0.0
 10
10.7202031488
 20
3.7094826206
 30
0.0
 10
10.7234773187
 20
3.709477917
 30
0.0
 10
10.7272128146
 20
3.7095623382
 30
0.0
 10
10.731354663
 20
3.7097302851
 30
0.0
 10
10.7342442659
 20
3.7098881649
 30
0.0
 10
10.7357477598
 20
3.7099785897
 30
0.0
  0
SPLINE
  5
4DD
100
AcDbEntity
  8
0
100
AcDbSpline
 62
7
  6
CONTINUOUS
 70
0
 71
3
 72
30
 73
26
 74
0
 42
0.0000001
 43
0.0000001
 44
0.0000000001
 40
0.0
 40
0.0
 40
0.0
 40
0.0
 40
0.0625999754
 40
0.0939230249
 40
0.1252386992
 40
0.1878320913
 40
0.250415137
 40
0.2817110961
 40
0.3130020592
 40
0.3755495482
 40
0.4380758345
 40
0.4693400038
 40
0.500598286
 40
0.5630785822
 40
0.6255357823
 40
0.6567655938
 40
0.6879901538
 40
0.7192099296
 40
0.7504251552
 40
0.8128246735
 40
0.875211227
 40
0.9064104273
 40
0.9376079272
 40
0.9688042048
 40
1.0
 40
1.0
 40
1.0
 40
1.0
 10
11.0473183383
 20
3.763273763
 30
0.0
 10
11.0599919452
 20
3.763273763
 30
0.0
 10
11.0790240221
 20
3.7642070791
 30
0.0
 10
11.1041971997
 20
3.7672979766
 30
0.0
 10
11.1291895592
 20
3.7716181267
 30
0.0
 10
11.1599817174
 20
3.7793004202
 30
0.0
 10
11.1898712157
 20
3.7899565785
 30
0.0
 10
11.2130614294
 20
3.800195544
 30
0.0
 10
11.2357154151
 20
3.8115557795
 30
0.0
 10
11.2629429516
 20
3.8278105852
 30
0.0
 10
11.2884421754
 20
3.8466522193
 30
0.0
 10
11.3076506821
 20
3.8631571752
 30
0.0
 10
11.326018738
 20
3.8805791066
 30
0.0
 10
11.3473375391
 20
3.9040078364
 30
0.0
 10
11.3662490802
 20
3.9294126812
 30
0.0
 10
11.3798206879
 20
3.9507613822
 30
0.0
 10
11.3891991176
 20
3.9672539589
 30
0.0
 10
11.3977535618
 20
3.9841852292
 30
0.0
 10
11.4080326989
 20
4.0072830164
 30
0.0
 10
11.4187268828
 20
4.0370582253
 30
0.0
 10
11.4264417038
 20
4.0677373781
 30
0.0
 10
11.4307770487
 20
4.0926340854
 30
0.0
 10
11.4331070531
 20
4.1114466955
 30
0.0
 10
11.4345066958
 20
4.1303497457
 30
0.0
 10
11.4348175685
 20
4.1429834992
 30
0.0
 10
11.4348175716
 20
4.1492992085
 30
0.0
  0
SPLINE
  5
4DE
100
AcDbEntity
  8
0
100
AcDbSpline
 62
7
  6
CONTINUOUS
 70
0
 71
3
 72
18
 73
14
 74
0
 42
0.0000001
 43
0.0000001
 44
0.0000000001
 40
0.0
 40
0.0
 40
0.0
 40
0.0
 40
0.0186179854
 40
0.0433320567
 40
0.0745130182
 40
0.1122338475
 40
0.1563995763
 40
0.2068487307
 40
0.3256816483
 40
0.4666857276
 40
0.6275771398
 40
0.8061031183
 40
1.0
 40
1.0
 40
1.0
 40
1.0
 10
10.7523804087
 20
3.6815271958
 30
0.0
 10
10.7524993099
 20
3.6814487279
 30
0.0
 10
10.7528085115
 20
3.6813176764
 30
0.0
 10
10.7533637195
 20
3.6811856307
 30
0.0
 10
10.7540749038
 20
3.6810911466
 30
0.0
 10
10.7549385649
 20
3.6810351577
 30
0.0
 10
10.7559513106
 20
3.6810172001
 30
0.0
 10
10.7575845325
 20
3.6810457336
 30
0.0
 10
10.7599555194
 20
3.6811853455
 30
0.0
 10
10.7631615178
 20
3.6814809169
 30
0.0
 10
10.766813242
 20
3.6819055929
 30
0.0
 10
10.7708578197
 20
3.6824489729
 30
0.0
 10
10.7736766483
 20
3.6828677119
 30
0.0
 10
10.7751429819
 20
3.6830936829
 30
0.0
  0
SPLINE
  5
4DF
100
AcDbEntity
  8
0
100
AcDbSpline
 62
7
  6
CONTINUOUS
 70
0
 71
3
 72
18
 73
14
 74
0
 42
0.0000001
 43
0.0000001
 44
0.0000000001
 40
0.0
 40
0.0
 40
0.0
 40
0.0
 40
0.0183723457
 40
0.0428730107
 40
0.0738755962
 40
0.1114489819
 40
0.1554972127
 40
0.205859104
 40
0.3246086522
 40
0.4656586658
 40
0.6267372559
 40
0.8056029131
 40
1.0
 40
1.0
 40
1.0
 40
1.0
 10
10.7947203799
 20
3.6562907775
 30
0.0
 10
10.7948422822
 20
3.6562255831
 30
0.0
 10
10.7951540557
 20
3.6561274183
 30
0.0
 10
10.7957051974
 20
3.6560514689
 30
0.0
 10
10.7964062001
 20
3.6560265333
 30
0.0
 10
10.7972535039
 20
3.6560531585
 30
0.0
 10
10.7982438759
 20
3.656130626
 30
0.0
 10
10.7998377754
 20
3.6563113777
 30
0.0
 10
10.8021448318
 20
3.6566690251
 30
0.0
 10
10.8052570733
 20
3.6572561446
 30
0.0
 10
10.8087970651
 20
3.6580104444
 30
0.0
 10
10.8127142653
 20
3.6589169927
 30
0.0
 10
10.8154416791
 20
3.6595876425
 30
0.0
 10
10.8168602051
 20
3.6599444776
 30
0.0
  0
SPLINE
  5
4E0
100
AcDbEntity
  8
0
100
AcDbSpline
 62
7
  6
CONTINUOUS
 70
0
 71
3
 72
19
 73
15
 74
0
 42
0.0000001
 43
0.0000001
 44
0.0000000001
 40
0.0
 40
0.0
 40
0.0
 40
0.0
 40
0.0082968793
 40
0.0180418179
 40
0.0422273178
 40
0.0729700924
 40
0.1103337231
 40
0.1542201949
 40
0.2044671261
 40
0.3231236013
 40
0.4642631266
 40
0.6256172657
 40
0.8049477961
 40
1.0
 40
1.0
 40
1.0
 40
1.0
 10
10.8392098002
 20
3.6350593918
 30
0.0
 10
10.8392663837
 20
3.6350355409
 30
0.0
 10
10.8393943744
 20
3.6349953577
 30
0.0
 10
10.8397024215
 20
3.6349398516
 30
0.0
 10
10.8401826601
 20
3.6349221029
 30
0.0
 10
10.8408647546
 20
3.6349651024
 30
0.0
 10
10.8416871701
 20
3.635072324
 30
0.0
 10
10.8426456003
 20
3.6352424483
 30
0.0
 10
10.8441860842
 20
3.635570822
 30
0.0
 10
10.8464100088
 20
3.636139134
 30
0.0
 10
10.8494039374
 20
3.6370070583
 30
0.0
 10
10.8528054475
 20
3.6380783486
 30
0.0
 10
10.8565665481
 20
3.6393338024
 30
0.0
 10
10.8591829265
 20
3.6402461063
 30
0.0
 10
10.8605435284
 20
3.6407284658
 30
0.0
  0
SPLINE
  5
4E1
100
AcDbEntity
  8
0
100
AcDbSpline
 62
7
  6
CONTINUOUS
 70
0
 71
3
 72
19
 73
15
 74
0
 42
0.0000001
 43
0.0000001
 44
0.0000000001
 40
0.0
 40
0.0
 40
0.0
 40
0.0
 40
0.0080444539
 40
0.0175532843
 40
0.0413236489
 40
0.0717278272
 40
0.1088227832
 40
0.1525070418
 40
0.2026155477
 40
0.3211787167
 40
0.4624619877
 40
0.6241916675
 40
0.8041247012
 40
1.0
 40
1.0
 40
1.0
 40
1.0
 10
10.885468202
 20
3.6180124826
 30
0.0
 10
10.8855240466
 20
3.6179947955
 30
0.0
 10
10.885649742
 20
3.6179682863
 30
0.0
 10
10.8859502003
 20
3.6179445853
 30
0.0
 10
10.8864148603
 20
3.6179746611
 30
0.0
 10
10.8870709029
 20
3.6180832554
 30
0.0
 10
10.8878597016
 20
3.6182679174
 30
0.0
 10
10.8887771294
 20
3.6185269588
 30
0.0
 10
10.890250545
 20
3.6189970095
 30
0.0
 10
10.8923729631
 20
3.6197669924
 30
0.0
 10
10.895225139
 20
3.6209030841
 30
0.0
 10
10.8984627133
 20
3.6222768753
 30
0.0
 10
10.9020404205
 20
3.6238651307
 30
0.0
 10
10.9045271805
 20
3.6250076385
 30
0.0
 10
10.9058202778
 20
3.6256095844
 30
0.0
  0
SPLINE
  5
4E2
100
AcDbEntity
  8
0
100
AcDbSpline
 62
7
  6
CONTINUOUS
 70
0
 71
3
 72
19
 73
15
 74
0
 42
0.0000001
 43
0.0000001
 44
0.0000000001
 40
0.0
 40
0.0
 40
0.0
 40
0.0
 40
0.0077274273
 40
0.0169406955
 40
0.0401942744
 40
0.0701797022
 40
0.1069457943
 40
0.15038594
 40
0.2003309727
 40
0.3187968357
 40
0.4602735568
 40
0.6224734493
 40
0.8031405207
 40
1.0
 40
1.0
 40
1.0
 40
1.0
 10
10.9331004144
 20
3.6052936371
 30
0.0
 10
10.9331545364
 20
3.6052818405
 30
0.0
 10
10.9332758981
 20
3.605268426
 30
0.0
 10
10.9335644163
 20
3.6052751296
 30
0.0
 10
10.9340075597
 20
3.6053507686
 30
0.0
 10
10.934630069
 20
3.6055214728
 30
0.0
 10
10.9353771478
 20
3.6057794716
 30
0.0
 10
10.9362448657
 20
3.6061227062
 30
0.0
 10
10.93763821
 20
3.6067272194
 30
0.0
 10
10.9396416307
 20
3.6076883317
 30
0.0
 10
10.9423298743
 20
3.6090781968
 30
0.0
 10
10.9453794448
 20
3.6107382905
 30
0.0
 10
10.9487479765
 20
3.6126415681
 30
0.0
 10
10.951087617
 20
3.6140017579
 30
0.0
 10
10.9523041852
 20
3.6147168168
 30
0.0
  0
SPLINE
  5
4E3
100
AcDbEntity
  8
0
100
AcDbSpline
 62
7
  6
CONTINUOUS
 70
0
 71
3
 72
19
 73
15
 74
0
 42
0.0000001
 43
0.0000001
 44
0.0000000001
 40
0.0
 40
0.0
 40
0.0
 40
0.0
 40
0.0073460076
 40
0.0162049294
 40
0.0388422402
 40
0.0683311622
 40
0.1047104045
 40
0.1478662735
 40
0.1976240825
 40
0.3159897856
 40
0.4577090358
 40
0.6204715417
 40
0.8020004174
 40
1.0
 40
1.0
 40
1.0
 40
1.0
 10
10.9817001947
 20
3.5970094241
 30
0.0
 10
10.9817516775
 20
3.5970030859
 30
0.0
 10
10.9818667969
 20
3.5970018824
 30
0.0
 10
10.9821392781
 20
3.5970369726
 30
0.0
 10
10.9825553028
 20
3.5971551167
 30
0.0
 10
10.983137289
 20
3.5973835046
 30
0.0
 10
10.9838350595
 20
3.597709822
 30
0.0
 10
10.9846449021
 20
3.5981316308
 30
0.0
 10
10.9859458896
 20
3.5988622003
 30
0.0
 10
10.9878138093
 20
3.6000024536
 30
0.0
 10
10.9903172366
 20
3.6016300515
 30
0.0
 10
10.9931561049
 20
3.6035586382
 30
0.0
 10
10.9962911202
 20
3.6057575675
 30
0.0
 10
10.9984671538
 20
3.6073219027
 30
0.0
 10
10.9995986838
 20
3.6081430921
 30
0.0
  0
SPLINE
  5
4E4
100
AcDbEntity
  8
0
100
AcDbSpline
 62
7
  6
CONTINUOUS
 70
0
 71
3
 72
19
 73
15
 74
0
 42
0.0000001
 43
0.0000001
 44
0.0000000001
 40
0.0
 40
0.0
 40
0.0
 40
0.0
 40
0.0069004225
 40
0.0153470018
 40
0.0372711136
 40
0.0661884819
 40
0.102125263
 40
0.144958517
 40
0.194506662
 40
0.3127704148
 40
0.4547804825
 40
0.6181955156
 40
0.8007099144
 40
1.0
 40
1.0
 40
1.0
 40
1.0
 10
11.0308535008
 20
3.5932286942
 30
0.0
 10
11.0309015144
 20
3.5932272339
 30
0.0
 10
11.0310086456
 20
3.5932370777
 30
0.0
 10
11.0312613106
 20
3.5932979561
 30
0.0
 10
11.0316450341
 20
3.5934547891
 30
0.0
 10
11.0321801013
 20
3.5937355515
 30
0.0
 10
11.0328215792
 20
3.594124314
 30
0.0
 10
11.033566003
 20
3.594618242
 30
0.0
 10
11.034763156
 20
3.5954653351
 30
0.0
 10
11.0364801561
 20
3.5967713811
 30
0.0
 10
11.0387792668
 20
3.5986191354
 30
0.0
 10
11.04138617
 20
3.6007969004
 30
0.0
 10
11.0442648147
 20
3.6032706242
 30
0.0
 10
11.0462617867
 20
3.605024628
 30
0.0
 10
11.0473002916
 20
3.6059444924
 30
0.0
  0
SPLINE
  5
4E5
100
AcDbEntity
  8
0
100
AcDbSpline
 62
7
  6
CONTINUOUS
 70
0
 71
3
 72
21
 73
17
 74
0
 42
0.0000001
 43
0.0000001
 44
0.0000000001
 40
0.0
 40
0.0
 40
0.0
 40
0.0
 40
0.0063914937
 40
0.0143692787
 40
0.0240531821
 40
0.0355011688
 40
0.0637756727
 40
0.099217243
 40
0.1416913839
 40
0.1910083008
 40
0.2469229244
 40
0.3091714284
 40
0.4515164527
 40
0.6156669219
 40
0.7992809736
 40
1.0
 40
1.0
 40
1.0
 40
1.0
 10
11.0801420524
 20
3.5939821036
 30
0.0
 10
11.0801858756
 20
3.5939848096
 30
0.0
 10
11.0802834637
 20
3.5940043249
 30
0.0
 10
11.0804390357
 20
3.5940607745
 30
0.0
 10
11.0806195636
 20
3.5941474017
 30
0.0
 10
11.080914635
 20
3.594315463
 30
0.0
 10
11.0813421598
 20
3.5946061733
 30
0.0
 10
11.0819210378
 20
3.5950503214
 30
0.0
 10
11.0825931929
 20
3.5956093129
 30
0.0
 10
11.0833550081
 20
3.5962796587
 30
0.0
 10
11.0842027388
 20
3.5970575983
 30
0.0
 10
11.0855013711
 20
3.5982889966
 30
0.0
 10
11.0873044469
 20
3.6000685197
 30
0.0
 10
11.089659682
 20
3.6024745743
 30
0.0
 10
11.0922605638
 20
3.6052008602
 30
0.0
 10
11.0940640473
 20
3.6071291451
 30
0.0
 10
11.0950020533
 20
3.6081397745
 30
0.0
  0
SPLINE
  5
4E6
100
AcDbEntity
  8
0
100
AcDbSpline
 62
7
  6
CONTINUOUS
 70
0
 71
3
 72
21
 73
17
 74
0
 42
0.0000001
 43
0.0000001
 44
0.0000000001
 40
0.0
 40
0.0
 40
0.0
 40
0.0
 40
0.0058214657
 40
0.0132773548
 40
0.0224908433
 40
0.0335174654
 40
0.0610852086
 40
0.0959851536
 40
0.1380688969
 40
0.1871372041
 40
0.2429370763
 40
0.3051978601
 40
0.4479245178
 40
0.6128931662
 40
0.7977184091
 40
1.0
 40
1.0
 40
1.0
 40
1.0
 10
11.1291468303
 20
3.5992619792
 30
0.0
 10
11.1291858713
 20
3.5992680303
 30
0.0
 10
11.129272601
 20
3.5992955875
 30
0.0
 10
11.1294091376
 20
3.5993642988
 30
0.0
 10
11.1295679196
 20
3.5994653732
 30
0.0
 10
11.1298289817
 20
3.5996582749
 30
0.0
 10
11.1302065854
 20
3.5999850375
 30
0.0
 10
11.1307174536
 20
3.600477606
 30
0.0
 10
11.1313112627
 20
3.6010936142
 30
0.0
 10
11.1319847723
 20
3.6018292058
 30
0.0
 10
11.1327346062
 20
3.602680279
 30
0.0
 10
11.1338847156
 20
3.6040255316
 30
0.0
 10
11.135481427
 20
3.605963327
 30
0.0
 10
11.1375666206
 20
3.6085757316
 30
0.0
 10
11.139869906
 20
3.6115308528
 30
0.0
 10
11.1414664726
 20
3.6136171749
 30
0.0
 10
11.1422970125
 20
3.6147102101
 30
0.0
  0
SPLINE
  5
4E7
100
AcDbEntity
  8
0
100
AcDbSpline
 62
7
  6
CONTINUOUS
 70
0
 71
3
 72
22
 73
18
 74
0
 42
0.0000001
 43
0.0000001
 44
0.0000000001
 40
0.0
 40
0.0
 40
0.0
 40
0.0
 40
0.0051928349
 40
0.0120776309
 40
0.0207793678
 40
0.0313492595
 40
0.0581533071
 40
0.0924701587
 40
0.1341353122
 40
0.1829390381
 40
0.238619612
 40
0.3008985887
 40
0.3694791325
 40
0.4440483931
 40
0.6099071418
 40
0.7960404201
 40
1.0
 40
1.0
 40
1.0
 40
1.0
 10
11.1774514844
 20
3.6090224728
 30
0.0
 10
11.1774852953
 20
3.6090309571
 30
0.0
 10
11.1775600801
 20
3.6090648092
 30
0.0
 10
11.1776759836
 20
3.6091426752
 30
0.0
 10
11.1778113301
 20
3.6092549508
 30
0.0
 10
11.1780355861
 20
3.6094681425
 30
0.0
 10
11.1783595379
 20
3.6098247336
 30
0.0
 10
11.1787977745
 20
3.6103577948
 30
0.0
 10
11.1793080118
 20
3.6110223196
 30
0.0
 10
11.1798874239
 20
3.611814101
 30
0.0
 10
11.1805330118
 20
3.612728721
 30
0.0
 10
11.181241615
 20
3.6137612078
 30
0.0
 10
11.1820100331
 20
3.6149063323
 30
0.0
 10
11.183151152
 20
3.6166386329
 30
0.0
 10
11.1847003519
 20
3.6190469371
 30
0.0
 10
11.1866877997
 20
3.6222058355
 30
0.0
 10
11.188065056
 20
3.6244330998
 30
0.0
 10
11.1887816831
 20
3.6255997448
 30
0.0
  0
SPLINE
  5
4E8
100
AcDbEntity
  8
0
100
AcDbSpline
 62
7
  6
CONTINUOUS
 70
0
 71
3
 72
22
 73
18
 74
0
 42
0.0000001
 43
0.0000001
 44
0.0000000001
 40
0.0
 40
0.0
 40
0.0
 40
0.0
 40
0.0045104156
 40
0.010781826
 40
0.0189376829
 40
0.0290221866
 40
0.0550167214
 40
0.0887171728
 40
0.1299411931
 40
0.17846777
 40
0.2340259704
 40
0.2963287592
 40
0.3650719139
 40
0.4399348784
 40
0.6067447833
 40
0.794267164
 40
1.0
 40
1.0
 40
1.0
 40
1.0
 10
11.224645841
 20
3.6231800257
 30
0.0
 10
11.2246741358
 20
3.623189973
 30
0.0
 10
11.2247361152
 20
3.6232283023
 30
0.0
 10
11.2248302652
 20
3.6233119324
 30
0.0
 10
11.2249409759
 20
3.6234319439
 30
0.0
 10
11.22512621
 20
3.6236605244
 30
0.0
 10
11.2253935661
 20
3.6240402925
 30
0.0
 10
11.2257554868
 20
3.6246054506
 30
0.0
 10
11.2261778363
 20
3.6253094939
 30
0.0
 10
11.2266582374
 20
3.6261478882
 30
0.0
 10
11.2271941159
 20
3.6271159007
 30
0.0
 10
11.2277828128
 20
3.6282082226
 30
0.0
 10
11.2284216284
 20
3.6294192916
 30
0.0
 10
11.2293713935
 20
3.6312519584
 30
0.0
 10
11.2306612142
 20
3.6337979033
 30
0.0
 10
11.2323160748
 20
3.6371342653
 30
0.0
 10
11.2334627015
 20
3.6394844741
 30
0.0
 10
11.2340594919
 20
3.6407154772
 30
0.0
  0
SPLINE
  5
4E9
100
AcDbEntity
  8
0
100
AcDbSpline
 62
7
  6
CONTINUOUS
 70
0
 71
3
 72
23
 73
19
 74
0
 42
0.0000001
 43
0.0000001
 44
0.0000000001
 40
0.0
 40
0.0
 40
0.0
 40
0.0
 40
0.0037802955
 40
0.0094049534
 40
0.0169895426
 40
0.0265676968
 40
0.0381465181
 40
0.0517213916
 40
0.0847802892
 40
0.1255458585
 40
0.1737854142
 40
0.2292187599
 40
0.2915496818
 40
0.3604661838
 40
0.4356393921
 40
0.6034480378
 40
0.7924219317
 40
1.0
 40
1.0
 40
1.0
 40
1.0
 10
11.2703291585
 20
3.6416140841
 30
0.0
 10
11.2703518237
 20
3.6416244888
 30
0.0
 10
11.2704002944
 20
3.6416654701
 30
0.0
 10
11.2704721282
 20
3.6417511738
 30
0.0
 10
11.2705575123
 20
3.6418753223
 30
0.0
 10
11.2706558051
 20
3.6420374483
 30
0.0
 10
11.2707670247
 20
3.6422378556
 30
0.0
 10
11.2709440613
 20
3.6425786787
 30
0.0
 10
11.2711936316
 20
3.6430985955
 30
0.0
 10
11.2715248365
 20
3.6438326433
 30
0.0
 10
11.2719022123
 20
3.6447076589
 30
0.0
 10
11.2723238335
 20
3.6457184219
 30
0.0
 10
11.2727875158
 20
3.6468593821
 30
0.0
 10
11.2732911118
 20
3.6481246486
 30
0.0
 10
11.2740408412
 20
3.65004086
 30
0.0
 10
11.2750595019
 20
3.6527023017
 30
0.0
 10
11.2763667894
 20
3.6561884551
 30
0.0
 10
11.2772725728
 20
3.658642783
 30
0.0
 10
11.2777441618
 20
3.6599284509
 30
0.0
  0
SPLINE
  5
4EA
100
AcDbEntity
  8
0
100
AcDbSpline
 62
7
  6
CONTINUOUS
 70
0
 71
3
 72
24
 73
20
 74
0
 42
0.0000001
 43
0.0000001
 44
0.0000000001
 40
0.0
 40
0.0
 40
0.0
 40
0.0
 40
0.0030123354
 40
0.0079703818
 40
0.0149703908
 40
0.0240313008
 40
0.0351516117
 40
0.0483218146
 40
0.0807239556
 40
0.121020091
 40
0.1689660467
 40
0.2242728396
 40
0.2866347611
 40
0.3557318574
 40
0.4312265078
 40
0.5127806943
 40
0.6000659266
 40
0.7905319273
 40
1.0
 40
1.0
 40
1.0
 40
1.0
 10
11.3141134747
 20
3.6641681248
 30
0.0
 10
11.3141305862
 20
3.6641779868
 30
0.0
 10
11.3141648272
 20
3.6642198736
 30
0.0
 10
11.3142145421
 20
3.664303614
 30
0.0
 10
11.3142744557
 20
3.6644282931
 30
0.0
 10
11.3143439726
 20
3.6645922412
 30
0.0
 10
11.3144229982
 20
3.6647962201
 30
0.0
 10
11.3145496864
 20
3.6651456542
 30
0.0
 10
11.314728476
 20
3.6656795888
 30
0.0
 10
11.3149660804
 20
3.6664340598
 30
0.0
 10
11.315237465
 20
3.6673352703
 30
0.0
 10
11.3155412213
 20
3.6683777605
 30
0.0
 10
11.3158757363
 20
3.6695556999
 30
0.0
 10
11.3162394256
 20
3.6708629241
 30
0.0
 10
11.3166306931
 20
3.6722930712
 30
0.0
 10
11.3170479367
 20
3.6738397309
 30
0.0
 10
11.3176547078
 20
3.676115995
 30
0.0
 10
11.318465481
 20
3.679205801
 30
0.0
 10
11.3191213949
 20
3.6817445664
 30
0.0
 10
11.3194630072
 20
3.6830747548
 30
0.0
  0
SPLINE
  5
4EB
100
AcDbEntity
  8
0
100
AcDbSpline
 62
7
  6
CONTINUOUS
 70
0
 71
3
 72
26
 73
22
 74
0
 42
0.0000001
 43
0.0000001
 44
0.0000000001
 40
0.0
 40
0.0
 40
0.0
 40
0.0
 40
0.0008749352
 40
0.0022383111
 40
0.0065309162
 40
0.012949528
 40
0.0214950871
 40
0.0321571977
 40
0.044921576
 40
0.0597667659
 40
0.0766629664
 40
0.1164848562
 40
0.1641328207
 40
0.21931019
 40
0.2817018097
 40
0.3509798247
 40
0.4267976764
 40
0.5088081494
 40
0.5966736431
 40
0.7886383618
 40
1.0
 40
1.0
 40
1.0
 40
1.0
 10
11.3556267728
 20
3.6906509414
 30
0.0
 10
11.3556314337
 20
3.6906542428
 30
0.0
 10
11.3556404619
 20
3.690666245
 30
0.0
 10
11.3556599973
 20
3.6907039614
 30
0.0
 10
11.3556862334
 20
3.6907787529
 30
0.0
 10
11.3557213623
 20
3.6908992907
 30
0.0
 10
11.3557623277
 20
3.6910615928
 30
0.0
 10
11.355809246
 20
3.6912649445
 30
0.0
 10
11.3558618387
 20
3.6915092043
 30
0.0
 10
11.3559200419
 20
3.6917938517
 30
0.0
 10
11.356009997
 20
3.6922522851
 30
0.0
 10
11.3561348238
 20
3.6929220742
 30
0.0
 10
11.3562982717
 20
3.6938388349
 30
0.0
 10
11.3564815638
 20
3.6949016992
 30
0.0
 10
11.3566837543
 20
3.6961045783
 30
0.0
 10
11.356903847
 20
3.6974410728
 30
0.0
 10
11.3571408642
 20
3.6989045726
 30
0.0
 10
11.3573938154
 20
3.7004884091
 30
0.0
 10
11.3577620571
 20
3.7028216529
 30
0.0
 10
11.3582543834
 20
3.7059901731
 30
0.0
 10
11.3586526219
 20
3.7085928278
 30
0.0
 10
11.3588601133
 20
3.7099569217
 30
0.0
  0
LINE
  5
4EC
100
AcDbEntity
  8
0
100
AcDbLine
 62
7
  6
CONTINUOUS
 10
11.3945159958
 20
3.7208381564
 11
11.3955993728
 21
3.7403456125
  0
SPLINE
  5
4ED
100
AcDbEntity
  8
0
100
AcDbSpline
 62
7
  6
CONTINUOUS
 70
0
 71
3
 72
19
 73
15
 74
0
 42
0.0000001
 43
0.0000001
 44
0.0000000001
 40
0.0
 40
0.0
 40
0.0
 40
0.0
 40
0.0070673621
 40
0.0157049048
 40
0.0379524275
 40
0.067025308
 40
0.1029441398
 40
0.145626631
 40
0.1949417464
 40
0.3126423342
 40
0.4541826326
 40
0.6174214717
 40
0.8000971152
 40
1.0
 40
1.0
 40
1.0
 40
1.0
 10
11.5772306927
 20
4.0595454962
 30
0.0
 10
11.5772306927
 20
4.0595927636
 30
0.0
 10
11.5772202434
 20
4.0596977645
 30
0.0
 10
11.5771657427
 20
4.0599459654
 30
0.0
 10
11.5770313161
 20
4.0603250586
 30
0.0
 10
11.5767924988
 20
4.060857572
 30
0.0
 10
11.5764630879
 20
4.0614983032
 30
0.0
 10
11.5760447524
 20
4.0622446803
 30
0.0
 10
11.5753266314
 20
4.0634495241
 30
0.0
 10
11.5742156343
 20
4.0651890763
 30
0.0
 10
11.5726374709
 20
4.0675330452
 30
0.0
 10
11.5707701249
 20
4.0702055926
 30
0.0
 10
11.5686412275
 20
4.0731711263
 30
0.0
 10
11.5671284055
 20
4.0752347845
 30
0.0
 10
11.5663338075
 20
4.0763100128
 30
0.0
  0
LINE
  5
4EE
100
AcDbEntity
  8
0
100
AcDbLine
 62
7
  6
CONTINUOUS
 10
11.5663338075
 20
4.0763100128
 11
11.5662110459
 21
4.0764760609
  0
SPLINE
  5
4EF
100
AcDbEntity
  8
0
100
AcDbSpline
 62
7
  6
CONTINUOUS
 70
0
 71
3
 72
19
 73
15
 74
0
 42
0.0000001
 43
0.0000001
 44
0.0000000001
 40
0.0
 40
0.0
 40
0.0
 40
0.0
 40
0.0076043974
 40
0.0166760661
 40
0.0395978165
 40
0.0692020378
 40
0.1055622688
 40
0.1486279442
 40
0.1982536994
 40
0.316330995
 40
0.45783057
 40
0.6204946472
 40
0.8019695502
 40
1.0
 40
1.0
 40
1.0
 40
1.0
 10
11.5750306809
 20
4.0438016304
 30
0.0
 10
11.5750221915
 20
4.0437472202
 30
0.0
 10
11.574991121
 20
4.0436298459
 30
0.0
 10
11.5748815112
 20
4.0433643622
 30
0.0
 10
11.5746522526
 20
4.0429795387
 30
0.0
 10
11.5742697101
 20
4.0424614786
 30
0.0
 10
11.5737601583
 20
4.0418577144
 30
0.0
 10
11.5731260988
 20
4.0411709256
 30
0.0
 10
11.5720543979
 20
4.0400838363
 30
0.0
 10
11.5704221106
 20
4.0385500738
 30
0.0
 10
11.5681317437
 20
4.0365239047
 30
0.0
 10
11.5654480631
 20
4.0342506816
 30
0.0
 10
11.5624121426
 20
4.0317608599
 30
0.0
 10
11.5602656241
 20
4.03004455
 30
0.0
 10
11.5591412819
 20
4.0291543732
 30
0.0
  0
SPLINE
  5
4F0
100
AcDbEntity
  8
0
100
AcDbSpline
 62
7
  6
CONTINUOUS
 70
0
 71
3
 72
19
 73
15
 74
0
 42
0.0000001
 43
0.0000001
 44
0.0000000001
 40
0.0
 40
0.0
 40
0.0
 40
0.0
 40
0.0072113645
 40
0.0159148471
 40
0.0381834594
 40
0.0672436514
 40
0.103165684
 40
0.1458919274
 40
0.1952832795
 40
0.3131958237
 40
0.4549302836
 40
0.6182144408
 40
0.8006665222
 40
1.0
 40
1.0
 40
1.0
 40
1.0
 10
11.5803205317
 20
4.0927138305
 30
0.0
 10
11.580317345
 20
4.0926624123
 30
0.0
 10
11.5802975958
 20
4.092549747
 30
0.0
 10
11.5802138338
 20
4.0922896711
 30
0.0
 10
11.5800226085
 20
4.0919037493
 30
0.0
 10
11.5796927309
 20
4.0913746017
 30
0.0
 10
11.5792447138
 20
4.0907484572
 30
0.0
 10
11.5786808236
 20
4.0900280591
 30
0.0
 10
11.5777189622
 20
4.0888762375
 30
0.0
 10
11.5762422915
 20
4.0872342386
 30
0.0
 10
11.5741584116
 20
4.0850462523
 30
0.0
 10
11.571705605
 20
4.0825739392
 30
0.0
 10
11.5689217851
 20
4.0798511599
 30
0.0
 10
11.5669496806
 20
4.0779670342
 30
0.0
 10
11.5659156021
 20
4.0769880152
 30
0.0
  0
SPLINE
  5
4F1
100
AcDbEntity
  8
0
100
AcDbSpline
 62
7
  6
CONTINUOUS
 70
0
 71
3
 72
21
 73
17
 74
0
 42
0.0000001
 43
0.0000001
 44
0.0000000001
 40
0.0
 40
0.0
 40
0.0
 40
0.0
 40
0.1947348964
 40
0.3743972055
 40
0.5364784329
 40
0.6784329324
 40
0.7410488572
 40
0.7976778992
 40
0.8480317853
 40
0.8918668033
 40
0.9289811293
 40
0.959276784
 40
0.9718818185
 40
0.982821458
 40
0.9921571815
 40
1.0
 40
1.0
 40
1.0
 40
1.0
 10
10.5652547428
 20
4.3156256618
 30
0.0
 10
10.56377996
 20
4.3148513792
 30
0.0
 10
10.5609519076
 20
4.3133486382
 30
0.0
 10
10.5569271428
 20
4.3111440961
 30
0.0
 10
10.5533311815
 20
4.309097541
 30
0.0
 10
10.5506392364
 20
4.3074876301
 30
0.0
 10
10.5487503855
 20
4.3062941681
 30
0.0
 10
10.5475394462
 20
4.3054951357
 30
0.0
 10
10.5464807127
 20
4.304757793
 30
0.0
 10
10.5455803078
 20
4.3040859636
 30
0.0
 10
10.5448438629
 20
4.3034829045
 30
0.0
 10
10.5443424822
 20
4.3030156001
 30
0.0
 10
10.5440323545
 20
4.302674794
 30
0.0
 10
10.5438579079
 20
4.3024537663
 30
0.0
 10
10.5437270071
 20
4.3022515456
 30
0.0
 10
10.5436636257
 20
4.3021181165
 30
0.0
 10
10.5436412232
 20
4.3020548834
 30
0.0
  0
LINE
  5
4F2
100
AcDbEntity
  8
0
100
AcDbLine
 62
7
  6
CONTINUOUS
 10
10.5624102974
 20
4.3141310066
 11
10.56226733
 21
4.3144891948
  0
SPLINE
  5
4F3
100
AcDbEntity
  8
0
100
AcDbSpline
 62
7
  6
CONTINUOUS
 70
0
 71
3
 72
19
 73
15
 74
0
 42
0.0000001
 43
0.0000001
 44
0.0000000001
 40
0.0
 40
0.0
 40
0.0
 40
0.0
 40
0.1987297514
 40
0.3804731792
 40
0.5430910643
 40
0.6844113478
 40
0.8023629465
 40
0.851988359
 40
0.8951008468
 40
0.931551642
 40
0.9612144198
 40
0.9840182588
 40
0.9928542149
 40
1.0
 40
1.0
 40
1.0
 40
1.0
 10
10.56226733
 20
4.3144891948
 30
0.0
 10
10.5617862363
 20
4.3156953602
 30
0.0
 10
10.5608707434
 20
4.3180068265
 30
0.0
 10
10.5595845684
 20
4.3213143278
 30
0.0
 10
10.5584579472
 20
4.3242812927
 30
0.0
 10
10.5575070124
 20
4.3268689254
 30
0.0
 10
10.5568391036
 20
4.3287738173
 30
0.0
 10
10.5564080704
 20
4.3300813729
 30
0.0
 10
10.5561567268
 20
4.3308872887
 30
0.0
 10
10.5559589323
 20
4.3315731704
 30
0.0
 10
10.5558157053
 20
4.3321363098
 30
0.0
 10
10.5557353314
 20
4.3325291639
 30
0.0
 10
10.5557026809
 20
4.3327805803
 30
0.0
 10
10.5556963048
 20
4.3328849901
 30
0.0
 10
10.5556963048
 20
4.3329316832
 30
0.0
  0
SPLINE
  5
4F4
100
AcDbEntity
  8
0
100
AcDbSpline
 62
7
  6
CONTINUOUS
 70
0
 71
3
 72
21
 73
17
 74
0
 42
0.0000001
 43
0.0000001
 44
0.0000000001
 40
0.0
 40
0.0
 40
0.0
 40
0.0
 40
0.195426947
 40
0.3757137579
 40
0.5382928706
 40
0.680549291
 40
0.7432203297
 40
0.7998285042
 40
0.8500773051
 40
0.8937150068
 40
0.9305310525
 40
0.9604241263
 40
0.9727847354
 40
0.983450906
 40
0.9924848028
 40
1.0
 40
1.0
 40
1.0
 40
1.0
 10
10.5500733685
 20
4.2705227876
 30
0.0
 10
10.548648866
 20
4.2696053659
 30
0.0
 10
10.5459185597
 20
4.2678285852
 30
0.0
 10
10.5420378822
 20
4.2652357164
 30
0.0
 10
10.5385773392
 20
4.2628446993
 30
0.0
 10
10.5359935625
 20
4.260979433
 30
0.0
 10
10.5341867675
 20
4.2596091578
 30
0.0
 10
10.533032676
 20
4.2586987825
 30
0.0
 10
10.5320279951
 20
4.2578660192
 30
0.0
 10
10.5311786539
 20
4.2571153917
 30
0.0
 10
10.5304901453
 20
4.2564507009
 30
0.0
 10
10.5300271286
 20
4.2559438547
 30
0.0
 10
10.5297462917
 20
4.2555806969
 30
0.0
 10
10.5295919738
 20
4.2553490953
 30
0.0
 10
10.5294802071
 20
4.2551408565
 30
0.0
 10
10.5294297476
 20
4.2550056453
 30
0.0
 10
10.5294137664
 20
4.2549424783
 30
0.0
  0
LINE
  5
4F5
100
AcDbEntity
  8
0
100
AcDbLine
 62
7
  6
CONTINUOUS
 10
10.5468563177
 20
4.268321241
 11
10.5466001052
 21
4.2688317421
  0
SPLINE
  5
4F6
100
AcDbEntity
  8
0
100
AcDbSpline
 62
7
  6
CONTINUOUS
 70
0
 71
3
 72
19
 73
15
 74
0
 42
0.0000001
 43
0.0000001
 44
0.0000000001
 40
0.0
 40
0.0
 40
0.0
 40
0.0
 40
0.1990406009
 40
0.3810392001
 40
0.5438346009
 40
0.6852256502
 40
0.803117769
 40
0.8526611827
 40
0.8956569835
 40
0.9319609776
 40
0.9614586973
 40
0.984103842
 40
0.9928810191
 40
1.0
 40
1.0
 40
1.0
 40
1.0
 10
10.5466001052
 20
4.2688317421
 30
0.0
 10
10.546012041
 20
4.2700046929
 30
0.0
 10
10.5448927964
 20
4.2722534547
 30
0.0
 10
10.5433195723
 20
4.27547492
 30
0.0
 10
10.541940886
 20
4.2783683307
 30
0.0
 10
10.5407766993
 20
4.2808955712
 30
0.0
 10
10.5399584364
 20
4.2827599689
 30
0.0
 10
10.5394301126
 20
4.2840426998
 30
0.0
 10
10.5391221154
 20
4.2848343022
 30
0.0
 10
10.5388796928
 20
4.285509478
 30
0.0
 10
10.5387040907
 20
4.2860655424
 30
0.0
 10
10.5386054619
 20
4.2864554933
 30
0.0
 10
10.5385654139
 20
4.2867065282
 30
0.0
 10
10.5385576302
 20
4.2868112906
 30
0.0
 10
10.5385576302
 20
4.2868582201
 30
0.0
  0
SPLINE
  5
4F7
100
AcDbEntity
  8
0
100
AcDbSpline
 62
7
  6
CONTINUOUS
 70
0
 71
3
 72
21
 73
17
 74
0
 42
0.0000001
 43
0.0000001
 44
0.0000000001
 40
0.0
 40
0.0
 40
0.0
 40
0.0
 40
0.1962480906
 40
0.3772629267
 40
0.5404127047
 40
0.6830072513
 40
0.7457360285
 40
0.8023145235
 40
0.8524377372
 40
0.8958444974
 40
0.9323158871
 40
0.961745112
 40
0.9738244475
 40
0.9841763362
 40
0.9928626758
 40
1.0
 40
1.0
 40
1.0
 40
1.0
 10
10.5391341246
 20
4.2242169065
 30
0.0
 10
10.537773367
 20
4.2231598686
 30
0.0
 10
10.5351665637
 20
4.2211160952
 30
0.0
 10
10.5314661883
 20
4.2181458513
 30
0.0
 10
10.5281730249
 20
4.2154215603
 30
0.0
 10
10.525720845
 20
4.2133106577
 30
0.0
 10
10.5240121432
 20
4.2117716412
 30
0.0
 10
10.522924987
 20
4.2107560563
 30
0.0
 10
10.5219829125
 20
4.209834167
 30
0.0
 10
10.5211915938
 20
4.2090111747
 30
0.0
 10
10.5205563271
 20
4.2082914386
 30
0.0
 10
10.5201348546
 20
4.2077506859
 30
0.0
 10
10.5198849436
 20
4.2073697537
 30
0.0
 10
10.5197514202
 20
4.2071309967
 30
0.0
 10
10.5196590048
 20
4.2069201649
 30
0.0
 10
10.5196213703
 20
4.2067854804
 30
0.0
 10
10.5196117052
 20
4.2067235639
 30
0.0
  0
LINE
  5
4F8
100
AcDbEntity
  8
0
100
AcDbLine
 62
7
  6
CONTINUOUS
 10
10.5355637789
 20
4.2214249325
 11
10.5353977254
 21
4.2216951129
  0
LINE
  5
4F9
100
AcDbEntity
  8
0
100
AcDbLine
 62
7
  6
CONTINUOUS
 10
10.5353977254
 20
4.2216951129
 11
10.5352764398
 21
4.2218926589
  0
SPLINE
  5
4FA
100
AcDbEntity
  8
0
100
AcDbSpline
 62
7
  6
CONTINUOUS
 70
0
 71
3
 72
19
 73
15
 74
0
 42
0.0000001
 43
0.0000001
 44
0.0000000001
 40
0.0
 40
0.0
 40
0.0
 40
0.0
 40
0.1994131416
 40
0.3817186288
 40
0.5447285564
 40
0.6862065382
 40
0.804028968
 40
0.8534742616
 40
0.8963298962
 40
0.932456855
 40
0.9617548919
 40
0.9842075758
 40
0.99291345
 40
1.0
 40
1.0
 40
1.0
 40
1.0
 10
10.5352764398
 20
4.2218926589
 30
0.0
 10
10.5345816275
 20
4.2230248503
 30
0.0
 10
10.5332589404
 20
4.2251966195
 30
0.0
 10
10.5313986299
 20
4.2283122496
 30
0.0
 10
10.5297674717
 20
4.2311150274
 30
0.0
 10
10.5283893925
 20
4.2335677228
 30
0.0
 10
10.5274199792
 20
4.2353819849
 30
0.0
 10
10.5267936886
 20
4.2366339057
 30
0.0
 10
10.5264286921
 20
4.2374077415
 30
0.0
 10
10.5261413417
 20
4.2380696001
 30
0.0
 10
10.5259331106
 20
4.238616825
 30
0.0
 10
10.5258160256
 20
4.239003104
 30
0.0
 10
10.5257685108
 20
4.2392536104
 30
0.0
 10
10.5257593298
 20
4.2393587777
 30
0.0
 10
10.5257593298
 20
4.2394059847
 30
0.0
  0
SPLINE
  5
4FB
100
AcDbEntity
  8
0
100
AcDbSpline
 62
7
  6
CONTINUOUS
 70
0
 71
3
 72
21
 73
17
 74
0
 42
0.0000001
 43
0.0000001
 44
0.0000000001
 40
0.0
 40
0.0
 40
0.0
 40
0.0
 40
0.197183217
 40
0.3790171203
 40
0.5428013362
 40
0.685765679
 40
0.7485545366
 40
0.8050958006
 40
0.8550757758
 40
0.8982225017
 40
0.9343094636
 40
0.9632215553
 40
0.9749875715
 40
0.9849890288
 40
0.9932866413
 40
1.0
 40
1.0
 40
1.0
 40
1.0
 10
10.5325303366
 20
4.1771030664
 30
0.0
 10
10.5312467672
 20
4.1759113623
 30
0.0
 10
10.5287891171
 20
4.1736103697
 30
0.0
 10
10.5253049173
 20
4.1702775082
 30
0.0
 10
10.5222104842
 20
4.16723447
 30
0.0
 10
10.5199125886
 20
4.1648900686
 30
0.0
 10
10.5183172283
 20
4.1631920166
 30
0.0
 10
10.5173063797
 20
4.1620783699
 30
0.0
 10
10.5164346405
 20
4.16107449
 30
0.0
 10
10.5157073734
 20
4.160186223
 30
0.0
 10
10.5151296066
 20
4.1594185
 30
0.0
 10
10.5147519099
 20
4.1588497172
 30
0.0
 10
10.5145337186
 20
4.1584556899
 30
0.0
 10
10.5144210144
 20
4.1582132002
 30
0.0
 10
10.5143475011
 20
4.1580031614
 30
0.0
 10
10.5143221189
 20
4.1578712468
 30
0.0
 10
10.5143184261
 20
4.1578117296
 30
0.0
  0
LINE
  5
4FC
100
AcDbEntity
  8
0
100
AcDbLine
 62
7
  6
CONTINUOUS
 10
10.5287571033
 20
4.1736057052
 11
10.5284291279
 21
4.1740487191
  0
LINE
  5
4FD
100
AcDbEntity
  8
0
100
AcDbLine
 62
7
  6
CONTINUOUS
 10
10.5284291279
 20
4.1740487191
 11
10.5283064654
 21
4.1742146559
  0
SPLINE
  5
4FE
100
AcDbEntity
  8
0
100
AcDbSpline
 62
7
  6
CONTINUOUS
 70
0
 71
3
 72
19
 73
15
 74
0
 42
0.0000001
 43
0.0000001
 44
0.0000000001
 40
0.0
 40
0.0
 40
0.0
 40
0.0
 40
0.1999024888
 40
0.3825778352
 40
0.5458164953
 40
0.6873567467
 40
0.8050574399
 40
0.8543726652
 40
0.8970552968
 40
0.93297429
 40
0.962047348
 40
0.9842950314
 40
0.9929326261
 40
1.0
 40
1.0
 40
1.0
 40
1.0
 10
10.5283064654
 20
4.1742146559
 30
0.0
 10
10.5275119402
 20
4.175289932
 30
0.0
 10
10.5259992572
 20
4.1773536808
 30
0.0
 10
10.523870556
 20
4.1803193407
 30
0.0
 10
10.5220033827
 20
4.1829919978
 30
0.0
 10
10.5204253657
 20
4.1853360585
 30
0.0
 10
10.5193144722
 20
4.187075674
 30
0.0
 10
10.5185964185
 20
4.1882805579
 30
0.0
 10
10.518178122
 20
4.1890269583
 30
0.0
 10
10.517848742
 20
4.1896677076
 30
0.0
 10
10.5176099471
 20
4.1902002336
 30
0.0
 10
10.5174755333
 20
4.1905793331
 30
0.0
 10
10.5174210377
 20
4.1908275362
 30
0.0
 10
10.5174105893
 20
4.1909325373
 30
0.0
 10
10.5174105893
 20
4.1909798047
 30
0.0
  0
SPLINE
  5
4FF
100
AcDbEntity
  8
0
100
AcDbSpline
 62
7
  6
CONTINUOUS
 70
0
 71
3
 72
19
 73
15
 74
0
 42
0.0000001
 43
0.0000001
 44
0.0000000001
 40
0.0
 40
0.0
 40
0.0
 40
0.0
 40
0.0081197285
 40
0.0177109885
 40
0.0416793047
 40
0.0723154224
 40
0.1096810833
 40
0.153680108
 40
0.2041193283
 40
0.3233204348
 40
0.4650134591
 40
0.6266747562
 40
0.8058218722
 40
1.0
 40
1.0
 40
1.0
 40
1.0
 10
10.5621724868
 20
4.3476570801
 30
0.0
 10
10.5622012218
 20
4.3477192194
 30
0.0
 10
10.5622772075
 20
4.3478486237
 30
0.0
 10
10.5624928091
 20
4.3481268411
 30
0.0
 10
10.5628837188
 20
4.3485044203
 30
0.0
 10
10.5634924806
 20
4.348985436
 30
0.0
 10
10.5642710571
 20
4.3495208945
 30
0.0
 10
10.5652146705
 20
4.350108346
 30
0.0
 10
10.5667753767
 20
4.3510082743
 30
0.0
 10
10.5691003561
 20
4.3522287981
 30
0.0
 10
10.5723056217
 20
4.3537850357
 30
0.0
 10
10.5760047542
 20
4.3554788941
 30
0.0
 10
10.5801371105
 20
4.3572877121
 30
0.0
 10
10.5830371256
 20
4.3585118339
 30
0.0
 10
10.584548731
 20
4.3591407444
 30
0.0
  0
SPLINE
  5
500
100
AcDbEntity
  8
0
100
AcDbSpline
 62
7
  6
CONTINUOUS
 70
0
 71
3
 72
19
 73
15
 74
0
 42
0.0000001
 43
0.0000001
 44
0.0000000001
 40
0.0
 40
0.0
 40
0.0
 40
0.0
 40
0.0083434795
 40
0.0181413299
 40
0.0424634256
 40
0.0733725883
 40
0.1109377004
 40
0.1550633757
 40
0.2055646328
 40
0.3247193033
 40
0.4661876232
 40
0.6275045659
 40
0.8062443165
 40
1.0
 40
1.0
 40
1.0
 40
1.0
 10
10.5848486759
 20
4.3913581776
 30
0.0
 10
10.584883451
 20
4.3914181158
 30
0.0
 10
10.5849713751
 20
4.3915413269
 30
0.0
 10
10.585210913
 20
4.3918009195
 30
0.0
 10
10.5856312231
 20
4.3921435436
 30
0.0
 10
10.5862744843
 20
4.3925688627
 30
0.0
 10
10.5870878424
 20
4.3930316067
 30
0.0
 10
10.5880664145
 20
4.3935299108
 30
0.0
 10
10.5896756806
 20
4.3942807613
 30
0.0
 10
10.5920604276
 20
4.3952780752
 30
0.0
 10
10.5953356312
 20
4.3965254229
 30
0.0
 10
10.5991052918
 20
4.397861835
 30
0.0
 10
10.603309105
 20
4.3992708612
 30
0.0
 10
10.6062555745
 20
4.4002142354
 30
0.0
 10
10.6077907311
 20
4.4006967965
 30
0.0
  0
SPLINE
  5
501
100
AcDbEntity
  8
0
100
AcDbSpline
 62
7
  6
CONTINUOUS
 70
0
 71
3
 72
19
 73
15
 74
0
 42
0.0000001
 43
0.0000001
 44
0.0000000001
 40
0.0
 40
0.0
 40
0.0
 40
0.0
 40
0.0085126256
 40
0.0184665468
 40
0.043053666
 40
0.0741649924
 40
0.1118750398
 40
0.1560888189
 40
0.2066285153
 40
0.3257302095
 40
0.4670156914
 40
0.6280714636
 40
0.8065212689
 40
1.0
 40
1.0
 40
1.0
 40
1.0
 10
10.6114750208
 20
4.4327837657
 30
0.0
 10
10.6115153607
 20
4.432840484
 30
0.0
 10
10.6116141693
 20
4.432955527
 30
0.0
 10
10.6118750304
 20
4.4331926862
 30
0.0
 10
10.6123205126
 20
4.43349596
 30
0.0
 10
10.6129919798
 20
4.4338608174
 30
0.0
 10
10.6138324563
 20
4.4342466022
 30
0.0
 10
10.6148370206
 20
4.434652016
 30
0.0
 10
10.6164805928
 20
4.4352494838
 30
0.0
 10
10.6189043151
 20
4.4360194876
 30
0.0
 10
10.6222211366
 20
4.4369546054
 30
0.0
 10
10.6260291272
 20
4.4379316565
 30
0.0
 10
10.6302687711
 20
4.4389401336
 30
0.0
 10
10.6332367238
 20
4.4396028876
 30
0.0
 10
10.6347824591
 20
4.4399392923
 30
0.0
  0
SPLINE
  5
502
100
AcDbEntity
  8
0
100
AcDbSpline
 62
7
  6
CONTINUOUS
 70
0
 71
3
 72
18
 73
14
 74
0
 42
0.0000001
 43
0.0000001
 44
0.0000000001
 40
0.0
 40
0.0
 40
0.0
 40
0.0
 40
0.0186473038
 40
0.0434097956
 40
0.0746536306
 40
0.1124553947
 40
0.1567201086
 40
0.2072763424
 40
0.3263235775
 40
0.467474292
 40
0.6283591888
 40
0.8066443285
 40
1.0
 40
1.0
 40
1.0
 40
1.0
 10
10.641822957
 20
4.4715794783
 30
0.0
 10
10.6419208107
 20
4.4716931821
 30
0.0
 10
10.6421962647
 20
4.4719150632
 30
0.0
 10
10.6427208075
 20
4.4722087272
 30
0.0
 10
10.6434142623
 20
4.4725093866
 30
0.0
 10
10.6442734507
 20
4.4728148971
 30
0.0
 10
10.6452947271
 20
4.4731247389
 30
0.0
 10
10.6469579433
 20
4.4735660169
 30
0.0
 10
10.6493996729
 20
4.4741066459
 30
0.0
 10
10.6527298788
 20
4.4747288163
 30
0.0
 10
10.6565444121
 20
4.4753474159
 30
0.0
 10
10.6607849311
 20
4.4759575958
 30
0.0
 10
10.663749977
 20
4.4763419355
 30
0.0
 10
10.6652936415
 20
4.4765334435
 30
0.0
  0
SPLINE
  5
503
100
AcDbEntity
  8
0
100
AcDbSpline
 62
7
  6
CONTINUOUS
 70
0
 71
3
 72
15
 73
11
 74
0
 42
0.0000001
 43
0.0000001
 44
0.0000000001
 40
0.0
 40
0.0
 40
0.0
 40
0.0
 40
0.1251305496
 40
0.2502275843
 40
0.3752880375
 40
0.5003098474
 40
0.6252912361
 40
0.7502324702
 40
0.8751355656
 40
1.0
 40
1.0
 40
1.0
 40
1.0
 10
10.8917827068
 20
3.8007854354
 30
0.0
 10
10.881887571
 20
3.8049108229
 30
0.0
 10
10.8624407959
 20
3.8140080969
 30
0.0
 10
10.8345616417
 20
3.8301014076
 30
0.0
 10
10.8081620364
 20
3.8485078839
 30
0.0
 10
10.7834198633
 20
3.8690715174
 30
0.0
 10
10.7605131989
 20
3.8916481411
 30
0.0
 10
10.7396194153
 20
3.9160867678
 30
0.0
 10
10.7208705955
 20
3.9421909379
 30
0.0
 10
10.7098731435
 20
3.9605824903
 30
0.0
 10
10.7047739399
 20
3.9699868681
 30
0.0
  0
SPLINE
  5
504
100
AcDbEntity
  8
0
100
AcDbSpline
 62
7
  6
CONTINUOUS
 70
0
 71
3
 72
24
 73
20
 74
0
 42
0.0000001
 43
0.0000001
 44
0.0000000001
 40
0.0
 40
0.0
 40
0.0
 40
0.0
 40
0.2086327316
 40
0.3987289319
 40
0.4858849156
 40
0.5672823734
 40
0.6425358191
 40
0.7112594528
 40
0.773089905
 40
0.8276918604
 40
0.8747753311
 40
0.9141312669
 40
0.9456752569
 40
0.9585764838
 40
0.9696396378
 40
0.9789919231
 40
0.9868662828
 40
0.9936625006
 40
1.0
 40
1.0
 40
1.0
 40
1.0
 10
10.6347389536
 20
3.8191406844
 30
0.0
 10
10.6330824928
 20
3.8192403672
 30
0.0
 10
10.6299155445
 20
3.8194117429
 30
0.0
 10
10.6260534112
 20
3.8195595391
 30
0.0
 10
10.6232013499
 20
3.8196221148
 30
0.0
 10
10.6212621421
 20
3.8196401967
 30
0.0
 10
10.619469468
 20
3.8196300186
 30
0.0
 10
10.6178328446
 20
3.8195907038
 30
0.0
 10
10.6163615694
 20
3.8195216398
 30
0.0
 10
10.615064545
 20
3.8194224144
 30
0.0
 10
10.6139497298
 20
3.8192929441
 30
0.0
 10
10.6130245225
 20
3.8191333552
 30
0.0
 10
10.6123774199
 20
3.8189669512
 30
0.0
 10
10.611963925
 20
3.8188108333
 30
0.0
 10
10.6117255517
 20
3.8186938377
 30
0.0
 10
10.611537535
 20
3.8185686327
 30
0.0
 10
10.6113997666
 20
3.8184339797
 30
0.0
 10
10.6113138565
 20
3.8182876421
 30
0.0
 10
10.6112947518
 20
3.8181822443
 30
0.0
 10
10.6112947518
 20
3.818131836
 30
0.0
  0
SPLINE
  5
505
100
AcDbEntity
  8
0
100
AcDbSpline
 62
7
  6
CONTINUOUS
 70
0
 71
3
 72
23
 73
19
 74
0
 42
0.0000001
 43
0.0000001
 44
0.0000000001
 40
0.0
 40
0.0
 40
0.0
 40
0.0
 40
0.2071407443
 40
0.3041035399
 40
0.3961615427
 40
0.5640881052
 40
0.7079240304
 40
0.7698783095
 40
0.8247335825
 40
0.8721986693
 40
0.9120588144
 40
0.9442140414
 40
0.9574484907
 40
0.9688507859
 40
0.9785291758
 40
0.9866829286
 40
0.9936561069
 40
1.0
 40
1.0
 40
1.0
 40
1.0
 10
10.6652450067
 20
3.7825422896
 30
0.0
 10
10.6635732467
 20
3.782488703
 30
0.0
 10
10.6611193369
 20
3.78239536
 30
0.0
 10
10.6579244042
 20
3.7822349418
 30
0.0
 10
10.6550471638
 20
3.7820639931
 30
0.0
 10
10.6517952033
 20
3.7818210976
 30
0.0
 10
10.6487927138
 20
3.7815110644
 30
0.0
 10
10.6467076416
 20
3.7812229451
 30
0.0
 10
10.6453992057
 20
3.7810035953
 30
0.0
 10
10.644274519
 20
3.7807708407
 30
0.0
 10
10.6433410337
 20
3.7805254336
 30
0.0
 10
10.642689338
 20
3.7802992203
 30
0.0
 10
10.6422733297
 20
3.7801052413
 30
0.0
 10
10.6420330911
 20
3.7799662169
 30
0.0
 10
10.6418438455
 20
3.779823824
 30
0.0
 10
10.641705535
 20
3.7796770864
 30
0.0
 10
10.6416191677
 20
3.7795241602
 30
0.0
 10
10.6415991101
 20
3.7794158862
 30
0.0
 10
10.6415991101
 20
3.7793646606
 30
0.0
  0
LINE
  5
506
100
AcDbEntity
  8
0
100
AcDbLine
 62
7
  6
CONTINUOUS
 10
10.7001034097
 20
3.7210809507
 11
10.69901063
 21
3.7489039806
  0
SPLINE
  5
507
100
AcDbEntity
  8
0
100
AcDbSpline
 62
7
  6
CONTINUOUS
 70
0
 71
3
 72
24
 73
20
 74
0
 42
0.0000001
 43
0.0000001
 44
0.0000000001
 40
0.0
 40
0.0
 40
0.0
 40
0.0
 40
0.2057311049
 40
0.3937358395
 40
0.4801737455
 40
0.5610834053
 40
0.6360870957
 40
0.70480584
 40
0.7668808224
 40
0.8219781768
 40
0.8698046492
 40
0.9101385607
 40
0.942863577
 40
0.9564068195
 40
0.9681222078
 40
0.9781007542
 40
0.9865116576
 40
0.9936492867
 40
1.0
 40
1.0
 40
1.0
 40
1.0
 10
10.69901063
 20
3.7489039806
 30
0.0
 10
10.6973378499
 20
3.7486962789
 30
0.0
 10
10.6941387334
 20
3.7482797696
 30
0.0
 10
10.6902454971
 20
3.7477116687
 30
0.0
 10
10.6873714265
 20
3.7472458114
 30
0.0
 10
10.6854152951
 20
3.7469042678
 30
0.0
 10
10.6836069083
 20
3.7465616091
 30
0.0
 10
10.681955867
 20
3.746218717
 30
0.0
 10
10.6804715389
 20
3.7458766866
 30
0.0
 10
10.6791628807
 20
3.7455367351
 30
0.0
 10
10.6780379693
 20
3.7452002136
 30
0.0
 10
10.6771042444
 20
3.7448686054
 30
0.0
 10
10.6764534674
 20
3.7445825115
 30
0.0
 10
10.6760383764
 20
3.7443506428
 30
0.0
 10
10.6757982948
 20
3.7441895266
 30
0.0
 10
10.6756093621
 20
3.7440299093
 30
0.0
 10
10.6754715633
 20
3.7438710201
 30
0.0
 10
10.6753854734
 20
3.7437113912
 30
0.0
 10
10.6753646952
 20
3.7436003203
 30
0.0
 10
10.6753646952
 20
3.7435482868
 30
0.0
  0
SPLINE
  5
508
100
AcDbEntity
  8
0
100
AcDbSpline
 62
7
  6
CONTINUOUS
 70
0
 71
3
 72
18
 73
14
 74
0
 42
0.0000001
 43
0.0000001
 44
0.0000000001
 40
0.0
 40
0.0
 40
0.0
 40
0.0
 40
0.0147627741
 40
0.0370575405
 40
0.0667582567
 40
0.1036782854
 40
0.1476021929
 40
0.1982489966
 40
0.3184509879
 40
0.4615613039
 40
0.6246984612
 40
0.8050739851
 40
1.0
 40
1.0
 40
1.0
 40
1.0
 10
10.7390176017
 20
3.6908906291
 30
0.0
 10
10.7390176017
 20
3.6910275207
 30
0.0
 10
10.7390007733
 20
3.6913709723
 30
0.0
 10
10.7389552158
 20
3.6919882578
 30
0.0
 10
10.7388809399
 20
3.692809464
 30
0.0
 10
10.7387791222
 20
3.6938294402
 30
0.0
 10
10.7386498959
 20
3.6950418675
 30
0.0
 10
10.7384293908
 20
3.6970211605
 30
0.0
 10
10.7380908479
 20
3.6999126973
 30
0.0
 10
10.7376137809
 20
3.7038381827
 30
0.0
 10
10.7370552427
 20
3.7083158251
 30
0.0
 10
10.736425583
 20
3.7132687766
 30
0.0
 10
10.7359803216
 20
3.7167202567
 30
0.0
 10
10.7357477598
 20
3.7185127347
 30
0.0
  0
SPLINE
  5
509
100
AcDbEntity
  8
0
100
AcDbSpline
 62
7
  6
CONTINUOUS
 70
0
 71
3
 72
23
 73
19
 74
0
 42
0.0000001
 43
0.0000001
 44
0.0000000001
 40
0.0
 40
0.0
 40
0.0
 40
0.0
 40
0.2044114793
 40
0.3914712164
 40
0.5582785625
 40
0.6331754712
 40
0.7018990534
 40
0.7640919602
 40
0.8194201575
 40
0.8675876717
 40
0.9083652663
 40
0.9416198951
 40
0.95544841
 40
0.9674518507
 40
0.9777056279
 40
0.9863522863
 40
0.9936420401
 40
1.0
 40
1.0
 40
1.0
 40
1.0
 10
10.7357477598
 20
3.7185127347
 30
0.0
 10
10.7340882718
 20
3.7181513951
 30
0.0
 10
10.7309141039
 20
3.7174409822
 30
0.0
 10
10.7264032459
 20
3.7163594733
 30
0.0
 10
10.7229556082
 20
3.7154609119
 30
0.0
 10
10.7204741472
 20
3.7147571934
 30
0.0
 10
10.7188370571
 20
3.7142627853
 30
0.0
 10
10.7173652334
 20
3.7137845293
 30
0.0
 10
10.716067557
 20
3.7133244304
 30
0.0
 10
10.7149520624
 20
3.7128845762
 30
0.0
 10
10.7140261255
 20
3.7124671263
 30
0.0
 10
10.713381745
 20
3.7121215729
 30
0.0
 10
10.7129709937
 20
3.7118520852
 30
0.0
 10
10.712733098
 20
3.7116689966
 30
0.0
 10
10.7125460403
 20
3.7114922523
 30
0.0
 10
10.7124098372
 20
3.7113212499
 30
0.0
 10
10.7123247619
 20
3.7111548682
 30
0.0
 10
10.7123035167
 20
3.7110410891
 30
0.0
 10
10.7123035167
 20
3.7109882634
 30
0.0
  0
SPLINE
  5
50A
100
AcDbEntity
  8
0
100
AcDbSpline
 62
7
  6
CONTINUOUS
 70
0
 71
3
 72
20
 73
16
 74
0
 42
0.0000001
 43
0.0000001
 44
0.0000000001
 40
0.0
 40
0.0
 40
0.0
 40
0.0
 40
0.0064327302
 40
0.0147463754
 40
0.036989024
 40
0.066630199
 40
0.1034930229
 40
0.1473668951
 40
0.1979734945
 40
0.2550060495
 40
0.3181302522
 40
0.4612457211
 40
0.6244394149
 40
0.8049211333
 40
1.0
 40
1.0
 40
1.0
 40
1.0
 10
10.78056199
 20
3.6644058945
 30
0.0
 10
10.78056199
 20
3.6644654302
 30
0.0
 10
10.7805561854
 20
3.6646018846
 30
0.0
 10
10.7805276774
 20
3.6649430623
 30
0.0
 10
10.7804581641
 20
3.6654960362
 30
0.0
 10
10.7803356286
 20
3.6663082085
 30
0.0
 10
10.7801666723
 20
3.6673157474
 30
0.0
 10
10.7799525716
 20
3.6685123514
 30
0.0
 10
10.7796945948
 20
3.6698907004
 30
0.0
 10
10.7793944694
 20
3.6714423825
 30
0.0
 10
10.7789203556
 20
3.6738324325
 30
0.0
 10
10.7782352989
 20
3.6771822755
 30
0.0
 10
10.77730973
 20
3.6815914929
 30
0.0
 10
10.7762662057
 20
3.6864673168
 30
0.0
 10
10.7755283666
 20
3.6898639616
 30
0.0
 10
10.7751429819
 20
3.691627828
 30
0.0
  0
SPLINE
  5
50B
100
AcDbEntity
  8
0
100
AcDbSpline
 62
7
  6
CONTINUOUS
 70
0
 71
3
 72
21
 73
17
 74
0
 42
0.0000001
 43
0.0000001
 44
0.0000000001
 40
0.0
 40
0.0
 40
0.0
 40
0.0
 40
0.2032056775
 40
0.3894103045
 40
0.5557432169
 40
0.6992887117
 40
0.7616026757
 40
0.8171556668
 40
0.865648487
 40
0.9068439516
 40
0.9405923386
 40
0.9546849436
 40
0.9669538864
 40
0.9774604999
 40
0.9863236935
 40
1.0
 40
1.0
 40
1.0
 40
1.0
 10
10.7751429819
 20
3.691627828
 30
0.0
 10
10.7735110068
 20
3.6911146499
 30
0.0
 10
10.7703890842
 20
3.6901136084
 30
0.0
 10
10.7659549111
 20
3.688620067
 30
0.0
 10
10.7620229036
 20
3.6872114217
 30
0.0
 10
10.7591007527
 20
3.6860785056
 30
0.0
 10
10.7570739935
 20
3.6852202859
 30
0.0
 10
10.755798413
 20
3.6846415319
 30
0.0
 10
10.7547018924
 20
3.6840996737
 30
0.0
 10
10.7537916868
 20
3.68359746
 30
0.0
 10
10.7531591298
 20
3.6831934064
 30
0.0
 10
10.7527560761
 20
3.6828867807
 30
0.0
 10
10.7525224464
 20
3.6826822324
 30
0.0
 10
10.7523386045
 20
3.6824879688
 30
0.0
 10
10.7521747181
 20
3.6822646207
 30
0.0
 10
10.7521004396
 20
3.6820775077
 30
0.0
 10
10.7521004396
 20
3.6819623689
 30
0.0
  0
SPLINE
  5
50C
100
AcDbEntity
  8
0
100
AcDbSpline
 62
7
  6
CONTINUOUS
 70
0
 71
3
 72
20
 73
16
 74
0
 42
0.0000001
 43
0.0000001
 44
0.0000000001
 40
0.0
 40
0.0
 40
0.0
 40
0.0
 40
0.0064303528
 40
0.0147197458
 40
0.0368839183
 40
0.0664354824
 40
0.103212286
 40
0.1470109955
 40
0.1975572779
 40
0.2545466897
 40
0.3176462276
 40
0.4607699264
 40
0.6240491152
 40
0.8046909472
 40
1.0
 40
1.0
 40
1.0
 40
1.0
 10
10.8243821483
 20
3.6418526955
 30
0.0
 10
10.8243821483
 20
3.6419120394
 30
0.0
 10
10.8243741183
 20
3.6420478373
 30
0.0
 10
10.8243345337
 20
3.6423859784
 30
0.0
 10
10.8242379913
 20
3.6429316484
 30
0.0
 10
10.8240678734
 20
3.6437304137
 30
0.0
 10
10.8238333384
 20
3.6447194079
 30
0.0
 10
10.82353615
 20
3.6458924517
 30
0.0
 10
10.823178062
 20
3.6472424128
 30
0.0
 10
10.822761471
 20
3.6487610659
 30
0.0
 10
10.8221032689
 20
3.6510993189
 30
0.0
 10
10.8211522705
 20
3.6543741107
 30
0.0
 10
10.8198675482
 20
3.658681415
 30
0.0
 10
10.8184190926
 20
3.6634423704
 30
0.0
 10
10.8173950764
 20
3.6667573618
 30
0.0
 10
10.8168602051
 20
3.6684786226
 30
0.0
  0
SPLINE
  5
50D
100
AcDbEntity
  8
0
100
AcDbSpline
 62
7
  6
CONTINUOUS
 70
0
 71
3
 72
21
 73
17
 74
0
 42
0.0000001
 43
0.0000001
 44
0.0000000001
 40
0.0
 40
0.0
 40
0.0
 40
0.0
 40
0.2020602604
 40
0.3874499485
 40
0.5533259435
 40
0.6967940317
 40
0.7592149089
 40
0.8149712721
 40
0.8637604278
 40
0.9053371431
 40
0.9395354151
 40
0.9538680688
 40
0.9663778688
 40
0.9771134637
 40
0.9861727732
 40
1.0
 40
1.0
 40
1.0
 40
1.0
 10
10.8168602051
 20
3.6684786226
 30
0.0
 10
10.8152697477
 20
3.6678167162
 30
0.0
 10
10.8122268846
 20
3.6665309735
 30
0.0
 10
10.8079073873
 20
3.6646340367
 30
0.0
 10
10.8040769077
 20
3.6628675691
 30
0.0
 10
10.801231766
 20
3.6614693962
 30
0.0
 10
10.7992590864
 20
3.6604276305
 30
0.0
 10
10.7980165058
 20
3.6597327945
 30
0.0
 10
10.7969483489
 20
3.6590911079
 30
0.0
 10
10.7960616859
 20
3.6585059861
 30
0.0
 10
10.7954462377
 20
3.6580447527
 30
0.0
 10
10.7950542294
 20
3.6577019555
 30
0.0
 10
10.7948267898
 20
3.6574762013
 30
0.0
 10
10.7946478398
 20
3.6572654766
 30
0.0
 10
10.7944892933
 20
3.657028247
 30
0.0
 10
10.7944159457
 20
3.656836117
 30
0.0
 10
10.7944159457
 20
3.656718231
 30
0.0
  0
SPLINE
  5
50E
100
AcDbEntity
  8
0
100
AcDbSpline
 62
7
  6
CONTINUOUS
 70
0
 71
3
 72
20
 73
16
 74
0
 42
0.0000001
 43
0.0000001
 44
0.0000000001
 40
0.0
 40
0.0
 40
0.0
 40
0.0
 40
0.0064272212
 40
0.0146841181
 40
0.0367430045
 40
0.0661744083
 40
0.1028359726
 40
0.1465340853
 40
0.196999723
 40
0.2539315274
 40
0.3169982142
 40
0.4601332388
 40
0.6235270406
 40
0.8043831463
 40
1.0
 40
1.0
 40
1.0
 40
1.0
 10
10.8701042351
 20
3.6234234394
 30
0.0
 10
10.8701042351
 20
3.6234825291
 30
0.0
 10
10.8700940751
 20
3.6236174588
 30
0.0
 10
10.8700437385
 20
3.6239515947
 30
0.0
 10
10.8699209369
 20
3.6244876205
 30
0.0
 10
10.8697046575
 20
3.625268683
 30
0.0
 10
10.8694065329
 20
3.6262331939
 30
0.0
 10
10.8690287901
 20
3.6273751352
 30
0.0
 10
10.8685736472
 20
3.6286876218
 30
0.0
 10
10.8680441478
 20
3.6301626747
 30
0.0
 10
10.8672073742
 20
3.6324325343
 30
0.0
 10
10.8659984562
 20
3.6356082345
 30
0.0
 10
10.8643655698
 20
3.6397810124
 30
0.0
 10
10.8625245654
 20
3.6443903398
 30
0.0
 10
10.8612232573
 20
3.6475975768
 30
0.0
 10
10.8605435284
 20
3.6492626108
 30
0.0
  0
SPLINE
  5
50F
100
AcDbEntity
  8
0
100
AcDbSpline
 62
7
  6
CONTINUOUS
 70
0
 71
3
 72
21
 73
17
 74
0
 42
0.0000001
 43
0.0000001
 44
0.0000000001
 40
0.0
 40
0.0
 40
0.0
 40
0.0
 40
0.200987863
 40
0.385613711
 40
0.5510594629
 40
0.6944498984
 40
0.7569667133
 40
0.8129079119
 40
0.8619671516
 40
0.9038912291
 40
0.9384985005
 40
0.9657647548
 40
0.9767072708
 40
0.9859438148
 40
0.9936194923
 40
1.0
 40
1.0
 40
1.0
 40
1.0
 10
10.8605435284
 20
3.6492626108
 30
0.0
 10
10.8590082553
 20
3.6484563725
 30
0.0
 10
10.8560706491
 20
3.6468942899
 30
0.0
 10
10.8519027474
 20
3.6446062042
 30
0.0
 10
10.8482065697
 20
3.6424927577
 30
0.0
 10
10.845462581
 20
3.6408376235
 30
0.0
 10
10.8435606311
 20
3.6396181331
 30
0.0
 10
10.8423616459
 20
3.6388107585
 30
0.0
 10
10.8413310951
 20
3.6380722614
 30
0.0
 10
10.840475275
 20
3.6374068545
 30
0.0
 10
10.8398000973
 20
3.6368179365
 30
0.0
 10
10.8393614308
 20
3.636365776
 30
0.0
 10
10.8391129075
 20
3.6360398552
 30
0.0
 10
10.838987948
 20
3.6358337954
 30
0.0
 10
10.8389100959
 20
3.6356475509
 30
0.0
 10
10.8388890299
 20
3.6355262641
 30
0.0
 10
10.8388890299
 20
3.635471214
 30
0.0
  0
SPLINE
  5
510
100
AcDbEntity
  8
0
100
AcDbSpline
 62
7
  6
CONTINUOUS
 70
0
 71
3
 72
20
 73
16
 74
0
 42
0.0000001
 43
0.0000001
 44
0.0000000001
 40
0.0
 40
0.0
 40
0.0
 40
0.0
 40
0.0064233682
 40
0.014639387
 40
0.0365656123
 40
0.0658457203
 40
0.1023623603
 40
0.1459341219
 40
0.1962986035
 40
0.2531582719
 40
0.3161839574
 40
0.4593337142
 40
0.6228717784
 40
0.8039969868
 40
1.0
 40
1.0
 40
1.0
 40
1.0
 10
10.917338183
 20
3.6092753512
 30
0.0
 10
10.917338183
 20
3.6093341258
 30
0.0
 10
10.9173260141
 20
3.6094679815
 30
0.0
 10
10.9172653389
 20
3.6097971802
 30
0.0
 10
10.9171172552
 20
3.6103213019
 30
0.0
 10
10.9168566212
 20
3.6110805122
 30
0.0
 10
10.9164974354
 20
3.6120148072
 30
0.0
 10
10.9160423588
 20
3.6131183674
 30
0.0
 10
10.915494046
 20
3.6143846119
 30
0.0
 10
10.91485616
 20
3.6158058651
 30
0.0
 10
10.9138478299
 20
3.6179913026
 30
0.0
 10
10.9123911928
 20
3.6210446987
 30
0.0
 10
10.9104241101
 20
3.6250514877
 30
0.0
 10
10.9082062955
 20
3.6294737242
 30
0.0
 10
10.9066389832
 20
3.6325480515
 30
0.0
 10
10.9058202778
 20
3.6341437295
 30
0.0
  0
SPLINE
  5
511
100
AcDbEntity
  8
0
100
AcDbSpline
 62
7
  6
CONTINUOUS
 70
0
 71
3
 72
21
 73
17
 74
0
 42
0.0000001
 43
0.0000001
 44
0.0000000001
 40
0.0
 40
0.0
 40
0.0
 40
0.0
 40
0.2000218966
 40
0.383965258
 40
0.5490341964
 40
0.6923697443
 40
0.7549816061
 40
0.8110982643
 40
0.8604096401
 40
0.9026547513
 40
0.9376371144
 40
0.9653022521
 40
0.9764325966
 40
0.985830018
 40
0.9936121825
 40
1.0
 40
1.0
 40
1.0
 40
1.0
 10
10.9058202778
 20
3.6341437295
 30
0.0
 10
10.9043533967
 20
3.6331988065
 30
0.0
 10
10.9015463723
 20
3.6313711502
 30
0.0
 10
10.8975656955
 20
3.6287075112
 30
0.0
 10
10.8940354408
 20
3.6262609076
 30
0.0
 10
10.8914158823
 20
3.6243592687
 30
0.0
 10
10.8896006683
 20
3.6229693626
 30
0.0
 10
10.8884555674
 20
3.6220539361
 30
0.0
 10
10.8874713273
 20
3.6212225367
 30
0.0
 10
10.8866540039
 20
3.6204799706
 30
0.0
 10
10.8860092794
 20
3.6198301936
 30
0.0
 10
10.8855910126
 20
3.619339111
 30
0.0
 10
10.8853540593
 20
3.6189913298
 30
0.0
 10
10.8852349041
 20
3.618774369
 30
0.0
 10
10.8851607632
 20
3.6185818559
 30
0.0
 10
10.8851402806
 20
3.618458306
 30
0.0
 10
10.8851402806
 20
3.6184025821
 30
0.0
  0
SPLINE
  5
512
100
AcDbEntity
  8
0
100
AcDbSpline
 62
7
  6
CONTINUOUS
 70
0
 71
3
 72
21
 73
17
 74
0
 42
0.0000001
 43
0.0000001
 44
0.0000000001
 40
0.0
 40
0.0
 40
0.0
 40
0.0
 40
0.0064187876
 40
0.0145853129
 40
0.0245571494
 40
0.0363579664
 40
0.0654546909
 40
0.1017958731
 40
0.1452148155
 40
0.195457039
 40
0.2522295541
 40
0.3152056784
 40
0.4583729209
 40
0.6220843607
 40
0.8035329969
 40
1.0
 40
1.0
 40
1.0
 40
1.0
 10
10.9656810265
 20
3.5995291319
 30
0.0
 10
10.9656810265
 20
3.5995875322
 30
0.0
 10
10.9656669632
 20
3.5997201108
 30
0.0
 10
10.9656195104
 20
3.5999385983
 30
0.0
 10
10.9655427898
 20
3.6002001735
 30
0.0
 10
10.9653903208
 20
3.6006372891
 30
0.0
 10
10.9651211918
 20
3.6012869636
 30
0.0
 10
10.9647043796
 20
3.6021855274
 30
0.0
 10
10.9641757145
 20
3.6032437661
 30
0.0
 10
10.963538958
 20
3.6044553903
 30
0.0
 10
10.9627981186
 20
3.6058131043
 30
0.0
 10
10.9616266934
 20
3.6078987909
 30
0.0
 10
10.9599346286
 20
3.6108076936
 30
0.0
 10
10.9576501783
 20
3.6146184514
 30
0.0
 10
10.9550745132
 20
3.6188197345
 30
0.0
 10
10.9532547864
 20
3.6217371631
 30
0.0
 10
10.9523041852
 20
3.6232509619
 30
0.0
  0
SPLINE
  5
513
100
AcDbEntity
  8
0
100
AcDbSpline
 62
7
  6
CONTINUOUS
 70
0
 71
3
 72
21
 73
17
 74
0
 42
0.0000001
 43
0.0000001
 44
0.0000000001
 40
0.0
 40
0.0
 40
0.0
 40
0.0
 40
0.1991427326
 40
0.3824666502
 40
0.547195614
 40
0.6904846732
 40
0.7531845506
 40
0.8094619808
 40
0.859003188
 40
0.9015397531
 40
0.9368613142
 40
0.964885724
 40
0.9761848443
 40
0.9857268345
 40
0.9936051302
 40
1.0
 40
1.0
 40
1.0
 40
1.0
 10
10.9523041852
 20
3.6232509619
 30
0.0
 10
10.9509183289
 20
3.6221742056
 30
0.0
 10
10.9482661144
 20
3.6200940564
 30
0.0
 10
10.9445066922
 20
3.6170736759
 30
0.0
 10
10.9411725664
 20
3.6143105928
 30
0.0
 10
10.9386996306
 20
3.612174983
 30
0.0
 10
10.9369864276
 20
3.610623383
 30
0.0
 10
10.935905
 20
3.6096053272
 30
0.0
 10
10.9349754886
 20
3.6086856921
 30
0.0
 10
10.9342036476
 20
3.607869854
 30
0.0
 10
10.9335948743
 20
3.6071623037
 30
0.0
 10
10.9332004304
 20
3.6066343258
 30
0.0
 10
10.932976978
 20
3.6062657966
 30
0.0
 10
10.9328645977
 20
3.6060384821
 30
0.0
 10
10.9327947638
 20
3.6058399838
 30
0.0
 10
10.9327751158
 20
3.6057143087
 30
0.0
 10
10.9327751158
 20
3.6056579523
 30
0.0
  0
SPLINE
  5
514
100
AcDbEntity
  8
0
100
AcDbSpline
 62
7
  6
CONTINUOUS
 70
0
 71
3
 72
21
 73
17
 74
0
 42
0.0000001
 43
0.0000001
 44
0.0000000001
 40
0.0
 40
0.0
 40
0.0
 40
0.0
 40
0.0064136068
 40
0.0145219127
 40
0.0244073488
 40
0.0361073393
 40
0.0649880537
 40
0.1011229924
 40
0.1443627118
 40
0.1944619331
 40
0.2511328939
 40
0.3140517371
 40
0.457241448
 40
0.6211581611
 40
0.8029877284
 40
1.0
 40
1.0
 40
1.0
 40
1.0
 10
11.0147203399
 20
3.5942679293
 30
0.0
 10
11.0147203399
 20
3.5943258979
 30
0.0
 10
11.0147045773
 20
3.5944570123
 30
0.0
 10
11.0146508467
 20
3.5946711985
 30
0.0
 10
11.014564065
 20
3.5949254377
 30
0.0
 10
11.0143915808
 20
3.595347874
 30
0.0
 10
11.0140871159
 20
3.5959715328
 30
0.0
 10
11.0136158911
 20
3.5968292129
 30
0.0
 10
11.0130182597
 20
3.5978355525
 30
0.0
 10
11.0122984591
 20
3.5989846503
 30
0.0
 10
11.0114610062
 20
3.6002696254
 30
0.0
 10
11.0101363076
 20
3.6022410611
 30
0.0
 10
11.0082231056
 20
3.6049844891
 30
0.0
 10
11.00564083
 20
3.6085708511
 30
0.0
 10
11.0027293345
 20
3.6125192084
 30
0.0
 10
11.0006729633
 20
3.6152571252
 30
0.0
 10
10.9995986838
 20
3.6166772371
 30
0.0
  0
SPLINE
  5
515
100
AcDbEntity
  8
0
100
AcDbSpline
 62
7
  6
CONTINUOUS
 70
0
 71
3
 72
21
 73
17
 74
0
 42
0.0000001
 43
0.0000001
 44
0.0000000001
 40
0.0
 40
0.0
 40
0.0
 40
0.0
 40
0.1983490644
 40
0.3811151754
 40
0.5455396415
 40
0.6887895169
 40
0.7515700472
 40
0.8079934529
 40
0.857742385
 40
0.9005414324
 40
0.9361674245
 40
0.9645131646
 40
0.9759629319
 40
0.985633974
 40
0.9935984289
 40
1.0
 40
1.0
 40
1.0
 40
1.0
 10
10.9995986838
 20
3.6166772371
 30
0.0
 10
10.9983057989
 20
3.615476645
 30
0.0
 10
10.9958313101
 20
3.6131592881
 30
0.0
 10
10.9923252822
 20
3.6098040321
 30
0.0
 10
10.9892158128
 20
3.6067438603
 30
0.0
 10
10.9869104326
 20
3.6043887794
 30
0.0
 10
10.9853136445
 20
3.6026855511
 30
0.0
 10
10.9843051331
 20
3.6015711654
 30
0.0
 10
10.9834382972
 20
3.6005687148
 30
0.0
 10
10.9827185312
 20
3.5996841153
 30
0.0
 10
10.9821508948
 20
3.5989223636
 30
0.0
 10
10.9817835047
 20
3.5983598125
 30
0.0
 10
10.9815753787
 20
3.5979718204
 30
0.0
 10
10.9814706925
 20
3.5977347884
 30
0.0
 10
10.9814057233
 20
3.5975306475
 30
0.0
 10
10.98138715
 20
3.5974029961
 30
0.0
 10
10.98138715
 20
3.5973460526
 30
0.0
  0
SPLINE
  5
516
100
AcDbEntity
  8
0
100
AcDbSpline
 62
7
  6
CONTINUOUS
 70
0
 71
3
 72
21
 73
17
 74
0
 42
0.0000001
 43
0.0000001
 44
0.0000000001
 40
0.0
 40
0.0
 40
0.0
 40
0.0
 40
0.00640785
 40
0.0144489211
 40
0.0242343128
 40
0.0358175429
 40
0.064448415
 40
0.1003453288
 40
0.1433786682
 40
0.1933136042
 40
0.2498682459
 40
0.3127218625
 40
0.4559388706
 40
0.6200928302
 40
0.8023610038
 40
1.0
 40
1.0
 40
1.0
 40
1.0
 10
11.0640377555
 20
3.593536628
 30
0.0
 10
11.0640377555
 20
3.5935941103
 30
0.0
 10
11.0640204834
 20
3.5937235794
 30
0.0
 10
11.0639608992
 20
3.5939329695
 30
0.0
 10
11.0638647725
 20
3.5941790069
 30
0.0
 10
11.0636736897
 20
3.5945850276
 30
0.0
 10
11.063336389
 20
3.595179575
 30
0.0
 10
11.0628147569
 20
3.595991536
 30
0.0
 10
11.0621532568
 20
3.5969398484
 30
0.0
 10
11.0613565603
 20
3.5980190432
 30
0.0
 10
11.0604296477
 20
3.5992227009
 30
0.0
 10
11.0589627927
 20
3.6010663337
 30
0.0
 10
11.0568446164
 20
3.603624691
 30
0.0
 10
11.0539866077
 20
3.6069602138
 30
0.0
 10
11.0507641728
 20
3.610625837
 30
0.0
 10
11.048488968
 20
3.613163202
 30
0.0
 10
11.0473002916
 20
3.6144786374
 30
0.0
  0
SPLINE
  5
517
100
AcDbEntity
  8
0
100
AcDbSpline
 62
7
  6
CONTINUOUS
 70
0
 71
3
 72
21
 73
17
 74
0
 42
0.0000001
 43
0.0000001
 44
0.0000000001
 40
0.0
 40
0.0
 40
0.0
 40
0.0
 40
0.1976395193
 40
0.3799080682
 40
0.5440622361
 40
0.6872792802
 40
0.7501328481
 40
0.8066873983
 40
0.8566222028
 40
0.8996553857
 40
0.9355521177
 40
0.9641827715
 40
0.9757658834
 40
0.985551167
 40
0.9935921623
 40
1.0
 40
1.0
 40
1.0
 40
1.0
 10
11.0473002916
 20
3.6144786374
 30
0.0
 10
11.0461115324
 20
3.613163285
 30
0.0
 10
11.0438361694
 20
3.610626079
 30
0.0
 10
11.0406135097
 20
3.60696068
 30
0.0
 10
11.0377553016
 20
3.6036253562
 30
0.0
 10
11.0356369769
 20
3.6010671457
 30
0.0
 10
11.0341700191
 20
3.5992236144
 30
0.0
 10
11.0332430418
 20
3.5980200212
 30
0.0
 10
11.0324462897
 20
3.5969408818
 30
0.0
 10
11.0317847434
 20
3.5959926154
 30
0.0
 10
11.0312630747
 20
3.5951806907
 30
0.0
 10
11.0309257504
 20
3.5945861668
 30
0.0
 10
11.0307346547
 20
3.5941801595
 30
0.0
 10
11.0306385217
 20
3.5939341291
 30
0.0
 10
11.0305789338
 20
3.5937247433
 30
0.0
 10
11.0305616609
 20
3.5935952757
 30
0.0
 10
11.0305616609
 20
3.5935377938
 30
0.0
  0
LINE
  5
518
100
AcDbEntity
  8
0
100
AcDbLine
 62
7
  6
CONTINUOUS
 10
10.6652936415
 20
4.4765334435
 11
10.6642126013
 21
4.4960410388
  0
SPLINE
  5
519
100
AcDbEntity
  8
0
100
AcDbSpline
 62
7
  6
CONTINUOUS
 70
0
 71
3
 72
21
 73
17
 74
0
 42
0.0000001
 43
0.0000001
 44
0.0000000001
 40
0.0
 40
0.0
 40
0.0
 40
0.0
 40
0.0064015834
 40
0.0143661204
 40
0.0240372813
 40
0.0354871793
 40
0.0638331648
 40
0.0994593638
 40
0.1422585889
 40
0.1920076691
 40
0.2484311776
 40
0.3112117626
 40
0.4544615978
 40
0.6188858305
 40
0.8016515215
 40
1.0
 40
1.0
 40
1.0
 40
1.0
 10
11.1132125333
 20
3.5973414669
 30
0.0
 10
11.1132125333
 20
3.5973984109
 30
0.0
 10
11.1131939606
 20
3.597526064
 30
0.0
 10
11.1131289948
 20
3.5977302094
 30
0.0
 10
11.1130243142
 20
3.5979672489
 30
0.0
 10
11.1128161998
 20
3.5983552555
 30
0.0
 10
11.1124488311
 20
3.5989178321
 30
0.0
 10
11.1118812277
 20
3.5996796233
 30
0.0
 10
11.1111615036
 20
3.600564273
 30
0.0
 10
11.1102947178
 20
3.6015667839
 30
0.0
 10
11.1092862648
 20
3.6026812398
 30
0.0
 10
11.1076895698
 20
3.6043845785
 30
0.0
 10
11.1053843238
 20
3.6067398193
 30
0.0
 10
11.1022750345
 20
3.6098002075
 30
0.0
 10
11.0987692098
 20
3.6131557075
 30
0.0
 10
11.0962948637
 20
3.6154732372
 30
0.0
 10
11.0950020533
 20
3.6166739196
 30
0.0
  0
SPLINE
  5
51A
100
AcDbEntity
  8
0
100
AcDbSpline
 62
7
  6
CONTINUOUS
 70
0
 71
3
 72
21
 73
17
 74
0
 42
0.0000001
 43
0.0000001
 44
0.0000000001
 40
0.0
 40
0.0
 40
0.0
 40
0.0
 40
0.1970127329
 40
0.3788426317
 40
0.5427595288
 40
0.6859492721
 40
0.7488680727
 40
0.8055389532
 40
0.8556380593
 40
0.8988776431
 40
0.9350124243
 40
0.9638929464
 40
0.975592831
 40
0.985478169
 40
0.9935864055
 40
1.0
 40
1.0
 40
1.0
 40
1.0
 10
11.0950020533
 20
3.6166739196
 30
0.0
 10
11.0939276837
 20
3.6152538827
 30
0.0
 10
11.0918711402
 20
3.6125161096
 30
0.0
 10
11.0889594
 20
3.6085679549
 30
0.0
 10
11.0863769073
 20
3.6049817726
 30
0.0
 10
11.0844635441
 20
3.6022384772
 30
0.0
 10
11.0831387337
 20
3.6002671331
 30
0.0
 10
11.0823012105
 20
3.5989822163
 30
0.0
 10
11.0815813494
 20
3.5978331686
 30
0.0
 10
11.0809836677
 20
3.5968268706
 30
0.0
 10
11.0805124032
 20
3.5959692233
 30
0.0
 10
11.0802079127
 20
3.5953455857
 30
0.0
 10
11.0800354144
 20
3.5949231616
 30
0.0
 10
11.0799486258
 20
3.5946689289
 30
0.0
 10
11.0798948911
 20
3.5944547466
 30
0.0
 10
11.0798791275
 20
3.5943236336
 30
0.0
 10
11.0798791275
 20
3.5942656654
 30
0.0
  0
SPLINE
  5
51B
100
AcDbEntity
  8
0
100
AcDbSpline
 62
7
  6
CONTINUOUS
 70
0
 71
3
 72
21
 73
17
 74
0
 42
0.0000001
 43
0.0000001
 44
0.0000000001
 40
0.0
 40
0.0
 40
0.0
 40
0.0
 40
0.0063948817
 40
0.0142732664
 40
0.0238153862
 40
0.0351146505
 40
0.0631393338
 40
0.0984611277
 40
0.1409978923
 40
0.1905392643
 40
0.2468168088
 40
0.3095167467
 40
0.4528057608
 40
0.6175344652
 40
0.800857917
 40
1.0
 40
1.0
 40
1.0
 40
1.0
 10
11.16182515
 20
3.605649986
 30
0.0
 10
11.16182515
 20
3.6057063429
 30
0.0
 10
11.1618055025
 20
3.6058320198
 30
0.0
 10
11.1617356715
 20
3.6060305227
 30
0.0
 10
11.161623296
 20
3.6062578452
 30
0.0
 10
11.1613998539
 20
3.6066263899
 30
0.0
 10
11.161005429
 20
3.6071543951
 30
0.0
 10
11.1603966849
 20
3.6078619879
 30
0.0
 10
11.159624881
 20
3.6086778797
 30
0.0
 10
11.1586954139
 20
3.6095975795
 30
0.0
 10
11.157614038
 20
3.6106157106
 30
0.0
 10
11.1559009175
 20
3.6121674292
 30
0.0
 10
11.1534281007
 20
3.6143032105
 30
0.0
 10
11.1500941341
 20
3.6170665256
 30
0.0
 10
11.1463348916
 20
3.6200871677
 30
0.0
 10
11.1436828029
 20
3.6221675021
 30
0.0
 10
11.1422970125
 20
3.6232443551
 30
0.0
  0
SPLINE
  5
51C
100
AcDbEntity
  8
0
100
AcDbSpline
 62
7
  6
CONTINUOUS
 70
0
 71
3
 72
21
 73
17
 74
0
 42
0.0000001
 43
0.0000001
 44
0.0000000001
 40
0.0
 40
0.0
 40
0.0
 40
0.0
 40
0.1964674036
 40
0.3779163283
 40
0.5416279286
 40
0.6847952002
 40
0.747771288
 40
0.8045437341
 40
0.8547858585
 40
0.8982046855
 40
0.934545734
 40
0.9636422915
 40
0.9754430141
 40
0.9854147625
 40
0.9935812247
 40
1.0
 40
1.0
 40
1.0
 40
1.0
 10
11.1422970125
 20
3.6232443551
 30
0.0
 10
11.1413463146
 20
3.6217306228
 30
0.0
 10
11.1395264027
 20
3.6188133213
 30
0.0
 10
11.1369504752
 20
3.6146122174
 30
0.0
 10
11.1346657921
 20
3.6108016187
 30
0.0
 10
11.1329735545
 20
3.6078928332
 30
0.0
 10
11.1318020096
 20
3.6058072276
 30
0.0
 10
11.1310610948
 20
3.6044495651
 30
0.0
 10
11.1304242734
 20
3.6032379853
 30
0.0
 10
11.1298955544
 20
3.6021797833
 30
0.0
 10
11.1294786996
 20
3.6012812486
 30
0.0
 10
11.1292095432
 20
3.6006315928
 30
0.0
 10
11.1290570591
 20
3.6001944881
 30
0.0
 10
11.128980331
 20
3.5999329187
 30
0.0
 10
11.1289328737
 20
3.5997144347
 30
0.0
 10
11.1289188092
 20
3.5995818574
 30
0.0
 10
11.1289188092
 20
3.5995234576
 30
0.0
  0
SPLINE
  5
51D
100
AcDbEntity
  8
0
100
AcDbSpline
 62
7
  6
CONTINUOUS
 70
0
 71
3
 72
25
 73
21
 74
0
 42
0.0000001
 43
0.0000001
 44
0.0000000001
 40
0.0
 40
0.0
 40
0.0
 40
0.0
 40
0.2171775589
 40
0.4135437588
 40
0.5029067151
 40
0.5858536593
 40
0.6619713579
 40
0.7308468852
 40
0.7920930063
 40
0.8453546077
 40
0.8903284331
 40
0.9268079859
 40
0.941841432
 40
0.9547638989
 40
0.9656380299
 40
0.9745886786
 40
0.9818662694
 40
0.9879590489
 40
0.993680696
 40
1.0
 40
1.0
 40
1.0
 40
1.0
 10
11.5555091877
 20
4.0348410287
 30
0.0
 10
11.5568846885
 20
4.0356494359
 30
0.0
 10
11.5595122078
 20
4.0371746871
 30
0.0
 10
11.5627338108
 20
4.0389836713
 30
0.0
 10
11.5651151702
 20
4.0402740301
 30
0.0
 10
11.566729958
 20
4.0411245798
 30
0.0
 10
11.5682225139
 20
4.0418839032
 30
0.0
 10
11.5695848973
 20
4.0425470721
 30
0.0
 10
11.5708092606
 20
4.043109424
 30
0.0
 10
11.5718881421
 20
4.0435669483
 30
0.0
 10
11.5728146059
 20
4.0439156831
 30
0.0
 10
11.5734923365
 20
4.044126318
 30
0.0
 10
11.5739542059
 20
4.0442311893
 30
0.0
 10
11.5742362876
 20
4.0442755256
 30
0.0
 10
11.5744768439
 20
4.0442908604
 30
0.0
 10
11.5746763079
 20
4.0442768597
 30
0.0
 10
11.5748358434
 20
4.0442324637
 30
0.0
 10
11.5749556219
 20
4.0441529574
 30
0.0
 10
11.575027116
 20
4.0440355631
 30
0.0
 10
11.5750387261
 20
4.0439456395
 30
0.0
 10
11.5750387261
 20
4.0438992155
 30
0.0
  0
SPLINE
  5
51E
100
AcDbEntity
  8
0
100
AcDbSpline
 62
7
  6
CONTINUOUS
 70
0
 71
3
 72
27
 73
23
 74
0
 42
0.0000001
 43
0.0000001
 44
0.0000000001
 40
0.0
 40
0.0
 40
0.0
 40
0.0
 40
0.2190241656
 40
0.3207653552
 40
0.4167700681
 40
0.506629567
 40
0.5899357582
 40
0.6662686107
 40
0.7352081248
 40
0.7963600518
 40
0.8493620851
 40
0.8939033009
 40
0.9129332176
 40
0.9297764994
 40
0.9444330336
 40
0.9569317121
 40
0.9673375636
 40
0.9757846613
 40
0.9825527008
 40
0.9882063086
 40
0.9936804804
 40
1.0
 40
1.0
 40
1.0
 40
1.0
 10
11.5621096739
 20
4.081955328
 30
0.0
 10
11.5633916128
 20
4.0828856026
 30
0.0
 10
11.5652759544
 20
4.0842385622
 30
0.0
 10
11.567742623
 20
4.0859704872
 30
0.0
 10
11.5694543671
 20
4.0871519697
 30
0.0
 10
11.5710666891
 20
4.0882426669
 30
0.0
 10
11.5725724046
 20
4.0892368777
 30
0.0
 10
11.5739641025
 20
4.0901289639
 30
0.0
 10
11.5752343564
 20
4.0909132715
 30
0.0
 10
11.5763758321
 20
4.0915845338
 30
0.0
 10
11.5773815046
 20
4.092137761
 30
0.0
 10
11.578135948
 20
4.0925148441
 30
0.0
 10
11.5786679253
 20
4.0927500203
 30
0.0
 10
11.5790077532
 20
4.0928846699
 30
0.0
 10
11.5793092805
 20
4.0929868237
 30
0.0
 10
11.5795721514
 20
4.0930563375
 30
0.0
 10
11.579796358
 20
4.0930932236
 30
0.0
 10
11.5799824721
 20
4.0930971988
 30
0.0
 10
11.5801323041
 20
4.0930672101
 30
0.0
 10
11.5802457761
 20
4.0929967965
 30
0.0
 10
11.5803118593
 20
4.0928840727
 30
0.0
 10
11.5803217375
 20
4.0927974365
 30
0.0
 10
11.5803217375
 20
4.0927517358
 30
0.0
  0
SPLINE
  5
51F
100
AcDbEntity
  8
0
100
AcDbSpline
 62
7
  6
CONTINUOUS
 70
0
 71
3
 72
21
 73
17
 74
0
 42
0.0000001
 43
0.0000001
 44
0.0000000001
 40
0.0
 40
0.0
 40
0.0
 40
0.0
 40
0.0063878291
 40
0.0141700894
 40
0.0235676519
 40
0.0346981543
 40
0.0623635948
 40
0.0973462174
 40
0.1395915503
 40
0.1889031079
 40
0.2450198917
 40
0.3076318195
 40
0.4509673169
 40
0.6160359688
 40
0.7999788178
 40
1.0
 40
1.0
 40
1.0
 40
1.0
 10
11.2094608784
 20
3.618391303
 30
0.0
 10
11.2094608784
 20
3.6184470275
 30
0.0
 10
11.209440396
 20
3.6185705792
 30
0.0
 10
11.2093662575
 20
3.6187630972
 30
0.0
 10
11.2092471064
 20
3.6189800664
 30
0.0
 10
11.2090101619
 20
3.619327864
 30
0.0
 10
11.2085919117
 20
3.6198189755
 30
0.0
 10
11.2079472123
 20
3.6204687974
 30
0.0
 10
11.2071299208
 20
3.6212114204
 30
0.0
 10
11.2061457189
 20
3.6220428884
 30
0.0
 10
11.2050006624
 20
3.6229583946
 30
0.0
 10
11.2031855198
 20
3.6243484263
 30
0.0
 10
11.2005660639
 20
3.626250247
 30
0.0
 10
11.1970359463
 20
3.6286970963
 30
0.0
 10
11.193055424
 20
3.6313610123
 30
0.0
 10
11.1902485077
 20
3.6331888646
 30
0.0
 10
11.1887816831
 20
3.6341338899
 30
0.0
  0
SPLINE
  5
520
100
AcDbEntity
  8
0
100
AcDbSpline
 62
7
  6
CONTINUOUS
 70
0
 71
3
 72
20
 73
16
 74
0
 42
0.0000001
 43
0.0000001
 44
0.0000000001
 40
0.0
 40
0.0
 40
0.0
 40
0.0
 40
0.1960033539
 40
0.377128809
 40
0.5406670109
 40
0.6838167943
 40
0.7468424495
 40
0.8037020602
 40
0.8540664585
 40
0.8976381249
 40
0.9341546544
 40
0.9634346198
 40
0.9853606821
 40
0.9935766439
 40
1.0
 40
1.0
 40
1.0
 40
1.0
 10
11.1887816831
 20
3.6341338899
 30
0.0
 10
11.1879628752
 20
3.6325382691
 30
0.0
 10
11.1863953668
 20
3.6294640513
 30
0.0
 10
11.1841772742
 20
3.6250419692
 30
0.0
 10
11.182209945
 20
3.621035317
 30
0.0
 10
11.1807531251
 20
3.6179820218
 30
0.0
 10
11.1797446684
 20
3.615796654
 30
0.0
 10
11.1791067024
 20
3.6143754453
 30
0.0
 10
11.1785583209
 20
3.6131092389
 30
0.0
 10
11.1781031873
 20
3.6120057103
 30
0.0
 10
11.1777439564
 20
3.6110714403
 30
0.0
 10
11.1774832899
 20
3.6103122487
 30
0.0
 10
11.177335188
 20
3.6097881375
 30
0.0
 10
11.1772745057
 20
3.6094589436
 30
0.0
 10
11.1772623354
 20
3.6093250891
 30
0.0
 10
11.1772623354
 20
3.6092663148
 30
0.0
  0
SPLINE
  5
521
100
AcDbEntity
  8
0
100
AcDbSpline
 62
7
  6
CONTINUOUS
 70
0
 71
3
 72
21
 73
17
 74
0
 42
0.0000001
 43
0.0000001
 44
0.0000000001
 40
0.0
 40
0.0
 40
0.0
 40
0.0
 40
0.0063805188
 40
0.0140562991
 40
0.0232929963
 40
0.0342356847
 40
0.0615022725
 40
0.0961098311
 40
0.138034153
 40
0.1870935916
 40
0.2430349269
 40
0.3055518133
 40
0.4489421916
 40
0.6143876292
 40
0.799012917
 40
1.0
 40
1.0
 40
1.0
 40
1.0
 10
11.2557133252
 20
3.6354567184
 30
0.0
 10
11.2557133252
 20
3.6355117691
 30
0.0
 10
11.2556922593
 20
3.6356330579
 30
0.0
 10
11.2556144091
 20
3.6358193074
 30
0.0
 10
11.2554894529
 20
3.6360253759
 30
0.0
 10
11.2552409369
 20
3.6363513137
 30
0.0
 10
11.2548022842
 20
3.6368035046
 30
0.0
 10
11.2541271275
 20
3.6373924697
 30
0.0
 10
11.2532713338
 20
3.6380579361
 30
0.0
 10
11.2522408147
 20
3.6387965049
 30
0.0
 10
11.2510418663
 20
3.6396039631
 30
0.0
 10
11.249139976
 20
3.6408235852
 30
0.0
 10
11.2463960726
 20
3.6424789099
 30
0.0
 10
11.2427000086
 20
3.6445926136
 30
0.0
 10
11.2385322352
 20
3.6468809893
 30
0.0
 10
11.2355947183
 20
3.6484432769
 30
0.0
 10
11.2340594919
 20
3.6492496223
 30
0.0
  0
SPLINE
  5
522
100
AcDbEntity
  8
0
100
AcDbSpline
 62
7
  6
CONTINUOUS
 70
0
 71
3
 72
20
 73
16
 74
0
 42
0.0000001
 43
0.0000001
 44
0.0000000001
 40
0.0
 40
0.0
 40
0.0
 40
0.0
 40
0.195617135
 40
0.3764734458
 40
0.5398673628
 40
0.6830024114
 40
0.7460690741
 40
0.8030008318
 40
0.853466402
 40
0.8971644392
 40
0.9338259156
 40
0.9632572006
 40
0.9853159447
 40
0.9935727906
 40
1.0
 40
1.0
 40
1.0
 40
1.0
 10
11.2340594919
 20
3.6492496223
 30
0.0
 10
11.2333796557
 20
3.6475846357
 30
0.0
 10
11.232078142
 20
3.6443774897
 30
0.0
 10
11.2302368465
 20
3.6397682904
 30
0.0
 10
11.2286037019
 20
3.6355956261
 30
0.0
 10
11.2273945926
 20
3.6324200097
 30
0.0
 10
11.2265576866
 20
3.6301502079
 30
0.0
 10
11.2260281035
 20
3.6286751919
 30
0.0
 10
11.2255728886
 20
3.627362737
 30
0.0
 10
11.2251950861
 20
3.6262208219
 30
0.0
 10
11.2248969142
 20
3.6252563317
 30
0.0
 10
11.2246806008
 20
3.6244752848
 30
0.0
 10
11.2245577801
 20
3.6239392679
 30
0.0
 10
11.2245074359
 20
3.6236051362
 30
0.0
 10
11.2244972745
 20
3.6234702076
 30
0.0
 10
11.2244972745
 20
3.6234111182
 30
0.0
  0
SPLINE
  5
523
100
AcDbEntity
  8
0
100
AcDbSpline
 62
7
  6
CONTINUOUS
 70
0
 71
3
 72
30
 73
26
 74
0
 42
0.0000001
 43
0.0000001
 44
0.0000000001
 40
0.0
 40
0.0
 40
0.0
 40
0.0
 40
0.2163924908
 40
0.4123160844
 40
0.5016934212
 40
0.5848690666
 40
0.6614770807
 40
0.7311424116
 40
0.7934934431
 40
0.84818158
 40
0.8948683232
 40
0.9151133899
 40
0.9332474638
 40
0.9492372052
 40
0.9630497354
 40
0.974657873
 40
0.9840447365
 40
0.9879011348
 40
0.9911979633
 40
0.9939351124
 40
0.9961142692
 40
0.9977414365
 40
0.9988362888
 40
0.9994746023
 40
1.0
 40
1.0
 40
1.0
 40
1.0
 10
10.6347824591
 20
4.4399392923
 30
0.0
 10
10.6345701102
 20
4.441337106
 30
0.0
 10
10.6341630945
 20
4.4440001478
 30
0.0
 10
10.6336601314
 20
4.4472392677
 30
0.0
 10
10.6332848181
 20
4.4496173632
 30
0.0
 10
10.63302794
 20
4.4512249219
 30
0.0
 10
10.6327879728
 20
4.4527047524
 30
0.0
 10
10.6325659836
 20
4.4540496533
 30
0.0
 10
10.632363032
 20
4.4552525336
 30
0.0
 10
10.6321801719
 20
4.4563065347
 30
0.0
 10
10.632039471
 20
4.4570886208
 30
0.0
 10
10.6319371377
 20
4.4576349192
 30
0.0
 10
10.6318697167
 20
4.4579836968
 30
0.0
 10
10.6318080231
 20
4.4582907675
 30
0.0
 10
10.6317521821
 20
4.458555513
 30
0.0
 10
10.631702283
 20
4.4587774032
 30
0.0
 10
10.631663675
 20
4.4589351343
 30
0.0
 10
10.6316353723
 20
4.4590394464
 30
0.0
 10
10.6316171338
 20
4.4591014256
 30
0.0
 10
10.6316004029
 20
4.4591524876
 30
0.0
 10
10.6315854548
 20
4.4591923916
 30
0.0
 10
10.6315717389
 20
4.4592218229
 30
0.0
 10
10.631560616
 20
4.4592398454
 30
0.0
 10
10.6315478754
 20
4.4592510307
 30
0.0
 10
10.6315397854
 20
4.4592464334
 30
0.0
 10
10.6315376159
 20
4.4592437731
 30
0.0
  0
SPLINE
  5
524
100
AcDbEntity
  8
0
100
AcDbSpline
 62
7
  6
CONTINUOUS
 70
0
 71
3
 72
21
 73
17
 74
0
 42
0.0000001
 43
0.0000001
 44
0.0000000001
 40
0.0
 40
0.0
 40
0.0
 40
0.0
 40
0.0138273573
 40
0.0228868327
 40
0.0336226154
 40
0.0461326018
 40
0.0604654325
 40
0.0946640198
 40
0.1362410022
 40
0.1850303736
 40
0.2407868842
 40
0.3032078373
 40
0.4466758599
 40
0.6125515101
 40
0.7979405877
 40
1.0
 40
1.0
 40
1.0
 40
1.0
 10
11.3001878984
 20
3.6567006426
 30
0.0
 10
11.3001878984
 20
3.6568185308
 30
0.0
 10
11.3001145509
 20
3.6570106648
 30
0.0
 10
11.2999560081
 20
3.6572479049
 30
0.0
 10
11.2997770617
 20
3.657458642
 30
0.0
 10
11.2995496272
 20
3.6576844122
 30
0.0
 10
11.2991576284
 20
3.6580272364
 30
0.0
 10
11.2985421952
 20
3.6584885124
 30
0.0
 10
11.297655553
 20
3.6590736959
 30
0.0
 10
11.2965874209
 20
3.6597154568
 30
0.0
 10
11.2953448694
 20
3.6604103794
 30
0.0
 10
11.2933722369
 20
3.6614522818
 30
0.0
 10
11.2905271626
 20
3.6628506522
 30
0.0
 10
11.2866967724
 20
3.6646173863
 30
0.0
 10
11.2823773759
 20
3.6665146237
 30
0.0
 10
11.2793345826
 20
3.6678005787
 30
0.0
 10
11.2777441618
 20
3.668462596
 30
0.0
  0
SPLINE
  5
525
100
AcDbEntity
  8
0
100
AcDbSpline
 62
7
  6
CONTINUOUS
 70
0
 71
3
 72
20
 73
16
 74
0
 42
0.0000001
 43
0.0000001
 44
0.0000000001
 40
0.0
 40
0.0
 40
0.0
 40
0.0
 40
0.1953092754
 40
0.3759512713
 40
0.5392305534
 40
0.6823542737
 40
0.7454537939
 40
0.8024431699
 40
0.8529894004
 40
0.8967880536
 40
0.9335647916
 40
0.9631162602
 40
0.9852803105
 40
0.9935696586
 40
1.0
 40
1.0
 40
1.0
 40
1.0
 10
11.2777441618
 20
3.668462596
 30
0.0
 10
11.2772091791
 20
3.6667413725
 30
0.0
 10
11.2761849497
 20
3.6634264527
 30
0.0
 10
11.2747361924
 20
3.6586655981
 30
0.0
 10
11.2734512025
 20
3.6543583831
 30
0.0
 10
11.2725000059
 20
3.6510836571
 30
0.0
 10
11.2718416666
 20
3.6487454496
 30
0.0
 10
11.2714249888
 20
3.6472268256
 30
0.0
 10
11.2710668263
 20
3.6458768895
 30
0.0
 10
11.2707695759
 20
3.6447038662
 30
0.0
 10
11.270534992
 20
3.6437148884
 30
0.0
 10
11.2703648388
 20
3.6429161354
 30
0.0
 10
11.2702682766
 20
3.6423704727
 30
0.0
 10
11.270228684
 20
3.6420323351
 30
0.0
 10
11.2702206525
 20
3.641896538
 30
0.0
 10
11.2702206525
 20
3.6418371944
 30
0.0
  0
SPLINE
  5
526
100
AcDbEntity
  8
0
100
AcDbSpline
 62
7
  6
CONTINUOUS
 70
0
 71
3
 72
21
 73
17
 74
0
 42
0.0000001
 43
0.0000001
 44
0.0000000001
 40
0.0
 40
0.0
 40
0.0
 40
0.0
 40
0.0136764439
 40
0.0225398168
 40
0.0330466342
 40
0.0453157805
 40
0.0594085788
 40
0.0931573105
 40
0.1343530656
 40
0.1828461185
 40
0.2383992677
 40
0.3007133122
 40
0.4442587329
 40
0.6105912705
 40
0.7967952374
 40
1.0
 40
1.0
 40
1.0
 40
1.0
 10
11.3425051735
 20
3.6819418378
 30
0.0
 10
11.3425051735
 20
3.6820569789
 30
0.0
 10
11.3424308945
 20
3.6822440959
 30
0.0
 10
11.3422670108
 20
3.6824674545
 30
0.0
 10
11.3420831715
 20
3.6826617309
 30
0.0
 10
11.3418495454
 20
3.6828662955
 30
0.0
 10
11.3414464987
 20
3.683172949
 30
0.0
 10
11.3408139528
 20
3.6835770464
 30
0.0
 10
11.3399037621
 20
3.6840793236
 30
0.0
 10
11.3388072594
 20
3.6846212581
 30
0.0
 10
11.3375316997
 20
3.6852001008
 30
0.0
 10
11.3355049749
 20
3.6860584611
 30
0.0
 10
11.3325828729
 20
3.6871915801
 30
0.0
 10
11.3286509296
 20
3.688600499
 30
0.0
 10
11.324216829
 20
3.690094349
 30
0.0
 10
11.3210949562
 20
3.6910956082
 30
0.0
 10
11.3194630072
 20
3.6916088999
 30
0.0
  0
SPLINE
  5
527
100
AcDbEntity
  8
0
100
AcDbSpline
 62
7
  6
CONTINUOUS
 70
0
 71
3
 72
27
 73
23
 74
0
 42
0.0000001
 43
0.0000001
 44
0.0000000001
 40
0.0
 40
0.0
 40
0.0
 40
0.0
 40
0.0061856664
 40
0.0113716694
 40
0.0165550263
 40
0.0228123457
 40
0.0308437996
 40
0.0409506569
 40
0.0532397734
 40
0.0677395447
 40
0.0844436573
 40
0.1033439654
 40
0.147681145
 40
0.2005964997
 40
0.2617784806
 40
0.3308368832
 40
0.4073730586
 40
0.4909858258
 40
0.5812536872
 40
0.6777101264
 40
0.7798874448
 40
1.0
 40
1.0
 40
1.0
 40
1.0
 10
11.58104613
 20
4.1418890071
 30
0.0
 10
11.581044839
 20
4.1419329746
 30
0.0
 10
11.5810343871
 20
4.1420145648
 30
0.0
 10
11.5809736189
 20
4.1421205324
 30
0.0
 10
11.5808670557
 20
4.1421819372
 30
0.0
 10
11.5807269985
 20
4.1421968602
 30
0.0
 10
11.5805542656
 20
4.1421733422
 30
0.0
 10
11.5803459313
 20
4.1421130985
 30
0.0
 10
11.5801016889
 20
4.1420166032
 30
0.0
 10
11.5798219713
 20
4.1418842753
 30
0.0
 10
11.5795074495
 20
4.1417166703
 30
0.0
 10
11.579015847
 20
4.1414310269
 30
0.0
 10
11.5783206109
 20
4.1409844154
 30
0.0
 10
11.5773959549
 20
4.1403404933
 30
0.0
 10
11.5763474998
 20
4.1395675864
 30
0.0
 10
11.5751816874
 20
4.1386714003
 30
0.0
 10
11.5739052365
 20
4.1376577807
 30
0.0
 10
11.5725248379
 20
4.1365327902
 30
0.0
 10
11.5710474237
 20
4.135302798
 30
0.0
 10
11.5694799876
 20
4.1339747384
 30
0.0
 10
11.5672221972
 20
4.1320332722
 30
0.0
 10
11.5654990888
 20
4.1305221083
 30
0.0
 10
11.5643273616
 20
4.1294843273
 30
0.0
  0
SPLINE
  5
528
100
AcDbEntity
  8
0
100
AcDbSpline
 62
7
  6
CONTINUOUS
 70
0
 71
3
 72
20
 73
16
 74
0
 42
0.0000001
 43
0.0000001
 44
0.0000000001
 40
0.0
 40
0.0
 40
0.0
 40
0.0
 40
0.1950790309
 40
0.3755608727
 40
0.538754638
 40
0.6818701263
 40
0.7449943174
 40
0.8020268477
 40
0.8526334104
 40
0.8965072455
 40
0.9333700258
 40
0.9630111282
 40
0.9852536746
 40
0.9935672808
 40
1.0
 40
1.0
 40
1.0
 40
1.0
 10
11.3194630072
 20
3.6916088999
 30
0.0
 10
11.3190775082
 20
3.6898450604
 30
0.0
 10
11.3183394501
 20
3.6864484672
 30
0.0
 10
11.317295616
 20
3.6815727159
 30
0.0
 10
11.3163697723
 20
3.6771635628
 30
0.0
 10
11.3156845122
 20
3.6738137673
 30
0.0
 10
11.3152102576
 20
3.6714237501
 30
0.0
 10
11.3149100431
 20
3.669872089
 30
0.0
 10
11.3146519897
 20
3.6684937579
 30
0.0
 10
11.3144378255
 20
3.6672971686
 30
0.0
 10
11.3142688189
 20
3.6662896415
 30
0.0
 10
11.3141462472
 20
3.6654774784
 30
0.0
 10
11.3140767135
 20
3.6649245099
 30
0.0
 10
11.3140481972
 20
3.664583335
 30
0.0
 10
11.3140423911
 20
3.6644468813
 30
0.0
 10
11.3140423911
 20
3.6643873459
 30
0.0
  0
SPLINE
  5
529
100
AcDbEntity
  8
0
100
AcDbSpline
 62
7
  6
CONTINUOUS
 70
0
 71
3
 72
27
 73
23
 74
0
 42
0.0000001
 43
0.0000001
 44
0.0000000001
 40
0.0
 40
0.0
 40
0.0
 40
0.0
 40
0.0055044596
 40
0.010121422
 40
0.0150545965
 40
0.0213198791
 40
0.0294371143
 40
0.0396298052
 40
0.0519958025
 40
0.066577978
 40
0.0833890018
 40
0.1024165544
 40
0.147022632
 40
0.2001583168
 40
0.2614949074
 40
0.3306659901
 40
0.40727471
 40
0.4909032779
 40
0.5811365695
 40
0.6775706713
 40
0.7798009315
 40
1.0
 40
1.0
 40
1.0
 40
1.0
 10
11.577235837
 20
4.1909387146
 30
0.0
 10
11.5772310368
 20
4.1909769198
 30
0.0
 10
11.5772140458
 20
4.191047793
 30
0.0
 10
11.5771402337
 20
4.1911302261
 30
0.0
 10
11.5770290145
 20
4.191160121
 30
0.0
 10
11.5768932654
 20
4.1911461955
 30
0.0
 10
11.5767284719
 20
4.19109487
 30
0.0
 10
11.5765329324
 20
4.1910056426
 30
0.0
 10
11.5763060837
 20
4.190878578
 30
0.0
 10
11.5760481011
 20
4.1907135793
 30
0.0
 10
11.5757593352
 20
4.1905109078
 30
0.0
 10
11.5753095621
 20
4.1901725831
 30
0.0
 10
11.57467665
 20
4.189655753
 30
0.0
 10
11.5738384204
 20
4.1889236614
 30
0.0
 10
11.5728913845
 20
4.1880555029
 30
0.0
 10
11.5718412263
 20
4.1870572569
 30
0.0
 10
11.5706938178
 20
4.1859352327
 30
0.0
 10
11.5694550816
 20
4.1846960461
 30
0.0
 10
11.5681309057
 20
4.1833463015
 30
0.0
 10
11.5667269819
 20
4.1818925984
 30
0.0
 10
11.5647057057
 20
4.1797712867
 30
0.0
 10
11.5631642587
 20
4.1781246329
 30
0.0
 10
11.5621163343
 20
4.1769956587
 30
0.0
  0
SPLINE
  5
52A
100
AcDbEntity
  8
0
100
AcDbSpline
 62
7
  6
CONTINUOUS
 70
0
 71
3
 72
26
 73
22
 74
0
 42
0.0000001
 43
0.0000001
 44
0.0000000001
 40
0.0
 40
0.0
 40
0.0
 40
0.0
 40
0.0048203795
 40
0.0068893891
 40
0.0089357184
 40
0.0135952041
 40
0.0198054875
 40
0.0279852487
 40
0.0382996895
 40
0.0655548949
 40
0.1017172206
 40
0.1466190046
 40
0.2000013741
 40
0.261528275
 40
0.3308345691
 40
0.4075255364
 40
0.4911891621
 40
0.5814177183
 40
0.677814062
 40
0.7799802309
 40
1.0
 40
1.0
 40
1.0
 40
1.0
 10
11.5688905101
 20
4.2394105352
 30
0.0
 10
11.5688833293
 20
4.239442937
 30
0.0
 10
11.5688663422
 20
4.2394894969
 30
0.0
 10
11.5688225701
 20
4.239533949
 30
0.0
 10
11.568768163
 20
4.2395624367
 30
0.0
 10
11.5686757348
 20
4.2395655275
 30
0.0
 10
11.5685496547
 20
4.2395265905
 30
0.0
 10
11.5683974876
 20
4.239449341
 30
0.0
 10
11.5681337121
 20
4.2392765428
 30
0.0
 10
11.5677412793
 20
4.2389527791
 30
0.0
 10
11.5671989447
 20
4.2384407314
 30
0.0
 10
11.5665539161
 20
4.2377764391
 30
0.0
 10
11.5658105438
 20
4.2369651478
 30
0.0
 10
11.5649734734
 20
4.2360121899
 30
0.0
 10
11.5640476639
 20
4.2349238715
 30
0.0
 10
11.5630381395
 20
4.2337068435
 30
0.0
 10
11.5619499855
 20
4.2323680082
 30
0.0
 10
11.5607882317
 20
4.2309142515
 30
0.0
 10
11.5595577393
 20
4.2293524235
 30
0.0
 10
11.5577876963
 20
4.2270781272
 30
0.0
 10
11.5564389727
 20
4.2253169733
 30
0.0
 10
11.5555224517
 20
4.2241108756
 30
0.0
  0
SPLINE
  5
52B
100
AcDbEntity
  8
0
100
AcDbSpline
 62
7
  6
CONTINUOUS
 70
0
 71
3
 72
28
 73
24
 74
0
 42
0.0000001
 43
0.0000001
 44
0.0000000001
 40
0.0
 40
0.0
 40
0.0
 40
0.0
 40
0.004081378
 40
0.0058431124
 40
0.0076611627
 40
0.0097180272
 40
0.0121423054
 40
0.0183667938
 40
0.0266644143
 40
0.0371452931
 40
0.0498508948
 40
0.0647932859
 40
0.1013293794
 40
0.1465565037
 40
0.2002009703
 40
0.2619213795
 40
0.3313543434
 40
0.4081078762
 40
0.491776236
 40
0.5819593792
 40
0.6782671933
 40
0.7803087168
 40
1.0
 40
1.0
 40
1.0
 40
1.0
 10
11.5560943417
 20
4.2869014489
 30
0.0
 10
11.556085864
 20
4.2869278157
 30
0.0
 10
11.556067113
 20
4.2869656551
 30
0.0
 10
11.5560229513
 20
4.2869950837
 30
0.0
 10
11.5559850354
 20
4.2870039992
 30
0.0
 10
11.5559419339
 20
4.2870013868
 30
0.0
 10
11.5558715912
 20
4.2869818265
 30
0.0
 10
11.5557697194
 20
4.286926157
 30
0.0
 10
11.5556338554
 20
4.2868243249
 30
0.0
 10
11.5554748481
 20
4.2866812369
 30
0.0
 10
11.5552929578
 20
4.2864971145
 30
0.0
 10
11.5550000936
 20
4.2861745802
 30
0.0
 10
11.5545824696
 20
4.2856679899
 30
0.0
 10
11.5540233947
 20
4.2849386515
 30
0.0
 10
11.553381983
 20
4.2840575105
 30
0.0
 10
11.5526619967
 20
4.2830306968
 30
0.0
 10
11.5518676773
 20
4.2818646445
 30
0.0
 10
11.5510031958
 20
4.2805662947
 30
0.0
 10
11.5500728066
 20
4.2791427408
 30
0.0
 10
11.5490806899
 20
4.2776010673
 30
0.0
 10
11.5480308894
 20
4.2759482924
 30
0.0
 10
11.5465220927
 20
4.2735459636
 30
0.0
 10
11.5453732966
 20
4.2716893204
 30
0.0
 10
11.5445929433
 20
4.2704190381
 30
0.0
  0
SPLINE
  5
52C
100
AcDbEntity
  8
0
100
AcDbSpline
 62
7
  6
CONTINUOUS
 70
0
 71
3
 72
23
 73
19
 74
0
 42
0.0000001
 43
0.0000001
 44
0.0000000001
 40
0.0
 40
0.0
 40
0.0
 40
0.0
 40
0.0063579685
 40
0.0136478477
 40
0.0222946996
 40
0.0325486979
 40
0.0445523599
 40
0.0583810852
 40
0.091636089
 40
0.1324139979
 40
0.1805817623
 40
0.2359101285
 40
0.2981031204
 40
0.3668267025
 40
0.4417235288
 40
0.608530471
 40
0.7955895001
 40
1.0
 40
1.0
 40
1.0
 40
1.0
 10
11.3823041305
 20
3.7109649647
 30
0.0
 10
11.3823041305
 20
3.711017791
 30
0.0
 10
11.3822828847
 20
3.7111315722
 30
0.0
 10
11.3821978098
 20
3.711297959
 30
0.0
 10
11.3820616075
 20
3.7114689706
 30
0.0
 10
11.3818745512
 20
3.7116457278
 30
0.0
 10
11.3816366576
 20
3.7118288329
 30
0.0
 10
11.3812259107
 20
3.712098349
 30
0.0
 10
11.3805815373
 20
3.7124439471
 30
0.0
 10
11.3796556093
 20
3.7128614615
 30
0.0
 10
11.3785401255
 20
3.7133013934
 30
0.0
 10
11.3772424615
 20
3.7137615826
 30
0.0
 10
11.3757706521
 20
3.714239941
 30
0.0
 10
11.3741335778
 20
3.714734463
 30
0.0
 10
11.371652142
 20
3.7154383538
 30
0.0
 10
11.3682045388
 20
3.7163371548
 30
0.0
 10
11.3636937245
 20
3.7174189775
 30
0.0
 10
11.3605195858
 20
3.7181296116
 30
0.0
 10
11.3588601133
 20
3.7184910668
 30
0.0
  0
SPLINE
  5
52D
100
AcDbEntity
  8
0
100
AcDbSpline
 62
7
  6
CONTINUOUS
 70
0
 71
3
 72
29
 73
25
 74
0
 42
0.0000001
 43
0.0000001
 44
0.0000000001
 40
0.0
 40
0.0
 40
0.0
 40
0.0
 40
0.0032988434
 40
0.0047651759
 40
0.0063961132
 40
0.0083656153
 40
0.0107748246
 40
0.0170982552
 40
0.0255767618
 40
0.0362729295
 40
0.0492058549
 40
0.0643745021
 40
0.0817587299
 40
0.1013303995
 40
0.1469095435
 40
0.2008271962
 40
0.2627389758
 40
0.3322838937
 40
0.4090735115
 40
0.4927089092
 40
0.5827980522
 40
0.6789581601
 40
0.780805597
 40
1.0
 40
1.0
 40
1.0
 40
1.0
 10
11.5389584325
 20
4.333006284
 30
0.0
 10
11.5389497401
 20
4.3330266045
 30
0.0
 10
11.5389302673
 20
4.3330560056
 30
0.0
 10
11.5388882908
 20
4.3330698036
 30
0.0
 10
11.5388538256
 20
4.3330671789
 30
0.0
 10
11.5388156428
 20
4.3330534995
 30
0.0
 10
11.5387532602
 20
4.3330176607
 30
0.0
 10
11.5386649866
 20
4.3329423918
 30
0.0
 10
11.538548053
 20
4.3328177707
 30
0.0
 10
11.5384122422
 20
4.3326507299
 30
0.0
 10
11.5382577804
 20
4.3324416103
 30
0.0
 10
11.5380849649
 20
4.3321905446
 30
0.0
 10
11.5378940948
 20
4.3318980671
 30
0.0
 10
11.5376007979
 20
4.3314292596
 30
0.0
 10
11.5371935955
 20
4.3307431688
 30
0.0
 10
11.5366601676
 20
4.3298024354
 30
0.0
 10
11.5360633021
 20
4.3287132464
 30
0.0
 10
11.5354063493
 20
4.3274823611
 30
0.0
 10
11.5346926931
 20
4.3261168347
 30
0.0
 10
11.5339257515
 20
4.324623902
 30
0.0
 10
11.5331088785
 20
4.3230107559
 30
0.0
 10
11.5322453175
 20
4.3212845103
 30
0.0
 10
11.5310052819
 20
4.3187794513
 30
0.0
 10
11.5300617431
 20
4.3168465098
 30
0.0
 10
11.5294210518
 20
4.3155250788
 30
0.0
  0
SPLINE
  5
52E
100
AcDbEntity
  8
0
100
AcDbSpline
 62
7
  6
CONTINUOUS
 70
0
 71
3
 72
18
 73
14
 74
0
 42
0.0000001
 43
0.0000001
 44
0.0000000001
 40
0.0
 40
0.0
 40
0.0
 40
0.0
 40
0.1949261214
 40
0.3753017286
 40
0.5384389361
 40
0.6815492696
 40
0.8017512419
 40
0.8523980242
 40
0.8963219136
 40
0.9332419205
 40
0.9629425868
 40
0.9852372707
 40
1.0
 40
1.0
 40
1.0
 40
1.0
 10
11.3588601133
 20
3.7184910668
 30
0.0
 10
11.3586274351
 20
3.716698605
 30
0.0
 10
11.3581819508
 20
3.713247156
 30
0.0
 10
11.357551976
 20
3.7082942482
 30
0.0
 10
11.3569931582
 20
3.7038166447
 30
0.0
 10
11.3565158524
 20
3.6998911924
 30
0.0
 10
11.3561771401
 20
3.6969996791
 30
0.0
 10
11.3559565245
 20
3.6950204013
 30
0.0
 10
11.3558272335
 20
3.693807983
 30
0.0
 10
11.3557253648
 20
3.6927880138
 30
0.0
 10
11.3556510519
 20
3.6919668133
 30
0.0
 10
11.3556054717
 20
3.6913495319
 30
0.0
 10
11.3555886351
 20
3.6910060821
 30
0.0
 10
11.3555886351
 20
3.690869191
 30
0.0
  0
SPLINE
  5
52F
100
AcDbEntity
  8
0
100
AcDbSpline
 62
7
  6
CONTINUOUS
 70
0
 71
3
 72
30
 73
26
 74
0
 42
0.0000001
 43
0.0000001
 44
0.0000000001
 40
0.0
 40
0.0
 40
0.0
 40
0.0
 40
0.0013871171
 40
0.0025512387
 40
0.0052412305
 40
0.0071970118
 40
0.0096526702
 40
0.0161651767
 40
0.0248874783
 40
0.0358454631
 40
0.0490411931
 40
0.0644624087
 40
0.0820822279
 40
0.1018697469
 40
0.12379247
 40
0.1478164959
 40
0.2020061213
 40
0.2640942838
 40
0.3337231829
 40
0.4105088927
 40
0.4940598692
 40
0.583992411
 40
0.679931378
 40
0.7815007717
 40
1.0
 40
1.0
 40
1.0
 40
1.0
 10
11.5176308919
 20
4.3773321052
 30
0.0
 10
11.5176265079
 20
4.3773401866
 30
0.0
 10
11.5176166987
 20
4.3773544635
 30
0.0
 10
11.5175845869
 20
4.3773719146
 30
0.0
 10
11.5175437804
 20
4.3773568558
 30
0.0
 10
11.5175068883
 20
4.3773288796
 30
0.0
 10
11.5174546378
 20
4.3772780145
 30
0.0
 10
11.5173827332
 20
4.3771852209
 30
0.0
 10
11.5172874767
 20
4.3770399179
 30
0.0
 10
11.5171778353
 20
4.376851539
 30
0.0
 10
11.517053733
 20
4.3766204059
 30
0.0
 10
11.5169155589
 20
4.3763468355
 30
0.0
 10
11.516763523
 20
4.3760313951
 30
0.0
 10
11.5165979219
 20
4.3756747067
 30
0.0
 10
11.5164190206
 20
4.3752774291
 30
0.0
 10
11.5161522523
 20
4.3746696787
 30
0.0
 10
11.5157888033
 20
4.3738136758
 30
0.0
 10
11.5153198609
 20
4.3726741725
 30
0.0
 10
11.5148048879
 20
4.3713917143
 30
0.0
 10
11.5142464329
 20
4.3699734607
 30
0.0
 10
11.5136471169
 20
4.3684266939
 30
0.0
 10
11.5130094872
 20
4.3667586481
 30
0.0
 10
11.5123360136
 20
4.3649764639
 30
0.0
 10
11.5113697813
 20
4.3623939602
 30
0.0
 10
11.5106349905
 20
4.3604038186
 30
0.0
 10
11.5101362126
 20
4.359044186
 30
0.0
  0
SPLINE
  5
530
100
AcDbEntity
  8
0
100
AcDbSpline
 62
7
  6
CONTINUOUS
 70
0
 71
3
 72
30
 73
26
 74
0
 42
0.0000001
 43
0.0000001
 44
0.0000000001
 40
0.0
 40
0.0
 40
0.0
 40
0.0
 40
0.0009548297
 40
0.0017878088
 40
0.0028627606
 40
0.0043775264
 40
0.0064043284
 40
0.0089708604
 40
0.0157623633
 40
0.024789307
 40
0.036052797
 40
0.049543151
 40
0.0652392567
 40
0.0831101473
 40
0.103123206
 40
0.1252450667
 40
0.1494409328
 40
0.2038892225
 40
0.2661254912
 40
0.3357960527
 40
0.4125225969
 40
0.4959215488
 40
0.5856179141
 40
0.7824333232
 40
1.0
 40
1.0
 40
1.0
 40
1.0
 10
11.4922953217
 20
4.4195018001
 30
0.0
 10
11.4922918299
 20
4.4195070147
 30
0.0
 10
11.4922834019
 20
4.4195164856
 30
0.0
 10
11.4922630881
 20
4.419518029
 30
0.0
 10
11.4922432446
 20
4.4195058628
 30
0.0
 10
11.4922219312
 20
4.4194842879
 30
0.0
 10
11.4921980368
 20
4.4194518409
 30
0.0
 10
11.4921589457
 20
4.419388017
 30
0.0
 10
11.4921050471
 20
4.41927965
 30
0.0
 10
11.4920343708
 20
4.4191162821
 30
0.0
 10
11.4919534162
 20
4.4189094897
 30
0.0
 10
11.4918623085
 20
4.4186597179
 30
0.0
 10
11.491761284
 20
4.4183673813
 30
0.0
 10
11.4916505199
 20
4.4180330895
 30
0.0
 10
11.4915302219
 20
4.417657487
 30
0.0
 10
11.4914005795
 20
4.4172412424
 30
0.0
 10
11.4912078277
 20
4.416607618
 30
0.0
 10
11.4909458446
 20
4.4157194927
 30
0.0
 10
11.4906085081
 20
4.414542025
 30
0.0
 10
11.4902388319
 20
4.4132215342
 30
0.0
 10
11.4898385994
 20
4.4117651774
 30
0.0
 10
11.4894096408
 20
4.4101802284
 30
0.0
 10
11.4887820783
 20
4.4078313568
 30
0.0
 10
11.4879402361
 20
4.4046269989
 30
0.0
 10
11.4872586971
 20
4.401990097
 30
0.0
 10
11.4869029498
 20
4.4006050864
 30
0.0
  0
SPLINE
  5
531
100
AcDbEntity
  8
0
100
AcDbSpline
 62
7
  6
CONTINUOUS
 70
0
 71
3
 72
24
 73
20
 74
0
 42
0.0000001
 43
0.0000001
 44
0.0000000001
 40
0.0
 40
0.0
 40
0.0
 40
0.0
 40
0.0063507208
 40
0.013488483
 40
0.0218995949
 40
0.0318783805
 40
0.0435940086
 40
0.0571374793
 40
0.0898629011
 40
0.1301971503
 40
0.1780238893
 40
0.2331214222
 40
0.295196493
 40
0.3639152345
 40
0.4389188342
 40
0.5198283184
 40
0.6062659642
 40
0.7942699407
 40
1.0
 40
1.0
 40
1.0
 40
1.0
 10
11.4192452337
 20
3.7435224191
 30
0.0
 10
11.4192452337
 20
3.7435744533
 30
0.0
 10
11.4192244548
 20
3.7436855264
 30
0.0
 10
11.4191383646
 20
3.7438451604
 30
0.0
 10
11.4190005659
 20
3.7440040587
 30
0.0
 10
11.4188116334
 20
3.7441636889
 30
0.0
 10
11.4185715524
 20
3.7443248219
 30
0.0
 10
11.4181564632
 20
3.7445567192
 30
0.0
 10
11.4175056891
 20
3.7448428583
 30
0.0
 10
11.4165719671
 20
3.7451745316
 30
0.0
 10
11.4154470592
 20
3.7455111314
 30
0.0
 10
11.414138405
 20
3.745851174
 30
0.0
 10
11.4126540815
 20
3.7461933077
 30
0.0
 10
11.4110030455
 20
3.7465363147
 30
0.0
 10
11.4091946644
 20
3.7468790992
 30
0.0
 10
11.4072385393
 20
3.7472207789
 30
0.0
 10
11.404364479
 20
3.7476868359
 30
0.0
 10
11.4004712561
 20
3.7482552075
 30
0.0
 10
11.3972721483
 20
3.7486719395
 30
0.0
 10
11.3955993728
 20
3.7488797576
 30
0.0
  0
LINE
  5
532
100
AcDbEntity
  8
0
100
AcDbLine
 62
7
  6
CONTINUOUS
 10
11.3955993728
 20
3.7488797576
 11
11.3945049424
 21
3.7210568063
  0
SPLINE
  5
533
100
AcDbEntity
  8
0
100
AcDbSpline
 62
7
  6
CONTINUOUS
 70
0
 71
3
 72
30
 73
26
 74
0
 42
0.0000001
 43
0.0000001
 44
0.0000000001
 40
0.0
 40
0.0
 40
0.0
 40
0.0
 40
0.2175643237
 40
0.4143779729
 40
0.504073725
 40
0.5874722642
 40
0.6641986181
 40
0.7338692312
 40
0.7961058059
 40
0.8505546646
 40
0.8747509177
 40
0.8968732313
 40
0.9168868077
 40
0.9347582817
 40
0.9504550359
 40
0.9639460982
 40
0.9752103333
 40
0.9842380339
 40
0.9910302595
 40
0.9935971062
 40
0.9956241551
 40
0.9971390331
 40
0.9982138189
 40
0.9990461446
 40
1.0
 40
1.0
 40
1.0
 40
1.0
 10
10.6077907311
 20
4.4006967965
 30
0.0
 10
10.6074353084
 20
4.4020818503
 30
0.0
 10
10.6067543905
 20
4.4047188386
 30
0.0
 10
10.6059133146
 20
4.4079233094
 30
0.0
 10
10.605286322
 20
4.410272273
 30
0.0
 10
10.6048577515
 20
4.4118572908
 30
0.0
 10
10.6044578801
 20
4.4133137173
 30
0.0
 10
10.604088536
 20
4.4146342789
 30
0.0
 10
10.6037515011
 20
4.4158118184
 30
0.0
 10
10.6034897511
 20
4.4167000051
 30
0.0
 10
10.6032971698
 20
4.4173336798
 30
0.0
 10
10.6031676412
 20
4.4177499616
 30
0.0
 10
10.6030474482
 20
4.4181256017
 30
0.0
 10
10.6029367801
 20
4.4184599313
 30
0.0
 10
10.6028358423
 20
4.4187523059
 30
0.0
 10
10.602744812
 20
4.419002116
 30
0.0
 10
10.6026639253
 20
4.4192089466
 30
0.0
 10
10.6025933072
 20
4.4193723523
 30
0.0
 10
10.6025394525
 20
4.4194807517
 30
0.0
 10
10.6025003924
 20
4.4195446029
 30
0.0
 10
10.6024765171
 20
4.4195770685
 30
0.0
 10
10.6024552203
 20
4.4195986603
 30
0.0
 10
10.6024353968
 20
4.4196108466
 30
0.0
 10
10.6024150922
 20
4.4196093304
 30
0.0
 10
10.6024066671
 20
4.4195998691
 30
0.0
 10
10.6024031779
 20
4.4195946607
 30
0.0
  0
SPLINE
  5
534
100
AcDbEntity
  8
0
100
AcDbSpline
 62
7
  6
CONTINUOUS
 70
0
 71
3
 72
30
 73
26
 74
0
 42
0.0000001
 43
0.0000001
 44
0.0000000001
 40
0.0
 40
0.0
 40
0.0
 40
0.0
 40
0.0005263291
 40
0.0011648146
 40
0.0022594386
 40
0.0038862427
 40
0.0060649824
 40
0.0088016921
 40
0.0120980741
 40
0.0159540267
 40
0.02534002
 40
0.0369473352
 40
0.050759107
 40
0.0667481691
 40
0.084881643
 40
0.1051261876
 40
0.1518121147
 40
0.2064997449
 40
0.2688505654
 40
0.3385159705
 40
0.4151243291
 40
0.4983005679
 40
0.5876787252
 40
0.7836045691
 40
1.0
 40
1.0
 40
1.0
 40
1.0
 10
11.463169204
 20
4.4591570031
 30
0.0
 10
11.4631670311
 20
4.4591596685
 30
0.0
 10
11.4631589421
 20
4.45916428
 30
0.0
 10
11.463146174
 20
4.4591531201
 30
0.0
 10
11.4631350359
 20
4.4591351046
 30
0.0
 10
11.4631213002
 20
4.4591056917
 30
0.0
 10
11.4631063315
 20
4.4590658023
 30
0.0
 10
11.4630895769
 20
4.4590147569
 30
0.0
 10
11.4630713125
 20
4.4589527935
 30
0.0
 10
11.4630429691
 20
4.4588485033
 30
0.0
 10
11.4630043051
 20
4.4586907984
 30
0.0
 10
11.4629543334
 20
4.4584689386
 30
0.0
 10
11.4628984106
 20
4.4582042226
 30
0.0
 10
11.4628366259
 20
4.4578971804
 30
0.0
 10
11.4627691051
 20
4.4575484303
 30
0.0
 10
11.4626666193
 20
4.4570021676
 30
0.0
 10
11.4625257078
 20
4.4562201232
 30
0.0
 10
11.4623425732
 20
4.4551661687
 30
0.0
 10
11.4621393158
 20
4.4539633314
 30
0.0
 10
11.4619169912
 20
4.4526184702
 30
0.0
 10
11.4616766607
 20
4.4511386763
 30
0.0
 10
11.4614193929
 20
4.4495311512
 30
0.0
 10
11.4610435092
 20
4.4471530963
 30
0.0
 10
11.4605397806
 20
4.4439140213
 30
0.0
 10
11.4601321452
 20
4.4412510118
 30
0.0
 10
11.4599194726
 20
4.439853213
 30
0.0
  0
SPLINE
  5
535
100
AcDbEntity
  8
0
100
AcDbSpline
 62
7
  6
CONTINUOUS
 70
0
 71
3
 72
23
 73
19
 74
0
 42
0.0000001
 43
0.0000001
 44
0.0000000001
 40
0.0
 40
0.0
 40
0.0
 40
0.0
 40
0.0063438994
 40
0.0133172186
 40
0.0214711956
 40
0.0311498438
 40
0.0425523984
 40
0.055787094
 40
0.0879427572
 40
0.127803263
 40
0.175268632
 40
0.2301240922
 40
0.2920784621
 40
0.4359142818
 40
0.6038403762
 40
0.6958980149
 40
0.7928603664
 40
1.0
 40
1.0
 40
1.0
 40
1.0
 10
11.4530133288
 20
3.7793364448
 30
0.0
 10
11.4530133288
 20
3.7793876711
 30
0.0
 10
11.4529932702
 20
3.7794959473
 30
0.0
 10
11.4529069021
 20
3.7796488784
 30
0.0
 10
11.4527685909
 20
3.7797956251
 30
0.0
 10
11.4525793443
 20
3.7799380309
 30
0.0
 10
11.4523391046
 20
3.780077072
 30
0.0
 10
11.4519230957
 20
3.7802710797
 30
0.0
 10
11.4512713987
 20
3.7804973384
 30
0.0
 10
11.4503379103
 20
3.7807428105
 30
0.0
 10
11.4492132197
 20
3.7809756435
 30
0.0
 10
11.4479047793
 20
3.7811950843
 30
0.0
 10
11.4458197018
 20
3.7814833484
 30
0.0
 10
11.4428172037
 20
3.7817935905
 30
0.0
 10
11.4395652308
 20
3.7820367123
 30
0.0
 10
11.4366879801
 20
3.7822078612
 30
0.0
 10
11.433493038
 20
3.7823685016
 30
0.0
 10
11.4310391196
 20
3.7824620153
 30
0.0
 10
11.4293673534
 20
3.7825157182
 30
0.0
  0
LINE
  5
536
100
AcDbEntity
  8
0
100
AcDbLine
 62
7
  6
CONTINUOUS
 10
11.430501939
 20
4.4959610955
 11
11.4294159844
 21
4.4764537293
  0
SPLINE
  5
537
100
AcDbEntity
  8
0
100
AcDbSpline
 62
7
  6
CONTINUOUS
 70
0
 71
3
 72
24
 73
20
 74
0
 42
0.0000001
 43
0.0000001
 44
0.0000000001
 40
0.0
 40
0.0
 40
0.0
 40
0.0
 40
0.0063375038
 40
0.0131338198
 40
0.0210083181
 40
0.0303607753
 40
0.0414241503
 40
0.0543256371
 40
0.085870164
 40
0.1252265223
 40
0.1723102875
 40
0.2269124421
 40
0.2887430067
 40
0.3574666526
 40
0.4327200095
 40
0.5141172839
 40
0.6012729933
 40
0.7913683873
 40
1.0
 40
1.0
 40
1.0
 40
1.0
 10
11.4833203908
 20
3.818101511
 30
0.0
 10
11.4833203908
 20
3.8181519198
 30
0.0
 10
11.4833012865
 20
3.8182573194
 30
0.0
 10
11.483215379
 20
3.8184036627
 30
0.0
 10
11.4830776129
 20
3.8185383257
 30
0.0
 10
11.4828895972
 20
3.8186635443
 30
0.0
 10
11.4826512229
 20
3.8187805566
 30
0.0
 10
11.4822377247
 20
3.8189367029
 30
0.0
 10
11.4815906158
 20
3.8191031513
 30
0.0
 10
11.4806653988
 20
3.8192628048
 30
0.0
 10
11.4795505725
 20
3.8193923528
 30
0.0
 10
11.4782535354
 20
3.8194916686
 30
0.0
 10
11.4767822457
 20
3.8195608349
 30
0.0
 10
11.4751456061
 20
3.8196002635
 30
0.0
 10
11.4733529145
 20
3.8196105663
 30
0.0
 10
11.4714136877
 20
3.8195926193
 30
0.0
 10
11.4685615998
 20
3.819530242
 30
0.0
 10
11.4646994299
 20
3.8193827144
 30
0.0
 10
11.4615324489
 20
3.8192115589
 30
0.0
 10
11.4598759712
 20
3.8191119913
 30
0.0
  0
SPLINE
  5
538
100
AcDbEntity
  8
0
100
AcDbSpline
 62
7
  6
CONTINUOUS
 70
0
 71
3
 72
30
 73
26
 74
0
 42
0.0000001
 43
0.0000001
 44
0.0000000001
 40
0.0
 40
0.0
 40
0.0
 40
0.0
 40
0.2184973932
 40
0.3200660477
 40
0.4160044183
 40
0.5059365225
 40
0.5894872368
 40
0.6662728809
 40
0.7359019292
 40
0.7979904653
 40
0.8521806959
 40
0.8762051136
 40
0.8981282836
 40
0.9179163037
 40
0.9355366779
 40
0.9509584993
 40
0.9641548733
 40
0.9751135113
 40
0.9838364392
 40
0.9903494725
 40
0.9928053032
 40
0.9947611392
 40
0.9974505342
 40
0.9986138435
 40
1.0
 40
1.0
 40
1.0
 40
1.0
 10
10.584548731
 20
4.3591407444
 30
0.0
 10
10.5840502765
 20
4.360500449
 30
0.0
 10
10.5833159615
 20
4.3624906985
 30
0.0
 10
10.5823503538
 20
4.3650733491
 30
0.0
 10
10.5816773143
 20
4.3668556402
 30
0.0
 10
10.5810400943
 20
4.3685237916
 30
0.0
 10
10.5804411619
 20
4.3700706625
 30
0.0
 10
10.5798830627
 20
4.3714890191
 30
0.0
 10
10.5793684158
 20
4.3727715789
 30
0.0
 10
10.5788997679
 20
4.3739111823
 30
0.0
 10
10.5785365456
 20
4.3747672691
 30
0.0
 10
10.578269942
 20
4.3753750864
 30
0.0
 10
10.57809115
 20
4.3757724126
 30
0.0
 10
10.5779256492
 20
4.3761291489
 30
0.0
 10
10.5777737042
 20
4.3764446368
 30
0.0
 10
10.5776356116
 20
4.3767182542
 30
0.0
 10
10.5775115812
 20
4.3769494337
 30
0.0
 10
10.577402002
 20
4.3771378578
 30
0.0
 10
10.5773067981
 20
4.3772832053
 30
0.0
 10
10.5772349326
 20
4.3773760355
 30
0.0
 10
10.5771827087
 20
4.3774269335
 30
0.0
 10
10.5771458386
 20
4.3774549303
 30
0.0
 10
10.5771050568
 20
4.3774700285
 30
0.0
 10
10.5770729459
 20
4.3774526079
 30
0.0
 10
10.57706314
 20
4.3774383425
 30
0.0
 10
10.5770587574
 20
4.3774302678
 30
0.0
  0
SPLINE
  5
539
100
AcDbEntity
  8
0
100
AcDbSpline
 62
7
  6
CONTINUOUS
 70
0
 71
3
 72
14
 73
10
 74
0
 42
0.0000001
 43
0.0000001
 44
0.0000000001
 40
0.0
 40
0.0
 40
0.0
 40
0.0
 40
0.0740177859
 40
0.1516603988
 40
0.2414137028
 40
0.3488340067
 40
0.4770974934
 40
0.6278891144
 40
1.0
 40
1.0
 40
1.0
 40
1.0
 10
11.509907683
 20
3.8594868775
 30
0.0
 10
11.509907683
 20
3.8595381179
 30
0.0
 10
11.5098884068
 20
3.8596443388
 30
0.0
 10
11.5097975973
 20
3.8597884399
 30
0.0
 10
11.5096521288
 20
3.8599140006
 30
0.0
 10
11.5094544228
 20
3.8600241211
 30
0.0
 10
11.5092041609
 20
3.8601204564
 30
0.0
 10
11.5087689116
 20
3.8602396448
 30
0.0
 10
11.5084100053
 20
3.8602949903
 30
0.0
 10
11.5081542003
 20
3.8603253638
 30
0.0
  0
SPLINE
  5
53A
100
AcDbEntity
  8
0
100
AcDbSpline
 62
7
  6
CONTINUOUS
 70
0
 71
3
 72
15
 73
11
 74
0
 42
0.0000001
 43
0.0000001
 44
0.0000000001
 40
0.0
 40
0.0
 40
0.0
 40
0.0
 40
0.031623704
 40
0.0680022556
 40
0.1546600291
 40
0.2590081841
 40
0.3798048762
 40
0.5156743655
 40
0.6652374454
 40
1.0
 40
1.0
 40
1.0
 40
1.0
 10
11.5081542003
 20
3.8603253638
 30
0.0
 10
11.5079300067
 20
3.8603519838
 30
0.0
 10
11.5074459823
 20
3.86039313
 30
0.0
 10
11.5063424657
 20
3.8604368729
 30
0.0
 10
11.5047182805
 20
3.8604148819
 30
0.0
 10
11.5024953347
 20
3.8602920757
 30
0.0
 10
11.4999269478
 20
3.8600734754
 30
0.0
 10
11.4970431292
 20
3.8597645246
 30
0.0
 10
11.4926491172
 20
3.8592180759
 30
0.0
 10
11.4892270205
 20
3.8587202888
 30
0.0
 10
11.4868649491
 20
3.8583563642
 30
0.0
  0
SPLINE
  5
53B
100
AcDbEntity
  8
0
100
AcDbSpline
 62
7
  6
CONTINUOUS
 70
0
 71
3
 72
27
 73
23
 74
0
 42
0.0000001
 43
0.0000001
 44
0.0000000001
 40
0.0
 40
0.0
 40
0.0
 40
0.0
 40
0.2202517625
 40
0.3224959747
 40
0.418926896
 40
0.5091334838
 40
0.592705275
 40
0.6692200068
 40
0.7382545489
 40
0.7994102671
 40
0.8523198138
 40
0.8966631435
 40
0.9155506967
 40
0.9322199428
 40
0.9466667002
 40
0.9589153339
 40
0.9690254914
 40
0.9771255922
 40
0.9834961765
 40
0.9887370347
 40
0.9938754946
 40
1.0
 40
1.0
 40
1.0
 40
1.0
 10
10.5303183383
 20
4.129511296
 30
0.0
 10
10.5291451914
 20
4.1305504977
 30
0.0
 10
10.5274203053
 20
4.1320641082
 30
0.0
 10
10.5251605526
 20
4.1340082243
 30
0.0
 10
10.5235923279
 20
4.1353371942
 30
0.0
 10
10.5221146875
 20
4.1365674408
 30
0.0
 10
10.5207341571
 20
4.1376927021
 30
0.0
 10
10.5194574798
 20
4.1387067475
 30
0.0
 10
10.5182914155
 20
4.139603334
 30
0.0
 10
10.5172426604
 20
4.1403765866
 30
0.0
 10
10.5163176402
 20
4.1410209356
 30
0.0
 10
10.5156221629
 20
4.1414680004
 30
0.0
 10
10.515130524
 20
4.1417537296
 30
0.0
 10
10.5148163747
 20
4.1419210092
 30
0.0
 10
10.5145371505
 20
4.14205272
 30
0.0
 10
10.5142932044
 20
4.1421486824
 30
0.0
 10
10.5140845337
 20
4.1422089826
 30
0.0
 10
10.5139105268
 20
4.1422334244
 30
0.0
 10
10.5137688216
 20
4.1422214715
 30
0.0
 10
10.5136585934
 20
4.1421651684
 30
0.0
 10
10.5135931465
 20
4.1420619247
 30
0.0
 10
10.513581972
 20
4.141980813
 30
0.0
 10
10.5135805847
 20
4.1419372554
 30
0.0
  0
SPLINE
  5
53C
100
AcDbEntity
  8
0
100
AcDbSpline
 62
7
  6
CONTINUOUS
 70
0
 71
3
 72
14
 73
10
 74
0
 42
0.0000001
 43
0.0000001
 44
0.0000000001
 40
0.0
 40
0.0
 40
0.0
 40
0.0
 40
0.0760435665
 40
0.1533767316
 40
0.2416688196
 40
0.3475267965
 40
0.4747416776
 40
0.6253116799
 40
1.0
 40
1.0
 40
1.0
 40
1.0
 10
11.5325485611
 20
3.9031394996
 30
0.0
 10
11.5325485611
 20
3.9031898676
 30
0.0
 10
11.5325307886
 20
3.9032928851
 30
0.0
 10
11.5324421002
 20
3.9034304397
 30
0.0
 10
11.5322994323
 20
3.9035435576
 30
0.0
 10
11.5321063459
 20
3.9036358105
 30
0.0
 10
11.5318623906
 20
3.9037093331
 30
0.0
 10
11.531437099
 20
3.9037890664
 30
0.0
 10
11.5310886767
 20
3.9038114806
 30
0.0
 10
11.5308406004
 20
3.9038185662
 30
0.0
  0
SPLINE
  5
53D
100
AcDbEntity
  8
0
100
AcDbSpline
 62
7
  6
CONTINUOUS
 70
0
 71
3
 72
15
 73
11
 74
0
 42
0.0000001
 43
0.0000001
 44
0.0000000001
 40
0.0
 40
0.0
 40
0.0
 40
0.0
 40
0.031086524
 40
0.0670009535
 40
0.1529563691
 40
0.2569033072
 40
0.3775917342
 40
0.5136330402
 40
0.663633126
 40
1.0
 40
1.0
 40
1.0
 40
1.0
 10
11.5308406004
 20
3.9038185662
 30
0.0
 10
11.530621651
 20
3.9038248199
 30
0.0
 10
11.5301492652
 20
3.9038218926
 30
0.0
 10
11.5290727786
 20
3.9037651379
 30
0.0
 10
11.5274897506
 20
3.9035951337
 30
0.0
 10
11.5253252463
 20
3.9032702268
 30
0.0
 10
11.5228241
 20
3.9028181359
 30
0.0
 10
11.5200155598
 20
3.9022470358
 30
0.0
 10
11.5157332147
 20
3.9013005167
 30
0.0
 10
11.5124025246
 20
3.9004921384
 30
0.0
 10
11.5101040368
 20
3.8999140326
 30
0.0
  0
SPLINE
  5
53E
100
AcDbEntity
  8
0
100
AcDbSpline
 62
7
  6
CONTINUOUS
 70
0
 71
3
 72
14
 73
10
 74
0
 42
0.0000001
 43
0.0000001
 44
0.0000000001
 40
0.0
 40
0.0
 40
0.0
 40
0.0
 40
0.0783509189
 40
0.1553377701
 40
0.2419142217
 40
0.3459419331
 40
0.4719452726
 40
0.6222795553
 40
1.0
 40
1.0
 40
1.0
 40
1.0
 10
11.55104981
 20
3.9486869567
 30
0.0
 10
11.55104981
 20
3.9487364641
 30
0.0
 10
11.5510337224
 20
3.9488362015
 30
0.0
 10
11.5509480155
 20
3.9489675536
 30
0.0
 10
11.5508091941
 20
3.9490686687
 30
0.0
 10
11.5506222999
 20
3.9491435037
 30
0.0
 10
11.5503867383
 20
3.9491948558
 30
0.0
 10
11.5499749496
 20
3.9492360899
 30
0.0
 10
11.5496401214
 20
3.949226756
 30
0.0
 10
11.5494019423
 20
3.9492114679
 30
0.0
  0
SPLINE
  5
53F
100
AcDbEntity
  8
0
100
AcDbSpline
 62
7
  6
CONTINUOUS
 70
0
 71
3
 72
15
 73
11
 74
0
 42
0.0000001
 43
0.0000001
 44
0.0000000001
 40
0.0
 40
0.0
 40
0.0
 40
0.0
 40
0.0305288262
 40
0.0659638456
 40
0.1511983092
 40
0.2547370116
 40
0.3753186599
 40
0.5115398258
 40
0.6619901855
 40
1.0
 40
1.0
 40
1.0
 40
1.0
 10
11.5494019423
 20
3.9492114679
 30
0.0
 10
11.5491900818
 20
3.9491978691
 30
0.0
 10
11.5487333588
 20
3.9491520305
 30
0.0
 10
11.5476931063
 20
3.9489975286
 30
0.0
 10
11.5461648334
 20
3.9486838257
 30
0.0
 10
11.5440772625
 20
3.9481631334
 30
0.0
 10
11.5416647055
 20
3.9474847885
 30
0.0
 10
11.5389554033
 20
3.9466596206
 30
0.0
 10
11.534821407
 20
3.9453247839
 30
0.0
 10
11.5316104113
 20
3.9442157823
 30
0.0
 10
11.5293949755
 20
3.943430457
 30
0.0
  0
SPLINE
  5
540
100
AcDbEntity
  8
0
100
AcDbSpline
 62
7
  6
CONTINUOUS
 70
0
 71
3
 72
27
 73
23
 74
0
 42
0.0000001
 43
0.0000001
 44
0.0000000001
 40
0.0
 40
0.0
 40
0.0
 40
0.0
 40
0.0055029942
 40
0.0101187415
 40
0.0150512283
 40
0.0213163004
 40
0.0294336058
 40
0.0396265169
 40
0.051992816
 40
0.0665753376
 40
0.0833867146
 40
0.1024146062
 40
0.1470213083
 40
0.2001575255
 40
0.2614945346
 40
0.3306659323
 40
0.4072748606
 40
0.4909035433
 40
0.5811368776
 40
0.677570963
 40
0.7798011575
 40
1.0
 40
1.0
 40
1.0
 40
1.0
 10
10.5174146623
 20
4.1910493831
 30
0.0
 10
10.517419469
 20
4.1910875756
 30
0.0
 10
10.517436471
 20
4.1911584252
 30
0.0
 10
10.5175102982
 20
4.1912408094
 30
0.0
 10
10.5176215138
 20
4.1912706439
 30
0.0
 10
10.5177572446
 20
4.1912566611
 30
0.0
 10
10.5179220131
 20
4.1912052756
 30
0.0
 10
10.5181175185
 20
4.191115984
 30
0.0
 10
10.5183443243
 20
4.1909888504
 30
0.0
 10
10.5186022545
 20
4.1908237781
 30
0.0
 10
10.5188909585
 20
4.1906210289
 30
0.0
 10
10.5193406302
 20
4.1902825895
 30
0.0
 10
10.5199733925
 20
4.189765608
 30
0.0
 10
10.5208114156
 20
4.189033327
 30
0.0
 10
10.5217582111
 20
4.1881649645
 30
0.0
 10
10.5228080965
 20
4.1871665009
 30
0.0
 10
10.5239552016
 20
4.1860442462
 30
0.0
 10
10.5251936058
 20
4.1848048173
 30
0.0
 10
10.526517423
 20
4.1834548189
 30
0.0
 10
10.5279209635
 20
4.1820008514
 30
0.0
 10
10.5299416837
 20
4.1798791648
 30
0.0
 10
10.5314827037
 20
4.17823223
 30
0.0
 10
10.5325303366
 20
4.1771030664
 30
0.0
  0
SPLINE
  5
541
100
AcDbEntity
  8
0
100
AcDbSpline
 62
7
  6
CONTINUOUS
 70
0
 71
3
 72
26
 73
22
 74
0
 42
0.0000001
 43
0.0000001
 44
0.0000000001
 40
0.0
 40
0.0
 40
0.0
 40
0.0
 40
0.0048187761
 40
0.0068870954
 40
0.0089328808
 40
0.0135917954
 40
0.0198020121
 40
0.0279819667
 40
0.0382967318
 40
0.0655527556
 40
0.1017158859
 40
0.1466183735
 40
0.2000013215
 40
0.2615286596
 40
0.3308352597
 40
0.4075263998
 40
0.4911900799
 40
0.5814185942
 40
0.677814813
 40
0.7799807848
 40
1.0
 40
1.0
 40
1.0
 40
1.0
 10
10.525770175
 20
4.2395194462
 30
0.0
 10
10.5257773599
 20
4.2395518346
 30
0.0
 10
10.5257943524
 20
4.2395983748
 30
0.0
 10
10.5258381277
 20
4.2396427939
 30
0.0
 10
10.5258925366
 20
4.2396712472
 30
0.0
 10
10.5259849546
 20
4.2396742864
 30
0.0
 10
10.5261110085
 20
4.2396352954
 30
0.0
 10
10.5262631431
 20
4.2395579882
 30
0.0
 10
10.526526857
 20
4.2393851
 30
0.0
 10
10.5269191876
 20
4.2390612203
 30
0.0
 10
10.5274613723
 20
4.2385490281
 30
0.0
 10
10.5281062134
 20
4.2378845788
 30
0.0
 10
10.5288493623
 20
4.2370731184
 30
0.0
 10
10.5296861749
 20
4.2361199806
 30
0.0
 10
10.5306116939
 20
4.2350314718
 30
0.0
 10
10.5316208971
 20
4.2338142439
 30
0.0
 10
10.532708701
 20
4.2324751994
 30
0.0
 10
10.5338700779
 20
4.231021225
 30
0.0
 10
10.5351001683
 20
4.2294591712
 30
0.0
 10
10.5368696296
 20
4.2271845563
 30
0.0
 10
10.5382179073
 20
4.2254231644
 30
0.0
 10
10.5391341246
 20
4.2242169065
 30
0.0
  0
SPLINE
  5
542
100
AcDbEntity
  8
0
100
AcDbSpline
 62
7
  6
CONTINUOUS
 70
0
 71
3
 72
25
 73
21
 74
0
 42
0.0000001
 43
0.0000001
 44
0.0000000001
 40
0.0
 40
0.0
 40
0.0
 40
0.0
 40
0.0063205363
 40
0.0122805286
 40
0.0187839029
 40
0.0265387419
 40
0.0359674397
 40
0.0472921868
 40
0.0606270314
 40
0.076030603
 40
0.1131194825
 40
0.1585294905
 40
0.2120586884
 40
0.2734096959
 40
0.3422334861
 40
0.4181491381
 40
0.5007503234
 40
0.5896302633
 40
0.7846446929
 40
1.0
 40
1.0
 40
1.0
 40
1.0
 10
11.5652535904
 20
3.9957406713
 30
0.0
 10
11.5652535904
 20
3.9957878537
 30
0.0
 10
11.565240252
 20
3.9958810061
 30
0.0
 10
11.5651642185
 20
3.9960034863
 30
0.0
 10
11.5650389652
 20
3.996092913
 30
0.0
 10
11.5648709548
 20
3.9961524182
 30
0.0
 10
11.564659919
 20
3.9961854868
 30
0.0
 10
11.56440512
 20
3.9961931052
 30
0.0
 10
11.5641062832
 20
3.9961755944
 30
0.0
 10
11.5636184083
 20
3.9961147658
 30
0.0
 10
11.5629013919
 20
3.9959687876
 30
0.0
 10
11.5619197587
 20
3.9957078645
 30
0.0
 10
11.5607768635
 20
3.9953525994
 30
0.0
 10
11.5594800377
 20
3.9949062898
 30
0.0
 10
11.558037131
 20
3.9943722573
 30
0.0
 10
11.5564564323
 20
3.9937544174
 30
0.0
 10
11.5547463405
 20
3.9930569494
 30
0.0
 10
11.5522258086
 20
3.9919929142
 30
0.0
 10
11.5488152351
 20
3.9904898713
 30
0.0
 10
11.5460306521
 20
3.9892127825
 30
0.0
 10
11.5445731889
 20
3.9885343869
 30
0.0
  0
SPLINE
  5
543
100
AcDbEntity
  8
0
100
AcDbSpline
 62
7
  6
CONTINUOUS
 70
0
 71
3
 72
25
 73
21
 74
0
 42
0.0000001
 43
0.0000001
 44
0.0000000001
 40
0.0
 40
0.0
 40
0.0
 40
0.0
 40
0.2171789448
 40
0.4135461604
 40
0.5029094819
 40
0.5858566928
 40
0.66197455
 40
0.7308501244
 40
0.7920961801
 40
0.8453575843
 40
0.8903310839
 40
0.9268101783
 40
0.9418433523
 40
0.9547655166
 40
0.9656393068
 40
0.9745895765
 40
0.9818667772
 40
0.9879592247
 40
0.9936806906
 40
1.0
 40
1.0
 40
1.0
 40
1.0
 10
10.5391208556
 20
4.0348763723
 30
0.0
 10
10.5377454213
 20
4.0356848748
 30
0.0
 10
10.5351180294
 20
4.0372103077
 30
0.0
 10
10.5318965801
 20
4.0390195162
 30
0.0
 10
10.529515334
 20
4.0403100409
 30
0.0
 10
10.5279006236
 20
4.0411607029
 30
0.0
 10
10.5264081392
 20
4.0419201301
 30
0.0
 10
10.5250458211
 20
4.0425833936
 30
0.0
 10
10.5238215165
 20
4.0431458308
 30
0.0
 10
10.5227426869
 20
4.04360343
 30
0.0
 10
10.5218162678
 20
4.0439522293
 30
0.0
 10
10.521138569
 20
4.0441629117
 30
0.0
 10
10.5206767206
 20
4.0442678155
 30
0.0
 10
10.5203946523
 20
4.0443121717
 30
0.0
 10
10.5201541075
 20
4.0443275234
 30
0.0
 10
10.5199546531
 20
4.0443135366
 30
0.0
 10
10.5197951248
 20
4.0442691513
 30
0.0
 10
10.5196753515
 20
4.0441896515
 30
0.0
 10
10.5196038619
 20
4.0440722605
 30
0.0
 10
10.5195922532
 20
4.0439823394
 30
0.0
 10
10.5195922532
 20
4.0439359159
 30
0.0
  0
SPLINE
  5
544
100
AcDbEntity
  8
0
100
AcDbSpline
 62
7
  6
CONTINUOUS
 70
0
 71
3
 72
28
 73
24
 74
0
 42
0.0000001
 43
0.0000001
 44
0.0000000001
 40
0.0
 40
0.0
 40
0.0
 40
0.0
 40
0.0040796664
 40
0.0058407093
 40
0.0076582714
 40
0.0097148586
 40
0.0121390281
 40
0.0183636237
 40
0.0266615708
 40
0.0371428788
 40
0.0498489564
 40
0.0647918344
 40
0.1013288249
 40
0.1465567127
 40
0.200201784
 40
0.2619226303
 40
0.3313558732
 40
0.4081095269
 40
0.4917778656
 40
0.5819608685
 40
0.6782684367
 40
0.78030962
 40
1.0
 40
1.0
 40
1.0
 40
1.0
 10
10.5385763198
 20
4.2870076719
 30
0.0
 10
10.5385847992
 20
4.2870340252
 30
0.0
 10
10.5386035525
 20
4.2870718452
 30
0.0
 10
10.538647712
 20
4.2871012397
 30
0.0
 10
10.5386856226
 20
4.2871101291
 30
0.0
 10
10.5387287151
 20
4.2871074911
 30
0.0
 10
10.5387990427
 20
4.287087893
 30
0.0
 10
10.5389008866
 20
4.2870321773
 30
0.0
 10
10.5390367109
 20
4.2869302917
 30
0.0
 10
10.5391956691
 20
4.2867871468
 30
0.0
 10
10.5393775008
 20
4.2866029647
 30
0.0
 10
10.5396702664
 20
4.2862803421
 30
0.0
 10
10.5400877437
 20
4.2857736389
 30
0.0
 10
10.5406466162
 20
4.285044162
 30
0.0
 10
10.5412877894
 20
4.2841628742
 30
0.0
 10
10.542007503
 20
4.283135906
 30
0.0
 10
10.5428015171
 20
4.281969692
 30
0.0
 10
10.5436656629
 20
4.2806711737
 30
0.0
 10
10.5445956875
 20
4.279247445
 30
0.0
 10
10.5455874127
 20
4.2777055907
 30
0.0
 10
10.5466367969
 20
4.2760526292
 30
0.0
 10
10.5481449921
 20
4.2736500387
 30
0.0
 10
10.5492933283
 20
4.2717932007
 30
0.0
 10
10.5500733685
 20
4.2705227876
 30
0.0
  0
SPLINE
  5
545
100
AcDbEntity
  8
0
100
AcDbSpline
 62
7
  6
CONTINUOUS
 70
0
 71
3
 72
29
 73
25
 74
0
 42
0.0000001
 43
0.0000001
 44
0.0000000001
 40
0.0
 40
0.0
 40
0.0
 40
0.0
 40
0.0032970503
 40
0.0047627475
 40
0.0063933242
 40
0.008362695
 40
0.0107719285
 40
0.0170956702
 40
0.0255746511
 40
0.0362713605
 40
0.04920485
 40
0.0643740487
 40
0.0817587892
 40
0.101330929
 40
0.1469108851
 40
0.2008291528
 40
0.2627413496
 40
0.3322864965
 40
0.4090761569
 40
0.4927114295
 40
0.5828003025
 40
0.6789600095
 40
0.7808069272
 40
1.0
 40
1.0
 40
1.0
 40
1.0
 10
10.5557219112
 20
4.3331089138
 30
0.0
 10
10.5557306028
 20
4.3331292209
 30
0.0
 10
10.5557500763
 20
4.3331586035
 30
0.0
 10
10.5557920442
 20
4.3331723661
 30
0.0
 10
10.5558264986
 20
4.3331697163
 30
0.0
 10
10.5558646681
 20
4.3331560132
 30
0.0
 10
10.5559270295
 20
4.3331201392
 30
0.0
 10
10.5560152692
 20
4.3330448282
 30
0.0
 10
10.5561321565
 20
4.3329201578
 30
0.0
 10
10.5562679113
 20
4.3327530656
 30
0.0
 10
10.5564223074
 20
4.3325438924
 30
0.0
 10
10.5565950476
 20
4.3322927716
 30
0.0
 10
10.5567858328
 20
4.3320002377
 30
0.0
 10
10.5570789963
 20
4.3315313501
 30
0.0
 10
10.5574860099
 20
4.3308451574
 30
0.0
 10
10.5580191867
 20
4.3299043008
 30
0.0
 10
10.5586157672
 20
4.3288149841
 30
0.0
 10
10.5592724029
 20
4.3275839668
 30
0.0
 10
10.5599857117
 20
4.3262183044
 30
0.0
 10
10.5607522776
 20
4.324725232
 30
0.0
 10
10.5615687482
 20
4.3231119425
 30
0.0
 10
10.5624318822
 20
4.3213855502
 30
0.0
 10
10.5636713021
 20
4.3188802869
 30
0.0
 10
10.564614371
 20
4.3169471941
 30
0.0
 10
10.5652547428
 20
4.3156256618
 30
0.0
  0
SPLINE
  5
546
100
AcDbEntity
  8
0
100
AcDbSpline
 62
7
  6
CONTINUOUS
 70
0
 71
3
 72
25
 73
21
 74
0
 42
0.0000001
 43
0.0000001
 44
0.0000000001
 40
0.0
 40
0.0
 40
0.0
 40
0.0
 40
0.2153566783
 40
0.4103721284
 40
0.499252432
 40
0.5818538756
 40
0.6577696779
 40
0.7265935054
 40
0.7879444301
 40
0.8414734221
 40
0.8868830975
 40
0.9239715283
 40
0.9393748308
 40
0.952709372
 40
0.964033782
 40
0.9734621156
 40
0.9812165861
 40
0.987719646
 40
0.9936794608
 40
1.0
 40
1.0
 40
1.0
 40
1.0
 10
10.5500536092
 20
3.9885689701
 30
0.0
 10
10.5485962033
 20
3.9892474667
 30
0.0
 10
10.5458117303
 20
3.9905247484
 30
0.0
 10
10.5424012886
 20
3.9920280289
 30
0.0
 10
10.5398808538
 20
3.9930922398
 30
0.0
 10
10.5381708286
 20
3.9937898268
 30
0.0
 10
10.5365901915
 20
3.9944077765
 30
0.0
 10
10.535147341
 20
3.9949419093
 30
0.0
 10
10.533850566
 20
3.9953883091
 30
0.0
 10
10.5327077156
 20
3.9957436536
 30
0.0
 10
10.5317261209
 20
3.9960046449
 30
0.0
 10
10.5310091318
 20
3.9961506732
 30
0.0
 10
10.5305212749
 20
3.996211536
 30
0.0
 10
10.5302224498
 20
3.9962290678
 30
0.0
 10
10.5299676608
 20
3.9962214672
 30
0.0
 10
10.5297566334
 20
3.9961884132
 30
0.0
 10
10.5295886293
 20
3.9961289194
 30
0.0
 10
10.5294633805
 20
3.9960394999
 30
0.0
 10
10.5293873509
 20
3.9959170233
 30
0.0
 10
10.5293740141
 20
3.9958238734
 30
0.0
 10
10.5293740141
 20
3.9957766915
 30
0.0
  0
SPLINE
  5
547
100
AcDbEntity
  8
0
100
AcDbSpline
 62
7
  6
CONTINUOUS
 70
0
 71
3
 72
27
 73
23
 74
0
 42
0.0000001
 43
0.0000001
 44
0.0000000001
 40
0.0
 40
0.0
 40
0.0
 40
0.0
 40
0.2190255622
 40
0.3207673139
 40
0.4167724945
 40
0.5066323671
 40
0.5899388341
 40
0.6662718548
 40
0.7352114256
 40
0.7963632966
 40
0.8493651405
 40
0.8939060361
 40
0.9129357418
 40
0.9297787766
 40
0.9444350356
 40
0.9569334049
 40
0.9673389038
 40
0.975785604
 40
0.9825532292
 40
0.9882064852
 40
0.9936804726
 40
1.0
 40
1.0
 40
1.0
 40
1.0
 10
10.5325236712
 20
4.0819911305
 30
0.0
 10
10.5312418072
 20
4.0829214939
 30
0.0
 10
10.5293575756
 20
4.0842745841
 30
0.0
 10
10.5268910496
 20
4.0860066809
 30
0.0
 10
10.525179405
 20
4.0871882823
 30
0.0
 10
10.5235671766
 20
4.0882790914
 30
0.0
 10
10.5220615485
 20
4.0892734069
 30
0.0
 10
10.5206699315
 20
4.0901655898
 30
0.0
 10
10.5193997513
 20
4.0909499857
 30
0.0
 10
10.518258342
 20
4.0916213274
 30
0.0
 10
10.517252728
 20
4.0921746245
 30
0.0
 10
10.516498328
 20
4.0925517603
 30
0.0
 10
10.5159663808
 20
4.0927869739
 30
0.0
 10
10.5156265727
 20
4.0929216472
 30
0.0
 10
10.5153250629
 20
4.0930238221
 30
0.0
 10
10.5150622071
 20
4.0930933544
 30
0.0
 10
10.5148380136
 20
4.0931302563
 30
0.0
 10
10.5146519103
 20
4.0931342446
 30
0.0
 10
10.5145020865
 20
4.0931042659
 30
0.0
 10
10.5143886201
 20
4.0930338581
 30
0.0
 10
10.5143225421
 20
4.0929211373
 30
0.0
 10
10.5143126653
 20
4.0928345036
 30
0.0
 10
10.5143126653
 20
4.0927888033
 30
0.0
  0
SPLINE
  5
548
100
AcDbEntity
  8
0
100
AcDbSpline
 62
7
  6
CONTINUOUS
 70
0
 71
3
 72
51
 73
47
 74
0
 42
0.0000001
 43
0.0000001
 44
0.0000000001
 40
0.0
 40
0.0
 40
0.0
 40
0.0
 40
0.0311820117
 40
0.0467859826
 40
0.0623879673
 40
0.0935801157
 40
0.1247800714
 40
0.1403883306
 40
0.1559986694
 40
0.1872170058
 40
0.218446176
 40
0.2340697779
 40
0.2496962581
 40
0.2809486267
 40
0.3122124042
 40
0.3278530973
 40
0.3434963343
 40
0.374780638
 40
0.406073133
 40
0.4217266304
 40
0.4373814644
 40
0.4530374621
 40
0.468694302
 40
0.5
 40
0.531305698
 40
0.5469625379
 40
0.5626185356
 40
0.5782733696
 40
0.593926867
 40
0.625219362
 40
0.6565036657
 40
0.6721469027
 40
0.6877875958
 40
0.7190513733
 40
0.7503037419
 40
0.7659302221
 40
0.781553824
 40
0.8127829942
 40
0.8440013306
 40
0.8596116694
 40
0.8752199286
 40
0.9064198843
 40
0.9376120327
 40
0.9532140174
 40
0.9688179883
 40
1.0
 40
1.0
 40
1.0
 40
1.0
 10
11.5023183383
 20
4.1321295272
 30
0.0
 10
11.5023183383
 20
4.1173046268
 30
0.0
 10
11.5012181124
 20
4.0950409319
 30
0.0
 10
11.4975749289
 20
4.0655957656
 30
0.0
 10
11.4924823365
 20
4.0363589593
 30
0.0
 10
11.4834255079
 20
4.0003356288
 30
0.0
 10
11.4708654473
 20
3.965375882
 30
0.0
 10
11.4587982488
 20
3.9382529624
 30
0.0
 10
11.4454056856
 20
3.9117495696
 30
0.0
 10
11.4262417226
 20
3.8798951063
 30
0.0
 10
11.4040359727
 20
3.8500734999
 30
0.0
 10
11.3845852411
 20
3.8276090478
 30
0.0
 10
11.3640463855
 20
3.8061196383
 30
0.0
 10
11.3364255431
 20
3.7811789819
 30
0.0
 10
11.3064867397
 20
3.7590631815
 30
0.0
 10
11.2813275051
 20
3.7431909257
 30
0.0
 10
11.2554118552
 20
3.7285663832
 30
0.0
 10
11.2217140976
 20
3.7126878034
 30
0.0
 10
11.1866194435
 20
3.7001813598
 30
0.0
 10
11.1579180532
 20
3.6922680941
 30
0.0
 10
11.1361192827
 20
3.6873917275
 30
0.0
 10
11.1141065061
 20
3.6835875746
 30
0.0
 10
11.0845482131
 20
3.6799543412
 30
0.0
 10
11.0473183383
 20
3.678133058
 30
0.0
 10
11.0100884635
 20
3.6799543412
 30
0.0
 10
10.9805301705
 20
3.6835875746
 30
0.0
 10
10.9585173939
 20
3.6873917275
 30
0.0
 10
10.9367186234
 20
3.6922680941
 30
0.0
 10
10.908017233
 20
3.7001813598
 30
0.0
 10
10.872922579
 20
3.7126878034
 30
0.0
 10
10.8392248213
 20
3.7285663832
 30
0.0
 10
10.8133091714
 20
3.7431909257
 30
0.0
 10
10.7881499369
 20
3.7590631815
 30
0.0
 10
10.7582111334
 20
3.7811789819
 30
0.0
 10
10.7305902911
 20
3.8061196383
 30
0.0
 10
10.7100514355
 20
3.8276090478
 30
0.0
 10
10.6906007039
 20
3.8500734999
 30
0.0
 10
10.668394954
 20
3.8798951063
 30
0.0
 10
10.649230991
 20
3.9117495696
 30
0.0
 10
10.6358384278
 20
3.9382529624
 30
0.0
 10
10.6237712293
 20
3.965375882
 30
0.0
 10
10.6112111687
 20
4.0003356288
 30
0.0
 10
10.60215434
 20
4.0363589593
 30
0.0
 10
10.5970617477
 20
4.0655957656
 30
0.0
 10
10.5934185642
 20
4.0950409319
 30
0.0
 10
10.5923183383
 20
4.1173046268
 30
0.0
 10
10.5923183383
 20
4.1321295272
 30
0.0
  0
SPLINE
  5
549
100
AcDbEntity
  8
0
100
AcDbSpline
 62
9
  6
CONTINUOUS
 70
0
 71
3
 72
49
 73
45
 74
0
 42
0.0000001
 43
0.0000001
 44
0.0000000001
 40
0.0
 40
0.0
 40
0.0
 40
0.0
 40
0.0311825983
 40
0.0467868832
 40
0.0623892512
 40
0.0935823757
 40
0.1247834288
 40
0.1403922108
 40
0.1560030429
 40
0.1872224197
 40
0.2184528066
 40
0.2340770306
 40
0.2497041296
 40
0.2809577359
 40
0.3122226403
 40
0.3278638206
 40
0.3435075113
 40
0.3747926806
 40
0.4060859417
 40
0.4217397595
 40
0.4373948923
 40
0.4686989583
 40
0.5000051301
 40
0.5313111948
 40
0.5626149515
 40
0.5782698594
 40
0.5939234107
 40
0.625216014
 40
0.6565003792
 40
0.6721436124
 40
0.6877843018
 40
0.7190481301
 40
0.750300588
 40
0.7659271132
 40
0.7815507817
 40
0.8127801335
 40
0.8439986502
 40
0.8596091216
 40
0.8752175841
 40
0.9064180991
 40
0.9376109056
 40
0.9532132068
 40
0.9688174511
 40
1.0
 40
1.0
 40
1.0
 40
1.0
 10
11.4412252523
 20
4.1457909116
 30
0.0
 10
11.4411103963
 20
4.1329929966
 30
0.0
 10
11.439990829
 20
4.1137819716
 30
0.0
 10
11.4366265497
 20
4.088389838
 30
0.0
 10
11.4320161301
 20
4.0631875675
 30
0.0
 10
11.4239403566
 20
4.0321540364
 30
0.0
 10
11.4128564218
 20
4.0020604925
 30
0.0
 10
11.4022568885
 20
3.9787264915
 30
0.0
 10
11.3905206322
 20
3.9559345459
 30
0.0
 10
11.3737725954
 20
3.9285576988
 30
0.0
 10
11.3544189523
 20
3.9029496828
 30
0.0
 10
11.3374929278
 20
3.88367226
 30
0.0
 10
11.3196359631
 20
3.865240547
 30
0.0
 10
11.295649678
 20
3.8438658906
 30
0.0
 10
11.269683753
 20
3.8249356835
 30
0.0
 10
11.2478806237
 20
3.8113649262
 30
0.0
 10
11.2254328936
 20
3.7988721499
 30
0.0
 10
11.1962635583
 20
3.7853305133
 30
0.0
 10
11.1659082516
 20
3.7746984114
 30
0.0
 10
11.1410943736
 20
3.7679961697
 30
0.0
 10
11.1159788577
 20
3.7625117492
 30
0.0
 10
11.0841239387
 20
3.7579621254
 30
0.0
 10
11.0455551259
 20
3.7562534228
 30
0.0
 10
11.0070031879
 20
3.7583054915
 30
0.0
 10
10.9751902946
 20
3.763138511
 30
0.0
 10
10.9501249581
 20
3.7688464043
 30
0.0
 10
10.9253722192
 20
3.7757692837
 30
0.0
 10
10.8951135442
 20
3.7866712732
 30
0.0
 10
10.8660667912
 20
3.8004720647
 30
0.0
 10
10.8437320437
 20
3.8131642748
 30
0.0
 10
10.8220515671
 20
3.8269285835
 30
0.0
 10
10.796256599
 20
3.8460892263
 30
0.0
 10
10.7724630375
 20
3.8676765109
 30
0.0
 10
10.7547722381
 20
3.8862664794
 30
0.0
 10
10.7380198355
 20
3.9056937998
 30
0.0
 10
10.7188967045
 20
3.9314731638
 30
0.0
 10
10.7023948901
 20
3.9589980533
 30
0.0
 10
10.6908635924
 20
3.9818936716
 30
0.0
 10
10.6804737807
 20
4.0053212597
 30
0.0
 10
10.6696602022
 20
4.0355124983
 30
0.0
 10
10.6618631969
 20
4.0666168529
 30
0.0
 10
10.6574791004
 20
4.0918593007
 30
0.0
 10
10.6543428134
 20
4.1172805369
 30
0.0
 10
10.6533956818
 20
4.1365007983
 30
0.0
 10
10.6533956818
 20
4.1492992085
 30
0.0
  0
SPLINE
  5
54A
100
AcDbEntity
  8
0
100
AcDbSpline
 62
7
  6
CONTINUOUS
 70
0
 71
3
 72
25
 73
21
 74
0
 42
0.0000001
 43
0.0000001
 44
0.0000000001
 40
0.0
 40
0.0
 40
0.0
 40
0.0
 40
0.2135783663
 40
0.4072824517
 40
0.4956980165
 40
0.5779702964
 40
0.6536985555
 40
0.7224824994
 40
0.7839467388
 40
0.8377472221
 40
0.8835906831
 40
0.9212768612
 40
0.9370394523
 40
0.9507710377
 40
0.9625251406
 40
0.9724042475
 40
0.9806039516
 40
0.987489555
 40
0.9936768685
 40
1.0
 40
1.0
 40
1.0
 40
1.0
 10
10.5652286618
 20
3.9434639847
 30
0.0
 10
10.5637016036
 20
3.9440054175
 30
0.0
 10
10.5607835371
 20
3.9450209701
 30
0.0
 10
10.5572133225
 20
3.946202327
 30
0.0
 10
10.5545753393
 20
3.9470284996
 30
0.0
 10
10.5527845792
 20
3.9475648879
 30
0.0
 10
10.5511292646
 20
3.9480338404
 30
0.0
 10
10.5496181826
 20
3.9484319645
 30
0.0
 10
10.5482599939
 20
3.9487561251
 30
0.0
 10
10.5470628773
 20
3.9490037183
 30
0.0
 10
10.5460344998
 20
3.9491721385
 30
0.0
 10
10.5452844444
 20
3.9492502549
 30
0.0
 10
10.544774779
 20
3.9492650024
 30
0.0
 10
10.5444617831
 20
3.9492542821
 30
0.0
 10
10.5441949681
 20
3.9492225388
 30
0.0
 10
10.5439742071
 20
3.9491694862
 30
0.0
 10
10.5437990482
 20
3.9490942539
 30
0.0
 10
10.5436692143
 20
3.9489942291
 30
0.0
 10
10.5435894941
 20
3.9488662712
 30
0.0
 10
10.543574497
 20
3.9487699566
 30
0.0
 10
10.543574497
 20
3.9487219894
 30
0.0
  0
SPLINE
  5
54B
100
AcDbEntity
  8
0
100
AcDbSpline
 62
7
  6
CONTINUOUS
 70
0
 71
3
 72
24
 73
20
 74
0
 42
0.0000001
 43
0.0000001
 44
0.0000000001
 40
0.0
 40
0.0
 40
0.0
 40
0.0
 40
0.2118609695
 40
0.4043062396
 40
0.4922794522
 40
0.5742418866
 40
0.649798382
 40
0.7185540811
 40
0.7801383417
 40
0.8342109902
 40
0.8804812488
 40
0.9187479923
 40
0.9489525269
 40
0.9611134678
 40
0.9714153672
 40
0.9800290811
 40
0.9872700492
 40
0.9936729848
 40
1.0
 40
1.0
 40
1.0
 40
1.0
 10
10.5845165508
 20
3.8999462188
 30
0.0
 10
10.5829327782
 20
3.9003446819
 30
0.0
 10
10.5799058078
 20
3.901087122
 30
0.0
 10
10.5762063808
 20
3.9019333264
 30
0.0
 10
10.57347346
 20
3.9025117872
 30
0.0
 10
10.571617239
 20
3.9028802275
 30
0.0
 10
10.5699013634
 20
3.9031939374
 30
0.0
 10
10.5683349479
 20
3.9034503282
 30
0.0
 10
10.5669269149
 20
3.9036471222
 30
0.0
 10
10.5656858291
 20
3.9037823103
 30
0.0
 10
10.5646192803
 20
3.9038544545
 30
0.0
 10
10.5637344106
 20
3.9038623457
 30
0.0
 10
10.5631129197
 20
3.9038134174
 30
0.0
 10
10.5627146524
 20
3.9037317633
 30
0.0
 10
10.5624860636
 20
3.9036579112
 30
0.0
 10
10.5623051468
 20
3.9035664112
 30
0.0
 10
10.5621716723
 20
3.9034552267
 30
0.0
 10
10.5620890909
 20
3.9033214297
 30
0.0
 10
10.562072554
 20
3.9032220176
 30
0.0
 10
10.562072554
 20
3.9031732459
 30
0.0
  0
SPLINE
  5
54C
100
AcDbEntity
  8
0
100
AcDbSpline
 62
9
  6
CONTINUOUS
 70
0
 71
3
 72
37
 73
33
 74
0
 42
0.0000001
 43
0.0000001
 44
0.0000000001
 40
0.0
 40
0.0
 40
0.0
 40
0.0
 40
0.0312010499
 40
0.0624091007
 40
0.0936250129
 40
0.124848902
 40
0.1872845514
 40
0.2497519501
 40
0.2810148531
 40
0.3122844973
 40
0.3435599803
 40
0.359202015
 40
0.3748452335
 40
0.4061300836
 40
0.4374182508
 40
0.4687085573
 40
0.5
 40
0.5312914427
 40
0.5625817492
 40
0.5938699165
 40
0.6251547665
 40
0.6407979851
 40
0.6564400197
 40
0.6877155028
 40
0.7189851469
 40
0.7502480499
 40
0.8127154486
 40
0.875151098
 40
0.9063749871
 40
0.9375908994
 40
0.9687989501
 40
1.0
 40
1.0
 40
1.0
 40
1.0
 10
11.4328212196
 20
3.9473119315
 30
0.0
 10
11.4282830594
 20
3.9385597802
 30
0.0
 10
11.4186025475
 20
3.9213587177
 30
0.0
 10
11.402351943
 20
3.8966126068
 30
0.0
 10
11.3844387245
 20
3.8730297075
 30
0.0
 10
11.3584657383
 20
3.8432921748
 30
0.0
 10
11.322258243
 20
3.8095443874
 30
0.0
 10
11.2817785448
 20
3.781041004
 30
0.0
 10
11.2473076243
 20
3.761707271
 30
0.0
 10
11.2205063855
 20
3.7489921591
 30
0.0
 10
11.1974967612
 20
3.7399410909
 30
0.0
 10
11.1787519602
 20
3.7336543096
 30
0.0
 10
11.1598013464
 20
3.7280080303
 30
0.0
 10
11.1357660899
 20
3.7221652901
 30
0.0
 10
11.1065143762
 20
3.7171362577
 30
0.0
 10
11.0769856806
 20
3.7141071089
 30
0.0
 10
11.0473183344
 20
3.7130979236
 30
0.0
 10
11.0176509883
 20
3.7141071094
 30
0.0
 10
10.9881222926
 20
3.7171362587
 30
0.0
 10
10.9588705791
 20
3.7221652917
 30
0.0
 10
10.9348353226
 20
3.7280080323
 30
0.0
 10
10.915884709
 20
3.7336543119
 30
0.0
 10
10.8971399081
 20
3.7399410936
 30
0.0
 10
10.8741302839
 20
3.7489921622
 30
0.0
 10
10.8473290454
 20
3.7617072746
 30
0.0
 10
10.8128581252
 20
3.7810410082
 30
0.0
 10
10.7723784276
 20
3.8095443923
 30
0.0
 10
10.7361709328
 20
3.8432921804
 30
0.0
 10
10.7101979472
 20
3.8730297135
 30
0.0
 10
10.6922847291
 20
3.8966126132
 30
0.0
 10
10.6760341251
 20
3.9213587243
 30
0.0
 10
10.6663536135
 20
3.938559787
 30
0.0
 10
10.6618154534
 20
3.9473119384
 30
0.0
  0
SPLINE
  5
54D
100
AcDbEntity
  8
0
100
AcDbSpline
 62
7
  6
CONTINUOUS
 70
0
 71
3
 72
24
 73
20
 74
0
 42
0.0000001
 43
0.0000001
 44
0.0000000001
 40
0.0
 40
0.0
 40
0.0
 40
0.0
 40
0.2102088097
 40
0.401448954
 40
0.4890015021
 40
0.5706718312
 40
0.6460698721
 40
0.7148056032
 40
0.7765123666
 40
0.8308528454
 40
0.8775373064
 40
0.916361648
 40
0.9472554015
 40
0.9597988046
 40
0.9704950978
 40
0.9794923578
 40
0.9870623049
 40
0.9936681702
 40
1.0
 40
1.0
 40
1.0
 40
1.0
 10
10.6077527261
 20
3.8583869342
 30
0.0
 10
10.6061256872
 20
3.8586377295
 30
0.0
 10
10.6030154973
 20
3.8590979787
 30
0.0
 10
10.5992184957
 20
3.8595986769
 30
0.0
 10
10.5964140238
 20
3.8599218776
 30
0.0
 10
10.5945081777
 20
3.8601170561
 30
0.0
 10
10.5927463842
 20
3.8602705984
 30
0.0
 10
10.5911379981
 20
3.8603807625
 30
0.0
 10
10.5896921673
 20
3.8604460947
 30
0.0
 10
10.5884176605
 20
3.8604653772
 30
0.0
 10
10.5873222793
 20
3.8604378361
 30
0.0
 10
10.5864133183
 20
3.8603629272
 30
0.0
 10
10.5857762953
 20
3.8602557852
 30
0.0
 10
10.5853687279
 20
3.8601372056
 30
0.0
 10
10.5851342559
 20
3.8600419932
 30
0.0
 10
10.5849490435
 20
3.8599337912
 30
0.0
 10
10.5848129187
 20
3.859811022
 30
0.0
 10
10.5847282875
 20
3.8596710772
 30
0.0
 10
10.584710373
 20
3.8595686373
 30
0.0
 10
10.584710373
 20
3.8595190495
 30
0.0
  0
SPLINE
  5
54E
100
AcDbEntity
  8
0
100
AcDbSpline
 62
7
  6
CONTINUOUS
 70
0
 71
3
 72
23
 73
19
 74
0
 42
0.0000001
 43
0.0000001
 44
0.0000000001
 40
0.0
 40
0.0
 40
0.0
 40
0.0
 40
0.009627129
 40
0.0381288711
 40
0.0843849083
 40
0.146592223
 40
0.2223552991
 40
0.3087654391
 40
0.4025145417
 40
0.500007782
 40
0.5975001434
 40
0.6912462767
 40
0.7776525177
 40
0.8534116664
 40
0.9156160763
 40
0.961870702
 40
0.9903724767
 40
1.0
 40
1.0
 40
1.0
 40
1.0
 10
7.6324465294
 20
10.2064363932
 30
0.0
 10
7.63253633
 20
10.2051227169
 30
0.0
 10
7.6328884012
 20
10.199919572
 30
0.0
 10
7.6336373047
 20
10.1884022018
 30
0.0
 10
7.6347676342
 20
10.169702933
 30
0.0
 10
7.6360949147
 20
10.1445402348
 30
0.0
 10
7.6374462691
 20
10.1138800024
 30
0.0
 10
7.6385759193
 20
10.0788938794
 30
0.0
 10
7.6393575131
 20
10.0409251646
 30
0.0
 10
7.6396109843
 20
10.0014333193
 30
0.0
 10
7.6393571102
 20
9.9619418894
 30
0.0
 10
7.6385762465
 20
9.9239742156
 30
0.0
 10
7.6374456447
 20
9.8889896024
 30
0.0
 10
7.6360951786
 20
9.8583308015
 30
0.0
 10
7.6347674795
 20
9.8331692524
 30
0.0
 10
7.6336372226
 20
9.8144705677
 30
0.0
 10
7.6328884884
 20
9.8029533212
 30
0.0
 10
7.6325363589
 20
9.7977501217
 30
0.0
 10
7.6324465294
 20
9.7964363932
 30
0.0
  0
SPLINE
  5
54F
100
AcDbEntity
  8
0
100
AcDbSpline
 62
7
  6
CONTINUOUS
 70
0
 71
3
 72
23
 73
19
 74
0
 42
0.0000001
 43
0.0000001
 44
0.0000000001
 40
0.0
 40
0.0
 40
0.0
 40
0.0
 40
0.009627129
 40
0.0381288711
 40
0.0843849083
 40
0.146592223
 40
0.2223552991
 40
0.3087654391
 40
0.4025145417
 40
0.500007782
 40
0.5975001434
 40
0.6912462767
 40
0.7776525177
 40
0.8534116664
 40
0.9156160763
 40
0.961870702
 40
0.9903724767
 40
1.0
 40
1.0
 40
1.0
 40
1.0
 10
6.4621901472
 20
9.7964363932
 30
0.0
 10
6.4621003466
 20
9.7977500696
 30
0.0
 10
6.4617482754
 20
9.8029532145
 30
0.0
 10
6.4609993719
 20
9.8144705847
 30
0.0
 10
6.4598690424
 20
9.8331698534
 30
0.0
 10
6.4585417619
 20
9.8583325516
 30
0.0
 10
6.4571904075
 20
9.8889927841
 30
0.0
 10
6.4560607573
 20
9.9239789071
 30
0.0
 10
6.4552791635
 20
9.9619476218
 30
0.0
 10
6.4550256923
 20
10.0014394672
 30
0.0
 10
6.4552795664
 20
10.040930897
 30
0.0
 10
6.45606043
 20
10.0788985709
 30
0.0
 10
6.4571910318
 20
10.1138831841
 30
0.0
 10
6.458541498
 20
10.144541985
 30
0.0
 10
6.459869197
 20
10.169703534
 30
0.0
 10
6.460999454
 20
10.1884022187
 30
0.0
 10
6.4617481882
 20
10.1999194653
 30
0.0
 10
6.4621003177
 20
10.2051226648
 30
0.0
 10
6.4621901472
 20
10.2064363932
 30
0.0
  0
SPLINE
  5
550
100
AcDbEntity
  8
0
100
AcDbSpline
 62
7
  6
CONTINUOUS
 70
0
 71
3
 72
23
 73
19
 74
0
 42
0.0000001
 43
0.0000001
 44
0.0000000001
 40
0.0
 40
0.0
 40
0.0
 40
0.0
 40
0.009627129
 40
0.0381288711
 40
0.0843849083
 40
0.146592223
 40
0.2223552991
 40
0.3087654391
 40
0.4025145417
 40
0.500007782
 40
0.5975001434
 40
0.6912462767
 40
0.7776525177
 40
0.8534116664
 40
0.9156160763
 40
0.961870702
 40
0.9903724767
 40
1.0
 40
1.0
 40
1.0
 40
1.0
 10
14.4621901472
 20
9.7964363932
 30
0.0
 10
14.4621003466
 20
9.7977500696
 30
0.0
 10
14.4617482754
 20
9.8029532145
 30
0.0
 10
14.4609993719
 20
9.8144705847
 30
0.0
 10
14.4598690424
 20
9.8331698534
 30
0.0
 10
14.4585417619
 20
9.8583325516
 30
0.0
 10
14.4571904075
 20
9.8889927841
 30
0.0
 10
14.4560607573
 20
9.9239789071
 30
0.0
 10
14.4552791635
 20
9.9619476218
 30
0.0
 10
14.4550256923
 20
10.0014394672
 30
0.0
 10
14.4552795664
 20
10.040930897
 30
0.0
 10
14.45606043
 20
10.0788985709
 30
0.0
 10
14.4571910318
 20
10.1138831841
 30
0.0
 10
14.458541498
 20
10.144541985
 30
0.0
 10
14.459869197
 20
10.169703534
 30
0.0
 10
14.460999454
 20
10.1884022187
 30
0.0
 10
14.4617481882
 20
10.1999194653
 30
0.0
 10
14.4621003177
 20
10.2051226648
 30
0.0
 10
14.4621901472
 20
10.2064363932
 30
0.0
  0
SPLINE
  5
551
100
AcDbEntity
  8
0
100
AcDbSpline
 62
7
  6
CONTINUOUS
 70
0
 71
3
 72
23
 73
19
 74
0
 42
0.0000001
 43
0.0000001
 44
0.0000000001
 40
0.0
 40
0.0
 40
0.0
 40
0.0
 40
0.009627129
 40
0.0381288711
 40
0.0843849083
 40
0.146592223
 40
0.2223552991
 40
0.3087654391
 40
0.4025145417
 40
0.500007782
 40
0.5975001434
 40
0.6912462767
 40
0.7776525177
 40
0.8534116664
 40
0.9156160763
 40
0.961870702
 40
0.9903724767
 40
1.0
 40
1.0
 40
1.0
 40
1.0
 10
15.6324465294
 20
10.2064363932
 30
0.0
 10
15.63253633
 20
10.2051227169
 30
0.0
 10
15.6328884012
 20
10.199919572
 30
0.0
 10
15.6336373047
 20
10.1884022018
 30
0.0
 10
15.6347676342
 20
10.169702933
 30
0.0
 10
15.6360949147
 20
10.1445402348
 30
0.0
 10
15.6374462691
 20
10.1138800024
 30
0.0
 10
15.6385759193
 20
10.0788938794
 30
0.0
 10
15.6393575131
 20
10.0409251646
 30
0.0
 10
15.6396109843
 20
10.0014333193
 30
0.0
 10
15.6393571102
 20
9.9619418894
 30
0.0
 10
15.6385762465
 20
9.9239742156
 30
0.0
 10
15.6374456447
 20
9.8889896024
 30
0.0
 10
15.6360951786
 20
9.8583308015
 30
0.0
 10
15.6347674795
 20
9.8331692524
 30
0.0
 10
15.6336372226
 20
9.8144705677
 30
0.0
 10
15.6328884884
 20
9.8029533212
 30
0.0
 10
15.6325363589
 20
9.7977501217
 30
0.0
 10
15.6324465294
 20
9.7964363932
 30
0.0
  0
SPLINE
  5
552
100
AcDbEntity
  8
0
100
AcDbSpline
 62
9
  6
CONTINUOUS
 70
0
 71
3
 72
18
 73
14
 74
0
 42
0.0000001
 43
0.0000001
 44
0.0000000001
 40
0.0
 40
0.0
 40
0.0
 40
0.0
 40
0.1249230355
 40
0.2498643571
 40
0.3123455322
 40
0.3748313987
 40
0.4373162324
 40
0.4997955871
 40
0.6247435775
 40
0.6872387134
 40
0.7497684074
 40
0.874886516
 40
1.0
 40
1.0
 40
1.0
 40
1.0
 10
10.4704498731
 20
10.7634919839
 30
0.0
 10
10.4658518984
 20
10.7608226799
 30
0.0
 10
10.4567191583
 20
10.7553731328
 30
0.0
 10
10.4454400606
 20
10.7483369123
 30
0.0
 10
10.4364829164
 20
10.7426016204
 30
0.0
 10
10.4297922129
 20
10.7382564122
 30
0.0
 10
10.4231366291
 20
10.7338575704
 30
0.0
 10
10.4143276519
 20
10.7278968672
 30
0.0
 10
10.4056383721
 20
10.7217586114
 30
0.0
 10
10.3971234479
 20
10.7153796053
 30
0.0
 10
10.3887400636
 20
10.7088168966
 30
0.0
 10
10.3785240377
 20
10.7002772545
 30
0.0
 10
10.3706550254
 20
10.693095403
 30
0.0
 10
10.3668028866
 20
10.6894192863
 30
0.0
  0
SPLINE
  5
553
100
AcDbEntity
  8
0
100
AcDbSpline
 62
9
  6
CONTINUOUS
 70
0
 71
3
 72
19
 73
15
 74
0
 42
0.0000001
 43
0.0000001
 44
0.0000000001
 40
0.0
 40
0.0
 40
0.0
 40
0.0
 40
0.2258808024
 40
0.4314312614
 40
0.6091977993
 40
0.7542076694
 40
0.8633274153
 40
0.9382655928
 40
0.9638779163
 40
0.9739063211
 40
0.9821671206
 40
0.9887429967
 40
0.9937530584
 40
1.0
 40
1.0
 40
1.0
 40
1.0
 10
10.470450095
 20
10.7634921111
 30
0.0
 10
10.4711214353
 20
10.7622678379
 30
0.0
 10
10.4723926524
 20
10.759923408
 30
0.0
 10
10.4741514754
 20
10.756593561
 30
0.0
 10
10.4756354498
 20
10.7536843014
 30
0.0
 10
10.4768062261
 20
10.7512846057
 30
0.0
 10
10.4776469587
 20
10.7494323164
 30
0.0
 10
10.4781335645
 20
10.7482298051
 30
0.0
 10
10.4783430408
 20
10.7475787554
 30
0.0
 10
10.478408926
 20
10.7473152116
 30
0.0
 10
10.4784378717
 20
10.7471645407
 30
0.0
 10
10.4784503442
 20
10.7470411876
 30
0.0
 10
10.4784491624
 20
10.7469339122
 30
0.0
 10
10.4784235469
 20
10.7468563279
 30
0.0
 10
10.4783901043
 20
10.7468370225
 30
0.0
  0
SPLINE
  5
554
100
AcDbEntity
  8
0
100
AcDbSpline
 62
9
  6
CONTINUOUS
 70
0
 71
3
 72
20
 73
16
 74
0
 42
0.0000001
 43
0.0000001
 44
0.0000000001
 40
0.0
 40
0.0
 40
0.0
 40
0.0
 40
0.2028530545
 40
0.3953665584
 40
0.5701686016
 40
0.7205107172
 40
0.8405126437
 40
0.8881374167
 40
0.9271314567
 40
0.9573322055
 40
0.969214606
 40
0.9790249763
 40
0.9868394392
 40
0.9927745081
 40
1.0
 40
1.0
 40
1.0
 40
1.0
 10
10.6757932662
 20
10.8820470312
 30
0.0
 10
10.6764439675
 20
10.8809751514
 30
0.0
 10
10.6777210046
 20
10.8788913479
 30
0.0
 10
10.6795921139
 20
10.8759044855
 30
0.0
 10
10.6813250795
 20
10.873214339
 30
0.0
 10
10.6828528172
 20
10.8709256217
 30
0.0
 10
10.6839828758
 20
10.8693169482
 30
0.0
 10
10.6847502865
 20
10.8682958371
 30
0.0
 10
10.6852009037
 20
10.8677313774
 30
0.0
 10
10.6855301887
 20
10.8673532848
 30
0.0
 10
10.6857555323
 20
10.8671244898
 30
0.0
 10
10.6858897507
 20
10.867001612
 30
0.0
 10
10.6860064159
 20
10.8669115642
 30
0.0
 10
10.6861133538
 20
10.866845842
 30
0.0
 10
10.6862067174
 20
10.8668206828
 30
0.0
 10
10.6862456856
 20
10.8668425086
 30
0.0
  0
SPLINE
  5
555
100
AcDbEntity
  8
0
100
AcDbSpline
 62
9
  6
CONTINUOUS
 70
0
 71
3
 72
16
 73
12
 74
0
 42
0.0000001
 43
0.0000001
 44
0.0000000001
 40
0.0
 40
0.0
 40
0.0
 40
0.0
 40
0.1251152037
 40
0.2502278706
 40
0.3127497632
 40
0.3752405718
 40
0.5001956706
 40
0.6251675582
 40
0.7501326924
 40
0.8750742268
 40
1.0
 40
1.0
 40
1.0
 40
1.0
 10
10.1112505733
 20
10.246790995
 30
0.0
 10
10.1099842479
 20
10.2416187914
 30
0.0
 10
10.1076882209
 20
10.2312151111
 30
0.0
 10
10.1054021962
 20
10.2180975219
 30
0.0
 10
10.1039222858
 20
10.2075546853
 30
0.0
 10
10.1026671971
 20
10.1969895266
 30
0.0
 10
10.101460064
 20
10.1837453007
 30
0.0
 10
10.1004188269
 20
10.1678229076
 30
0.0
 10
10.0996103809
 20
10.15188778
 30
0.0
 10
10.0990779091
 20
10.1359427295
 30
0.0
 10
10.0989355054
 20
10.1253082366
 30
0.0
 10
10.098924605
 20
10.1199913434
 30
0.0
  0
SPLINE
  5
556
100
AcDbEntity
  8
0
100
AcDbSpline
 62
9
  6
CONTINUOUS
 70
0
 71
3
 72
15
 73
11
 74
0
 42
0.0000001
 43
0.0000001
 44
0.0000000001
 40
0.0
 40
0.0
 40
0.0
 40
0.0
 40
0.1249269649
 40
0.2498776543
 40
0.3748390523
 40
0.4997829935
 40
0.6247329528
 40
0.7497768191
 40
0.8748953561
 40
1.0
 40
1.0
 40
1.0
 40
1.0
 10
11.6353521518
 20
9.2460023264
 30
0.0
 10
11.6394386003
 20
9.2484748338
 30
0.0
 10
11.6475667969
 20
9.2534957887
 30
0.0
 10
11.659643736
 20
9.261211434
 30
0.0
 10
11.6716323716
 20
9.2690651237
 30
0.0
 10
11.6834663209
 20
9.2771513457
 30
0.0
 10
11.6950745201
 20
9.2855659981
 30
0.0
 10
11.7063708171
 20
9.2944075234
 30
0.0
 10
11.7173197715
 20
9.3036845372
 30
0.0
 10
11.7243735503
 20
9.3101513749
 30
0.0
 10
11.72783379
 20
9.3134535001
 30
0.0
  0
SPLINE
  5
557
100
AcDbEntity
  8
0
100
AcDbSpline
 62
9
  6
CONTINUOUS
 70
0
 71
3
 72
16
 73
12
 74
0
 42
0.0000001
 43
0.0000001
 44
0.0000000001
 40
0.0
 40
0.0
 40
0.0
 40
0.0
 40
0.1251152037
 40
0.2502278706
 40
0.3127497632
 40
0.3752405718
 40
0.5001956706
 40
0.6251675582
 40
0.7501326924
 40
0.8750742268
 40
1.0
 40
1.0
 40
1.0
 40
1.0
 10
11.9833861033
 20
9.7560817915
 30
0.0
 10
11.9846524287
 20
9.7612539951
 30
0.0
 10
11.9869484557
 20
9.7716576754
 30
0.0
 10
11.9892344803
 20
9.7847752645
 30
0.0
 10
11.9907143908
 20
9.7953181011
 30
0.0
 10
11.9919694795
 20
9.8058832599
 30
0.0
 10
11.9931766126
 20
9.8191274858
 30
0.0
 10
11.9942178497
 20
9.8350498788
 30
0.0
 10
11.9950262956
 20
9.8509850065
 30
0.0
 10
11.9955587674
 20
9.866930057
 30
0.0
 10
11.9957011711
 20
9.8775645499
 30
0.0
 10
11.9957120715
 20
9.8828814431
 30
0.0
  0
SPLINE
  5
558
100
AcDbEntity
  8
0
100
AcDbSpline
 62
9
  6
CONTINUOUS
 70
0
 71
3
 72
16
 73
12
 74
0
 42
0.0000001
 43
0.0000001
 44
0.0000000001
 40
0.0
 40
0.0
 40
0.0
 40
0.0
 40
0.1249257882
 40
0.2498672689
 40
0.3748325213
 40
0.4998045794
 40
0.6247594865
 40
0.6872501744
 40
0.7497719488
 40
0.8748843342
 40
1.0
 40
1.0
 40
1.0
 40
1.0
 10
11.9957120715
 20
10.1199913434
 30
0.0
 10
11.9957010107
 20
10.1253077686
 30
0.0
 10
11.9955583362
 20
10.1359413182
 30
0.0
 10
11.9950258517
 20
10.1518849616
 30
0.0
 10
11.9942182714
 20
10.1678187311
 30
0.0
 10
11.9931784293
 20
10.1837398122
 30
0.0
 10
11.9919715129
 20
10.1969828916
 30
0.0
 10
11.9907156414
 20
10.2075470005
 30
0.0
 10
11.9892340859
 20
10.2180886419
 30
0.0
 10
11.9869463955
 20
10.2312047254
 30
0.0
 10
11.9846525337
 20
10.2416078319
 30
0.0
 10
11.983388923
 20
10.2467802368
 30
0.0
  0
SPLINE
  5
559
100
AcDbEntity
  8
0
100
AcDbSpline
 62
9
  6
CONTINUOUS
 70
0
 71
3
 72
16
 73
12
 74
0
 42
0.0000001
 43
0.0000001
 44
0.0000000001
 40
0.0
 40
0.0
 40
0.0
 40
0.0
 40
0.1251152031
 40
0.2502278726
 40
0.3127497637
 40
0.3752405719
 40
0.5001956742
 40
0.6251675634
 40
0.7501326953
 40
0.8750742283
 40
1.0
 40
1.0
 40
1.0
 40
1.0
 10
11.7278359459
 20
10.6894171538
 30
0.0
 10
11.723989855
 20
10.6930999666
 30
0.0
 10
11.7161280088
 20
10.700290288
 30
0.0
 10
11.7059108159
 20
10.7088288848
 30
0.0
 10
11.6975203671
 20
10.7153819705
 30
0.0
 10
11.6889981767
 20
10.721751517
 30
0.0
 10
11.6781318599
 20
10.7294190751
 30
0.0
 10
11.6648632312
 20
10.7382820638
 30
0.0
 10
11.6514671739
 20
10.7469498102
 30
0.0
 10
11.6379245252
 20
10.7553835
 30
0.0
 10
11.6287859405
 20
10.7608240886
 30
0.0
 10
11.6241868035
 20
10.7634919839
 30
0.0
  0
SPLINE
  5
55A
100
AcDbEntity
  8
0
100
AcDbSpline
 62
9
  6
CONTINUOUS
 70
0
 71
3
 72
12
 73
8
 74
0
 42
0.0000001
 43
0.0000001
 44
0.0000000001
 40
0.0
 40
0.0
 40
0.0
 40
0.0
 40
0.2499492492
 40
0.4999314713
 40
0.6249427398
 40
0.7499644726
 40
1.0
 40
1.0
 40
1.0
 40
1.0
 10
11.4188436064
 20
10.8820469341
 30
0.0
 10
11.4144639455
 20
10.884561474
 30
0.0
 10
11.4056464685
 20
10.8894910583
 30
0.0
 10
11.3945097301
 20
10.8954429737
 30
0.0
 10
11.3855456775
 20
10.9001026279
 30
0.0
 10
11.3765511825
 20
10.9047054182
 30
0.0
 10
11.369769406
 20
10.9080880111
 30
0.0
 10
11.3652221457
 20
10.9102890051
 30
0.0
  0
SPLINE
  5
55B
100
AcDbEntity
  8
0
100
AcDbSpline
 62
9
  6
CONTINUOUS
 70
0
 71
3
 72
16
 73
12
 74
0
 42
0.0000001
 43
0.0000001
 44
0.0000000001
 40
0.0
 40
0.0
 40
0.0
 40
0.0
 40
0.1249257882
 40
0.2498672689
 40
0.3748325213
 40
0.4998045794
 40
0.6247594865
 40
0.6872501744
 40
0.7497719488
 40
0.8748843342
 40
1.0
 40
1.0
 40
1.0
 40
1.0
 10
10.098924605
 20
9.8828814431
 30
0.0
 10
10.0989356658
 20
9.8775650179
 30
0.0
 10
10.0990783404
 20
9.8669314683
 30
0.0
 10
10.0996108249
 20
9.8509878249
 30
0.0
 10
10.1004184051
 20
9.8350540554
 30
0.0
 10
10.1014582472
 20
9.8191329743
 30
0.0
 10
10.1026651637
 20
9.8058898948
 30
0.0
 10
10.1039210352
 20
9.7953257859
 30
0.0
 10
10.1054025907
 20
9.7847841446
 30
0.0
 10
10.1076902811
 20
9.7716680611
 30
0.0
 10
10.1099841429
 20
9.7612649545
 30
0.0
 10
10.1112477535
 20
9.7560925496
 30
0.0
  0
SPLINE
  5
55C
100
AcDbEntity
  8
0
100
AcDbSpline
 62
9
  6
CONTINUOUS
 70
0
 71
3
 72
17
 73
13
 74
0
 42
0.0000001
 43
0.0000001
 44
0.0000000001
 40
0.0
 40
0.0
 40
0.0
 40
0.0
 40
0.1251057444
 40
0.2502197663
 40
0.3127532044
 40
0.3752547138
 40
0.5002047528
 40
0.6251590882
 40
0.6876427423
 40
0.7501245614
 40
0.8750728076
 40
1.0
 40
1.0
 40
1.0
 40
1.0
 10
10.3668007306
 20
9.3134556327
 30
0.0
 10
10.3702545564
 20
9.3101484322
 30
0.0
 10
10.3772991564
 20
9.3036750878
 30
0.0
 10
10.3864224977
 20
9.2959454055
 30
0.0
 10
10.3938980171
 20
9.2899832487
 30
0.0
 10
10.4014851546
 20
9.2841740686
 30
0.0
 10
10.411160168
 20
9.2771715422
 30
0.0
 10
10.421018698
 20
9.2704333298
 30
0.0
 10
10.4289780771
 20
9.2651510785
 30
0.0
 10
10.4369725601
 20
9.2599225206
 30
0.0
 10
10.4470328663
 20
9.253492544
 30
0.0
 10
10.4551634965
 20
9.2484801435
 30
0.0
 10
10.4592510922
 20
9.2460117787
 30
0.0
  0
SPLINE
  5
55D
100
AcDbEntity
  8
0
100
AcDbSpline
 62
9
  6
CONTINUOUS
 70
0
 71
3
 72
20
 73
16
 74
0
 42
0.0000001
 43
0.0000001
 44
0.0000000001
 40
0.0
 40
0.0
 40
0.0
 40
0.0
 40
0.2028347193
 40
0.3953376465
 40
0.5701372911
 40
0.7204836355
 40
0.8404941436
 40
0.8881237781
 40
0.9271224208
 40
0.9573270938
 40
0.9692111054
 40
0.9790228026
 40
0.9868382752
 40
0.9927740161
 40
1.0
 40
1.0
 40
1.0
 40
1.0
 10
10.0989246296
 20
10.1199912267
 30
0.0
 10
10.1001781421
 20
10.1200188082
 30
0.0
 10
10.1026211088
 20
10.1200828472
 30
0.0
 10
10.1061431689
 20
10.1202098325
 30
0.0
 10
10.1093393333
 20
10.1203655407
 30
0.0
 10
10.1120853544
 20
10.1205442352
 30
0.0
 10
10.1140436455
 20
10.1207185565
 30
0.0
 10
10.1153117711
 20
10.1208726007
 30
0.0
 10
10.1160259991
 20
10.1209806217
 30
0.0
 10
10.116518142
 20
10.1210767503
 30
0.0
 10
10.1168289984
 20
10.1211575124
 30
0.0
 10
10.1170025469
 20
10.1212123143
 30
0.0
 10
10.1171388817
 20
10.1212683312
 30
0.0
 10
10.1172492793
 20
10.121328084
 30
0.0
 10
10.117317757
 20
10.1213963719
 30
0.0
 10
10.1173183316
 20
10.1214410354
 30
0.0
  0
SPLINE
  5
55E
100
AcDbEntity
  8
0
100
AcDbSpline
 62
9
  6
CONTINUOUS
 70
0
 71
3
 72
19
 73
15
 74
0
 42
0.0000001
 43
0.0000001
 44
0.0000000001
 40
0.0
 40
0.0
 40
0.0
 40
0.0
 40
0.2257936388
 40
0.4312778859
 40
0.6090069655
 40
0.7540125603
 40
0.8631587188
 40
0.9381452462
 40
0.9637883887
 40
0.9738334562
 40
0.9821114831
 40
0.9887047492
 40
0.9937315134
 40
1.0
 40
1.0
 40
1.0
 40
1.0
 10
11.9957120776
 20
10.1199916001
 30
0.0
 10
11.9943167487
 20
10.1200222769
 30
0.0
 10
11.9916518554
 20
10.1200934558
 30
0.0
 10
11.9878900338
 20
10.1202349702
 30
0.0
 10
11.9846293399
 20
10.1204042078
 30
0.0
 10
11.9819659415
 20
10.1205899167
 30
0.0
 10
11.9799410694
 20
10.1207877632
 30
0.0
 10
11.9786557361
 20
10.1209674534
 30
0.0
 10
11.9779865697
 20
10.121111433
 30
0.0
 10
11.9777249683
 20
10.121186082
 30
0.0
 10
11.9775796765
 20
10.1212363285
 30
0.0
 10
11.9774662498
 20
10.121287156
 30
0.0
 10
11.9773735625
 20
10.1213418413
 30
0.0
 10
11.9773186925
 20
10.1214025866
 30
0.0
 10
11.9773183571
 20
10.1214413316
 30
0.0
  0
SPLINE
  5
55F
100
AcDbEntity
  8
0
100
AcDbSpline
 62
9
  6
CONTINUOUS
 70
0
 71
3
 72
19
 73
15
 74
0
 42
0.0000001
 43
0.0000001
 44
0.0000000001
 40
0.0
 40
0.0
 40
0.0
 40
0.0
 40
0.2257936388
 40
0.4312778859
 40
0.6090069655
 40
0.7540125603
 40
0.8631587188
 40
0.9381452462
 40
0.9637883887
 40
0.9738334562
 40
0.9821114831
 40
0.9887047492
 40
0.9937315134
 40
1.0
 40
1.0
 40
1.0
 40
1.0
 10
10.098924599
 20
9.8828811863
 30
0.0
 10
10.1003199279
 20
9.8828505095
 30
0.0
 10
10.1029848212
 20
9.8827793307
 30
0.0
 10
10.1067466428
 20
9.8826378163
 30
0.0
 10
10.1100073366
 20
9.8824685787
 30
0.0
 10
10.1126707351
 20
9.8822828698
 30
0.0
 10
10.1146956071
 20
9.8820850233
 30
0.0
 10
10.1159809405
 20
9.8819053331
 30
0.0
 10
10.1166501069
 20
9.8817613535
 30
0.0
 10
10.1169117082
 20
9.8816867044
 30
0.0
 10
10.117057
 20
9.8816364579
 30
0.0
 10
10.1171704268
 20
9.8815856305
 30
0.0
 10
10.1172631141
 20
9.8815309451
 30
0.0
 10
10.117317984
 20
9.8814701999
 30
0.0
 10
10.1173183195
 20
9.8814314548
 30
0.0
  0
SPLINE
  5
560
100
AcDbEntity
  8
0
100
AcDbSpline
 62
9
  6
CONTINUOUS
 70
0
 71
3
 72
19
 73
15
 74
0
 42
0.0000001
 43
0.0000001
 44
0.0000000001
 40
0.0
 40
0.0
 40
0.0
 40
0.0
 40
0.2257557113
 40
0.4312106065
 40
0.6089224507
 40
0.7539252455
 40
0.8630822543
 40
0.9380896532
 40
0.9637464262
 40
0.9737989598
 40
0.9820847849
 40
0.9886860249
 40
0.9937205944
 40
1.0
 40
1.0
 40
1.0
 40
1.0
 10
11.4188437302
 20
10.8820468545
 30
0.0
 10
11.4181195945
 20
10.8808540341
 30
0.0
 10
11.4167256728
 20
10.8785821723
 30
0.0
 10
11.4147224168
 20
10.875395623
 30
0.0
 10
11.4129456175
 20
10.8726567257
 30
0.0
 10
11.4114530839
 20
10.8704431121
 30
0.0
 10
11.410269193
 20
10.8687883302
 30
0.0
 10
11.4094707501
 20
10.8677648297
 30
0.0
 10
11.4090113435
 20
10.8672570858
 30
0.0
 10
11.408815802
 20
10.8670676999
 30
0.0
 10
11.4086995591
 20
10.8669668753
 30
0.0
 10
11.408598751
 20
10.8668939197
 30
0.0
 10
11.4085049336
 20
10.8668408615
 30
0.0
 10
11.4084248617
 20
10.8668234935
 30
0.0
 10
11.4083910074
 20
10.8668424774
 30
0.0
  0
SPLINE
  5
561
100
AcDbEntity
  8
0
100
AcDbSpline
 62
9
  6
CONTINUOUS
 70
0
 71
3
 72
20
 73
16
 74
0
 42
0.0000001
 43
0.0000001
 44
0.0000000001
 40
0.0
 40
0.0
 40
0.0
 40
0.0
 40
0.2028545012
 40
0.3953687897
 40
0.5701709483
 40
0.7205126659
 40
0.840513888
 40
0.888138283
 40
0.9271319818
 40
0.9573324586
 40
0.9692147556
 40
0.9790250475
 40
0.9868394593
 40
0.9927745045
 40
1.0
 40
1.0
 40
1.0
 40
1.0
 10
11.6241869007
 20
10.7634918658
 30
0.0
 10
11.6235839734
 20
10.7623923966
 30
0.0
 10
11.6224178615
 20
10.7602445409
 30
0.0
 10
11.6207667149
 20
10.7571306755
 30
0.0
 10
11.619303465
 20
10.7542848134
 30
0.0
 10
11.6180852527
 20
10.7518174057
 30
0.0
 10
11.6172571365
 20
10.7500344215
 30
0.0
 10
11.6167565389
 20
10.7488592793
 30
0.0
 10
11.6164930143
 20
10.7481868106
 30
0.0
 10
11.6163302211
 20
10.7477126003
 30
0.0
 10
11.6162447517
 20
10.7474030529
 30
0.0
 10
11.6162054461
 20
10.7472253792
 30
0.0
 10
11.616185795
 20
10.7470793216
 30
0.0
 10
11.6161823469
 20
10.7469538501
 30
0.0
 10
11.6162072387
 20
10.746860416
 30
0.0
 10
11.6162456238
 20
10.7468375804
 30
0.0
  0
SPLINE
  5
562
100
AcDbEntity
  8
0
100
AcDbSpline
 62
9
  6
CONTINUOUS
 70
0
 71
3
 72
11
 73
7
 74
0
 42
0.0000001
 43
0.0000001
 44
0.0000000001
 40
0.0
 40
0.0
 40
0.0
 40
0.0
 40
0.2500463663
 40
0.5000705684
 40
0.7500496381
 40
1.0
 40
1.0
 40
1.0
 40
1.0
 10
10.729569563
 20
10.9103536639
 30
0.0
 10
10.7250080969
 20
10.9081493361
 30
0.0
 10
10.7159335283
 20
10.9036416482
 30
0.0
 10
10.7024168636
 20
10.8966951873
 30
0.0
 10
10.6890209819
 20
10.8895219763
 30
0.0
 10
10.6801839383
 20
10.8845701474
 30
0.0
 10
10.6757930702
 20
10.8820469341
 30
0.0
  0
SPLINE
  5
563
100
AcDbEntity
  8
0
100
AcDbSpline
 62
9
  6
CONTINUOUS
 70
0
 71
3
 72
20
 73
16
 74
0
 42
0.0000001
 43
0.0000001
 44
0.0000000001
 40
0.0
 40
0.0
 40
0.0
 40
0.0
 40
0.2028347193
 40
0.3953376465
 40
0.5701372911
 40
0.7204836355
 40
0.8404941436
 40
0.8881237781
 40
0.9271224208
 40
0.9573270938
 40
0.9692111054
 40
0.9790228026
 40
0.9868382752
 40
0.9927740161
 40
1.0
 40
1.0
 40
1.0
 40
1.0
 10
11.995712047
 20
9.8828815597
 30
0.0
 10
11.9944585345
 20
9.8828539783
 30
0.0
 10
11.9920155678
 20
9.8827899393
 30
0.0
 10
11.9884935077
 20
9.882662954
 30
0.0
 10
11.9852973433
 20
9.8825072458
 30
0.0
 10
11.9825513222
 20
9.8823285513
 30
0.0
 10
11.9805930311
 20
9.88215423
 30
0.0
 10
11.9793249055
 20
9.8820001858
 30
0.0
 10
11.9786106775
 20
9.8818921647
 30
0.0
 10
11.9781185345
 20
9.8817960361
 30
0.0
 10
11.9778076782
 20
9.8817152741
 30
0.0
 10
11.9776341297
 20
9.8816604721
 30
0.0
 10
11.9774977948
 20
9.8816044552
 30
0.0
 10
11.9773873973
 20
9.8815447025
 30
0.0
 10
11.9773189195
 20
9.8814764146
 30
0.0
 10
11.977318345
 20
9.8814317511
 30
0.0
  0
SPLINE
  5
564
100
AcDbEntity
  8
0
100
AcDbSpline
 62
7
  6
CONTINUOUS
 70
0
 71
3
 72
16
 73
12
 74
0
 42
0.0000001
 43
0.0000001
 44
0.0000000001
 40
0.0
 40
0.0
 40
0.0
 40
0.0
 40
0.1248151776
 40
0.2496849327
 40
0.3746160419
 40
0.4996080761
 40
0.5621476014
 40
0.6246921214
 40
0.7497661048
 40
0.8749361578
 40
1.0
 40
1.0
 40
1.0
 40
1.0
 10
10.7349066242
 20
3.9423218259
 30
0.0
 10
10.7434140476
 20
3.9295585543
 30
0.0
 10
10.7620233316
 20
3.905046156
 30
0.0
 10
10.7942412083
 20
3.872005122
 30
0.0
 10
10.8302833225
 20
3.8431430392
 30
0.0
 10
10.8630688481
 20
3.8229527741
 30
0.0
 10
10.8906189173
 20
3.8092965229
 30
0.0
 10
10.9189656179
 20
3.7973561945
 30
0.0
 10
10.9557122719
 20
3.7857177196
 30
0.0
 10
11.0011642664
 20
3.7772740203
 30
0.0
 10
11.0319490261
 20
3.7753775737
 30
0.0
 10
11.0473183383
 20
3.7753775737
 30
0.0
  0
SPLINE
  5
565
100
AcDbEntity
  8
0
100
AcDbSpline
 62
7
  6
CONTINUOUS
 70
0
 71
3
 72
16
 73
12
 74
0
 42
0.0000001
 43
0.0000001
 44
0.0000000001
 40
0.0
 40
0.0
 40
0.0
 40
0.0
 40
0.1250569922
 40
0.2502233218
 40
0.3752960882
 40
0.4378377516
 40
0.500374342
 40
0.6253668593
 40
0.7503017956
 40
0.8751775323
 40
1.0
 40
1.0
 40
1.0
 40
1.0
 10
11.0473183383
 20
3.7753775737
 30
0.0
 10
11.0623086891
 20
3.7753775737
 30
0.0
 10
11.0923331587
 20
3.7771817833
 30
0.0
 10
11.1366974289
 20
3.7852149331
 30
0.0
 10
11.1726190475
 20
3.7962939633
 30
0.0
 10
11.2003803101
 20
3.8076666662
 30
0.0
 10
11.2274009149
 20
3.820680075
 30
0.0
 10
11.259640702
 20
3.839934039
 30
0.0
 10
11.2952581043
 20
3.8674920332
 30
0.0
 10
11.3273111479
 20
3.8990911701
 30
0.0
 10
11.3460007891
 20
3.9225786267
 30
0.0
 10
11.3545993933
 20
3.9348233233
 30
0.0
  0
SPLINE
  5
566
100
AcDbEntity
  8
0
100
AcDbSpline
 62
9
  6
CONTINUOUS
 70
0
 71
3
 72
22
 73
18
 74
0
 42
0.0000001
 43
0.0000001
 44
0.0000000001
 40
0.0
 40
0.0
 40
0.0
 40
0.0
 40
0.0537531123
 40
0.1078818268
 40
0.1627389597
 40
0.2186377385
 40
0.2758339248
 40
0.334519757
 40
0.3948173205
 40
0.4567790366
 40
0.5203946224
 40
0.5855916704
 40
0.6522446534
 40
0.7201708314
 40
0.8589148237
 40
0.929356312
 40
1.0
 40
1.0
 40
1.0
 40
1.0
 10
10.6723202335
 20
7.244709441
 30
0.0
 10
10.6723202335
 20
7.2540326861
 30
0.0
 10
10.6735323335
 20
7.2727669722
 30
0.0
 10
10.6789820878
 20
7.3005365535
 30
0.0
 10
10.6879872202
 20
7.3277587246
 30
0.0
 10
10.7004707356
 20
7.3541554772
 30
0.0
 10
10.716289716
 20
7.379480015
 30
0.0
 10
10.7352960239
 20
7.4034838706
 30
0.0
 10
10.7572935962
 20
7.4259453549
 30
0.0
 10
10.7820718628
 20
7.446649714
 30
0.0
 10
10.8093898552
 20
7.4654035626
 30
0.0
 10
10.8389841595
 20
7.482031241
 30
0.0
 10
10.8705739671
 20
7.496372931
 30
0.0
 10
10.9152379824
 20
7.5123841834
 30
0.0
 10
10.9623212795
 20
7.5231387395
 30
0.0
 10
11.0105829866
 20
7.5285541881
 30
0.0
 10
11.0350654957
 20
7.5294707445
 30
0.0
 10
11.0473183383
 20
7.5294707445
 30
0.0
  0
LINE
  5
567
100
AcDbEntity
  8
0
100
AcDbLine
 62
7
  6
CONTINUOUS
 10
11.3736541918
 20
3.9614307712
 11
11.3732509079
 21
3.9607227925
  0
SPLINE
  5
568
100
AcDbEntity
  8
0
100
AcDbSpline
 62
7
  6
CONTINUOUS
 70
0
 71
3
 72
15
 73
11
 74
0
 42
0.0000001
 43
0.0000001
 44
0.0000000001
 40
0.0
 40
0.0
 40
0.0
 40
0.0
 40
0.1247946366
 40
0.2496568008
 40
0.3745865685
 40
0.4995696667
 40
0.6245977397
 40
0.7497100843
 40
0.8749115193
 40
1.0
 40
1.0
 40
1.0
 40
1.0
 10
10.7677182796
 20
3.8954719268
 30
0.0
 10
10.7764776382
 20
3.8857289433
 30
0.0
 10
10.7950458278
 20
3.8671493137
 30
0.0
 10
10.8256611138
 20
3.842356313
 30
0.0
 10
10.8587360053
 20
3.8209103073
 30
0.0
 10
10.8938860314
 20
3.8030321295
 30
0.0
 10
10.9307371409
 20
3.7889372136
 30
0.0
 10
10.9688831552
 20
3.7787658858
 30
0.0
 10
11.0078877015
 20
3.7726549634
 30
0.0
 10
11.0341866553
 20
3.7713086445
 30
0.0
 10
11.0473190967
 20
3.7713280265
 30
0.0
  0
SPLINE
  5
569
100
AcDbEntity
  8
0
100
AcDbSpline
 62
7
  6
CONTINUOUS
 70
0
 71
3
 72
22
 73
18
 74
0
 42
0.0000001
 43
0.0000001
 44
0.0000000001
 40
0.0
 40
0.0
 40
0.0
 40
0.0
 40
0.0623463316
 40
0.1247048911
 40
0.1870810359
 40
0.2494770796
 40
0.3118950159
 40
0.37433721
 40
0.4368027068
 40
0.4992948088
 40
0.5618158823
 40
0.6243675718
 40
0.6869422883
 40
0.7495312597
 40
0.8121466729
 40
0.8748086034
 40
1.0
 40
1.0
 40
1.0
 40
1.0
 10
10.6769727978
 20
4.0817868749
 30
0.0
 10
10.678704321
 20
4.0709617378
 30
0.0
 10
10.6831290362
 20
4.0494506224
 30
0.0
 10
10.6925915098
 20
4.0179023738
 30
0.0
 10
10.7048186228
 20
3.987307261
 30
0.0
 10
10.719699393
 20
3.9579003045
 30
0.0
 10
10.7371343195
 20
3.9299179101
 30
0.0
 10
10.7569749233
 20
3.903571738
 30
0.0
 10
10.7790723272
 20
3.8790695843
 30
0.0
 10
10.8032562593
 20
3.8566044771
 30
0.0
 10
10.8293340164
 20
3.8363434458
 30
0.0
 10
10.8571115052
 20
3.8184573325
 30
0.0
 10
10.8863607543
 20
3.8030696293
 30
0.0
 10
10.9168607862
 20
3.7903133611
 30
0.0
 10
10.9483824876
 20
3.7802799276
 30
0.0
 10
10.9913971636
 20
3.7706498531
 30
0.0
 10
11.024522837
 20
3.7677067358
 30
0.0
 10
11.0465360184
 20
3.7676953356
 30
0.0
  0
LINE
  5
56A
100
AcDbEntity
  8
0
100
AcDbLine
 62
7
  6
CONTINUOUS
 10
11.0465360184
 20
3.7676953356
 11
11.0473192536
 21
3.767695752
  0
SPLINE
  5
56B
100
AcDbEntity
  8
0
100
AcDbSpline
 62
9
  6
CONTINUOUS
 70
0
 71
3
 72
22
 73
18
 74
0
 42
0.0000001
 43
0.0000001
 44
0.0000000001
 40
0.0
 40
0.0
 40
0.0
 40
0.0
 40
0.0623907401
 40
0.1247858924
 40
0.1871902925
 40
0.2496072338
 40
0.3120412864
 40
0.3744942083
 40
0.4369693959
 40
0.4994663049
 40
0.5619874983
 40
0.6245325353
 40
0.6871000256
 40
0.7496796652
 40
0.8122733875
 40
0.8749026087
 40
1.0
 40
1.0
 40
1.0
 40
1.0
 10
11.4223164431
 20
4.1724826361
 30
0.0
 10
11.4223164431
 20
4.1602623071
 30
0.0
 10
11.4211142355
 20
4.1358033735
 30
0.0
 10
11.4157001562
 20
4.0994836743
 30
0.0
 10
11.4067480102
 20
4.0638616007
 30
0.0
 10
11.3943255901
 20
4.029289199
 30
0.0
 10
11.3785682678
 20
3.9960931577
 30
0.0
 10
11.3596153303
 20
3.964598736
 30
0.0
 10
11.3376585087
 20
3.935104703
 30
0.0
 10
11.3129042131
 20
3.9078977812
 30
0.0
 10
11.2855923753
 20
3.8832391695
 30
0.0
 10
11.2559861682
 20
3.8613650677
 30
0.0
 10
11.2243690024
 20
3.8424915569
 30
0.0
 10
11.1910542461
 20
3.8267892254
 30
0.0
 10
11.1563438837
 20
3.8144200919
 30
0.0
 10
11.1087230557
 20
3.802532005
 30
0.0
 10
11.071820873
 20
3.7989096243
 30
0.0
 10
11.0473183383
 20
3.7989096243
 30
0.0
  0
LINE
  5
56C
100
AcDbEntity
  8
0
100
AcDbLine
 62
7
  6
CONTINUOUS
 10
11.0473192536
 20
3.767695752
 11
11.0481298202
 21
3.7676979133
  0
SPLINE
  5
56D
100
AcDbEntity
  8
0
100
AcDbSpline
 62
7
  6
CONTINUOUS
 70
0
 71
3
 72
20
 73
16
 74
0
 42
0.0000001
 43
0.0000001
 44
0.0000000001
 40
0.0
 40
0.0
 40
0.0
 40
0.0
 40
0.1249923387
 40
0.1875868199
 40
0.2501569163
 40
0.3751675645
 40
0.5001626087
 40
0.5626860776
 40
0.6251957285
 40
0.6876922054
 40
0.7501757619
 40
0.8126484165
 40
0.8751098473
 40
0.9375596567
 40
1.0
 40
1.0
 40
1.0
 40
1.0
 10
11.0481298202
 20
3.7676979133
 30
0.0
 10
11.0661086617
 20
3.7677653557
 30
0.0
 10
11.0931350175
 20
3.7698161624
 30
0.0
 10
11.1285395837
 20
3.7763620302
 30
0.0
 10
11.163390993
 20
3.7854375269
 30
0.0
 10
11.2055883518
 20
3.801425152
 30
0.0
 10
11.2450541138
 20
3.8232933717
 30
0.0
 10
11.2744819344
 20
3.8440125116
 30
0.0
 10
11.2953815344
 20
3.8611044622
 30
0.0
 10
11.3149976379
 20
3.8796449061
 30
0.0
 10
11.3332271717
 20
3.8995439043
 30
0.0
 10
11.3499728116
 20
3.9206999705
 30
0.0
 10
11.3651557312
 20
3.9429987052
 30
0.0
 10
11.3786900198
 20
3.9663281046
 30
0.0
 10
11.3865688899
 20
3.9824928416
 30
0.0
 10
11.3902114564
 20
3.9907024838
 30
0.0
  0
SPLINE
  5
56E
100
AcDbEntity
  8
0
100
AcDbSpline
 62
7
  6
CONTINUOUS
 70
0
 71
3
 72
15
 73
11
 74
0
 42
0.0000001
 43
0.0000001
 44
0.0000000001
 40
0.0
 40
0.0
 40
0.0
 40
0.0
 40
0.1250078473
 40
0.2501178958
 40
0.3751644866
 40
0.5001964584
 40
0.625200224
 40
0.7501622497
 40
0.8751455786
 40
1.0
 40
1.0
 40
1.0
 40
1.0
 10
11.0473190967
 20
3.7713280265
 30
0.0
 10
11.0624283714
 20
3.771350326
 30
0.0
 10
11.0926876398
 20
3.7732297112
 30
0.0
 10
11.1373841128
 20
3.7814664961
 30
0.0
 10
11.1807753964
 20
3.7950225072
 30
0.0
 10
11.2222050785
 20
3.8136984251
 30
0.0
 10
11.2610830928
 20
3.8372096751
 30
0.0
 10
11.2968419885
 20
3.8652324471
 30
0.0
 10
11.3289400273
 20
3.8973477748
 30
0.0
 10
11.3476160218
 20
3.9211874144
 30
0.0
 10
11.3561853046
 20
3.9336090907
 30
0.0
  0
SPLINE
  5
56F
100
AcDbEntity
  8
0
100
AcDbSpline
 62
9
  6
CONTINUOUS
 70
0
 71
3
 72
22
 73
18
 74
0
 42
0.0000001
 43
0.0000001
 44
0.0000000001
 40
0.0
 40
0.0
 40
0.0
 40
0.0
 40
0.070643688
 40
0.1410851763
 40
0.2798291686
 40
0.3477553466
 40
0.4144083296
 40
0.4796053776
 40
0.5432209634
 40
0.6051826795
 40
0.665480243
 40
0.7241660752
 40
0.7813622615
 40
0.8372610403
 40
0.8921181732
 40
0.9462468877
 40
1.0
 40
1.0
 40
1.0
 40
1.0
 10
11.0473183383
 20
7.5294707445
 30
0.0
 10
11.0595711809
 20
7.5294707445
 30
0.0
 10
11.08405369
 20
7.5285541881
 30
0.0
 10
11.1323153971
 20
7.5231387395
 30
0.0
 10
11.1793986941
 20
7.5123841834
 30
0.0
 10
11.2240627095
 20
7.496372931
 30
0.0
 10
11.2556525171
 20
7.482031241
 30
0.0
 10
11.2852468214
 20
7.4654035626
 30
0.0
 10
11.3125648138
 20
7.446649714
 30
0.0
 10
11.3373430804
 20
7.4259453549
 30
0.0
 10
11.3593406526
 20
7.4034838706
 30
0.0
 10
11.3783469606
 20
7.379480015
 30
0.0
 10
11.394165941
 20
7.3541554772
 30
0.0
 10
11.4066494564
 20
7.3277587246
 30
0.0
 10
11.4156545888
 20
7.3005365535
 30
0.0
 10
11.421104343
 20
7.2727669722
 30
0.0
 10
11.4223164431
 20
7.2540326861
 30
0.0
 10
11.4223164431
 20
7.244709441
 30
0.0
  0
SPLINE
  5
570
100
AcDbEntity
  8
0
100
AcDbSpline
 62
9
  6
CONTINUOUS
 70
0
 71
3
 72
22
 73
18
 74
0
 42
0.0000001
 43
0.0000001
 44
0.0000000001
 40
0.0
 40
0.0
 40
0.0
 40
0.0
 40
0.1250949396
 40
0.1877231199
 40
0.2503146615
 40
0.312890058
 40
0.3754555753
 40
0.4380012386
 40
0.5005239438
 40
0.5630232478
 40
0.6255009361
 40
0.6879575049
 40
0.7503940585
 40
0.8128137417
 40
0.8752184429
 40
0.9376130972
 40
1.0
 40
1.0
 40
1.0
 40
1.0
 10
11.0473183383
 20
3.7989096243
 30
0.0
 10
11.023795198
 20
3.7989096243
 30
0.0
 10
10.9883781077
 20
3.802247135
 30
0.0
 10
10.9425545225
 20
3.8132080891
 30
0.0
 10
10.9090774029
 20
3.8246237396
 30
0.0
 10
10.876836998
 20
3.8391274719
 30
0.0
 10
10.8461054927
 20
3.8565876446
 30
0.0
 10
10.8171563806
 20
3.876849261
 30
0.0
 10
10.7902544434
 20
3.8997399787
 30
0.0
 10
10.7656283664
 20
3.9250454037
 30
0.0
 10
10.7435093409
 20
3.9525531608
 30
0.0
 10
10.7240778859
 20
3.9820068051
 30
0.0
 10
10.7075236007
 20
4.013156429
 30
0.0
 10
10.6939776963
 20
4.0457161954
 30
0.0
 10
10.6835730234
 20
4.0794044336
 30
0.0
 10
10.6763944014
 20
4.1139144245
 30
0.0
 10
10.67380153
 20
4.1372767044
 30
0.0
 10
10.6730616835
 20
4.1489847285
 30
0.0
  0
ENDSEC
  0
SECTION
  2
OBJECTS
  0
DICTIONARY
  5
C
100
AcDbDictionary
280
0
281
1
  3
ACAD_GROUP
350
D
  3
ACAD_MLINESTYLE
350
17
  3
ACAD_LAYOUT
350
1A
  3
ACAD_PLOTSETTINGS
350
19
  3
ACAD_PLOTSTYLENAME
350
E
  0
DICTIONARY
  5
D
102
{ACAD_REACTORS
330
C
102
}
100
AcDbDictionary
280
0
281
1
  0
ACDBDICTIONARYWDFLT
  5
E
102
{ACAD_REACTORS
330
C
102
}
100
AcDbDictionary
281
1
  3
Normal
350
F
100
AcDbDictionaryWithDefault
340
F
  0
DICTIONARY
  5
17
102
{ACAD_REACTORS
330
C
102
}
100
AcDbDictionary
280
0
281
1
  3
Standard
350
18
  0
DICTIONARY
  5
19
102
{ACAD_REACTORS
330
C
102
}
100
AcDbDictionary
281
1
  0
DICTIONARY
  5
1A
102
{ACAD_REACTORS
330
C
102
}
100
AcDbDictionary
281
1
  3
Model
350
571
  3
Layout1
350
572
  0
ACDBPLACEHOLDER
  5
F
102
{ACAD_REACTORS
330
E
102
}
  0
MLINESTYLE
  5
18
102
{ACAD_REACTORS
330
17
102
}
100
AcDbMlineStyle
  2
STANDARD
 70
0
  3

 62
256
 51
90.0
 52
90.0
 71
2
 49
0.5
 62
256
  6
BYLAYER
 49
-0.5
 62
256
  6
BYLAYER
  0
LAYOUT
  5
571
102
{ACAD_REACTORS
330
1A
102
}
100
AcDbPlotSettings
  1

  2
none_device
  4
ANSI_C_(22.00_x_17.00_Inches)
  6

 40
0.0
 41
0.0
 42
0.0
 43
0.0
 44
558.8
 45
431.8
 46
0.0
 47
0.0
 48
0.0
 49
0.0
140
0.0
141
0.0
142
1.0
143
1.0
 70
1024
 72
0
 73
0
 74
0
  7

 75
0
147
1.0
148
0.0
149
0.0
100
AcDbLayout
  1
Model
 70
0
 71
0
 10
0.0
 20
0.0
 11
22.0
 21
17.0
 12
0.0
 22
0.0
 32
0.0
 14
0.0
 24
0.0
 34
0.0
 15
0.0
 25
0.0
 35
0.0
146
0.0
 13
0.0
 23
0.0
 33
0.0
 16
1.0
 26
0.0
 36
0.0
 17
0.0
 27
1.0
 37
0.0
 76
0
330
202
345
0
346
0
  0
LAYOUT
  5
572
102
{ACAD_REACTORS
330
1A
102
}
100
AcDbPlotSettings
  1

  2
none_device
  4
ANSI_C_(22.00_x_17.00_Inches)
  6

 40
0.0
 41
0.0
 42
0.0
 43
0.0
 44
558.8
 45
431.8
 46
0.0
 47
0.0
 48
0.0
 49
0.0
140
0.0
141
0.0
142
1.0
143
1.0
 70
0
 72
0
 73
0
 74
0
  7

 75
0
147
1.0
148
0.0
149
0.0
100
AcDbLayout
  1
Layout1
 70
0
 71
1
 10
0.0
 20
0.0
 11
22.0
 21
17.0
 12
0.0
 22
0.0
 32
0.0
 14
0.0
 24
0.0
 34
0.0
 15
0.0
 25
0.0
 35
0.0
146
0.0
 13
0.0
 23
0.0
 33
0.0
 16
1.0
 26
0.0
 36
0.0
 17
0.0
 27
1.0
 37
0.0
 76
0
330
203
345
0
346
0
  0
ENDSEC
  0
EOF
