999
DXF file: E:\BT Custom\CADOUTPUT\_RIGHT.dxf
999
Pro/ENGINEER 2018400 by Parametric Technology Corporation
  0
SECTION
  2
HEADER
  9
$ACADVER
  1
AC1018
  9
$DWGCODEPAGE
  3
ANSI_1252
  9
$EXTMAX
 10
22.0
 20
17.0
 30
0.0
  9
$EXTMIN
 10
0.0
 20
0.0
 30
0.0
  9
$LIMMIN
 10
0.0
 20
0.0
  9
$LIMMAX
 10
22.0
 20
17.0
  9
$VIEWCTR
 10
11.0
 20
8.5
  9
$VIEWSIZE
 40
17.0
  9
$CLAYER
  8
0
  9
$LTSCALE
 40
1.21
  9
$CELTYPE
  6
BYLAYER
  9
$DIMSCALE
 40
1.0
  9
$DIMASZ
 40
0.1
  9
$DIMEXO
 40
0.0625
  9
$DIMDLI
 40
0.836
  9
$DIMEXE
 40
0.125
  9
$DIMCEN
 40
0.198
  9
$DIMLFAC
 40
1.0
  9
$DIMBLK
  1
_FILLED
  9
$DIMALT
 70
1
  9
$DIMALTD
 70
2
  9
$DIMALTTD
 70
2
  9
$DIMALTF
 40
25.4
  9
$DIMTXT
 40
0.08
  9
$DIMTOL
 70
1
  9
$DIMLIM
 70
0
  9
$DIMTFAC
 40
1.0
  9
$DIMTP
 40
0.001
  9
$DIMTM
 40
0.001
  9
$DIMGAP
 40
0.09
  9
$DIMDSEP
 70
46
  9
$AUNITS
 70
0
  9
$PDMODE
 70
3
  9
$PDSIZE
 40
0.06
  9
$HANDSEED
  5
437
  9
$TILEMODE
 70
1
  9
$MEASUREMENT
 70
0
  9
$INSUNITS
 70
1
  0
ENDSEC
  0
SECTION
  2
CLASSES
  0
CLASS
  1
ACDBDICTIONARYWDFLT
  2
AcDbDictionaryWithDefault
  3
AutoCAD 2000
 90
0
 91
1
280
0
281
0
  0
CLASS
  1
ACDBPLACEHOLDER
  2
AcDbPlaceHolder
  3
AutoCAD 2000
 90
0
 91
1
280
0
281
0
  0
CLASS
  1
LAYOUT
  2
AcDbLayout
  3
AutoCAD 2000
 90
0
 91
0
280
0
281
0
  0
ENDSEC
  0
SECTION
  2
TABLES
  0
TABLE
  2
VPORT
  5
8
100
AcDbSymbolTable
 70
2
  0
VPORT
  5
1F4
100
AcDbSymbolTableRecord
100
AcDbViewportTableRecord
  2
*ACTIVE
 70
0
 10
0.0
 20
0.0
 11
1.0
 21
1.0
 12
11.0
 22
8.5
 13
0.0
 23
0.0
 14
1.0
 24
1.0
 15
0.0
 25
0.0
 16
0.0
 26
0.0
 36
1.0
 17
0.0
 27
0.0
 37
0.0
 40
17.0
 41
1.2941176471
 42
50.0
 43
0.0
 44
0.0
 50
0.0
 51
0.0
 71
0
 72
100
 73
1
 74
1
 75
0
 76
0
 77
0
 78
0
  0
ENDTAB
  0
TABLE
  2
LTYPE
  5
5
100
AcDbSymbolTable
 70
6
  0
LTYPE
  5
14
100
AcDbSymbolTableRecord
100
AcDbLinetypeTableRecord
  2
BYBLOCK
 70
0
  3

 72
65
 73
0
 40
0.0
  0
LTYPE
  5
15
100
AcDbSymbolTableRecord
100
AcDbLinetypeTableRecord
  2
BYLAYER
 70
0
  3

 72
65
 73
0
 40
0.0
  0
LTYPE
  5
16
100
AcDbSymbolTableRecord
100
AcDbLinetypeTableRecord
  2
CONTINUOUS
 70
64
  3
Solid line
 72
65
 73
0
 40
0.0
  0
LTYPE
  5
1F5
100
AcDbSymbolTableRecord
100
AcDbLinetypeTableRecord
  2
CENTER
 70
64
  3
____ _ ____ _ ____ _ ____ _ ____ _ ____ _ ____
 72
65
 73
4
 40
0.6
 49
0.375
 74
0
 49
-0.075
 74
0
 49
0.075
 74
0
 49
-0.075
 74
0
  0
LTYPE
  5
1F6
100
AcDbSymbolTableRecord
100
AcDbLinetypeTableRecord
  2
HIDDEN
 70
64
  3
- - - - - - - - - - - - - - - - - - - -
 72
65
 73
2
 40
0.2
 49
0.1
 74
0
 49
-0.1
 74
0
  0
LTYPE
  5
1F7
100
AcDbSymbolTableRecord
100
AcDbLinetypeTableRecord
  2
PHANTOM
 70
64
  3
_____ _ _ _____ _ _ _____ _ _ _____
 72
65
 73
6
 40
0.8
 49
0.45
 74
0
 49
-0.05
 74
0
 49
0.1
 74
0
 49
-0.05
 74
0
 49
0.1
 74
0
 49
-0.05
 74
0
  0
LTYPE
  5
1F8
100
AcDbSymbolTableRecord
100
AcDbLinetypeTableRecord
  2
DOT
 70
64
  3
. . . . . . . . . . . . . . . . . . . .
 72
65
 73
2
 40
0.2
 49
0.1
 74
0
 49
-0.1
 74
0
  0
LTYPE
  5
1F9
100
AcDbSymbolTableRecord
100
AcDbLinetypeTableRecord
  2
DASHED
 70
64
  3
- - - - - - - - - - - - - - - - - - - -
 72
65
 73
2
 40
0.2
 49
0.1
 74
0
 49
-0.1
 74
0
  0
ENDTAB
  0
TABLE
  2
LAYER
  5
2
100
AcDbSymbolTable
 70
36
  0
LAYER
  5
10
100
AcDbSymbolTableRecord
100
AcDbLayerTableRecord
  2
0
 70
0
 62
7
  6
CONTINUOUS
370
-3
390
F
  0
LAYER
  5
1FA
100
AcDbSymbolTableRecord
100
AcDbLayerTableRecord
  2
DEFAULT_1
 70
0
 62
7
  6
CENTER
370
-3
390
F
  0
LAYER
  5
1FB
100
AcDbSymbolTableRecord
100
AcDbLayerTableRecord
  2
DEFAULT_2
 70
0
 62
8
  6
HIDDEN
370
-3
390
F
  0
LAYER
  5
1FC
100
AcDbSymbolTableRecord
100
AcDbLayerTableRecord
  2
DEFAULT_3
 70
0
 62
7
  6
PHANTOM
370
-3
390
F
  0
LAYER
  5
1FD
100
AcDbSymbolTableRecord
100
AcDbLayerTableRecord
  2
ALL_FEATURES
 70
0
 62
7
  6
CONTINUOUS
370
-3
390
F
  0
LAYER
  5
1FE
100
AcDbSymbolTableRecord
100
AcDbLayerTableRecord
  2
AXES_FEATURES
 70
0
 62
7
  6
CONTINUOUS
370
-3
390
F
  0
LAYER
  5
1FF
100
AcDbSymbolTableRecord
100
AcDbLayerTableRecord
  2
DIMENSIONS
 70
0
 62
7
  6
CONTINUOUS
370
-3
390
F
  0
ENDTAB
  0
TABLE
  2
STYLE
  5
3
100
AcDbSymbolTable
 70
1
  0
STYLE
  5
11
100
AcDbSymbolTableRecord
100
AcDbTextStyleTableRecord
  2
STANDARD
 70
0
 40
0.0
 41
0.8
 50
0.0
 71
0
 42
0.2
  3
txt
  4

  0
STYLE
  5
200
100
AcDbSymbolTableRecord
100
AcDbTextStyleTableRecord
  2
TEXTSTYLE_1
 70
0
 40
0.0
 41
0.8
 50
0.0
 71
0
 42
0.2
  3
gdt
  4

  0
ENDTAB
  0
TABLE
  2
VIEW
  5
6
100
AcDbSymbolTable
 70
0
  0
ENDTAB
  0
TABLE
  2
UCS
  5
7
100
AcDbSymbolTable
 70
0
  0
ENDTAB
  0
TABLE
  2
APPID
  5
9
100
AcDbSymbolTable
 70
1
  0
APPID
  5
201
100
AcDbSymbolTableRecord
100
AcDbRegAppTableRecord
  2
ACAD
 70
0
  0
ENDTAB
  0
TABLE
  2
BLOCK_RECORD
  5
1
100
AcDbSymbolTable
 70
0
  0
BLOCK_RECORD
  5
202
100
AcDbSymbolTableRecord
100
AcDbBlockTableRecord
  2
*Model_Space
  0
BLOCK_RECORD
  5
203
100
AcDbSymbolTableRecord
100
AcDbBlockTableRecord
  2
*Paper_Space
  0
BLOCK_RECORD
  5
204
100
AcDbSymbolTableRecord
100
AcDbBlockTableRecord
  2
_FILLED
  0
ENDTAB
  0
TABLE
  2
DIMSTYLE
  5
A
100
AcDbSymbolTable
 70
1
100
AcDbDimStyleTable
 71
0
  0
DIMSTYLE
105
205
100
AcDbSymbolTableRecord
100
AcDbDimStyleTableRecord
  2
STANDARD
 70
0
  3

  4

 40
1.0
 41
0.1
 42
0.0625
 43
0.38
 44
0.125
 45
0.0
 46
0.0
 47
0.001
 48
0.001
140
0.08
141
0.09
142
0.0
143
25.4
144
1.0
145
0.0
146
1.0
147
0.09
 71
1.0
 72
0.0
 73
1
 74
1
 75
0
 76
0
 77
0
 78
4
 79
1
170
1
171
2
172
0
173
0
174
0
175
0
176
0
177
0
178
0
270
2
179
3
271
3
272
3
273
2
274
2
275
0
280
0
281
0
282
0
283
1
284
4
285
0
286
0
287
3
288
0
340
11
278
46
341
204
342
204
343
204
344
204
  0
ENDTAB
  0
ENDSEC
  0
SECTION
  2
BLOCKS
  0
BLOCK
  5
20
100
AcDbEntity
  8
0
100
AcDbBlockBegin
  2
*Model_Space
 70
0
 10
0.0
 20
0.0
 30
0.0
  3
*Model_Space
  1

  0
ENDBLK
  5
21
100
AcDbEntity
  8
0
100
AcDbBlockEnd
  0
BLOCK
  5
1C
100
AcDbEntity
  8
0
100
AcDbBlockBegin
  2
*Paper_Space
 70
0
 10
0.0
 20
0.0
 30
0.0
  3
*Paper_Space
  1

  0
ENDBLK
  5
1D
100
AcDbEntity
  8
0
100
AcDbBlockEnd
  0
BLOCK
  5
206
100
AcDbEntity
  8
0
100
AcDbBlockBegin
  2
_FILLED
 70
64
 10
0.0
 20
0.0
  3
_FILLED
  1

  0
SOLID
  5
207
100
AcDbEntity
  8
0
  6
BYBLOCK
 62
0
100
AcDbTrace
 10
0.0
 20
0.0
 11
-1.0
 21
0.2
 12
-1.0
 22
-0.2
 13
-1.0
 23
-0.2
  0
ENDBLK
  5
208
100
AcDbEntity
  8
0
  6
BYBLOCK
 62
0
100
AcDbBlockEnd
  0
ENDSEC
  0
SECTION
  2
ENTITIES
  0
LINE
  5
209
100
AcDbEntity
  8
0
100
AcDbLine
 62
7
  6
CONTINUOUS
 10
-0.3902053198
 20
6.833391804
 11
-0.3902053198
 21
6.913391804
  0
LINE
  5
20A
100
AcDbEntity
  8
0
100
AcDbLine
 62
7
  6
CONTINUOUS
 10
0.5347946802
 20
6.833391804
 11
0.5347946802
 21
6.913391804
  0
LINE
  5
20B
100
AcDbEntity
  8
0
100
AcDbLine
 62
7
  6
CONTINUOUS
 10
3.7780287426
 20
6.931065807
 11
3.7780287426
 21
7.0257178011
  0
LINE
  5
20C
100
AcDbEntity
  8
0
100
AcDbLine
 62
7
  6
CONTINUOUS
 10
3.8158776878
 20
6.931065807
 11
3.8158776878
 21
7.0257178011
  0
LINE
  5
20D
100
AcDbEntity
  8
0
100
AcDbLine
 62
7
  6
CONTINUOUS
 10
3.8564450488
 20
6.931065807
 11
3.8564450488
 21
7.0257178011
  0
LINE
  5
20E
100
AcDbEntity
  8
0
100
AcDbLine
 62
7
  6
CONTINUOUS
 10
3.899300749
 20
6.931065807
 11
3.899300749
 21
7.0257178011
  0
LINE
  5
20F
100
AcDbEntity
  8
0
100
AcDbLine
 62
7
  6
CONTINUOUS
 10
3.9439904519
 20
6.931065807
 11
3.9439904519
 21
7.0257178011
  0
LINE
  5
210
100
AcDbEntity
  8
0
100
AcDbLine
 62
7
  6
CONTINUOUS
 10
3.9900403776
 20
6.931065807
 11
3.9900403776
 21
7.0257178011
  0
LINE
  5
211
100
AcDbEntity
  8
0
100
AcDbLine
 62
7
  6
CONTINUOUS
 10
4.0369623258
 20
6.931065807
 11
4.0369623258
 21
7.0257178011
  0
LINE
  5
212
100
AcDbEntity
  8
0
100
AcDbLine
 62
7
  6
CONTINUOUS
 10
4.0842588515
 20
6.931065807
 11
4.0842588515
 21
7.0257178011
  0
LINE
  5
213
100
AcDbEntity
  8
0
100
AcDbLine
 62
7
  6
CONTINUOUS
 10
4.1314285386
 20
6.931065807
 11
4.1314285386
 21
7.0257178011
  0
LINE
  5
214
100
AcDbEntity
  8
0
100
AcDbLine
 62
7
  6
CONTINUOUS
 10
4.1779713155
 20
6.931065807
 11
4.1779713155
 21
7.0257178011
  0
LINE
  5
215
100
AcDbEntity
  8
0
100
AcDbLine
 62
7
  6
CONTINUOUS
 10
4.2233937569
 20
6.931065807
 11
4.2233937569
 21
7.0257178011
  0
LINE
  5
216
100
AcDbEntity
  8
0
100
AcDbLine
 62
7
  6
CONTINUOUS
 10
4.267214315
 20
6.931065807
 11
4.267214315
 21
7.0257178011
  0
LINE
  5
217
100
AcDbEntity
  8
0
100
AcDbLine
 62
7
  6
CONTINUOUS
 10
4.3089684241
 20
6.931065807
 11
4.3089684241
 21
7.0257178011
  0
LINE
  5
218
100
AcDbEntity
  8
0
100
AcDbLine
 62
7
  6
CONTINUOUS
 10
4.3482134263
 20
6.931065807
 11
4.3482134263
 21
7.0257178011
  0
LINE
  5
219
100
AcDbEntity
  8
0
100
AcDbLine
 62
7
  6
CONTINUOUS
 10
4.384533264
 20
6.931065807
 11
4.384533264
 21
7.0257178011
  0
LINE
  5
21A
100
AcDbEntity
  8
0
100
AcDbLine
 62
7
  6
CONTINUOUS
 10
-0.7177053198
 20
6.333391804
 11
0.8622946802
 21
6.333391804
  0
LINE
  5
21B
100
AcDbEntity
  8
0
100
AcDbLine
 62
7
  6
CONTINUOUS
 10
3.4163003437
 20
6.333391804
 11
4.7282890167
 21
6.333391804
  0
LINE
  5
21C
100
AcDbEntity
  8
0
100
AcDbLine
 62
7
  6
CONTINUOUS
 10
10.8897946802
 20
6.333391804
 11
13.2547946802
 21
6.333391804
  0
LINE
  5
21D
100
AcDbEntity
  8
0
100
AcDbLine
 62
7
  6
CONTINUOUS
 10
20.0598116017
 20
6.333391804
 11
22.0847777587
 21
6.333391804
  0
LINE
  5
21E
100
AcDbEntity
  8
0
100
AcDbLine
 62
7
  6
CONTINUOUS
 10
4.5518656763
 20
6.458391804
 11
3.5927236842
 21
6.458391804
  0
LINE
  5
21F
100
AcDbEntity
  8
0
100
AcDbLine
 62
9
  6
CONTINUOUS
 10
13.2236306675
 20
6.4675154031
 11
10.9209586929
 21
6.4675154031
  0
LINE
  5
220
100
AcDbEntity
  8
0
100
AcDbLine
 62
9
  6
CONTINUOUS
 10
13.181415198
 20
6.5111563956
 11
10.9631741624
 21
6.5111563956
  0
LINE
  5
221
100
AcDbEntity
  8
0
100
AcDbLine
 62
9
  6
CONTINUOUS
 10
22.0847946802
 20
6.5823592717
 11
20.0597946802
 21
6.5823592717
  0
LINE
  5
222
100
AcDbEntity
  8
0
100
AcDbLine
 62
7
  6
CONTINUOUS
 10
4.3646171927
 20
6.583391804
 11
3.7799721678
 21
6.583391804
  0
LINE
  5
223
100
AcDbEntity
  8
0
100
AcDbLine
 62
7
  6
CONTINUOUS
 10
22.0472946802
 20
6.653391804
 11
20.0972946802
 21
6.653391804
  0
LINE
  5
224
100
AcDbEntity
  8
0
100
AcDbLine
 62
9
  6
CONTINUOUS
 10
12.9011718685
 20
6.7161698666
 11
11.2434174919
 21
6.7161698666
  0
LINE
  5
225
100
AcDbEntity
  8
0
100
AcDbLine
 62
7
  6
CONTINUOUS
 10
11.4072946802
 20
6.808391804
 11
12.7372946802
 21
6.808391804
  0
LINE
  5
226
100
AcDbEntity
  8
0
100
AcDbLine
 62
7
  6
CONTINUOUS
 10
0.5672942109
 20
6.833391804
 11
-0.4227048505
 21
6.833391804
  0
LINE
  5
227
100
AcDbEntity
  8
0
100
AcDbLine
 62
7
  6
CONTINUOUS
 10
3.6772946802
 20
6.898391804
 11
4.4672946802
 21
6.898391804
  0
LINE
  5
228
100
AcDbEntity
  8
0
100
AcDbLine
 62
9
  6
CONTINUOUS
 10
0.5347946802
 20
6.913391804
 11
-0.3902053198
 21
6.913391804
  0
LINE
  5
229
100
AcDbEntity
  8
0
100
AcDbLine
 62
7
  6
CONTINUOUS
 10
12.7387946802
 20
6.9683777403
 11
11.4057946802
 21
6.9683777403
  0
LINE
  5
22A
100
AcDbEntity
  8
0
100
AcDbLine
 62
7
  6
CONTINUOUS
 10
4.4672946802
 20
7.058391804
 11
3.6772946802
 21
7.058391804
  0
LINE
  5
22B
100
AcDbEntity
  8
0
100
AcDbLine
 62
9
  6
CONTINUOUS
 10
-0.3549934068
 20
7.0774943681
 11
0.4995827673
 21
7.0774943681
  0
LINE
  5
22C
100
AcDbEntity
  8
0
100
AcDbLine
 62
7
  6
CONTINUOUS
 10
-0.3458737046
 20
7.083391804
 11
0.4904627385
 21
7.083391804
  0
LINE
  5
22D
100
AcDbEntity
  8
0
100
AcDbLine
 62
9
  6
CONTINUOUS
 10
20.3641024827
 20
7.4941369442
 11
21.7804868778
 21
7.4941369442
  0
LINE
  5
22E
100
AcDbEntity
  8
0
100
AcDbLine
 62
9
  6
CONTINUOUS
 10
20.4154240768
 20
7.6367325769
 11
21.7291652836
 21
7.6367325769
  0
LINE
  5
22F
100
AcDbEntity
  8
0
100
AcDbLine
 62
7
  6
CONTINUOUS
 10
12.5622946802
 20
7.832391804
 11
11.5822946802
 21
7.832391804
  0
LINE
  5
230
100
AcDbEntity
  8
0
100
AcDbLine
 62
7
  6
CONTINUOUS
 10
12.5622946802
 20
7.952391804
 11
11.5822946802
 21
7.952391804
  0
LINE
  5
231
100
AcDbEntity
  8
0
100
AcDbLine
 62
7
  6
CONTINUOUS
 10
12.3623346842
 20
8.148391804
 11
11.7822546762
 21
8.148391804
  0
LINE
  5
232
100
AcDbEntity
  8
0
100
AcDbLine
 62
9
  6
CONTINUOUS
 10
12.3222946802
 20
8.755391804
 11
12.2476955891
 21
8.755391804
  0
LINE
  5
233
100
AcDbEntity
  8
0
100
AcDbLine
 62
9
  6
CONTINUOUS
 10
11.8968937714
 20
8.755391804
 11
11.8223532444
 21
8.755391804
  0
LINE
  5
234
100
AcDbEntity
  8
0
100
AcDbLine
 62
7
  6
CONTINUOUS
 10
11.5675886393
 20
8.873391804
 11
11.7346426884
 21
8.873391804
  0
LINE
  5
235
100
AcDbEntity
  8
0
100
AcDbLine
 62
7
  6
CONTINUOUS
 10
12.4099466721
 20
8.873391804
 11
12.5769902537
 21
8.873391804
  0
LINE
  5
236
100
AcDbEntity
  8
0
100
AcDbLine
 62
9
  6
CONTINUOUS
 10
12.6518513394
 20
8.9271255233
 11
12.4524163498
 21
8.9271255233
  0
LINE
  5
237
100
AcDbEntity
  8
0
100
AcDbLine
 62
9
  6
CONTINUOUS
 10
11.6921730107
 20
8.9271255233
 11
11.492738021
 21
8.9271255233
  0
LINE
  5
238
100
AcDbEntity
  8
0
100
AcDbLine
 62
7
  6
CONTINUOUS
 10
10.9209586929
 20
6.4675154031
 11
10.8897946802
 21
6.333391804
  0
LINE
  5
239
100
AcDbEntity
  8
0
100
AcDbLine
 62
9
  6
CONTINUOUS
 10
11.4945359831
 20
9.4249216805
 11
11.6949864627
 21
9.4249216833
  0
LINE
  5
23A
100
AcDbEntity
  8
0
100
AcDbLine
 62
9
  6
CONTINUOUS
 10
12.4496028978
 20
9.4249216833
 11
12.6500533735
 21
9.4249216833
  0
LINE
  5
23B
100
AcDbEntity
  8
0
100
AcDbLine
 62
7
  6
CONTINUOUS
 10
11.5422946792
 20
9.4733918058
 11
11.7346426898
 21
9.4733918058
  0
LINE
  5
23C
100
AcDbEntity
  8
0
100
AcDbLine
 62
7
  6
CONTINUOUS
 10
12.4099466706
 20
9.4733918058
 11
12.6022946813
 21
9.4733918058
  0
LINE
  5
23D
100
AcDbEntity
  8
0
100
AcDbLine
 62
9
  6
CONTINUOUS
 10
12.6104497487
 20
9.487516797
 11
12.3983545899
 21
9.487516797
  0
LINE
  5
23E
100
AcDbEntity
  8
0
100
AcDbLine
 62
9
  6
CONTINUOUS
 10
11.7462347705
 20
9.487516797
 11
11.5341396117
 21
9.487516797
  0
LINE
  5
23F
100
AcDbEntity
  8
0
100
AcDbLine
 62
9
  6
CONTINUOUS
 10
11.5497946802
 20
9.5427238104
 11
11.8108968896
 21
9.5427238104
  0
LINE
  5
240
100
AcDbEntity
  8
0
100
AcDbLine
 62
9
  6
CONTINUOUS
 10
12.3336924709
 20
9.5427238104
 11
12.5947946802
 21
9.5427238104
  0
LINE
  5
241
100
AcDbEntity
  8
0
100
AcDbLine
 62
9
  6
CONTINUOUS
 10
12.5429239526
 20
9.6192331199
 11
12.1501589854
 21
9.6192331199
  0
LINE
  5
242
100
AcDbEntity
  8
0
100
AcDbLine
 62
9
  6
CONTINUOUS
 10
11.9944303751
 20
9.6192331199
 11
11.6016654078
 21
9.6192331199
  0
LINE
  5
243
100
AcDbEntity
  8
0
100
AcDbLine
 62
7
  6
CONTINUOUS
 10
12.5270302571
 20
9.633391804
 11
11.6175591033
 21
9.633391804
  0
LINE
  5
244
100
AcDbEntity
  8
0
100
AcDbLine
 62
9
  6
CONTINUOUS
 10
12.4588125374
 20
9.6777033299
 11
11.6857768231
 21
9.6777033299
  0
LINE
  5
245
100
AcDbEntity
  8
0
100
AcDbLine
 62
7
  6
CONTINUOUS
 10
20.3322956821
 20
9.801391804
 11
21.8122936783
 21
9.801391804
  0
LINE
  5
246
100
AcDbEntity
  8
0
100
AcDbLine
 62
9
  6
CONTINUOUS
 10
20.3122946802
 20
9.8762249518
 11
21.8322946802
 21
9.8762249518
  0
LINE
  5
247
100
AcDbEntity
  8
0
100
AcDbLine
 62
7
  6
CONTINUOUS
 10
11.7060735049
 20
7.8476704445
 11
11.7060735049
 21
7.9371131636
  0
LINE
  5
248
100
AcDbEntity
  8
0
100
AcDbLine
 62
7
  6
CONTINUOUS
 10
11.7418915796
 20
7.8476704445
 11
11.7418915796
 21
7.9371131636
  0
LINE
  5
249
100
AcDbEntity
  8
0
100
AcDbLine
 62
7
  6
CONTINUOUS
 10
11.7803700135
 20
7.8476704445
 11
11.7803700135
 21
7.9371131636
  0
LINE
  5
24A
100
AcDbEntity
  8
0
100
AcDbLine
 62
7
  6
CONTINUOUS
 10
11.8211989836
 20
7.8476704445
 11
11.8211989836
 21
7.9371131636
  0
LINE
  5
24B
100
AcDbEntity
  8
0
100
AcDbLine
 62
7
  6
CONTINUOUS
 10
11.8222946802
 20
8.148391804
 11
11.8222946802
 21
8.755391804
  0
LINE
  5
24C
100
AcDbEntity
  8
0
100
AcDbLine
 62
7
  6
CONTINUOUS
 10
11.8640497408
 20
7.8476704445
 11
11.8640497408
 21
7.9371131636
  0
LINE
  5
24D
100
AcDbEntity
  8
0
100
AcDbLine
 62
7
  6
CONTINUOUS
 10
11.908577257
 20
7.8476704445
 11
11.908577257
 21
7.9371131636
  0
LINE
  5
24E
100
AcDbEntity
  8
0
100
AcDbLine
 62
7
  6
CONTINUOUS
 10
11.9544230027
 20
7.8476704445
 11
11.9544230027
 21
7.9371131636
  0
LINE
  5
24F
100
AcDbEntity
  8
0
100
AcDbLine
 62
7
  6
CONTINUOUS
 10
12.0012178346
 20
7.8476704445
 11
12.0012178346
 21
7.9371131636
  0
LINE
  5
250
100
AcDbEntity
  8
0
100
AcDbLine
 62
7
  6
CONTINUOUS
 10
12.0485849673
 20
7.8476704445
 11
12.0485849673
 21
7.9371131636
  0
LINE
  5
251
100
AcDbEntity
  8
0
100
AcDbLine
 62
7
  6
CONTINUOUS
 10
12.0961430072
 20
7.8476704445
 11
12.0961430072
 21
7.9371131636
  0
LINE
  5
252
100
AcDbEntity
  8
0
100
AcDbLine
 62
7
  6
CONTINUOUS
 10
12.1435090237
 20
7.8476704445
 11
12.1435090237
 21
7.9371131636
  0
LINE
  5
253
100
AcDbEntity
  8
0
100
AcDbLine
 62
7
  6
CONTINUOUS
 10
12.1903016324
 20
7.8476704445
 11
12.1903016324
 21
7.9371131636
  0
LINE
  5
254
100
AcDbEntity
  8
0
100
AcDbLine
 62
7
  6
CONTINUOUS
 10
12.2361440657
 20
7.8476704445
 11
12.2361440657
 21
7.9371131636
  0
LINE
  5
255
100
AcDbEntity
  8
0
100
AcDbLine
 62
7
  6
CONTINUOUS
 10
12.2806672069
 20
7.8476704445
 11
12.2806672069
 21
7.9371131636
  0
LINE
  5
256
100
AcDbEntity
  8
0
100
AcDbLine
 62
7
  6
CONTINUOUS
 10
12.3222946802
 20
8.148391804
 11
12.3222946802
 21
8.755391804
  0
LINE
  5
257
100
AcDbEntity
  8
0
100
AcDbLine
 62
7
  6
CONTINUOUS
 10
12.3235125619
 20
7.8476704445
 11
12.3235125619
 21
7.9371131636
  0
LINE
  5
258
100
AcDbEntity
  8
0
100
AcDbLine
 62
7
  6
CONTINUOUS
 10
12.3643351459
 20
7.8476704445
 11
12.3643351459
 21
7.9371131636
  0
LINE
  5
259
100
AcDbEntity
  8
0
100
AcDbLine
 62
7
  6
CONTINUOUS
 10
12.6104497487
 20
9.487516797
 11
12.6022946813
 21
9.4733918058
  0
LINE
  5
25A
100
AcDbEntity
  8
0
100
AcDbLine
 62
9
  6
CONTINUOUS
 10
21.8322946802
 20
10.4356525729
 11
20.3122946802
 21
10.4356525729
  0
LINE
  5
25B
100
AcDbEntity
  8
0
100
AcDbLine
 62
9
  6
CONTINUOUS
 10
20.2838259015
 20
10.5055330736
 11
21.860763459
 21
10.5055330736
  0
LINE
  5
25C
100
AcDbEntity
  8
0
100
AcDbLine
 62
7
  6
CONTINUOUS
 10
11.5341396117
 20
9.487516797
 11
11.5422946792
 21
9.4733918059
  0
LINE
  5
25D
100
AcDbEntity
  8
0
100
AcDbLine
 62
7
  6
CONTINUOUS
 10
12.4028062612
 20
7.8476704445
 11
12.4028062612
 21
7.9371131636
  0
LINE
  5
25E
100
AcDbEntity
  8
0
100
AcDbLine
 62
7
  6
CONTINUOUS
 10
12.4386161439
 20
7.8476704445
 11
12.4386161439
 21
7.9371131636
  0
LINE
  5
25F
100
AcDbEntity
  8
0
100
AcDbLine
 62
7
  6
CONTINUOUS
 10
20.0069170761
 20
10.801391804
 11
20.2049922669
 21
10.801391804
  0
LINE
  5
260
100
AcDbEntity
  8
0
100
AcDbLine
 62
7
  6
CONTINUOUS
 10
20.4329256367
 20
10.801391804
 11
20.9111214488
 21
10.801391804
  0
LINE
  5
261
100
AcDbEntity
  8
0
100
AcDbLine
 62
7
  6
CONTINUOUS
 10
21.2334679117
 20
10.801391804
 11
21.7116637237
 21
10.801391804
  0
LINE
  5
262
100
AcDbEntity
  8
0
100
AcDbLine
 62
7
  6
CONTINUOUS
 10
21.9395970936
 20
10.801391804
 11
22.1376722844
 21
10.801391804
  0
LINE
  5
263
100
AcDbEntity
  8
0
100
AcDbLine
 62
9
  6
CONTINUOUS
 10
22.1376722844
 20
11.411391804
 11
21.9395970936
 21
11.411391804
  0
LINE
  5
264
100
AcDbEntity
  8
0
100
AcDbLine
 62
9
  6
CONTINUOUS
 10
21.7116637237
 20
11.411391804
 11
21.2334679117
 21
11.411391804
  0
LINE
  5
265
100
AcDbEntity
  8
0
100
AcDbLine
 62
9
  6
CONTINUOUS
 10
20.9111214488
 20
11.411391804
 11
20.4329256367
 21
11.411391804
  0
LINE
  5
266
100
AcDbEntity
  8
0
100
AcDbLine
 62
9
  6
CONTINUOUS
 10
20.2049922669
 20
11.411391804
 11
20.0069170761
 21
11.411391804
  0
LINE
  5
267
100
AcDbEntity
  8
0
100
AcDbLine
 62
7
  6
CONTINUOUS
 10
13.2236306675
 20
6.4675154031
 11
13.2547946802
 21
6.333391804
  0
LINE
  5
268
100
AcDbEntity
  8
0
100
AcDbLine
 62
7
  6
CONTINUOUS
 10
21.9997796386
 20
11.561391804
 11
20.1448097219
 21
11.561391804
  0
LINE
  5
269
100
AcDbEntity
  8
0
100
AcDbLine
 62
9
  6
CONTINUOUS
 10
20.1631582472
 20
11.621391804
 11
21.9814311133
 21
11.621391804
  0
LINE
  5
26A
100
AcDbEntity
  8
0
100
AcDbLine
 62
7
  6
CONTINUOUS
 10
21.860763459
 20
10.5055330736
 11
22.0622946802
 21
10.7118248749
  0
LINE
  5
26B
100
AcDbEntity
  8
0
100
AcDbLine
 62
7
  6
CONTINUOUS
 10
20.2838259015
 20
10.5055330736
 11
20.0822946802
 21
10.7118248749
  0
LINE
  5
26C
100
AcDbEntity
  8
0
100
AcDbLine
 62
7
  6
CONTINUOUS
 10
20.0069170761
 20
10.801391804
 11
20.0069170761
 21
11.411391804
  0
LINE
  5
26D
100
AcDbEntity
  8
0
100
AcDbLine
 62
7
  6
CONTINUOUS
 10
20.0597946802
 20
6.5823592717
 11
20.0597946802
 21
6.333391804
  0
LINE
  5
26E
100
AcDbEntity
  8
0
100
AcDbLine
 62
7
  6
CONTINUOUS
 10
20.4337665428
 20
10.7854668468
 11
20.4329256367
 21
10.801391804
  0
LINE
  5
26F
100
AcDbEntity
  8
0
100
AcDbLine
 62
7
  6
CONTINUOUS
 10
20.2049922669
 20
10.801391804
 11
20.2049922669
 21
11.411391804
  0
LINE
  5
270
100
AcDbEntity
  8
0
100
AcDbLine
 62
7
  6
CONTINUOUS
 10
20.3122946802
 20
10.4356525729
 11
20.3122946802
 21
9.8762249518
  0
LINE
  5
271
100
AcDbEntity
  8
0
100
AcDbLine
 62
7
  6
CONTINUOUS
 10
20.4329256367
 20
10.801391804
 11
20.4329256367
 21
11.411391804
  0
LINE
  5
272
100
AcDbEntity
  8
0
100
AcDbLine
 62
7
  6
CONTINUOUS
 10
20.9111214488
 20
10.801391804
 11
20.9111214488
 21
11.411391804
  0
LINE
  5
273
100
AcDbEntity
  8
0
100
AcDbLine
 62
7
  6
CONTINUOUS
 10
20.4967057474
 20
9.801391804
 11
20.4154240768
 21
7.6367325769
  0
LINE
  5
274
100
AcDbEntity
  8
0
100
AcDbLine
 62
7
  6
CONTINUOUS
 10
21.647883613
 20
9.801391804
 11
21.7291652836
 21
7.6367325769
  0
LINE
  5
275
100
AcDbEntity
  8
0
100
AcDbLine
 62
7
  6
CONTINUOUS
 10
21.2334679117
 20
10.801391804
 11
21.2334679117
 21
11.411391804
  0
LINE
  5
276
100
AcDbEntity
  8
0
100
AcDbLine
 62
7
  6
CONTINUOUS
 10
21.7116637237
 20
10.801391804
 11
21.7116637237
 21
11.411391804
  0
LINE
  5
277
100
AcDbEntity
  8
0
100
AcDbLine
 62
7
  6
CONTINUOUS
 10
21.8322946802
 20
10.4356525729
 11
21.8322946802
 21
9.8762249518
  0
LINE
  5
278
100
AcDbEntity
  8
0
100
AcDbLine
 62
7
  6
CONTINUOUS
 10
21.9395970936
 20
10.801391804
 11
21.9395970936
 21
11.411391804
  0
LINE
  5
279
100
AcDbEntity
  8
0
100
AcDbLine
 62
7
  6
CONTINUOUS
 10
22.0847946802
 20
6.5823592717
 11
22.0847946802
 21
6.333391804
  0
LINE
  5
27A
100
AcDbEntity
  8
0
100
AcDbLine
 62
7
  6
CONTINUOUS
 10
22.1376722844
 20
10.801391804
 11
22.1376722844
 21
11.411391804
  0
LINE
  5
27B
100
AcDbEntity
  8
0
100
AcDbLine
 62
7
  6
CONTINUOUS
 10
21.7116637237
 20
10.801391804
 11
21.7108228177
 21
10.7854666086
  0
ARC
  5
27C
100
AcDbEntity
  8
0
100
AcDbCircle
 62
7
  6
CONTINUOUS
 10
0.1635150865
 20
6.1504967643
 40
0.9
100
AcDbArc
 50
130.6439171763
 51
168.2748731243
  0
ARC
  5
27D
100
AcDbEntity
  8
0
100
AcDbCircle
 62
7
  6
CONTINUOUS
 10
-0.0189257261
 20
6.1504967643
 40
0.9
100
AcDbArc
 50
11.7251268757
 51
49.3560828237
  0
ARC
  5
27E
100
AcDbEntity
  8
0
100
AcDbCircle
 62
7
  6
CONTINUOUS
 10
4.8782922527
 20
6.5850258926
 40
0.55
100
AcDbArc
 50
145.2667732285
 51
180.1702300279
  0
ARC
  5
27F
100
AcDbEntity
  8
0
100
AcDbCircle
 62
7
  6
CONTINUOUS
 10
3.2662971077
 20
6.5850258926
 40
0.55
100
AcDbArc
 50
359.8297699721
 51
34.7332267715
  0
ARC
  5
280
100
AcDbEntity
  8
0
100
AcDbCircle
 62
7
  6
CONTINUOUS
 10
4.0722946802
 20
6.783391804
 40
0.43
100
AcDbArc
 50
39.7571456882
 51
140.2428543118
  0
ARC
  5
281
100
AcDbEntity
  8
0
100
AcDbCircle
 62
7
  6
CONTINUOUS
 10
0.0097946802
 20
6.913391804
 40
0.4
100
AcDbArc
 50
155.7790568908
 51
180.0
  0
ARC
  5
282
100
AcDbEntity
  8
0
100
AcDbCircle
 62
7
  6
CONTINUOUS
 10
0.1347946802
 20
6.913391804
 40
0.4
100
AcDbArc
 50
0.0
 51
24.2209431092
  0
ARC
  5
283
100
AcDbEntity
  8
0
100
AcDbCircle
 62
7
  6
CONTINUOUS
 10
4.5518718926
 20
6.271391804
 40
0.187
100
AcDbArc
 50
19.3629299219
 51
90.0
  0
ARC
  5
284
100
AcDbEntity
  8
0
100
AcDbCircle
 62
7
  6
CONTINUOUS
 10
3.5927174679
 20
6.271391804
 40
0.187
100
AcDbArc
 50
90.0
 51
160.6370700781
  0
ARC
  5
285
100
AcDbEntity
  8
0
100
AcDbCircle
 62
7
  6
CONTINUOUS
 10
3.7799674679
 20
6.396391804
 40
0.187
100
AcDbArc
 50
90.0
 51
160.6370700781
  0
ARC
  5
286
100
AcDbEntity
  8
0
100
AcDbCircle
 62
7
  6
CONTINUOUS
 10
4.3646218926
 20
6.396391804
 40
0.187
100
AcDbArc
 50
19.3629299219
 51
90.0
  0
ARC
  5
287
100
AcDbEntity
  8
0
100
AcDbCircle
 62
7
  6
CONTINUOUS
 10
4.4645510463
 20
6.9783987257
 40
0.0824989124
100
AcDbArc
 50
351.4574635788
 51
8.5394328504
  0
ARC
  5
288
100
AcDbEntity
  8
0
100
AcDbCircle
 62
7
  6
CONTINUOUS
 10
4.4672946802
 20
6.978391804
 40
0.08
100
AcDbArc
 50
270.0
 51
323.7311477755
  0
ARC
  5
289
100
AcDbEntity
  8
0
100
AcDbCircle
 62
7
  6
CONTINUOUS
 10
4.4672946802
 20
6.978391804
 40
0.08
100
AcDbArc
 50
36.2688522245
 51
90.0
  0
ARC
  5
28A
100
AcDbEntity
  8
0
100
AcDbCircle
 62
7
  6
CONTINUOUS
 10
3.6772946802
 20
6.978391804
 40
0.08
100
AcDbArc
 50
90.0
 51
143.4916464415
  0
ARC
  5
28B
100
AcDbEntity
  8
0
100
AcDbCircle
 62
7
  6
CONTINUOUS
 10
3.6772946802
 20
6.978391804
 40
0.08
100
AcDbArc
 50
216.5083535585
 51
270.0
  0
ARC
  5
28C
100
AcDbEntity
  8
0
100
AcDbCircle
 62
7
  6
CONTINUOUS
 10
4.4673073858
 20
6.9790279906
 40
0.0796610328
100
AcDbArc
 50
17.6695952437
 51
22.6175519184
  0
ARC
  5
28D
100
AcDbEntity
  8
0
100
AcDbCircle
 62
7
  6
CONTINUOUS
 10
4.4674070007
 20
6.9777191269
 40
0.0795550441
100
AcDbArc
 50
337.3793300815
 51
342.3336659029
  0
ARC
  5
28E
100
AcDbEntity
  8
0
100
AcDbCircle
 62
7
  6
CONTINUOUS
 10
4.4681774102
 20
6.9773980158
 40
0.0787203941
100
AcDbArc
 50
333.5498291442
 51
337.3793929937
  0
ARC
  5
28F
100
AcDbEntity
  8
0
100
AcDbCircle
 62
7
  6
CONTINUOUS
 10
4.4681774553
 20
6.9793856125
 40
0.0787203448
100
AcDbArc
 50
22.6208210887
 51
26.4501836716
  0
ARC
  5
290
100
AcDbEntity
  8
0
100
AcDbCircle
 62
7
  6
CONTINUOUS
 10
4.4683760284
 20
6.9773073895
 40
0.0785021968
100
AcDbArc
 50
333.5444811482
 51
337.3846928007
  0
ARC
  5
291
100
AcDbEntity
  8
0
100
AcDbCircle
 62
7
  6
CONTINUOUS
 10
4.4683760852
 20
6.9794762438
 40
0.0785021351
100
AcDbArc
 50
22.6155218988
 51
26.4555323489
  0
ARC
  5
292
100
AcDbEntity
  8
0
100
AcDbCircle
 62
7
  6
CONTINUOUS
 10
4.4693898822
 20
6.9767958048
 40
0.0773666047
100
AcDbArc
 50
323.7661809435
 51
333.5491732401
  0
ARC
  5
293
100
AcDbEntity
  8
0
100
AcDbCircle
 62
7
  6
CONTINUOUS
 10
4.4696708149
 20
6.9801589194
 40
0.0770388626
100
AcDbArc
 50
26.4299631155
 51
36.2546657154
  0
ARC
  5
294
100
AcDbEntity
  8
0
100
AcDbCircle
 62
7
  6
CONTINUOUS
 10
4.0969759575
 20
6.9784481695
 40
0.0763954418
100
AcDbArc
 50
141.774325775
 51
180.0422727584
  0
ARC
  5
295
100
AcDbEntity
  8
0
100
AcDbCircle
 62
7
  6
CONTINUOUS
 10
4.0969758675
 20
6.9783354056
 40
0.0763953479
100
AcDbArc
 50
179.9577024617
 51
218.2256965908
  0
ARC
  5
296
100
AcDbEntity
  8
0
100
AcDbCircle
 62
7
  6
CONTINUOUS
 10
-0.3458737046
 20
7.073391804
 40
0.01
100
AcDbArc
 50
90.0
 51
155.7790568908
  0
ARC
  5
297
100
AcDbEntity
  8
0
100
AcDbCircle
 62
7
  6
CONTINUOUS
 10
0.4904630651
 20
7.073391804
 40
0.01
100
AcDbArc
 50
24.2209431092
 51
90.0
  0
ARC
  5
298
100
AcDbEntity
  8
0
100
AcDbCircle
 62
7
  6
CONTINUOUS
 10
7.4812182666
 20
6.9762608562
 40
3.738192012
100
AcDbArc
 50
179.9673386701
 51
180.6927275694
  0
ARC
  5
299
100
AcDbEntity
  8
0
100
AcDbCircle
 62
7
  6
CONTINUOUS
 10
7.4812133289
 20
6.9805227803
 40
3.7381870743
100
AcDbArc
 50
179.3072719515
 51
180.032661809
  0
ARC
  5
29A
100
AcDbEntity
  8
0
100
AcDbCircle
 62
7
  6
CONTINUOUS
 10
10.8390770389
 20
6.9748372168
 40
0.48
100
AcDbArc
 50
284.9831919528
 51
327.3918704587
  0
ARC
  5
29B
100
AcDbEntity
  8
0
100
AcDbCircle
 62
7
  6
CONTINUOUS
 10
11.4118926807
 20
6.608391804
 40
0.2
100
AcDbArc
 50
90.0
 51
147.3918704587
  0
ARC
  5
29C
100
AcDbEntity
  8
0
100
AcDbCircle
 62
7
  6
CONTINUOUS
 10
11.4072946802
 20
6.888391804
 40
0.08
100
AcDbArc
 50
91.0743588229
 51
270.0
  0
ARC
  5
29D
100
AcDbEntity
  8
0
100
AcDbCircle
 62
7
  6
CONTINUOUS
 10
10.9784277672
 20
6.4541622947
 40
0.059
100
AcDbArc
 50
104.9831919522
 51
166.9192612079
  0
ARC
  5
29E
100
AcDbEntity
  8
0
100
AcDbCircle
 62
7
  6
CONTINUOUS
 10
10.5852827418
 20
7.5860258269
 40
1.027
100
AcDbArc
 50
323.029050496
 51
13.8799876593
  0
ARC
  5
29F
100
AcDbEntity
  8
0
100
AcDbCircle
 62
7
  6
CONTINUOUS
 10
11.7181457836
 20
7.8923893299
 40
0.1325168767
100
AcDbArc
 50
176.624066147
 51
183.3752041292
  0
ARC
  5
2A0
100
AcDbEntity
  8
0
100
AcDbCircle
 62
7
  6
CONTINUOUS
 10
11.6705114048
 20
7.8923887243
 40
0.1058926378
100
AcDbArc
 50
175.7735507046
 51
184.225536171
  0
ARC
  5
2A1
100
AcDbEntity
  8
0
100
AcDbCircle
 62
7
  6
CONTINUOUS
 10
11.6364971841
 20
7.8923880153
 40
0.0888008221
100
AcDbArc
 50
174.9576764908
 51
185.0412347324
  0
ARC
  5
2A2
100
AcDbEntity
  8
0
100
AcDbCircle
 62
7
  6
CONTINUOUS
 10
11.6120139607
 20
7.8923872258
 40
0.0770160121
100
AcDbArc
 50
174.1830385359
 51
185.8157062135
  0
ARC
  5
2A3
100
AcDbEntity
  8
0
100
AcDbCircle
 62
7
  6
CONTINUOUS
 10
11.5951224377
 20
7.8923972232
 40
0.0684966649
100
AcDbArc
 50
173.4558537832
 51
186.5427349975
  0
ARC
  5
2A4
100
AcDbEntity
  8
0
100
AcDbCircle
 62
7
  6
CONTINUOUS
 10
11.5824139784
 20
7.892565383
 40
0.06020922
100
AcDbArc
 50
234.8892407437
 51
242.1033161251
  0
ARC
  5
2A5
100
AcDbEntity
  8
0
100
AcDbCircle
 62
7
  6
CONTINUOUS
 10
11.5823585924
 20
7.8924966357
 40
0.0601211263
100
AcDbArc
 50
229.8761931968
 51
234.8947371393
  0
ARC
  5
2A6
100
AcDbEntity
  8
0
100
AcDbCircle
 62
7
  6
CONTINUOUS
 10
11.5822946802
 20
7.892391804
 40
0.06
100
AcDbArc
 50
242.1264454937
 51
270.0
  0
ARC
  5
2A7
100
AcDbEntity
  8
0
100
AcDbCircle
 62
7
  6
CONTINUOUS
 10
11.5822946802
 20
7.892391804
 40
0.06
100
AcDbArc
 50
90.0
 51
131.8430123862
  0
ARC
  5
2A8
100
AcDbEntity
  8
0
100
AcDbCircle
 62
7
  6
CONTINUOUS
 10
11.5819973073
 20
7.892060768
 40
0.0595550116
100
AcDbArc
 50
228.1905896649
 51
229.8717358002
  0
ARC
  5
2A9
100
AcDbEntity
  8
0
100
AcDbCircle
 62
7
  6
CONTINUOUS
 10
11.5812345179
 20
7.8937353996
 40
0.0582997055
100
AcDbArc
 50
141.0562752495
 51
149.6927976584
  0
ARC
  5
2AA
100
AcDbEntity
  8
0
100
AcDbCircle
 62
7
  6
CONTINUOUS
 10
11.5812018672
 20
7.8910256611
 40
0.058260139
100
AcDbArc
 50
210.3040410715
 51
218.9467434564
  0
ARC
  5
2AB
100
AcDbEntity
  8
0
100
AcDbCircle
 62
7
  6
CONTINUOUS
 10
11.5807721092
 20
7.8907425521
 40
0.0577479629
100
AcDbArc
 50
218.9963146022
 51
228.2332992891
  0
ARC
  5
2AC
100
AcDbEntity
  8
0
100
AcDbCircle
 62
7
  6
CONTINUOUS
 10
11.5806518545
 20
7.8941556353
 40
0.0575824024
100
AcDbArc
 50
131.7533948765
 51
141.0170783555
  0
ARC
  5
2AD
100
AcDbEntity
  8
0
100
AcDbCircle
 62
7
  6
CONTINUOUS
 10
11.5804416956
 20
7.8923696837
 40
0.0573425996
100
AcDbArc
 50
147.5360580817
 51
212.4647874362
  0
ARC
  5
2AE
100
AcDbEntity
  8
0
100
AcDbCircle
 62
7
  6
CONTINUOUS
 10
11.5815193869
 20
7.8923837943
 40
0.0535419885
100
AcDbArc
 50
171.6153424538
 51
188.3864622829
  0
ARC
  5
2AF
100
AcDbEntity
  8
0
100
AcDbCircle
 62
7
  6
CONTINUOUS
 10
11.5878841044
 20
7.8923830052
 40
0.0506461284
100
AcDbArc
 50
171.1312605189
 51
188.8706472146
  0
ARC
  5
2B0
100
AcDbEntity
  8
0
100
AcDbCircle
 62
7
  6
CONTINUOUS
 10
11.5993129974
 20
7.8923750463
 40
0.0485062446
100
AcDbArc
 50
170.7271148908
 51
189.2748750774
  0
ARC
  5
2B1
100
AcDbEntity
  8
0
100
AcDbCircle
 62
7
  6
CONTINUOUS
 10
11.6154155459
 20
7.8923726641
 40
0.046841068
100
AcDbArc
 50
170.3914448206
 51
189.6106152824
  0
ARC
  5
2B2
100
AcDbEntity
  8
0
100
AcDbCircle
 62
7
  6
CONTINUOUS
 10
11.6360326394
 20
7.8923707668
 40
0.0456345522
100
AcDbArc
 50
170.1324831442
 51
189.8696309303
  0
ARC
  5
2B3
100
AcDbEntity
  8
0
100
AcDbCircle
 62
7
  6
CONTINUOUS
 10
11.6609726233
 20
7.89236592
 40
0.0448707648
100
AcDbArc
 50
169.956511659
 51
190.0456410219
  0
ARC
  5
2B4
100
AcDbEntity
  8
0
100
AcDbCircle
 62
7
  6
CONTINUOUS
 10
11.6899142681
 20
7.8923651059
 40
0.0444354367
100
AcDbArc
 50
169.8560124179
 51
190.1461564676
  0
ARC
  5
2B5
100
AcDbEntity
  8
0
100
AcDbCircle
 62
7
  6
CONTINUOUS
 10
11.9188441086
 20
7.8923901585
 40
0.2796399516
100
AcDbArc
 50
178.4010865206
 51
181.5985674393
  0
ARC
  5
2B6
100
AcDbEntity
  8
0
100
AcDbCircle
 62
7
  6
CONTINUOUS
 10
11.7896120163
 20
7.8923898126
 40
0.1790544053
100
AcDbArc
 50
177.5023045258
 51
182.4971553772
  0
ARC
  5
2B7
100
AcDbEntity
  8
0
100
AcDbCircle
 62
7
  6
CONTINUOUS
 10
11.7822546762
 20
7.948391804
 40
0.2
100
AcDbArc
 50
90.0
 51
178.8540080016
  0
ARC
  5
2B8
100
AcDbEntity
  8
0
100
AcDbCircle
 62
7
  6
CONTINUOUS
 10
11.9222946802
 20
9.173391804
 40
0.77
100
AcDbArc
 50
341.3475770897
 51
19.0663079413
  0
ARC
  5
2B9
100
AcDbEntity
  8
0
100
AcDbCircle
 62
7
  6
CONTINUOUS
 10
11.7042946802
 20
8.755391804
 40
0.118
100
AcDbArc
 50
0.0
 51
24.6405455407
  0
ARC
  5
2BA
100
AcDbEntity
  8
0
100
AcDbCircle
 62
7
  6
CONTINUOUS
 10
11.7042946802
 20
8.755391804
 40
0.118
100
AcDbArc
 50
72.5189437765
 51
90.0
  0
ARC
  5
2BB
100
AcDbEntity
  8
0
100
AcDbCircle
 62
7
  6
CONTINUOUS
 10
11.5023298111
 20
9.6307413439
 40
0.1
100
AcDbArc
 50
298.3364788229
 51
353.3916314553
  0
ARC
  5
2BC
100
AcDbEntity
  8
0
100
AcDbCircle
 62
7
  6
CONTINUOUS
 10
11.5675886393
 20
8.952391804
 40
0.079
100
AcDbArc
 50
198.6524229106
 51
270.0
  0
ARC
  5
2BD
100
AcDbEntity
  8
0
100
AcDbCircle
 62
7
  6
CONTINUOUS
 10
11.569202136
 20
9.399115371
 40
0.079
100
AcDbArc
 50
109.9134773482
 51
160.9336918346
  0
ARC
  5
2BE
100
AcDbEntity
  8
0
100
AcDbCircle
 62
7
  6
CONTINUOUS
 10
11.7022946802
 20
9.6305105296
 40
0.05
100
AcDbArc
 50
109.2904540363
 51
176.6453337496
  0
ARC
  5
2BF
100
AcDbEntity
  8
0
100
AcDbCircle
 62
7
  6
CONTINUOUS
 10
11.5687806279
 20
9.507516797
 40
0.04
100
AcDbArc
 50
118.3364788227
 51
210.0
  0
ARC
  5
2C0
100
AcDbEntity
  8
0
100
AcDbCircle
 62
7
  6
CONTINUOUS
 10
11.6175591033
 20
9.617391804
 40
0.016
100
AcDbArc
 50
90.0
 51
173.3916314566
  0
ARC
  5
2C1
100
AcDbEntity
  8
0
100
AcDbCircle
 62
7
  6
CONTINUOUS
 10
12.7326966798
 20
6.608391804
 40
0.2
100
AcDbArc
 50
32.6081295413
 51
90.0
  0
ARC
  5
2C2
100
AcDbEntity
  8
0
100
AcDbCircle
 62
7
  6
CONTINUOUS
 10
13.1661615933
 20
6.4541622947
 40
0.059
100
AcDbArc
 50
13.0807387921
 51
75.0168080478
  0
ARC
  5
2C3
100
AcDbEntity
  8
0
100
AcDbCircle
 62
7
  6
CONTINUOUS
 10
12.7372946802
 20
6.888391804
 40
0.08
100
AcDbArc
 50
270.0
 51
88.9256411771
  0
ARC
  5
2C4
100
AcDbEntity
  8
0
100
AcDbCircle
 62
7
  6
CONTINUOUS
 10
12.2262957217
 20
7.8923934515
 40
0.2791782216
100
AcDbArc
 50
358.3984411458
 51
1.6012117439
  0
ARC
  5
2C5
100
AcDbEntity
  8
0
100
AcDbCircle
 62
7
  6
CONTINUOUS
 10
12.3552412412
 20
7.8923937967
 40
0.1788687259
100
AcDbArc
 50
357.4997096946
 51
2.4997496599
  0
ARC
  5
2C6
100
AcDbEntity
  8
0
100
AcDbCircle
 62
7
  6
CONTINUOUS
 10
12.3623346842
 20
7.948391804
 40
0.2
100
AcDbArc
 50
1.1459919984
 51
90.0
  0
ARC
  5
2C7
100
AcDbEntity
  8
0
100
AcDbCircle
 62
7
  6
CONTINUOUS
 10
12.4266095139
 20
7.8923942798
 40
0.1324180053
100
AcDbArc
 50
356.6215418549
 51
3.377727893
  0
ARC
  5
2C8
100
AcDbEntity
  8
0
100
AcDbCircle
 62
7
  6
CONTINUOUS
 10
12.4741941198
 20
7.8923948857
 40
0.1058318473
100
AcDbArc
 50
355.7711175458
 51
4.2279688264
  0
ARC
  5
2C9
100
AcDbEntity
  8
0
100
AcDbCircle
 62
7
  6
CONTINUOUS
 10
12.5081761611
 20
7.8923955949
 40
0.0887600733
100
AcDbArc
 50
354.955354196
 51
5.0435565521
  0
ARC
  5
2CA
100
AcDbEntity
  8
0
100
AcDbCircle
 62
7
  6
CONTINUOUS
 10
12.5326350469
 20
7.8923963847
 40
0.0769871149
100
AcDbArc
 50
354.1808458135
 51
5.8178984934
  0
ARC
  5
2CB
100
AcDbEntity
  8
0
100
AcDbCircle
 62
7
  6
CONTINUOUS
 10
12.5495062287
 20
7.8923863824
 40
0.0684753754
100
AcDbArc
 50
353.4538081541
 51
6.5447802203
  0
ARC
  5
2CC
100
AcDbEntity
  8
0
100
AcDbCircle
 62
7
  6
CONTINUOUS
 10
12.5622946802
 20
7.892391804
 40
0.06
100
AcDbArc
 50
48.1896851042
 51
90.0
  0
ARC
  5
2CD
100
AcDbEntity
  8
0
100
AcDbCircle
 62
7
  6
CONTINUOUS
 10
12.5622946802
 20
7.892391804
 40
0.06
100
AcDbArc
 50
270.0
 51
311.8103148958
  0
ARC
  5
2CE
100
AcDbEntity
  8
0
100
AcDbCircle
 62
7
  6
CONTINUOUS
 10
12.5631051609
 20
7.8935687372
 40
0.0586002307
100
AcDbArc
 50
30.3177004461
 51
35.5431542231
  0
ARC
  5
2CF
100
AcDbEntity
  8
0
100
AcDbCircle
 62
7
  6
CONTINUOUS
 10
12.5631181257
 20
7.8912069488
 40
0.0585850399
100
AcDbArc
 50
324.1215136193
 51
329.6817719112
  0
ARC
  5
2D0
100
AcDbEntity
  8
0
100
AcDbCircle
 62
7
  6
CONTINUOUS
 10
12.563485361
 20
7.8938336212
 40
0.0581368893
100
AcDbArc
 50
35.5485609806
 51
38.963271018
  0
ARC
  5
2D1
100
AcDbEntity
  8
0
100
AcDbCircle
 62
7
  6
CONTINUOUS
 10
12.5635010022
 20
7.89093795
 40
0.0581171585
100
AcDbArc
 50
321.0374237058
 51
324.1151722204
  0
ARC
  5
2D2
100
AcDbEntity
  8
0
100
AcDbCircle
 62
7
  6
CONTINUOUS
 10
12.5638119551
 20
7.8906850818
 40
0.0577163681
100
AcDbArc
 50
311.8171694958
 51
321.0385041001
  0
ARC
  5
2D3
100
AcDbEntity
  8
0
100
AcDbCircle
 62
7
  6
CONTINUOUS
 10
12.5638119684
 20
7.8940985395
 40
0.0577163495
100
AcDbArc
 50
38.9626663107
 51
48.1828315772
  0
ARC
  5
2D4
100
AcDbEntity
  8
0
100
AcDbCircle
 62
7
  6
CONTINUOUS
 10
12.5641462935
 20
7.8924134607
 40
0.0573517286
100
AcDbArc
 50
327.5424006671
 51
32.4584493843
  0
ARC
  5
2D5
100
AcDbEntity
  8
0
100
AcDbCircle
 62
7
  6
CONTINUOUS
 10
12.5630810249
 20
7.8923998115
 40
0.0535515641
100
AcDbArc
 50
351.6168551431
 51
8.3849493121
  0
ARC
  5
2D6
100
AcDbEntity
  8
0
100
AcDbCircle
 62
7
  6
CONTINUOUS
 10
12.5567311686
 20
7.8924006007
 40
0.0506535341
100
AcDbArc
 50
351.1325701535
 51
8.869337345
  0
ARC
  5
2D7
100
AcDbEntity
  8
0
100
AcDbCircle
 62
7
  6
CONTINUOUS
 10
12.5453165046
 20
7.8924085542
 40
0.0485118445
100
AcDbArc
 50
350.7282038079
 51
9.2737859772
  0
ARC
  5
2D8
100
AcDbEntity
  8
0
100
AcDbCircle
 62
7
  6
CONTINUOUS
 10
12.5292274541
 20
7.8924109378
 40
0.0468452245
100
AcDbArc
 50
350.3923132499
 51
9.6097467184
  0
ARC
  5
2D9
100
AcDbEntity
  8
0
100
AcDbCircle
 62
7
  6
CONTINUOUS
 10
12.5086231957
 20
7.8924128366
 40
0.0456374631
100
AcDbArc
 50
350.133124898
 51
9.8689890909
  0
ARC
  5
2DA
100
AcDbEntity
  8
0
100
AcDbCircle
 62
7
  6
CONTINUOUS
 10
12.4836953528
 20
7.8924176813
 40
0.0448725647
100
AcDbArc
 50
349.9569233103
 51
10.0452259255
  0
ARC
  5
2DB
100
AcDbEntity
  8
0
100
AcDbCircle
 62
7
  6
CONTINUOUS
 10
12.4547651356
 20
7.8924185008
 40
0.0444361928
100
AcDbArc
 50
349.8561887157
 51
10.1459801823
  0
ARC
  5
2DC
100
AcDbEntity
  8
0
100
AcDbCircle
 62
7
  6
CONTINUOUS
 10
13.3055123216
 20
6.9748372168
 40
0.48
100
AcDbArc
 50
212.6081295413
 51
255.0168080472
  0
ARC
  5
2DD
100
AcDbEntity
  8
0
100
AcDbCircle
 62
7
  6
CONTINUOUS
 10
13.5593066186
 20
7.5860258269
 40
1.027
100
AcDbArc
 50
166.1200123407
 51
216.970949504
  0
ARC
  5
2DE
100
AcDbEntity
  8
0
100
AcDbCircle
 62
7
  6
CONTINUOUS
 10
21.0722946802
 20
5.2959760049
 40
6.3904157991
100
AcDbArc
 50
81.821031102
 51
98.178968898
  0
ARC
  5
2DF
100
AcDbEntity
  8
0
100
AcDbCircle
 62
7
  6
CONTINUOUS
 10
20.1458196223
 20
6.5823592717
 40
0.0860249421
100
AcDbArc
 50
124.3384233779
 51
180.0
  0
ARC
  5
2E0
100
AcDbEntity
  8
0
100
AcDbCircle
 62
7
  6
CONTINUOUS
 10
21.9987697382
 20
6.5823592717
 40
0.0860249421
100
AcDbArc
 50
0.0
 51
55.6615766221
  0
ARC
  5
2E1
100
AcDbEntity
  8
0
100
AcDbCircle
 62
7
  6
CONTINUOUS
 10
20.7482746722
 20
6.7038598012
 40
1.3
100
AcDbArc
 50
357.7751307225
 51
37.4382101818
  0
ARC
  5
2E2
100
AcDbEntity
  8
0
100
AcDbCircle
 62
7
  6
CONTINUOUS
 10
21.3963146883
 20
6.7038598012
 40
1.3
100
AcDbArc
 50
142.5617898181
 51
182.2248692774
  0
ARC
  5
2E3
100
AcDbEntity
  8
0
100
AcDbCircle
 62
7
  6
CONTINUOUS
 10
20.1656001354
 20
7.6461133178
 40
0.25
100
AcDbArc
 50
322.5617898181
 51
357.849587733
  0
ARC
  5
2E4
100
AcDbEntity
  8
0
100
AcDbCircle
 62
7
  6
CONTINUOUS
 10
21.978989225
 20
7.6461133178
 40
0.25
100
AcDbArc
 50
182.150412267
 51
217.4382101818
  0
ARC
  5
2E5
100
AcDbEntity
  8
0
100
AcDbCircle
 62
7
  6
CONTINUOUS
 10
24.2588317965
 20
8.9397639676
 40
2.8222288847
100
AcDbArc
 50
138.7283124696
 51
141.0996752972
  0
ARC
  5
2E6
100
AcDbEntity
  8
0
100
AcDbCircle
 62
7
  6
CONTINUOUS
 10
17.9262796922
 20
8.9738698572
 40
2.7692757879
100
AcDbArc
 50
38.8776458065
 51
41.2943630233
  0
ARC
  5
2E7
100
AcDbEntity
  8
0
100
AcDbCircle
 62
7
  6
CONTINUOUS
 10
12.0722946802
 20
8.5733918041
 40
1.17
100
AcDbArc
 50
70.7095459639
 51
109.2904540361
  0
ARC
  5
2E8
100
AcDbEntity
  8
0
100
AcDbCircle
 62
7
  6
CONTINUOUS
 10
12.2222946802
 20
9.173391804
 40
0.77
100
AcDbArc
 50
160.9336920588
 51
198.6524229102
  0
CIRCLE
  5
2E9
100
AcDbEntity
  8
0
100
AcDbCircle
 62
7
  6
CONTINUOUS
 10
12.0722946802
 20
9.173391804
 40
0.4535102805
  0
CIRCLE
  5
2EA
100
AcDbEntity
  8
0
100
AcDbCircle
 62
7
  6
CONTINUOUS
 10
12.0722946802
 20
9.173391804
 40
0.395
  0
CIRCLE
  5
2EB
100
AcDbEntity
  8
0
100
AcDbCircle
 62
9
  6
CONTINUOUS
 10
12.0722946802
 20
9.173391804
 40
0.3445
  0
CIRCLE
  5
2EC
100
AcDbEntity
  8
0
100
AcDbCircle
 62
7
  6
CONTINUOUS
 10
12.0722946802
 20
9.173391804
 40
0.2823809484
  0
ARC
  5
2ED
100
AcDbEntity
  8
0
100
AcDbCircle
 62
7
  6
CONTINUOUS
 10
21.6822946802
 20
9.8762249518
 40
0.15
100
AcDbArc
 50
330.0735651336
 51
360.0
  0
ARC
  5
2EE
100
AcDbEntity
  8
0
100
AcDbCircle
 62
7
  6
CONTINUOUS
 10
20.4622946802
 20
9.8762249518
 40
0.15
100
AcDbArc
 50
180.0
 51
209.9264348664
  0
ARC
  5
2EF
100
AcDbEntity
  8
0
100
AcDbCircle
 62
7
  6
CONTINUOUS
 10
20.1447946802
 20
11.411391804
 40
0.15
100
AcDbArc
 50
90.0
 51
114.6243183522
  0
ARC
  5
2F0
100
AcDbEntity
  8
0
100
AcDbCircle
 62
7
  6
CONTINUOUS
 10
21.9997946802
 20
11.411391804
 40
0.15
100
AcDbArc
 50
65.3756816478
 51
90.0
  0
ARC
  5
2F1
100
AcDbEntity
  8
0
100
AcDbCircle
 62
7
  6
CONTINUOUS
 10
12.4402946802
 20
8.755391804
 40
0.118
100
AcDbArc
 50
155.3594544593
 51
180.0
  0
ARC
  5
2F2
100
AcDbEntity
  8
0
100
AcDbCircle
 62
7
  6
CONTINUOUS
 10
12.4402946802
 20
8.755391804
 40
0.118
100
AcDbArc
 50
90.0
 51
107.4810562235
  0
ARC
  5
2F3
100
AcDbEntity
  8
0
100
AcDbCircle
 62
7
  6
CONTINUOUS
 10
12.6422595494
 20
9.6307413439
 40
0.1
100
AcDbArc
 50
186.6083685447
 51
241.6635211771
  0
ARC
  5
2F4
100
AcDbEntity
  8
0
100
AcDbCircle
 62
7
  6
CONTINUOUS
 10
21.9322946802
 20
10.4356525729
 40
0.1
100
AcDbArc
 50
135.6687919533
 51
180.0
  0
ARC
  5
2F5
100
AcDbEntity
  8
0
100
AcDbCircle
 62
7
  6
CONTINUOUS
 10
20.2122946802
 20
10.4356525729
 40
0.1
100
AcDbArc
 50
0.0
 51
44.3312080467
  0
ARC
  5
2F6
100
AcDbEntity
  8
0
100
AcDbCircle
 62
7
  6
CONTINUOUS
 10
12.5770007211
 20
8.952391804
 40
0.079
100
AcDbArc
 50
270.0
 51
341.3475770894
  0
ARC
  5
2F7
100
AcDbEntity
  8
0
100
AcDbCircle
 62
7
  6
CONTINUOUS
 10
12.5753872244
 20
9.3991153711
 40
0.079
100
AcDbArc
 50
19.0663081684
 51
70.0865226334
  0
ARC
  5
2F8
100
AcDbEntity
  8
0
100
AcDbCircle
 62
7
  6
CONTINUOUS
 10
12.4422946802
 20
9.6305105296
 40
0.05
100
AcDbArc
 50
3.3546662504
 51
70.7095459637
  0
ARC
  5
2F9
100
AcDbEntity
  8
0
100
AcDbCircle
 62
7
  6
CONTINUOUS
 10
12.5758087326
 20
9.507516797
 40
0.04
100
AcDbArc
 50
330.0
 51
61.6635211773
  0
ARC
  5
2FA
100
AcDbEntity
  8
0
100
AcDbCircle
 62
7
  6
CONTINUOUS
 10
20.1674480324
 20
11.5915451562
 40
0.0301533521
100
AcDbArc
 50
98.1789688981
 51
270.0
  0
ARC
  5
2FB
100
AcDbEntity
  8
0
100
AcDbCircle
 62
7
  6
CONTINUOUS
 10
21.9771413281
 20
11.5915451562
 40
0.0301533521
100
AcDbArc
 50
270.0
 51
81.8210311019
  0
ARC
  5
2FC
100
AcDbEntity
  8
0
100
AcDbCircle
 62
7
  6
CONTINUOUS
 10
12.5270302571
 20
9.617391804
 40
0.016
100
AcDbArc
 50
6.6083685434
 51
90.0
  0
SPLINE
  5
2FD
100
AcDbEntity
  8
0
100
AcDbSpline
 62
7
  6
CONTINUOUS
 70
0
 71
3
 72
11
 73
7
 74
0
 42
0.0000001
 43
0.0000001
 44
0.0000000001
 40
0.0
 40
0.0
 40
0.0
 40
0.0
 40
0.2425176459
 40
0.3662572471
 40
0.4913872509
 40
1.0
 40
1.0
 40
1.0
 40
1.0
 10
4.540841883
 20
7.0096638798
 30
0.0
 10
4.5418387971
 20
7.0072716643
 30
0.0
 10
4.5431680248
 20
7.0035817931
 30
0.0
 10
4.5445813712
 20
6.9985224732
 30
0.0
 10
4.5463758658
 20
6.9906286477
 30
0.0
 10
4.5470499579
 20
6.9838270158
 30
0.0
 10
4.5470499579
 20
6.978391804
 30
0.0
  0
SPLINE
  5
2FE
100
AcDbEntity
  8
0
100
AcDbSpline
 62
7
  6
CONTINUOUS
 70
0
 71
3
 72
11
 73
7
 74
0
 42
0.0000001
 43
0.0000001
 44
0.0000000001
 40
0.0
 40
0.0
 40
0.0
 40
0.0
 40
0.5086160642
 40
0.6337454455
 40
0.7574843921
 40
1.0
 40
1.0
 40
1.0
 40
1.0
 10
4.5470499579
 20
6.978391804
 30
0.0
 10
4.5470499579
 20
6.9729566064
 30
0.0
 10
4.5463759016
 20
6.9661550033
 30
0.0
 10
4.5445813999
 20
6.9582612323
 30
0.0
 10
4.5431680681
 20
6.9532019954
 30
0.0
 10
4.5418388869
 20
6.9495121766
 30
0.0
 10
4.5408419972
 20
6.9471200001
 30
0.0
  0
SPLINE
  5
2FF
100
AcDbEntity
  8
0
100
AcDbSpline
 62
7
  6
CONTINUOUS
 70
0
 71
3
 72
14
 73
10
 74
0
 42
0.0000001
 43
0.0000001
 44
0.0000000001
 40
0.0
 40
0.0
 40
0.0
 40
0.0
 40
0.2316187917
 40
0.3528323132
 40
0.4773717138
 40
0.6049900046
 40
0.7351562452
 40
0.867182158
 40
1.0
 40
1.0
 40
1.0
 40
1.0
 10
3.6134085604
 20
6.931065807
 30
0.0
 10
3.6111959108
 20
6.9342502026
 30
0.0
 10
3.6081909705
 20
6.9393693139
 30
0.0
 10
3.6049348175
 20
6.9466732886
 30
0.0
 10
3.6028258369
 20
6.9525645783
 30
0.0
 10
3.6011330918
 20
6.9587436037
 30
0.0
 10
3.5998897039
 20
6.9651567008
 30
0.0
 10
3.5991330862
 20
6.9717325322
 30
0.0
 10
3.5989619597
 20
6.97616823
 30
0.0
 10
3.5989619597
 20
6.978391804
 30
0.0
  0
SPLINE
  5
300
100
AcDbEntity
  8
0
100
AcDbSpline
 62
7
  6
CONTINUOUS
 70
0
 71
3
 72
14
 73
10
 74
0
 42
0.0000001
 43
0.0000001
 44
0.0000000001
 40
0.0
 40
0.0
 40
0.0
 40
0.0
 40
0.1328189746
 40
0.2648475626
 40
0.3950146048
 40
0.5226331753
 40
0.6471718864
 40
0.7683839712
 40
1.0
 40
1.0
 40
1.0
 40
1.0
 10
3.5989619597
 20
6.978391804
 30
0.0
 10
3.5989619597
 20
6.9806153971
 30
0.0
 10
3.5991331201
 20
6.985051157
 30
0.0
 10
3.5998897103
 20
6.991627069
 30
0.0
 10
3.6011331362
 20
6.9980402243
 30
0.0
 10
3.602825907
 20
7.0042192493
 30
0.0
 10
3.6049348936
 20
7.0101105037
 30
0.0
 10
3.6081910168
 20
7.0174144025
 30
0.0
 10
3.6111959371
 20
7.0225334434
 30
0.0
 10
3.6134085604
 20
7.0257178011
 30
0.0
  0
SPLINE
  5
301
100
AcDbEntity
  8
0
100
AcDbSpline
 62
7
  6
CONTINUOUS
 70
0
 71
3
 72
13
 73
9
 74
0
 42
0.0000001
 43
0.0000001
 44
0.0000000001
 40
0.0
 40
0.0
 40
0.0
 40
0.0
 40
0.2276933584
 40
0.4724982416
 40
0.6007209712
 40
0.7320060531
 40
0.865514567
 40
1.0
 40
1.0
 40
1.0
 40
1.0
 10
3.6182825447
 20
6.931065807
 30
0.0
 10
3.6163179112
 20
6.9342764534
 30
0.0
 10
3.6127248609
 20
6.9412450799
 30
0.0
 10
3.6094251547
 20
6.9506458085
 30
0.0
 10
3.6074697269
 20
6.9587555347
 30
0.0
 10
3.6063760668
 20
6.9651652425
 30
0.0
 10
3.6057106189
 20
6.9717369183
 30
0.0
 10
3.605560143
 20
6.9761685981
 30
0.0
 10
3.605560143
 20
6.978391804
 30
0.0
  0
SPLINE
  5
302
100
AcDbEntity
  8
0
100
AcDbSpline
 62
7
  6
CONTINUOUS
 70
0
 71
3
 72
13
 73
9
 74
0
 42
0.0000001
 43
0.0000001
 44
0.0000000001
 40
0.0
 40
0.0
 40
0.0
 40
0.0
 40
0.1344865763
 40
0.2679978011
 40
0.3992836769
 40
0.5275066586
 40
0.7723093941
 40
1.0
 40
1.0
 40
1.0
 40
1.0
 10
3.605560143
 20
6.978391804
 30
0.0
 10
3.605560143
 20
6.980615029
 30
0.0
 10
3.6057106489
 20
6.9850467712
 30
0.0
 10
3.6063760724
 20
6.9916185266
 30
0.0
 10
3.6074697656
 20
6.9980282931
 30
0.0
 10
3.6094252189
 20
7.0061379939
 30
0.0
 10
3.6127249043
 20
7.0155386483
 30
0.0
 10
3.6163179349
 20
7.0225071935
 30
0.0
 10
3.6182825447
 20
7.0257178011
 30
0.0
  0
SPLINE
  5
303
100
AcDbEntity
  8
0
100
AcDbSpline
 62
7
  6
CONTINUOUS
 70
0
 71
3
 72
13
 73
9
 74
0
 42
0.0000001
 43
0.0000001
 44
0.0000000001
 40
0.0
 40
0.0
 40
0.0
 40
0.0
 40
0.2237527286
 40
0.4677825028
 40
0.5965897506
 40
0.7289586422
 40
0.8639019398
 40
1.0
 40
1.0
 40
1.0
 40
1.0
 10
3.6279697583
 20
6.931065807
 30
0.0
 10
3.6262773816
 20
6.9343048318
 30
0.0
 10
3.6231966538
 20
6.9413223101
 30
0.0
 10
3.6203988215
 20
6.9506812847
 30
0.0
 10
3.618734966
 20
6.9587671391
 30
0.0
 10
3.6178022573
 20
6.9651732577
 30
0.0
 10
3.6172347365
 20
6.9717410442
 30
0.0
 10
3.6171064327
 20
6.9761689427
 30
0.0
 10
3.6171064327
 20
6.978391804
 30
0.0
  0
SPLINE
  5
304
100
AcDbEntity
  8
0
100
AcDbSpline
 62
7
  6
CONTINUOUS
 70
0
 71
3
 72
13
 73
9
 74
0
 42
0.0000001
 43
0.0000001
 44
0.0000000001
 40
0.0
 40
0.0
 40
0.0
 40
0.0
 40
0.1360992151
 40
0.2710452592
 40
0.4034149386
 40
0.5322224129
 40
0.7762500119
 40
1.0
 40
1.0
 40
1.0
 40
1.0
 10
3.6171064327
 20
6.978391804
 30
0.0
 10
3.6171064327
 20
6.9806146843
 30
0.0
 10
3.617234762
 20
6.9850426456
 30
0.0
 10
3.617802262
 20
6.9916105107
 30
0.0
 10
3.618734999
 20
6.9980166883
 30
0.0
 10
3.6203988765
 20
7.0061025184
 30
0.0
 10
3.6231966908
 20
7.0154614184
 30
0.0
 10
3.6262774023
 20
7.0224788159
 30
0.0
 10
3.6279697583
 20
7.0257178011
 30
0.0
  0
SPLINE
  5
305
100
AcDbEntity
  8
0
100
AcDbSpline
 62
7
  6
CONTINUOUS
 70
0
 71
3
 72
13
 73
9
 74
0
 42
0.0000001
 43
0.0000001
 44
0.0000000001
 40
0.0
 40
0.0
 40
0.0
 40
0.0
 40
0.2200426505
 40
0.4633742462
 40
0.5927372889
 40
0.7261218684
 40
0.8624023725
 40
1.0
 40
1.0
 40
1.0
 40
1.0
 10
3.6423675017
 20
6.931065807
 30
0.0
 10
3.6409702606
 20
6.9343339006
 30
0.0
 10
3.6384403467
 20
6.9413966232
 30
0.0
 10
3.6361665683
 20
6.9507140061
 30
0.0
 10
3.6348094984
 20
6.9587776774
 30
0.0
 10
3.6340471524
 20
6.9651804421
 30
0.0
 10
3.6335832728
 20
6.971744719
 30
0.0
 10
3.6334784202
 20
6.9761692492
 30
0.0
 10
3.6334784202
 20
6.978391804
 30
0.0
  0
SPLINE
  5
306
100
AcDbEntity
  8
0
100
AcDbSpline
 62
7
  6
CONTINUOUS
 70
0
 71
3
 72
13
 73
9
 74
0
 42
0.0000001
 43
0.0000001
 44
0.0000000001
 40
0.0
 40
0.0
 40
0.0
 40
0.0
 40
0.1375987933
 40
0.2738820773
 40
0.407267439
 40
0.5366306847
 40
0.7799600796
 40
1.0
 40
1.0
 40
1.0
 40
1.0
 10
3.6334784202
 20
6.978391804
 30
0.0
 10
3.6334784202
 20
6.9806143778
 30
0.0
 10
3.6335832938
 20
6.9850389711
 30
0.0
 10
3.6340471562
 20
6.9916033257
 30
0.0
 10
3.6348095252
 20
6.9980061497
 30
0.0
 10
3.6361666134
 20
7.0060697977
 30
0.0
 10
3.6384403769
 20
7.0153871056
 30
0.0
 10
3.640970278
 20
7.022449748
 30
0.0
 10
3.6423675017
 20
7.0257178011
 30
0.0
  0
SPLINE
  5
307
100
AcDbEntity
  8
0
100
AcDbSpline
 62
7
  6
CONTINUOUS
 70
0
 71
3
 72
15
 73
11
 74
0
 42
0.0000001
 43
0.0000001
 44
0.0000000001
 40
0.0
 40
0.0
 40
0.0
 40
0.0
 40
0.104996343
 40
0.2168190771
 40
0.3351757846
 40
0.4595876601
 40
0.5894291816
 40
0.7236871566
 40
0.861115835
 40
1.0
 40
1.0
 40
1.0
 40
1.0
 10
3.6613231367
 20
6.931065807
 30
0.0
 10
3.6607994501
 20
6.9326621602
 30
0.0
 10
3.6597977614
 20
6.9359852307
 30
0.0
 10
3.6584762928
 20
6.9411846516
 30
0.0
 10
3.657310129
 20
6.9467390134
 30
0.0
 10
3.6563186976
 20
6.952619725
 30
0.0
 10
3.6555229544
 20
6.958786696
 30
0.0
 10
3.6549385025
 20
6.965186448
 30
0.0
 10
3.6545829093
 20
6.9717477912
 30
0.0
 10
3.6545025374
 20
6.9761695046
 30
0.0
 10
3.6545025374
 20
6.978391804
 30
0.0
  0
SPLINE
  5
308
100
AcDbEntity
  8
0
100
AcDbSpline
 62
7
  6
CONTINUOUS
 70
0
 71
3
 72
15
 73
11
 74
0
 42
0.0000001
 43
0.0000001
 44
0.0000000001
 40
0.0
 40
0.0
 40
0.0
 40
0.0
 40
0.1388853407
 40
0.2763168279
 40
0.4105755807
 40
0.5404172852
 40
0.6648283835
 40
0.7831836433
 40
0.8950046409
 40
1.0
 40
1.0
 40
1.0
 40
1.0
 10
3.6545025374
 20
6.978391804
 30
0.0
 10
3.6545025374
 20
6.9806141223
 30
0.0
 10
3.6545829254
 20
6.9850358991
 30
0.0
 10
3.6549385054
 20
6.9915973193
 30
0.0
 10
3.6555229751
 20
6.9979971306
 30
0.0
 10
3.6563187307
 20
7.0041641029
 30
0.0
 10
3.657310165
 20
7.0100447809
 30
0.0
 10
3.6584763184
 20
7.01559908
 30
0.0
 10
3.6597977725
 20
7.020798436
 30
0.0
 10
3.660799455
 20
7.0241214628
 30
0.0
 10
3.6613231367
 20
7.0257178011
 30
0.0
  0
SPLINE
  5
309
100
AcDbEntity
  8
0
100
AcDbSpline
 62
7
  6
CONTINUOUS
 70
0
 71
3
 72
11
 73
7
 74
0
 42
0.0000001
 43
0.0000001
 44
0.0000000001
 40
0.0
 40
0.0
 40
0.0
 40
0.0
 40
0.2142250961
 40
0.4565326053
 40
0.7217382132
 40
1.0
 40
1.0
 40
1.0
 40
1.0
 10
3.6846357043
 20
6.931065807
 30
0.0
 10
3.683888633
 20
6.9343848589
 30
0.0
 10
3.6825501187
 20
6.9415161962
 30
0.0
 10
3.6810945563
 20
6.9528907234
 30
0.0
 10
3.6801671975
 20
6.965340424
 30
0.0
 10
3.6799558959
 20
6.973972752
 30
0.0
 10
3.6799558959
 20
6.978391804
 30
0.0
  0
SPLINE
  5
30A
100
AcDbEntity
  8
0
100
AcDbSpline
 62
7
  6
CONTINUOUS
 70
0
 71
3
 72
11
 73
7
 74
0
 42
0.0000001
 43
0.0000001
 44
0.0000000001
 40
0.0
 40
0.0
 40
0.0
 40
0.0
 40
0.2782658035
 40
0.5434723516
 40
0.7857776193
 40
1.0
 40
1.0
 40
1.0
 40
1.0
 10
3.6799558959
 20
6.978391804
 30
0.0
 10
3.6799558959
 20
6.9828109199
 30
0.0
 10
3.6801671979
 20
6.991443327
 30
0.0
 10
3.6810945774
 20
7.0038930694
 30
0.0
 10
3.6825501347
 20
7.0152675329
 30
0.0
 10
3.6838886424
 20
7.0223987912
 30
0.0
 10
3.6846357043
 20
7.0257178011
 30
0.0
  0
SPLINE
  5
30B
100
AcDbEntity
  8
0
100
AcDbSpline
 62
7
  6
CONTINUOUS
 70
0
 71
3
 72
11
 73
7
 74
0
 42
0.0000001
 43
0.0000001
 44
0.0000000001
 40
0.0
 40
0.0
 40
0.0
 40
0.0
 40
0.2125259348
 40
0.4545394881
 40
0.7204696064
 40
1.0
 40
1.0
 40
1.0
 40
1.0
 10
3.7120580554
 20
6.931065807
 30
0.0
 10
3.7116587175
 20
6.9344010316
 30
0.0
 10
3.7109458492
 20
6.9415514269
 30
0.0
 10
3.710173188
 20
6.9529140022
 30
0.0
 10
3.7096808267
 20
6.9653520919
 30
0.0
 10
3.7095686511
 20
6.9739737286
 30
0.0
 10
3.7095686511
 20
6.978391804
 30
0.0
  0
SPLINE
  5
30C
100
AcDbEntity
  8
0
100
AcDbSpline
 62
7
  6
CONTINUOUS
 70
0
 71
3
 72
11
 73
7
 74
0
 42
0.0000001
 43
0.0000001
 44
0.0000000001
 40
0.0
 40
0.0
 40
0.0
 40
0.0
 40
0.2795344287
 40
0.5454654759
 40
0.7874767763
 40
1.0
 40
1.0
 40
1.0
 40
1.0
 10
3.7095686511
 20
6.978391804
 30
0.0
 10
3.7095686511
 20
6.9828099433
 30
0.0
 10
3.7096808269
 20
6.9914316586
 30
0.0
 10
3.7101731992
 20
7.0038697907
 30
0.0
 10
3.7109458577
 20
7.0152323022
 30
0.0
 10
3.7116587226
 20
7.022382619
 30
0.0
 10
3.7120580554
 20
7.0257178011
 30
0.0
  0
SPLINE
  5
30D
100
AcDbEntity
  8
0
100
AcDbSpline
 62
7
  6
CONTINUOUS
 70
0
 71
3
 72
11
 73
7
 74
0
 42
0.0000001
 43
0.0000001
 44
0.0000000001
 40
0.0
 40
0.0
 40
0.0
 40
0.0
 40
0.2120588361
 40
0.4539927083
 40
0.7201219858
 40
1.0
 40
1.0
 40
1.0
 40
1.0
 10
4.4175428908
 20
7.0257178011
 30
0.0
 10
4.4177670146
 20
7.0223780121
 30
0.0
 10
4.4181666804
 20
7.0152224564
 30
0.0
 10
4.4185994841
 20
7.0038632511
 30
0.0
 10
4.4188752938
 20
6.9914283556
 30
0.0
 10
4.4189381311
 20
6.9828096151
 30
0.0
 10
4.4189381311
 20
6.978391804
 30
0.0
  0
SPLINE
  5
30E
100
AcDbEntity
  8
0
100
AcDbSpline
 62
7
  6
CONTINUOUS
 70
0
 71
3
 72
11
 73
7
 74
0
 42
0.0000001
 43
0.0000001
 44
0.0000000001
 40
0.0
 40
0.0
 40
0.0
 40
0.0
 40
0.2798820523
 40
0.5460122496
 40
0.7879438635
 40
1.0
 40
1.0
 40
1.0
 40
1.0
 10
4.4189381311
 20
6.978391804
 30
0.0
 10
4.4189381311
 20
6.9739739292
 30
0.0
 10
4.4188752938
 20
6.9653551104
 30
0.0
 10
4.4185994777
 20
6.9529201725
 30
0.0
 10
4.4181666756
 20
6.9415610309
 30
0.0
 10
4.4177670117
 20
6.9344055534
 30
0.0
 10
4.4175428908
 20
6.931065807
 30
0.0
  0
SPLINE
  5
30F
100
AcDbEntity
  8
0
100
AcDbSpline
 62
7
  6
CONTINUOUS
 70
0
 71
3
 72
11
 73
7
 74
0
 42
0.0000001
 43
0.0000001
 44
0.0000000001
 40
0.0
 40
0.0
 40
0.0
 40
0.0
 40
0.213264032
 40
0.4554044887
 40
0.7210198906
 40
1.0
 40
1.0
 40
1.0
 40
1.0
 10
4.4468923538
 20
7.0257178011
 30
0.0
 10
4.4474688763
 20
7.0223896837
 30
0.0
 10
4.448499718
 20
7.0152475136
 30
0.0
 10
4.4496186086
 20
7.0038796866
 30
0.0
 10
4.4503315381
 20
6.9914365515
 30
0.0
 10
4.4504939721
 20
6.9828103008
 30
0.0
 10
4.4504939721
 20
6.978391804
 30
0.0
  0
SPLINE
  5
310
100
AcDbEntity
  8
0
100
AcDbSpline
 62
7
  6
CONTINUOUS
 70
0
 71
3
 72
11
 73
7
 74
0
 42
0.0000001
 43
0.0000001
 44
0.0000000001
 40
0.0
 40
0.0
 40
0.0
 40
0.0
 40
0.2789841343
 40
0.5446004643
 40
0.7867386709
 40
1.0
 40
1.0
 40
1.0
 40
1.0
 10
4.4504939721
 20
6.978391804
 30
0.0
 10
4.4504939721
 20
6.9739732435
 30
0.0
 10
4.4503315381
 20
6.9653469141
 30
0.0
 10
4.4496185922
 20
6.9529037371
 30
0.0
 10
4.4484997055
 20
6.9415359738
 30
0.0
 10
4.447468869
 20
6.9343938823
 30
0.0
 10
4.4468923538
 20
6.931065807
 30
0.0
  0
SPLINE
  5
311
100
AcDbEntity
  8
0
100
AcDbSpline
 62
7
  6
CONTINUOUS
 70
0
 71
3
 72
12
 73
8
 74
0
 42
0.0000001
 43
0.0000001
 44
0.0000000001
 40
0.0
 40
0.0
 40
0.0
 40
0.0
 40
0.1041614439
 40
0.2154628779
 40
0.4579727694
 40
0.722653768
 40
1.0
 40
1.0
 40
1.0
 40
1.0
 10
4.4722705033
 20
7.0257178011
 30
0.0
 10
4.4727143728
 20
7.0241183407
 30
0.0
 10
4.4735628477
 20
7.0207901107
 30
0.0
 10
4.4750964901
 20
7.0136534493
 30
0.0
 10
4.4766343903
 20
7.0039091001
 30
0.0
 10
4.4777794959
 20
6.991451814
 30
0.0
 10
4.4780401747
 20
6.9828115695
 30
0.0
 10
4.4780401747
 20
6.978391804
 30
0.0
  0
SPLINE
  5
312
100
AcDbEntity
  8
0
100
AcDbSpline
 62
7
  6
CONTINUOUS
 70
0
 71
3
 72
12
 73
8
 74
0
 42
0.0000001
 43
0.0000001
 44
0.0000000001
 40
0.0
 40
0.0
 40
0.0
 40
0.0
 40
0.2773502223
 40
0.5420321905
 40
0.7845398476
 40
0.8958395434
 40
1.0
 40
1.0
 40
1.0
 40
1.0
 10
4.4780401747
 20
6.978391804
 30
0.0
 10
4.4780401747
 20
6.9739719749
 30
0.0
 10
4.4777794922
 20
6.9653316511
 30
0.0
 10
4.4766343659
 20
6.9528743231
 30
0.0
 10
4.4750964658
 20
6.9431300226
 30
0.0
 10
4.4735628384
 20
6.9359934388
 30
0.0
 10
4.4727143685
 20
6.9326652522
 30
0.0
 10
4.4722705033
 20
6.931065807
 30
0.0
  0
SPLINE
  5
313
100
AcDbEntity
  8
0
100
AcDbSpline
 62
7
  6
CONTINUOUS
 70
0
 71
3
 72
13
 73
9
 74
0
 42
0.0000001
 43
0.0000001
 44
0.0000000001
 40
0.0
 40
0.0
 40
0.0
 40
0.0
 40
0.2183624053
 40
0.4613878851
 40
0.59100431
 40
0.7248473373
 40
0.8617291254
 40
1.0
 40
1.0
 40
1.0
 40
1.0
 10
4.4934082919
 20
7.0257178011
 30
0.0
 10
4.4946517229
 20
7.0224357169
 30
0.0
 10
4.4968969283
 20
7.0153528536
 30
0.0
 10
4.4989054235
 20
7.0060550022
 30
0.0
 10
4.5001062139
 20
6.9980012787
 30
0.0
 10
4.50078141
 20
6.9916000227
 30
0.0
 10
4.5011922711
 20
6.9850372883
 30
0.0
 10
4.501285132
 20
6.9806142255
 30
0.0
 10
4.501285132
 20
6.978391804
 30
0.0
  0
SPLINE
  5
314
100
AcDbEntity
  8
0
100
AcDbSpline
 62
7
  6
CONTINUOUS
 70
0
 71
3
 72
13
 73
9
 74
0
 42
0.0000001
 43
0.0000001
 44
0.0000000001
 40
0.0
 40
0.0
 40
0.0
 40
0.0
 40
0.1382720451
 40
0.2751566264
 40
0.4090004312
 40
0.5386170463
 40
0.7816403115
 40
1.0
 40
1.0
 40
1.0
 40
1.0
 10
4.501285132
 20
6.978391804
 30
0.0
 10
4.501285132
 20
6.9761693638
 30
0.0
 10
4.5011922526
 20
6.9717462377
 30
0.0
 10
4.5007814068
 20
6.965183426
 30
0.0
 10
4.5001061901
 20
6.9587821108
 30
0.0
 10
4.4989053832
 20
6.9507284103
 30
0.0
 10
4.4968969012
 20
6.941430634
 30
0.0
 10
4.4946517074
 20
6.9343478504
 30
0.0
 10
4.4934082919
 20
6.931065807
 30
0.0
  0
SPLINE
  5
315
100
AcDbEntity
  8
0
100
AcDbSpline
 62
7
  6
CONTINUOUS
 70
0
 71
3
 72
13
 73
9
 74
0
 42
0.0000001
 43
0.0000001
 44
0.0000000001
 40
0.0
 40
0.0
 40
0.0
 40
0.0
 40
0.2218758844
 40
0.4655486384
 40
0.5946364041
 40
0.7275196894
 40
0.8631410947
 40
1.0
 40
1.0
 40
1.0
 40
1.0
 10
4.5100816263
 20
7.0257178011
 30
0.0
 10
4.5116308428
 20
7.0224643733
 30
0.0
 10
4.5144437006
 20
7.0154238909
 30
0.0
 10
4.5169847895
 20
7.0060856873
 30
0.0
 10
4.5184986607
 20
6.9980110916
 30
0.0
 10
4.5193482049
 20
6.9916066733
 30
0.0
 10
4.519865132
 20
6.9850406803
 30
0.0
 10
4.5199819862
 20
6.9806145083
 30
0.0
 10
4.5199819862
 20
6.978391804
 30
0.0
  0
SPLINE
  5
316
100
AcDbEntity
  8
0
100
AcDbSpline
 62
7
  6
CONTINUOUS
 70
0
 71
3
 72
13
 73
9
 74
0
 42
0.0000001
 43
0.0000001
 44
0.0000000001
 40
0.0
 40
0.0
 40
0.0
 40
0.0
 40
0.1368600654
 40
0.2724842325
 40
0.4053683007
 40
0.534456279
 40
0.7781268429
 40
1.0
 40
1.0
 40
1.0
 40
1.0
 10
4.5199819862
 20
6.978391804
 30
0.0
 10
4.5199819862
 20
6.976169081
 30
0.0
 10
4.5198651088
 20
6.9717428459
 30
0.0
 10
4.5193482009
 20
6.9651767749
 30
0.0
 10
4.5184986307
 20
6.9587722976
 30
0.0
 10
4.516984739
 20
6.9506977259
 30
0.0
 10
4.5144436665
 20
6.941359597
 30
0.0
 10
4.5116308237
 20
6.9343191949
 30
0.0
 10
4.5100816263
 20
6.931065807
 30
0.0
  0
SPLINE
  5
317
100
AcDbEntity
  8
0
100
AcDbSpline
 62
7
  6
CONTINUOUS
 70
0
 71
3
 72
13
 73
9
 74
0
 42
0.0000001
 43
0.0000001
 44
0.0000000001
 40
0.0
 40
0.0
 40
0.0
 40
0.0
 40
0.2257297607
 40
0.4701440929
 40
0.5986573153
 40
0.7304830879
 40
0.8647084209
 40
1.0
 40
1.0
 40
1.0
 40
1.0
 10
4.5221137434
 20
7.0257178011
 30
0.0
 10
4.5239467245
 20
7.0224933171
 30
0.0
 10
4.5272916259
 20
7.0155002718
 30
0.0
 10
4.5303464041
 20
7.0061200299
 30
0.0
 10
4.5321597885
 20
6.9980222372
 30
0.0
 10
4.5331751612
 20
6.9916143208
 30
0.0
 10
4.5337929749
 20
6.9850446042
 30
0.0
 10
4.533932664
 20
6.9806148358
 30
0.0
 10
4.533932664
 20
6.978391804
 30
0.0
  0
SPLINE
  5
318
100
AcDbEntity
  8
0
100
AcDbSpline
 62
7
  6
CONTINUOUS
 70
0
 71
3
 72
13
 73
9
 74
0
 42
0.0000001
 43
0.0000001
 44
0.0000000001
 40
0.0
 40
0.0
 40
0.0
 40
0.0
 40
0.1352927279
 40
0.2695207879
 40
0.4013473497
 40
0.5298608101
 40
0.7742729789
 40
1.0
 40
1.0
 40
1.0
 40
1.0
 10
4.533932664
 20
6.978391804
 30
0.0
 10
4.533932664
 20
6.9761687534
 30
0.0
 10
4.5337929472
 20
6.9717389223
 30
0.0
 10
4.5331751564
 20
6.9651691267
 30
0.0
 10
4.5321597525
 20
6.9587611516
 30
0.0
 10
4.5303463439
 20
6.950663384
 30
0.0
 10
4.5272915852
 20
6.9412832164
 30
0.0
 10
4.5239467023
 20
6.9342902519
 30
0.0
 10
4.5221137434
 20
6.931065807
 30
0.0
  0
SPLINE
  5
319
100
AcDbEntity
  8
0
100
AcDbSpline
 62
7
  6
CONTINUOUS
 70
0
 71
3
 72
13
 73
9
 74
0
 42
0.0000001
 43
0.0000001
 44
0.0000000001
 40
0.0
 40
0.0
 40
0.0
 40
0.0
 40
0.2297071659
 40
0.4749214979
 40
0.6028479363
 40
0.7335772174
 40
0.8663467019
 40
1.0
 40
1.0
 40
1.0
 40
1.0
 10
4.5293770843
 20
7.0257178011
 30
0.0
 10
4.5314702154
 20
7.0225207564
 30
0.0
 10
4.5353060299
 20
7.0155772791
 30
0.0
 10
4.5388488269
 20
7.0061562112
 30
0.0
 10
4.5409448062
 20
6.9980341713
 30
0.0
 10
4.5421156967
 20
6.9916226215
 30
0.0
 10
4.5428281438
 20
6.9850488922
 30
0.0
 10
4.5429892668
 20
6.9806151941
 30
0.0
 10
4.5429892668
 20
6.978391804
 30
0.0
  0
SPLINE
  5
31A
100
AcDbEntity
  8
0
100
AcDbSpline
 62
7
  6
CONTINUOUS
 70
0
 71
3
 72
13
 73
9
 74
0
 42
0.0000001
 43
0.0000001
 44
0.0000000001
 40
0.0
 40
0.0
 40
0.0
 40
0.0
 40
0.1336544352
 40
0.2664266105
 40
0.3971566878
 40
0.5250833908
 40
0.7702955871
 40
1.0
 40
1.0
 40
1.0
 40
1.0
 10
4.5429892668
 20
6.978391804
 30
0.0
 10
4.5429892668
 20
6.976168395
 30
0.0
 10
4.542828112
 20
6.9717346347
 30
0.0
 10
4.5421156911
 20
6.9651608254
 30
0.0
 10
4.5409447647
 20
6.9587492171
 30
0.0
 10
4.5388487576
 20
6.9506272034
 30
0.0
 10
4.535305983
 20
6.9412062095
 30
0.0
 10
4.5314701903
 20
6.9342628135
 30
0.0
 10
4.5293770843
 20
6.931065807
 30
0.0
  0
SPLINE
  5
31B
100
AcDbEntity
  8
0
100
AcDbSpline
 62
7
  6
CONTINUOUS
 70
0
 71
3
 72
13
 73
9
 74
0
 42
0.0000001
 43
0.0000001
 44
0.0000000001
 40
0.0
 40
0.0
 40
0.0
 40
0.0
 40
0.1250564043
 40
0.2502483572
 40
0.3753773831
 40
0.5004536819
 40
0.7502363481
 40
1.0
 40
1.0
 40
1.0
 40
1.0
 10
4.4390719467
 20
6.978391804
 30
0.0
 10
4.4390719467
 20
6.9806173983
 30
0.0
 10
4.4388147685
 20
6.9850749942
 30
0.0
 10
4.4376795762
 20
6.9916718663
 30
0.0
 10
4.4358152499
 20
6.998101769
 30
0.0
 10
4.4324373571
 20
7.0063493952
 30
0.0
 10
4.4266606919
 20
7.0159344975
 30
0.0
 10
4.4207402746
 20
7.0226299965
 30
0.0
 10
4.4175428908
 20
7.0257178011
 30
0.0
  0
SPLINE
  5
31C
100
AcDbEntity
  8
0
100
AcDbSpline
 62
7
  6
CONTINUOUS
 70
0
 71
3
 72
11
 73
7
 74
0
 42
0.0000001
 43
0.0000001
 44
0.0000000001
 40
0.0
 40
0.0
 40
0.0
 40
0.0
 40
0.242300501
 40
0.4903937517
 40
0.7436590191
 40
1.0
 40
1.0
 40
1.0
 40
1.0
 10
3.6279697583
 20
7.0257178011
 30
0.0
 10
3.6251687394
 20
7.0225934544
 30
0.0
 10
3.6199929355
 20
7.0158041092
 30
0.0
 10
3.6140273665
 20
7.00431432
 30
0.0
 10
3.6102078464
 20
6.9916806859
 30
0.0
 10
3.6093301462
 20
6.9828310528
 30
0.0
 10
3.6093301462
 20
6.978391804
 30
0.0
  0
SPLINE
  5
31D
100
AcDbEntity
  8
0
100
AcDbSpline
 62
7
  6
CONTINUOUS
 70
0
 71
3
 72
13
 73
9
 74
0
 42
0.0000001
 43
0.0000001
 44
0.0000000001
 40
0.0
 40
0.0
 40
0.0
 40
0.0
 40
0.2469537698
 40
0.4960437652
 40
0.6215073448
 40
0.7474274275
 40
0.8737040658
 40
1.0
 40
1.0
 40
1.0
 40
1.0
 10
3.6613231367
 20
7.0257178011
 30
0.0
 10
3.6582706559
 20
7.0226170699
 30
0.0
 10
3.6526219581
 20
7.0158875968
 30
0.0
 10
3.6471508608
 20
7.0063211738
 30
0.0
 10
3.6439481963
 20
6.9980913356
 30
0.0
 10
3.642177556
 20
6.9916640164
 30
0.0
 10
3.6410995478
 20
6.9850707606
 30
0.0
 10
3.6408554448
 20
6.9806170291
 30
0.0
 10
3.6408554448
 20
6.978391804
 30
0.0
  0
SPLINE
  5
31E
100
AcDbEntity
  8
0
100
AcDbSpline
 62
7
  6
CONTINUOUS
 70
0
 71
3
 72
11
 73
7
 74
0
 42
0.0000001
 43
0.0000001
 44
0.0000000001
 40
0.0
 40
0.0
 40
0.0
 40
0.0
 40
0.2492675356
 40
0.499066903
 40
0.7493928879
 40
1.0
 40
1.0
 40
1.0
 40
1.0
 10
4.4468923538
 20
6.931065807
 30
0.0
 10
4.450054661
 20
6.9341567191
 30
0.0
 10
4.4559101138
 20
6.9408620955
 30
0.0
 10
4.4627514154
 20
6.9523548186
 30
0.0
 10
4.467148647
 20
6.9650282894
 30
0.0
 10
4.4681638204
 20
6.9739460581
 30
0.0
 10
4.4681638204
 20
6.978391804
 30
0.0
  0
SPLINE
  5
31F
100
AcDbEntity
  8
0
100
AcDbSpline
 62
7
  6
CONTINUOUS
 70
0
 71
3
 72
11
 73
7
 74
0
 42
0.0000001
 43
0.0000001
 44
0.0000000001
 40
0.0
 40
0.0
 40
0.0
 40
0.0
 40
0.2506107377
 40
0.5009379431
 40
0.7507353027
 40
1.0
 40
1.0
 40
1.0
 40
1.0
 10
4.4681638204
 20
6.978391804
 30
0.0
 10
4.4681638204
 20
6.9828376146
 30
0.0
 10
4.4671486408
 20
6.9917554746
 30
0.0
 10
4.4627513197
 20
7.0044289696
 30
0.0
 10
4.4559100414
 20
7.0159216295
 30
0.0
 10
4.4500546252
 20
7.022626924
 30
0.0
 10
4.4468923538
 20
7.0257178011
 30
0.0
  0
SPLINE
  5
320
100
AcDbEntity
  8
0
100
AcDbSpline
 62
7
  6
CONTINUOUS
 70
0
 71
3
 72
13
 73
9
 74
0
 42
0.0000001
 43
0.0000001
 44
0.0000000001
 40
0.0
 40
0.0
 40
0.0
 40
0.0
 40
0.1262970209
 40
0.2525761878
 40
0.3784971024
 40
0.5039610703
 40
0.7530490491
 40
1.0
 40
1.0
 40
1.0
 40
1.0
 10
3.6408554448
 20
6.978391804
 30
0.0
 10
3.6408554448
 20
6.9761665597
 30
0.0
 10
3.6410995953
 20
6.9717127678
 30
0.0
 10
3.642177565
 20
6.9651194269
 30
0.0
 10
3.64394826
 20
6.958692051
 30
0.0
 10
3.647150964
 20
6.9504622447
 30
0.0
 10
3.652622028
 20
6.9408958941
 30
0.0
 10
3.6582706907
 20
6.934166503
 30
0.0
 10
3.6613231367
 20
6.931065807
 30
0.0
  0
SPLINE
  5
321
100
AcDbEntity
  8
0
100
AcDbSpline
 62
7
  6
CONTINUOUS
 70
0
 71
3
 72
11
 73
7
 74
0
 42
0.0000001
 43
0.0000001
 44
0.0000000001
 40
0.0
 40
0.0
 40
0.0
 40
0.0
 40
0.2563446839
 40
0.5096111102
 40
0.757702305
 40
1.0
 40
1.0
 40
1.0
 40
1.0
 10
3.6093301462
 20
6.978391804
 30
0.0
 10
3.6093301462
 20
6.9739524909
 30
0.0
 10
3.61020785
 20
6.9651027692
 30
0.0
 10
3.6140274512
 20
6.9524691073
 30
0.0
 10
3.6199929998
 20
6.9409793814
 30
0.0
 10
3.6251687717
 20
6.9341901176
 30
0.0
 10
3.6279697583
 20
6.931065807
 30
0.0
  0
SPLINE
  5
322
100
AcDbEntity
  8
0
100
AcDbSpline
 62
7
  6
CONTINUOUS
 70
0
 71
3
 72
13
 73
9
 74
0
 42
0.0000001
 43
0.0000001
 44
0.0000000001
 40
0.0
 40
0.0
 40
0.0
 40
0.0
 40
0.2478021762
 40
0.497099859
 40
0.6224460547
 40
0.7481274794
 40
0.8740770325
 40
1.0
 40
1.0
 40
1.0
 40
1.0
 10
4.4722705033
 20
6.931065807
 30
0.0
 10
4.4753668498
 20
6.9341625788
 30
0.0
 10
4.4810978901
 20
6.9408817846
 30
0.0
 10
4.4866611657
 20
6.9504540093
 30
0.0
 10
4.4899166535
 20
6.9586892198
 30
0.0
 10
4.4917155603
 20
6.9651173038
 30
0.0
 10
4.492810838
 20
6.971711614
 30
0.0
 10
4.4930588702
 20
6.9761664751
 30
0.0
 10
4.4930588702
 20
6.978391804
 30
0.0
  0
SPLINE
  5
323
100
AcDbEntity
  8
0
100
AcDbSpline
 62
7
  6
CONTINUOUS
 70
0
 71
3
 72
13
 73
9
 74
0
 42
0.0000001
 43
0.0000001
 44
0.0000000001
 40
0.0
 40
0.0
 40
0.0
 40
0.0
 40
0.1259240521
 40
0.2518761272
 40
0.377558385
 40
0.5029049737
 40
0.7522006482
 40
1.0
 40
1.0
 40
1.0
 40
1.0
 10
4.4930588702
 20
6.978391804
 30
0.0
 10
4.4930588702
 20
6.9806171523
 30
0.0
 10
4.4928107893
 20
6.9850720738
 30
0.0
 10
4.4917155505
 20
6.9916664693
 30
0.0
 10
4.4899165888
 20
6.9980946101
 30
0.0
 10
4.486661062
 20
7.0063297888
 30
0.0
 10
4.4810978198
 20
7.0159019413
 30
0.0
 10
4.4753668146
 20
7.0226210644
 30
0.0
 10
4.4722705033
 20
7.0257178011
 30
0.0
  0
SPLINE
  5
324
100
AcDbEntity
  8
0
100
AcDbSpline
 62
7
  6
CONTINUOUS
 70
0
 71
3
 72
12
 73
8
 74
0
 42
0.0000001
 43
0.0000001
 44
0.0000000001
 40
0.0
 40
0.0
 40
0.0
 40
0.0
 40
0.2588331121
 40
0.3870115215
 40
0.5136254102
 40
0.7609162956
 40
1.0
 40
1.0
 40
1.0
 40
1.0
 10
3.600858783
 20
6.978391804
 30
0.0
 10
3.600858783
 20
6.973955206
 30
0.0
 10
3.6014745401
 20
6.9673003371
 30
0.0
 10
3.6034839125
 20
6.95872013
 30
0.0
 10
3.6061900909
 20
6.9505393037
 30
0.0
 10
3.610793917
 20
6.9410338223
 30
0.0
 10
3.6156503148
 20
6.9342067637
 30
0.0
 10
3.6182825447
 20
6.931065807
 30
0.0
  0
SPLINE
  5
325
100
AcDbEntity
  8
0
100
AcDbSpline
 62
7
  6
CONTINUOUS
 70
0
 71
3
 72
11
 73
7
 74
0
 42
0.0000001
 43
0.0000001
 44
0.0000000001
 40
0.0
 40
0.0
 40
0.0
 40
0.0
 40
0.2487047209
 40
0.4983622894
 40
0.7489251356
 40
1.0
 40
1.0
 40
1.0
 40
1.0
 10
3.6846357043
 20
7.0257178011
 30
0.0
 10
3.6815021786
 20
7.0226243461
 30
0.0
 10
3.67570068
 20
7.0159122785
 30
0.0
 10
3.6689296587
 20
7.0044194167
 30
0.0
 10
3.6645791286
 20
6.9917490148
 30
0.0
 10
3.6635751634
 20
6.9828369981
 30
0.0
 10
3.6635751634
 20
6.978391804
 30
0.0
  0
SPLINE
  5
326
100
AcDbEntity
  8
0
100
AcDbSpline
 62
7
  6
CONTINUOUS
 70
0
 71
3
 72
11
 73
7
 74
0
 42
0.0000001
 43
0.0000001
 44
0.0000000001
 40
0.0
 40
0.0
 40
0.0
 40
0.0
 40
0.2461091184
 40
0.495121768
 40
0.7467783695
 40
1.0
 40
1.0
 40
1.0
 40
1.0
 10
4.4934082919
 20
6.931065807
 30
0.0
 10
4.4964083174
 20
6.9341713373
 30
0.0
 10
4.5019591002
 20
6.9409144857
 30
0.0
 10
4.5084052002
 20
6.952407138
 30
0.0
 10
4.5125406126
 20
6.9650630278
 30
0.0
 10
4.5134931703
 20
6.9739490923
 30
0.0
 10
4.5134931703
 20
6.978391804
 30
0.0
  0
SPLINE
  5
327
100
AcDbEntity
  8
0
100
AcDbSpline
 62
7
  6
CONTINUOUS
 70
0
 71
3
 72
11
 73
7
 74
0
 42
0.0000001
 43
0.0000001
 44
0.0000000001
 40
0.0
 40
0.0
 40
0.0
 40
0.0
 40
0.2532252922
 40
0.5048830853
 40
0.7538937065
 40
1.0
 40
1.0
 40
1.0
 40
1.0
 10
4.5134931703
 20
6.978391804
 30
0.0
 10
4.5134931703
 20
6.9828345803
 30
0.0
 10
4.5125406072
 20
6.9917207349
 30
0.0
 10
4.5084051099
 20
7.0043766507
 30
0.0
 10
4.5019590316
 20
7.0158692398
 30
0.0
 10
4.4964082831
 20
7.0226123063
 30
0.0
 10
4.4934082919
 20
7.0257178011
 30
0.0
  0
SPLINE
  5
328
100
AcDbEntity
  8
0
100
AcDbSpline
 62
7
  6
CONTINUOUS
 70
0
 71
3
 72
11
 73
7
 74
0
 42
0.0000001
 43
0.0000001
 44
0.0000000001
 40
0.0
 40
0.0
 40
0.0
 40
0.0
 40
0.2510784943
 40
0.5016425584
 40
0.7512981131
 40
1.0
 40
1.0
 40
1.0
 40
1.0
 10
3.6635751634
 20
6.978391804
 30
0.0
 10
3.6635751634
 20
6.9739465454
 30
0.0
 10
3.6645791335
 20
6.9650344374
 30
0.0
 10
3.6689297545
 20
6.9523640119
 30
0.0
 10
3.6757007522
 20
6.9408712131
 30
0.0
 10
3.6815022141
 20
6.9341592269
 30
0.0
 10
3.6846357043
 20
6.931065807
 30
0.0
  0
SPLINE
  5
329
100
AcDbEntity
  8
0
100
AcDbSpline
 62
7
  6
CONTINUOUS
 70
0
 71
3
 72
19
 73
15
 74
0
 42
0.0000001
 43
0.0000001
 44
0.0000000001
 40
0.0
 40
0.0
 40
0.0
 40
0.0
 40
0.0582377238
 40
0.1178647309
 40
0.1788689772
 40
0.2412095062
 40
0.3691969633
 40
0.500000099
 40
0.6308032101
 40
0.7587905872
 40
0.821131097
 40
0.882135313
 40
0.941762281
 40
1.0
 40
1.0
 40
1.0
 40
1.0
 10
3.6134085604
 20
7.0257178011
 30
0.0
 10
3.6122037445
 20
7.0241544673
 30
0.0
 10
3.6098868788
 20
7.0208946877
 30
0.0
 10
3.6067693843
 20
7.0156887471
 30
0.0
 10
3.6040161011
 20
7.0101244452
 30
0.0
 10
3.6008688215
 20
7.0022009138
 30
0.0
 10
3.5981304476
 20
6.991610406
 30
0.0
 10
3.5970093582
 20
6.9783917947
 30
0.0
 10
3.5981304499
 20
6.9651731863
 30
0.0
 10
3.6008688252
 20
6.9545826833
 30
0.0
 10
3.6040161044
 20
6.9466591565
 30
0.0
 10
3.6067693862
 20
6.9410948573
 30
0.0
 10
3.6098868799
 20
6.9358889191
 30
0.0
 10
3.6122037446
 20
6.9326291406
 30
0.0
 10
3.6134085604
 20
6.931065807
 30
0.0
  0
SPLINE
  5
32A
100
AcDbEntity
  8
0
100
AcDbSpline
 62
7
  6
CONTINUOUS
 70
0
 71
3
 72
11
 73
7
 74
0
 42
0.0000001
 43
0.0000001
 44
0.0000000001
 40
0.0
 40
0.0
 40
0.0
 40
0.0
 40
0.2436877689
 40
0.4921121964
 40
0.7447910322
 40
1.0
 40
1.0
 40
1.0
 40
1.0
 10
4.5100816263
 20
6.931065807
 30
0.0
 10
4.5129556522
 20
6.9341831423
 30
0.0
 10
4.5182691757
 20
6.9409555866
 30
0.0
 10
4.5244104436
 20
6.952446773
 30
0.0
 10
4.5283451673
 20
6.9650886362
 30
0.0
 10
4.5292500855
 20
6.9739513178
 30
0.0
 10
4.5292500855
 20
6.978391804
 30
0.0
  0
SPLINE
  5
32B
100
AcDbEntity
  8
0
100
AcDbSpline
 62
7
  6
CONTINUOUS
 70
0
 71
3
 72
11
 73
7
 74
0
 42
0.0000001
 43
0.0000001
 44
0.0000000001
 40
0.0
 40
0.0
 40
0.0
 40
0.0
 40
0.2552126571
 40
0.5078926629
 40
0.7563150459
 40
1.0
 40
1.0
 40
1.0
 40
1.0
 10
4.5292500855
 20
6.978391804
 30
0.0
 10
4.5292500855
 20
6.9828323547
 30
0.0
 10
4.5283451624
 20
6.9916951254
 30
0.0
 10
4.5244103574
 20
7.0043370161
 30
0.0
 10
4.5182691102
 20
7.0158281392
 30
0.0
 10
4.5129556192
 20
7.0226005017
 30
0.0
 10
4.5100816263
 20
7.0257178011
 30
0.0
  0
SPLINE
  5
32C
100
AcDbEntity
  8
0
100
AcDbSpline
 62
7
  6
CONTINUOUS
 70
0
 71
3
 72
11
 73
7
 74
0
 42
0.0000001
 43
0.0000001
 44
0.0000000001
 40
0.0
 40
0.0
 40
0.0
 40
0.0
 40
0.2449784114
 40
0.4937147667
 40
0.7458485046
 40
1.0
 40
1.0
 40
1.0
 40
1.0
 10
3.6423675017
 20
7.0257178011
 30
0.0
 10
3.6394261111
 20
7.0226068251
 30
0.0
 10
3.6339856677
 20
7.0158500302
 30
0.0
 10
3.6276816628
 20
7.004357909
 30
0.0
 10
3.6236399327
 20
6.9917085136
 30
0.0
 10
3.6227096479
 20
6.982833466
 30
0.0
 10
3.6227096479
 20
6.978391804
 30
0.0
  0
SPLINE
  5
32D
100
AcDbEntity
  8
0
100
AcDbSpline
 62
7
  6
CONTINUOUS
 70
0
 71
3
 72
12
 73
8
 74
0
 42
0.0000001
 43
0.0000001
 44
0.0000000001
 40
0.0
 40
0.0
 40
0.0
 40
0.0
 40
0.2495921634
 40
0.4993996522
 40
0.7494482685
 40
0.8747839741
 40
1.0
 40
1.0
 40
1.0
 40
1.0
 10
3.7120580554
 20
7.0257178011
 30
0.0
 10
3.7088741178
 20
7.0226287856
 30
0.0
 10
3.7029780377
 20
7.0159274503
 30
0.0
 10
3.6960843309
 20
7.0044393038
 30
0.0
 10
3.6923881696
 20
6.993859534
 30
0.0
 10
3.6908840131
 20
6.9850749408
 30
0.0
 10
3.6906279396
 20
6.9806173457
 30
0.0
 10
3.6906279396
 20
6.978391804
 30
0.0
  0
SPLINE
  5
32E
100
AcDbEntity
  8
0
100
AcDbSpline
 62
7
  6
CONTINUOUS
 70
0
 71
3
 72
11
 73
7
 74
0
 42
0.0000001
 43
0.0000001
 44
0.0000000001
 40
0.0
 40
0.0
 40
0.0
 40
0.0
 40
0.2407615495
 40
0.4884923867
 40
0.7424088134
 40
1.0
 40
1.0
 40
1.0
 40
1.0
 10
4.5221137434
 20
6.931065807
 30
0.0
 10
4.5248329275
 20
6.9341981528
 30
0.0
 10
4.5298541747
 20
6.9410063341
 30
0.0
 10
4.5356236924
 20
6.9524940955
 30
0.0
 10
4.53931505
 20
6.9651184499
 30
0.0
 10
4.5401625682
 20
6.9739538972
 30
0.0
 10
4.5401625682
 20
6.978391804
 30
0.0
  0
SPLINE
  5
32F
100
AcDbEntity
  8
0
100
AcDbSpline
 62
7
  6
CONTINUOUS
 70
0
 71
3
 72
11
 73
7
 74
0
 42
0.0000001
 43
0.0000001
 44
0.0000000001
 40
0.0
 40
0.0
 40
0.0
 40
0.0
 40
0.2575949091
 40
0.5115124802
 40
0.7592412536
 40
1.0
 40
1.0
 40
1.0
 40
1.0
 10
4.5401625682
 20
6.978391804
 30
0.0
 10
4.5401625682
 20
6.9828297752
 30
0.0
 10
4.5393150457
 20
6.9916653106
 30
0.0
 10
4.5356236113
 20
7.0042896941
 30
0.0
 10
4.5298541128
 20
7.0157773922
 30
0.0
 10
4.524832896
 20
7.0225854916
 30
0.0
 10
4.5221137434
 20
7.0257178011
 30
0.0
  0
SPLINE
  5
330
100
AcDbEntity
  8
0
100
AcDbSpline
 62
7
  6
CONTINUOUS
 70
0
 71
3
 72
12
 73
8
 74
0
 42
0.0000001
 43
0.0000001
 44
0.0000000001
 40
0.0
 40
0.0
 40
0.0
 40
0.0
 40
0.1252171071
 40
0.2505553191
 40
0.5006051721
 40
0.7504106641
 40
1.0
 40
1.0
 40
1.0
 40
1.0
 10
3.6906279396
 20
6.978391804
 30
0.0
 10
3.6906279396
 20
6.9761662431
 30
0.0
 10
3.690884062
 20
6.9717085879
 30
0.0
 10
3.6923881665
 20
6.9629238988
 30
0.0
 10
3.6960844377
 20
6.9523441264
 30
0.0
 10
3.7029781084
 20
6.940856041
 30
0.0
 10
3.7088741538
 20
6.9341547875
 30
0.0
 10
3.7120580554
 20
6.931065807
 30
0.0
  0
SPLINE
  5
331
100
AcDbEntity
  8
0
100
AcDbSpline
 62
7
  6
CONTINUOUS
 70
0
 71
3
 72
11
 73
7
 74
0
 42
0.0000001
 43
0.0000001
 44
0.0000000001
 40
0.0
 40
0.0
 40
0.0
 40
0.0
 40
0.254155168
 40
0.506290089
 40
0.7550244061
 40
1.0
 40
1.0
 40
1.0
 40
1.0
 10
3.6227096479
 20
6.978391804
 30
0.0
 10
3.6227096479
 20
6.9739500777
 30
0.0
 10
3.6236399368
 20
6.9650749403
 30
0.0
 10
3.6276817522
 20
6.9524255189
 30
0.0
 10
3.6339857354
 20
6.9409334609
 30
0.0
 10
3.6394261448
 20
6.9341767474
 30
0.0
 10
3.6423675017
 20
6.931065807
 30
0.0
  0
SPLINE
  5
332
100
AcDbEntity
  8
0
100
AcDbSpline
 62
7
  6
CONTINUOUS
 70
0
 71
3
 72
12
 73
8
 74
0
 42
0.0000001
 43
0.0000001
 44
0.0000000001
 40
0.0
 40
0.0
 40
0.0
 40
0.0
 40
0.2373402532
 40
0.4842377322
 40
0.6110978274
 40
0.7397585788
 40
1.0
 40
1.0
 40
1.0
 40
1.0
 10
4.5293770843
 20
6.931065807
 30
0.0
 10
4.5319135265
 20
6.9342164954
 30
0.0
 10
4.5365886532
 20
6.941065316
 30
0.0
 10
4.5409993339
 20
6.9505561796
 30
0.0
 10
4.5435947342
 20
6.9587260521
 30
0.0
 10
4.5455249031
 20
6.9673092801
 30
0.0
 10
4.5461149293
 20
6.9739567219
 30
0.0
 10
4.5461149293
 20
6.978391804
 30
0.0
  0
SPLINE
  5
333
100
AcDbEntity
  8
0
100
AcDbSpline
 62
7
  6
CONTINUOUS
 70
0
 71
3
 72
12
 73
8
 74
0
 42
0.0000001
 43
0.0000001
 44
0.0000000001
 40
0.0
 40
0.0
 40
0.0
 40
0.0
 40
0.2602451785
 40
0.3889067378
 40
0.5157671471
 40
0.7626625383
 40
1.0
 40
1.0
 40
1.0
 40
1.0
 10
4.5461149293
 20
6.978391804
 30
0.0
 10
4.5461149293
 20
6.9828269505
 30
0.0
 10
4.5455248958
 20
6.9894744718
 30
0.0
 10
4.5435946852
 20
6.998057777
 30
0.0
 10
4.5409992484
 20
7.0062276207
 30
0.0
 10
4.5365885968
 20
7.0157184112
 30
0.0
 10
4.5319134968
 20
7.0225671496
 30
0.0
 10
4.5293770843
 20
7.0257178011
 30
0.0
  0
SPLINE
  5
334
100
AcDbEntity
  8
0
100
AcDbSpline
 62
7
  6
CONTINUOUS
 70
0
 71
3
 72
12
 73
8
 74
0
 42
0.0000001
 43
0.0000001
 44
0.0000000001
 40
0.0
 40
0.0
 40
0.0
 40
0.0
 40
0.2390864987
 40
0.4863794628
 40
0.6129930249
 40
0.7411706233
 40
1.0
 40
1.0
 40
1.0
 40
1.0
 10
3.6182825447
 20
7.0257178011
 30
0.0
 10
3.6156502842
 20
7.0225768079
 30
0.0
 10
3.6107938578
 20
7.0157496674
 30
0.0
 10
3.6061900012
 20
7.0062441131
 30
0.0
 10
3.6034838613
 20
6.9980632571
 30
0.0
 10
3.6014745332
 20
6.9894831269
 30
0.0
 10
3.600858783
 20
6.9828283378
 30
0.0
 10
3.600858783
 20
6.978391804
 30
0.0
  0
SPLINE
  5
335
100
AcDbEntity
  8
0
100
AcDbSpline
 62
7
  6
CONTINUOUS
 70
0
 71
3
 72
13
 73
9
 74
0
 42
0.0000001
 43
0.0000001
 44
0.0000000001
 40
0.0
 40
0.0
 40
0.0
 40
0.0
 40
0.2498818445
 40
0.4996953712
 40
0.6247554509
 40
0.7498511196
 40
0.8749958092
 40
1.0
 40
1.0
 40
1.0
 40
1.0
 10
3.7432994705
 20
7.0257178011
 30
0.0
 10
3.7400961329
 20
7.0226304762
 30
0.0
 10
3.7341646031
 20
7.0159362754
 30
0.0
 10
3.7283753646
 20
7.0063503615
 30
0.0
 10
3.7249903203
 20
6.9981019712
 30
0.0
 10
3.7231222144
 20
6.991672022
 30
0.0
 10
3.721984635
 20
6.9850750892
 30
0.0
 10
3.7217269723
 20
6.9806173938
 30
0.0
 10
3.7217269723
 20
6.978391804
 30
0.0
  0
SPLINE
  5
336
100
AcDbEntity
  8
0
100
AcDbSpline
 62
7
  6
CONTINUOUS
 70
0
 71
3
 72
13
 73
9
 74
0
 42
0.0000001
 43
0.0000001
 44
0.0000000001
 40
0.0
 40
0.0
 40
0.0
 40
0.0
 40
0.125005269
 40
0.2501524588
 40
0.3752489662
 40
0.5003094565
 40
0.7501209866
 40
1.0
 40
1.0
 40
1.0
 40
1.0
 10
3.7217269723
 20
6.978391804
 30
0.0
 10
3.7217269723
 20
6.9761661951
 30
0.0
 10
3.7219846851
 20
6.9717084395
 30
0.0
 10
3.723122224
 20
6.9651114206
 30
0.0
 10
3.7249903877
 20
6.958681415
 30
0.0
 10
3.7283754731
 20
6.9504330577
 30
0.0
 10
3.7341646765
 20
6.9408472158
 30
0.0
 10
3.740096169
 20
6.934153097
 30
0.0
 10
3.7432994705
 20
6.931065807
 30
0.0
  0
SPLINE
  5
337
100
AcDbEntity
  8
0
100
AcDbSpline
 62
7
  6
CONTINUOUS
 70
0
 71
3
 72
11
 73
7
 74
0
 42
0.0000001
 43
0.0000001
 44
0.0000000001
 40
0.0
 40
0.0
 40
0.0
 40
0.0
 40
0.2122619092
 40
0.4542303626
 40
0.7202730559
 40
1.0
 40
1.0
 40
1.0
 40
1.0
 10
3.7780287426
 20
6.931065807
 30
0.0
 10
3.7783413241
 20
6.9344036052
 30
0.0
 10
3.778898989
 20
6.9415569218
 30
0.0
 10
3.7795031249
 20
6.9529175966
 30
0.0
 10
3.7798881091
 20
6.9653538808
 30
0.0
 10
3.7799758199
 20
6.9739738782
 30
0.0
 10
3.7799758199
 20
6.978391804
 30
0.0
  0
SPLINE
  5
338
100
AcDbEntity
  8
0
100
AcDbSpline
 62
7
  6
CONTINUOUS
 70
0
 71
3
 72
11
 73
7
 74
0
 42
0.0000001
 43
0.0000001
 44
0.0000000001
 40
0.0
 40
0.0
 40
0.0
 40
0.0
 40
0.2797309821
 40
0.5457746026
 40
0.7877408013
 40
1.0
 40
1.0
 40
1.0
 40
1.0
 10
3.7799758199
 20
6.978391804
 30
0.0
 10
3.7799758199
 20
6.9828097936
 30
0.0
 10
3.779888109
 20
6.9914298695
 30
0.0
 10
3.7795031162
 20
7.0038661964
 30
0.0
 10
3.7788989824
 20
7.0152268074
 30
0.0
 10
3.7783413201
 20
7.0223800456
 30
0.0
 10
3.7780287426
 20
7.0257178011
 30
0.0
  0
SPLINE
  5
339
100
AcDbEntity
  8
0
100
AcDbSpline
 62
7
  6
CONTINUOUS
 70
0
 71
3
 72
12
 73
8
 74
0
 42
0.0000001
 43
0.0000001
 44
0.0000000001
 40
0.0
 40
0.0
 40
0.0
 40
0.0
 40
0.2497413968
 40
0.4995864008
 40
0.7495716054
 40
0.8748497466
 40
1.0
 40
1.0
 40
1.0
 40
1.0
 10
3.7780287426
 20
7.0257178011
 30
0.0
 10
3.7748371649
 20
7.0226294526
 30
0.0
 10
3.7689267758
 20
7.0159298845
 30
0.0
 10
3.7620143848
 20
7.0044418259
 30
0.0
 10
3.7583076067
 20
6.9938605908
 30
0.0
 10
3.7567993282
 20
6.9850751654
 30
0.0
 10
3.7565425637
 20
6.9806173646
 30
0.0
 10
3.7565425637
 20
6.978391804
 30
0.0
  0
SPLINE
  5
33A
100
AcDbEntity
  8
0
100
AcDbSpline
 62
7
  6
CONTINUOUS
 70
0
 71
3
 72
12
 73
8
 74
0
 42
0.0000001
 43
0.0000001
 44
0.0000000001
 40
0.0
 40
0.0
 40
0.0
 40
0.0
 40
0.1251513342
 40
0.2504319803
 40
0.500418423
 40
0.7502614313
 40
1.0
 40
1.0
 40
1.0
 40
1.0
 10
3.7565425637
 20
6.978391804
 30
0.0
 10
3.7565425637
 20
6.9761662242
 30
0.0
 10
3.7567993772
 20
6.9717083634
 30
0.0
 10
3.7583076036
 20
6.962922842
 30
0.0
 10
3.7620144919
 20
6.9523416044
 30
0.0
 10
3.7689268468
 20
6.9408536069
 30
0.0
 10
3.7748372009
 20
6.9341541206
 30
0.0
 10
3.7780287426
 20
6.931065807
 30
0.0
  0
SPLINE
  5
33B
100
AcDbEntity
  8
0
100
AcDbSpline
 62
7
  6
CONTINUOUS
 70
0
 71
3
 72
11
 73
7
 74
0
 42
0.0000001
 43
0.0000001
 44
0.0000000001
 40
0.0
 40
0.0
 40
0.0
 40
0.0
 40
0.213719756
 40
0.4559391699
 40
0.7213602543
 40
1.0
 40
1.0
 40
1.0
 40
1.0
 10
3.8158776878
 20
6.931065807
 30
0.0
 10
3.8165405082
 20
6.9343895994
 30
0.0
 10
3.8177268126
 20
6.9415266495
 30
0.0
 10
3.819015583
 20
6.9528976733
 30
0.0
 10
3.819836717
 20
6.9653439222
 30
0.0
 10
3.8200238088
 20
6.9739730449
 30
0.0
 10
3.8200238088
 20
6.978391804
 30
0.0
  0
SPLINE
  5
33C
100
AcDbEntity
  8
0
100
AcDbSpline
 62
7
  6
CONTINUOUS
 70
0
 71
3
 72
11
 73
7
 74
0
 42
0.0000001
 43
0.0000001
 44
0.0000000001
 40
0.0
 40
0.0
 40
0.0
 40
0.0
 40
0.2786437678
 40
0.5440657891
 40
0.786282958
 40
1.0
 40
1.0
 40
1.0
 40
1.0
 10
3.8200238088
 20
6.978391804
 30
0.0
 10
3.8200238088
 20
6.982810627
 30
0.0
 10
3.8198367166
 20
6.9914398286
 30
0.0
 10
3.8190155644
 20
7.0038861195
 30
0.0
 10
3.8177267985
 20
7.0152570796
 30
0.0
 10
3.8165404998
 20
7.0223940508
 30
0.0
 10
3.8158776878
 20
7.0257178011
 30
0.0
  0
SPLINE
  5
33D
100
AcDbEntity
  8
0
100
AcDbSpline
 62
7
  6
CONTINUOUS
 70
0
 71
3
 72
11
 73
7
 74
0
 42
0.0000001
 43
0.0000001
 44
0.0000000001
 40
0.0
 40
0.0
 40
0.0
 40
0.0
 40
0.2490022629
 40
0.4987347093
 40
0.7491723197
 40
1.0
 40
1.0
 40
1.0
 40
1.0
 10
3.8158776878
 20
7.0257178011
 30
0.0
 10
3.8127289399
 20
7.0226256937
 30
0.0
 10
3.8068989011
 20
7.0159171657
 30
0.0
 10
3.8000907187
 20
7.0044243691
 30
0.0
 10
3.7957155031
 20
6.9917523411
 30
0.0
 10
3.7947056148
 20
6.9828372893
 30
0.0
 10
3.7947056148
 20
6.978391804
 30
0.0
  0
SPLINE
  5
33E
100
AcDbEntity
  8
0
100
AcDbSpline
 62
7
  6
CONTINUOUS
 70
0
 71
3
 72
11
 73
7
 74
0
 42
0.0000001
 43
0.0000001
 44
0.0000000001
 40
0.0
 40
0.0
 40
0.0
 40
0.0
 40
0.2508313068
 40
0.5012701379
 40
0.7510005725
 40
1.0
 40
1.0
 40
1.0
 40
1.0
 10
3.7947056148
 20
6.978391804
 30
0.0
 10
3.7947056148
 20
6.9739462542
 30
0.0
 10
3.7957155082
 20
6.965031111
 30
0.0
 10
3.800090815
 20
6.9523590594
 30
0.0
 10
3.8068989737
 20
6.9408663259
 30
0.0
 10
3.8127289755
 20
6.9341578794
 30
0.0
 10
3.8158776878
 20
6.931065807
 30
0.0
  0
SPLINE
  5
33F
100
AcDbEntity
  8
0
100
AcDbSpline
 62
7
  6
CONTINUOUS
 70
0
 71
3
 72
12
 73
8
 74
0
 42
0.0000001
 43
0.0000001
 44
0.0000000001
 40
0.0
 40
0.0
 40
0.0
 40
0.0
 40
0.1045757194
 40
0.2161386834
 40
0.4587673923
 40
0.7231602459
 40
1.0
 40
1.0
 40
1.0
 40
1.0
 10
3.8564450488
 20
6.931065807
 30
0.0
 10
3.8569293353
 20
6.9326637396
 30
0.0
 10
3.8578553924
 20
6.9359894578
 30
0.0
 10
3.8595295882
 20
6.9431221266
 30
0.0
 10
3.8612097036
 20
6.9528652711
 30
0.0
 10
3.8624611199
 20
6.9653270362
 30
0.0
 10
3.8627462583
 20
6.973971645
 30
0.0
 10
3.8627462583
 20
6.978391804
 30
0.0
  0
SPLINE
  5
340
100
AcDbEntity
  8
0
100
AcDbSpline
 62
7
  6
CONTINUOUS
 70
0
 71
3
 72
15
 73
11
 74
0
 42
0.0000001
 43
0.0000001
 44
0.0000000001
 40
0.0
 40
0.0
 40
0.0
 40
0.0
 40
0.1391662417
 40
0.2768491782
 40
0.4113007716
 40
0.5412508757
 40
0.6656624366
 40
0.7838901292
 40
0.8954378898
 40
1.0
 40
1.0
 40
1.0
 40
1.0
 10
3.8627462583
 20
6.978391804
 30
0.0
 10
3.8627462583
 20
6.9806140687
 30
0.0
 10
3.8626720081
 20
6.9850352565
 30
0.0
 10
3.8623435698
 20
6.9915960475
 30
0.0
 10
3.8618037132
 20
6.9979952463
 30
0.0
 10
3.8610687058
 20
7.0041616027
 30
0.0
 10
3.8601529638
 20
7.0100416962
 30
0.0
 10
3.8590758607
 20
7.0155954062
 30
0.0
 10
3.8578553251
 20
7.0207942283
 30
0.0
 10
3.8569293307
 20
7.0241198836
 30
0.0
 10
3.8564450488
 20
7.0257178011
 30
0.0
  0
SPLINE
  5
341
100
AcDbEntity
  8
0
100
AcDbSpline
 62
7
  6
CONTINUOUS
 70
0
 71
3
 72
13
 73
9
 74
0
 42
0.0000001
 43
0.0000001
 44
0.0000000001
 40
0.0
 40
0.0
 40
0.0
 40
0.0
 40
0.2473922893
 40
0.4965894341
 40
0.6219922926
 40
0.7477890411
 40
0.8738967093
 40
1.0
 40
1.0
 40
1.0
 40
1.0
 10
3.8564450488
 20
7.0257178011
 30
0.0
 10
3.8533698771
 20
7.0226191241
 30
0.0
 10
3.8476785751
 20
7.0158949626
 30
0.0
 10
3.8421598306
 20
7.0063255251
 30
0.0
 10
3.8389298635
 20
6.9980929105
 30
0.0
 10
3.8371446093
 20
6.9916651957
 30
0.0
 10
3.8360576729
 20
6.9850713961
 30
0.0
 10
3.8358115385
 20
6.9806170826
 30
0.0
 10
3.8358115385
 20
6.978391804
 30
0.0
  0
SPLINE
  5
342
100
AcDbEntity
  8
0
100
AcDbSpline
 62
7
  6
CONTINUOUS
 70
0
 71
3
 72
13
 73
9
 74
0
 42
0.0000001
 43
0.0000001
 44
0.0000000001
 40
0.0
 40
0.0
 40
0.0
 40
0.0
 40
0.1261043761
 40
0.2522145688
 40
0.37801215
 40
0.5034154001
 40
0.7526105314
 40
1.0
 40
1.0
 40
1.0
 40
1.0
 10
3.8358115385
 20
6.978391804
 30
0.0
 10
3.8358115385
 20
6.9761665062
 30
0.0
 10
3.8360577208
 20
6.9717121323
 30
0.0
 10
3.8371446183
 20
6.9651182475
 30
0.0
 10
3.8389299278
 20
6.958690476
 30
0.0
 10
3.8421599345
 20
6.9504578934
 30
0.0
 10
3.8476786455
 20
6.9408885282
 30
0.0
 10
3.8533699121
 20
6.9341644487
 30
0.0
 10
3.8564450488
 20
6.931065807
 30
0.0
  0
SPLINE
  5
343
100
AcDbEntity
  8
0
100
AcDbSpline
 62
7
  6
CONTINUOUS
 70
0
 71
3
 72
13
 73
9
 74
0
 42
0.0000001
 43
0.0000001
 44
0.0000000001
 40
0.0
 40
0.0
 40
0.0
 40
0.0
 40
0.2191931952
 40
0.4623692467
 40
0.5918602609
 40
0.7254767327
 40
0.8620615539
 40
1.0
 40
1.0
 40
1.0
 40
1.0
 10
3.899300749
 20
6.931065807
 30
0.0
 10
3.9006222889
 20
6.9343409061
 30
0.0
 10
3.9030118614
 20
6.9414138429
 30
0.0
 10
3.9051544329
 20
6.9507214042
 30
0.0
 10
3.9064342917
 20
6.9587800385
 30
0.0
 10
3.9071536097
 20
6.9651820396
 30
0.0
 10
3.9075913128
 20
6.9717455331
 30
0.0
 10
3.9076902444
 20
6.976169317
 30
0.0
 10
3.9076902444
 20
6.978391804
 30
0.0
  0
SPLINE
  5
344
100
AcDbEntity
  8
0
100
AcDbSpline
 62
7
  6
CONTINUOUS
 70
0
 71
3
 72
13
 73
9
 74
0
 42
0.0000001
 43
0.0000001
 44
0.0000000001
 40
0.0
 40
0.0
 40
0.0
 40
0.0
 40
0.1379396145
 40
0.2745272232
 40
0.4081444758
 40
0.5376356877
 40
0.7808095325
 40
1.0
 40
1.0
 40
1.0
 40
1.0
 10
3.9076902444
 20
6.978391804
 30
0.0
 10
3.9076902444
 20
6.9806143099
 30
0.0
 10
3.907591293
 20
6.9850381571
 30
0.0
 10
3.907153606
 20
6.9916017281
 30
0.0
 10
3.9064342664
 20
6.9980037885
 30
0.0
 10
3.9051543903
 20
7.0060623997
 30
0.0
 10
3.9030118329
 20
7.015369886
 30
0.0
 10
3.9006222724
 20
7.0224427427
 30
0.0
 10
3.899300749
 20
7.0257178011
 30
0.0
  0
SPLINE
  5
345
100
AcDbEntity
  8
0
100
AcDbSpline
 62
7
  6
CONTINUOUS
 70
0
 71
3
 72
11
 73
7
 74
0
 42
0.0000001
 43
0.0000001
 44
0.0000000001
 40
0.0
 40
0.0
 40
0.0
 40
0.0
 40
0.2455560834
 40
0.4944332438
 40
0.7463231653
 40
1.0
 40
1.0
 40
1.0
 40
1.0
 10
3.899300749
 20
7.0257178011
 30
0.0
 10
3.8963293608
 20
7.0226096217
 30
0.0
 10
3.8908324518
 20
7.0158598064
 30
0.0
 10
3.8844558011
 20
7.0043673804
 30
0.0
 10
3.8803662058
 20
6.9917146544
 30
0.0
 10
3.8794245483
 20
6.982834
 30
0.0
 10
3.8794245483
 20
6.978391804
 30
0.0
  0
SPLINE
  5
346
100
AcDbEntity
  8
0
100
AcDbSpline
 62
7
  6
CONTINUOUS
 70
0
 71
3
 72
11
 73
7
 74
0
 42
0.0000001
 43
0.0000001
 44
0.0000000001
 40
0.0
 40
0.0
 40
0.0
 40
0.0
 40
0.2536805007
 40
0.5055716107
 40
0.7544467366
 40
1.0
 40
1.0
 40
1.0
 40
1.0
 10
3.8794245483
 20
6.978391804
 30
0.0
 10
3.8794245483
 20
6.9739495436
 30
0.0
 10
3.88036621
 20
6.9650687992
 30
0.0
 10
3.8844558915
 20
6.9524160476
 30
0.0
 10
3.8908325202
 20
6.9409236848
 30
0.0
 10
3.8963293948
 20
6.9341739509
 30
0.0
 10
3.899300749
 20
6.931065807
 30
0.0
  0
SPLINE
  5
347
100
AcDbEntity
  8
0
100
AcDbSpline
 62
7
  6
CONTINUOUS
 70
0
 71
3
 72
13
 73
9
 74
0
 42
0.0000001
 43
0.0000001
 44
0.0000000001
 40
0.0
 40
0.0
 40
0.0
 40
0.0
 40
0.2228127215
 40
0.4666627036
 40
0.5956102802
 40
0.7282369509
 40
0.8635202969
 40
1.0
 40
1.0
 40
1.0
 40
1.0
 10
3.9439904519
 20
6.931065807
 30
0.0
 10
3.9456124763
 20
6.9343119703
 30
0.0
 10
3.948561415
 20
6.9413409965
 30
0.0
 10
3.951232469
 20
6.950689638
 30
0.0
 10
3.9528223372
 20
6.9587698442
 30
0.0
 10
3.9537140512
 20
6.9651751104
 30
0.0
 10
3.9542566323
 20
6.971741994
 30
0.0
 10
3.9543792916
 20
6.9761690219
 30
0.0
 10
3.9543792916
 20
6.978391804
 30
0.0
  0
SPLINE
  5
348
100
AcDbEntity
  8
0
100
AcDbSpline
 62
7
  6
CONTINUOUS
 70
0
 71
3
 72
13
 73
9
 74
0
 42
0.0000001
 43
0.0000001
 44
0.0000000001
 40
0.0
 40
0.0
 40
0.0
 40
0.0
 40
0.1364808608
 40
0.2717669618
 40
0.4043944187
 40
0.5333422158
 40
0.7771900163
 40
1.0
 40
1.0
 40
1.0
 40
1.0
 10
3.9543792916
 20
6.978391804
 30
0.0
 10
3.9543792916
 20
6.9806146051
 30
0.0
 10
3.9542566078
 20
6.9850416959
 30
0.0
 10
3.9537140467
 20
6.9916086578
 30
0.0
 10
3.9528223057
 20
6.9980139831
 30
0.0
 10
3.9512324164
 20
7.0060941653
 30
0.0
 10
3.9485613797
 20
7.0154427321
 30
0.0
 10
3.9456124564
 20
7.0224716776
 30
0.0
 10
3.9439904519
 20
7.0257178011
 30
0.0
  0
SPLINE
  5
349
100
AcDbEntity
  8
0
100
AcDbSpline
 62
7
  6
CONTINUOUS
 70
0
 71
3
 72
11
 73
7
 74
0
 42
0.0000001
 43
0.0000001
 44
0.0000000001
 40
0.0
 40
0.0
 40
0.0
 40
0.0
 40
0.2430039411
 40
0.4912645902
 40
0.744232429
 40
1.0
 40
1.0
 40
1.0
 40
1.0
 10
3.9439904519
 20
7.0257178011
 30
0.0
 10
3.9411523302
 20
7.0225970329
 30
0.0
 10
3.935906515
 20
7.0158162674
 30
0.0
 10
3.9298517443
 20
7.0043257188
 30
0.0
 10
3.9259737778
 20
6.9916878952
 30
0.0
 10
3.9250822792
 20
6.9828316769
 30
0.0
 10
3.9250822792
 20
6.978391804
 30
0.0
  0
SPLINE
  5
34A
100
AcDbEntity
  8
0
100
AcDbSpline
 62
7
  6
CONTINUOUS
 70
0
 71
3
 72
11
 73
7
 74
0
 42
0.0000001
 43
0.0000001
 44
0.0000000001
 40
0.0
 40
0.0
 40
0.0
 40
0.0
 40
0.255771266
 40
0.50874027
 40
0.7569988678
 40
1.0
 40
1.0
 40
1.0
 40
1.0
 10
3.9250822792
 20
6.978391804
 30
0.0
 10
3.9250822792
 20
6.9739518668
 30
0.0
 10
3.9259737815
 20
6.9650955595
 30
0.0
 10
3.9298518303
 20
6.9524577087
 30
0.0
 10
3.9359065802
 20
6.9409672233
 30
0.0
 10
3.9411523628
 20
6.9341865393
 30
0.0
 10
3.9439904519
 20
6.931065807
 30
0.0
  0
SPLINE
  5
34B
100
AcDbEntity
  8
0
100
AcDbSpline
 62
7
  6
CONTINUOUS
 70
0
 71
3
 72
13
 73
9
 74
0
 42
0.0000001
 43
0.0000001
 44
0.0000000001
 40
0.0
 40
0.0
 40
0.0
 40
0.0
 40
0.226716787
 40
0.4713263616
 40
0.5996933711
 40
0.7312475151
 40
0.8651129962
 40
1.0
 40
1.0
 40
1.0
 40
1.0
 10
3.9900403776
 20
6.931065807
 30
0.0
 10
3.9919404132
 20
6.9342832623
 30
0.0
 10
3.9954116201
 20
6.9412640489
 30
0.0
 10
3.9985906228
 20
6.9506546687
 30
0.0
 10
4.0004761069
 20
6.9587584507
 30
0.0
 10
4.001531247
 20
6.9651672669
 30
0.0
 10
4.0021732561
 20
6.971737963
 30
0.0
 10
4.0023184238
 20
6.9761686854
 30
0.0
 10
4.0023184238
 20
6.978391804
 30
0.0
  0
SPLINE
  5
34C
100
AcDbEntity
  8
0
100
AcDbSpline
 62
7
  6
CONTINUOUS
 70
0
 71
3
 72
13
 73
9
 74
0
 42
0.0000001
 43
0.0000001
 44
0.0000000001
 40
0.0
 40
0.0
 40
0.0
 40
0.0
 40
0.13488815
 40
0.2687563508
 40
0.4003112871
 40
0.5286785423
 40
0.7732859625
 40
1.0
 40
1.0
 40
1.0
 40
1.0
 10
4.0023184238
 20
6.978391804
 30
0.0
 10
4.0023184238
 20
6.9806149416
 30
0.0
 10
4.0021732273
 20
6.9850457266
 30
0.0
 10
4.0015312415
 20
6.991616502
 30
0.0
 10
4.0004760696
 20
6.9980253771
 30
0.0
 10
3.9985905607
 20
7.0061291338
 30
0.0
 10
3.9954115782
 20
7.0155196794
 30
0.0
 10
3.9919403902
 20
7.0225003848
 30
0.0
 10
3.9900403776
 20
7.0257178011
 30
0.0
  0
SPLINE
  5
34D
100
AcDbEntity
  8
0
100
AcDbSpline
 62
7
  6
CONTINUOUS
 70
0
 71
3
 72
12
 73
8
 74
0
 42
0.0000001
 43
0.0000001
 44
0.0000000001
 40
0.0
 40
0.0
 40
0.0
 40
0.0
 40
0.2398980429
 40
0.487377113
 40
0.6138766061
 40
0.7418293926
 40
1.0
 40
1.0
 40
1.0
 40
1.0
 10
3.9900403776
 20
7.0257178011
 30
0.0
 10
3.9873641379
 20
7.0225812016
 30
0.0
 10
3.9824245546
 20
7.0157641093
 30
0.0
 10
3.9777314246
 20
7.0062519105
 30
0.0
 10
3.9749741332
 20
6.9980659373
 30
0.0
 10
3.9729283476
 20
6.9894872866
 30
0.0
 10
3.9723006888
 20
6.9828290258
 30
0.0
 10
3.9723006888
 20
6.978391804
 30
0.0
  0
SPLINE
  5
34E
100
AcDbEntity
  8
0
100
AcDbSpline
 62
7
  6
CONTINUOUS
 70
0
 71
3
 72
12
 73
8
 74
0
 42
0.0000001
 43
0.0000001
 44
0.0000000001
 40
0.0
 40
0.0
 40
0.0
 40
0.0
 40
0.2581743335
 40
0.3861279326
 40
0.512627758
 40
0.7601047548
 40
1.0
 40
1.0
 40
1.0
 40
1.0
 10
3.9723006888
 20
6.978391804
 30
0.0
 10
3.9723006888
 20
6.973954518
 30
0.0
 10
3.9729283547
 20
6.9672961773
 30
0.0
 10
3.9749741853
 20
6.9587174497
 30
0.0
 10
3.9777315159
 20
6.9505315064
 30
0.0
 10
3.9824246149
 20
6.9410193805
 30
0.0
 10
3.987364169
 20
6.9342023701
 30
0.0
 10
3.9900403776
 20
6.931065807
 30
0.0
  0
SPLINE
  5
34F
100
AcDbEntity
  8
0
100
AcDbSpline
 62
7
  6
CONTINUOUS
 70
0
 71
3
 72
13
 73
9
 74
0
 42
0.0000001
 43
0.0000001
 44
0.0000000001
 40
0.0
 40
0.0
 40
0.0
 40
0.0
 40
0.2306941569
 40
0.476112457
 40
0.6038942982
 40
0.7343507087
 40
0.8667565445
 40
1.0
 40
1.0
 40
1.0
 40
1.0
 10
4.0369623258
 20
6.931065807
 30
0.0
 10
4.0391164336
 20
6.9342563931
 30
0.0
 10
4.0430675907
 20
6.9411875195
 30
0.0
 10
4.0467271194
 20
6.9506183046
 30
0.0
 10
4.0488904566
 20
6.9587464059
 30
0.0
 10
4.0500982747
 20
6.9651588599
 30
0.0
 10
4.0508331968
 20
6.9717336124
 30
0.0
 10
4.0509994124
 20
6.9761683217
 30
0.0
 10
4.0509994124
 20
6.978391804
 30
0.0
  0
SPLINE
  5
350
100
AcDbEntity
  8
0
100
AcDbSpline
 62
7
  6
CONTINUOUS
 70
0
 71
3
 72
14
 73
10
 74
0
 42
0.0000001
 43
0.0000001
 44
0.0000000001
 40
0.0
 40
0.0
 40
0.0
 40
0.0
 40
0.1332220822
 40
0.2656082348
 40
0.3960434073
 40
0.5238039355
 40
0.64832816
 40
0.7693475738
 40
1.0
 40
1.0
 40
1.0
 40
1.0
 10
4.0509994124
 20
6.978391804
 30
0.0
 10
4.0509994124
 20
6.9806153054
 30
0.0
 10
4.0508331662
 20
6.9850500621
 30
0.0
 10
4.0500982601
 20
6.9916249608
 30
0.0
 10
4.048890444
 20
6.9980372372
 30
0.0
 10
4.0472461197
 20
7.0042155302
 30
0.0
 10
4.0451974357
 20
7.0101062688
 30
0.0
 10
4.0420368766
 20
7.0174037448
 30
0.0
 10
4.0391164078
 20
7.0225272531
 30
0.0
 10
4.0369623258
 20
7.0257178011
 30
0.0
  0
SPLINE
  5
351
100
AcDbEntity
  8
0
100
AcDbSpline
 62
7
  6
CONTINUOUS
 70
0
 71
3
 72
12
 73
8
 74
0
 42
0.0000001
 43
0.0000001
 44
0.0000000001
 40
0.0
 40
0.0
 40
0.0
 40
0.0
 40
0.2346155433
 40
0.4809095018
 40
0.6081571535
 40
0.7375701342
 40
1.0
 40
1.0
 40
1.0
 40
1.0
 10
4.0842588515
 20
6.931065807
 30
0.0
 10
4.0866419384
 20
6.9342323118
 30
0.0
 10
4.0910266764
 20
6.9411150806
 30
0.0
 10
4.0951321496
 20
6.9505819525
 30
0.0
 10
4.0975523718
 20
6.9587347699
 30
0.0
 10
4.099356675
 20
6.9673226061
 30
0.0
 10
4.0999061637
 20
6.9739589107
 30
0.0
 10
4.0999061637
 20
6.978391804
 30
0.0
  0
SPLINE
  5
352
100
AcDbEntity
  8
0
100
AcDbSpline
 62
7
  6
CONTINUOUS
 70
0
 71
3
 72
13
 73
9
 74
0
 42
0.0000001
 43
0.0000001
 44
0.0000000001
 40
0.0
 40
0.0
 40
0.0
 40
0.0
 40
0.1316252602
 40
0.2625991538
 40
0.3919838989
 40
0.5192032936
 40
0.7654398817
 40
1.0
 40
1.0
 40
1.0
 40
1.0
 10
4.0999061637
 20
6.978391804
 30
0.0
 10
4.0999061637
 20
6.980615681
 30
0.0
 10
4.0997205571
 20
6.9850545621
 30
0.0
 10
4.0989002913
 20
6.9916335135
 30
0.0
 10
4.0975522068
 20
6.9980495751
 30
0.0
 10
4.0951321359
 20
7.0062015618
 30
0.0
 10
4.0910266008
 20
7.0156687451
 30
0.0
 10
4.0866419103
 20
7.0225513336
 30
0.0
 10
4.0842588515
 20
7.0257178011
 30
0.0
  0
SPLINE
  5
353
100
AcDbEntity
  8
0
100
AcDbSpline
 62
7
  6
CONTINUOUS
 70
0
 71
3
 72
13
 73
9
 74
0
 42
0.0000001
 43
0.0000001
 44
0.0000000001
 40
0.0
 40
0.0
 40
0.0
 40
0.0
 40
0.2326301062
 40
0.4784548104
 40
0.605954378
 40
0.7358747452
 40
0.867564428
 40
1.0
 40
1.0
 40
1.0
 40
1.0
 10
4.0842588515
 20
7.0257178011
 30
0.0
 10
4.0819883358
 20
7.0225395123
 30
0.0
 10
4.0778167818
 20
7.0156326669
 30
0.0
 10
4.0739319769
 20
7.0061833084
 30
0.0
 10
4.0716388889
 20
6.9980432578
 30
0.0
 10
4.0703601169
 20
6.9916290139
 30
0.0
 10
4.0695820569
 20
6.9850522092
 30
0.0
 10
4.0694060824
 20
6.9806154719
 30
0.0
 10
4.0694060824
 20
6.978391804
 30
0.0
  0
SPLINE
  5
354
100
AcDbEntity
  8
0
100
AcDbSpline
 62
7
  6
CONTINUOUS
 70
0
 71
3
 72
13
 73
9
 74
0
 42
0.0000001
 43
0.0000001
 44
0.0000000001
 40
0.0
 40
0.0
 40
0.0
 40
0.0
 40
0.1324367047
 40
0.2641290621
 40
0.3940502278
 40
0.5215500803
 40
0.7673726768
 40
1.0
 40
1.0
 40
1.0
 40
1.0
 10
4.0694060824
 20
6.978391804
 30
0.0
 10
4.0694060824
 20
6.9761681172
 30
0.0
 10
4.0695820928
 20
6.9717313177
 30
0.0
 10
4.0703601257
 20
6.9651544322
 30
0.0
 10
4.0716389369
 20
6.9587401301
 30
0.0
 10
4.073932054
 20
6.9506001064
 30
0.0
 10
4.0778168318
 20
6.9411508207
 30
0.0
 10
4.081988363
 20
6.9342440578
 30
0.0
 10
4.0842588515
 20
6.931065807
 30
0.0
  0
SPLINE
  5
355
100
AcDbEntity
  8
0
100
AcDbSpline
 62
7
  6
CONTINUOUS
 70
0
 71
3
 72
12
 73
8
 74
0
 42
0.0000001
 43
0.0000001
 44
0.0000000001
 40
0.0
 40
0.0
 40
0.0
 40
0.0
 40
0.2382381747
 40
0.4853381643
 40
0.6120713092
 40
0.7404837241
 40
1.0
 40
1.0
 40
1.0
 40
1.0
 10
4.1314285386
 20
6.931065807
 30
0.0
 10
4.134014464
 20
6.9342114684
 30
0.0
 10
4.1387832378
 20
6.9410491318
 30
0.0
 10
4.1432934492
 20
6.9505476164
 30
0.0
 10
4.1459459169
 20
6.9587231318
 30
0.0
 10
4.1479169185
 20
6.9673047813
 30
0.0
 10
4.1485201906
 20
6.9739559804
 30
0.0
 10
4.1485201906
 20
6.978391804
 30
0.0
  0
SPLINE
  5
356
100
AcDbEntity
  8
0
100
AcDbSpline
 62
7
  6
CONTINUOUS
 70
0
 71
3
 72
12
 73
8
 74
0
 42
0.0000001
 43
0.0000001
 44
0.0000000001
 40
0.0
 40
0.0
 40
0.0
 40
0.0
 40
0.2595200229
 40
0.3879332474
 40
0.5146667126
 40
0.7617646202
 40
1.0
 40
1.0
 40
1.0
 40
1.0
 10
4.1485201906
 20
6.978391804
 30
0.0
 10
4.1485201906
 20
6.982827692
 30
0.0
 10
4.147916911
 20
6.9894789707
 30
0.0
 10
4.1459458669
 20
6.9980606975
 30
0.0
 10
4.1432933619
 20
7.0062361837
 30
0.0
 10
4.1387831801
 20
7.0157345953
 30
0.0
 10
4.1340144338
 20
7.0225721764
 30
0.0
 10
4.1314285386
 20
7.0257178011
 30
0.0
  0
SPLINE
  5
357
100
AcDbEntity
  8
0
100
AcDbSpline
 62
7
  6
CONTINUOUS
 70
0
 71
3
 72
13
 73
9
 74
0
 42
0.0000001
 43
0.0000001
 44
0.0000000001
 40
0.0
 40
0.0
 40
0.0
 40
0.0
 40
0.228686177
 40
0.473691794
 40
0.6017682405
 40
0.7327794701
 40
0.8659241308
 40
1.0
 40
1.0
 40
1.0
 40
1.0
 10
4.1314285386
 20
7.0257178011
 30
0.0
 10
4.1293998194
 20
7.0225139329
 30
0.0
 10
4.1256857534
 20
7.0155576946
 30
0.0
 10
4.1222653053
 20
7.0061468531
 30
0.0
 10
4.1202400166
 20
6.9980310653
 30
0.0
 10
4.1191079397
 20
6.9916204499
 30
0.0
 10
4.1184191138
 20
6.9850477674
 30
0.0
 10
4.1182633423
 20
6.9806151001
 30
0.0
 10
4.1182633423
 20
6.978391804
 30
0.0
  0
SPLINE
  5
358
100
AcDbEntity
  8
0
100
AcDbSpline
 62
7
  6
CONTINUOUS
 70
0
 71
3
 72
13
 73
9
 74
0
 42
0.0000001
 43
0.0000001
 44
0.0000000001
 40
0.0
 40
0.0
 40
0.0
 40
0.0
 40
0.1340770093
 40
0.2672243702
 40
0.3982363941
 40
0.5263130984
 40
0.7713165724
 40
1.0
 40
1.0
 40
1.0
 40
1.0
 10
4.1182633423
 20
6.978391804
 30
0.0
 10
4.1182633423
 20
6.9761684891
 30
0.0
 10
4.1184191446
 20
6.9717357594
 30
0.0
 10
4.1191079451
 20
6.9651629971
 30
0.0
 10
4.1202400568
 20
6.9587523232
 30
0.0
 10
4.1222653723
 20
6.9506365614
 30
0.0
 10
4.1256857988
 20
6.9412257939
 30
0.0
 10
4.1293998438
 20
6.9342696368
 30
0.0
 10
4.1314285386
 20
6.931065807
 30
0.0
  0
SPLINE
  5
359
100
AcDbEntity
  8
0
100
AcDbSpline
 62
7
  6
CONTINUOUS
 70
0
 71
3
 72
11
 73
7
 74
0
 42
0.0000001
 43
0.0000001
 44
0.0000000001
 40
0.0
 40
0.0
 40
0.0
 40
0.0
 40
0.2415570391
 40
0.489474555
 40
0.7430543193
 40
1.0
 40
1.0
 40
1.0
 40
1.0
 10
4.1779713155
 20
6.931065807
 30
0.0
 10
4.1807329196
 20
6.9341939884
 30
0.0
 10
4.1858343058
 20
6.9409924225
 30
0.0
 10
4.1917053269
 20
6.9524812949
 30
0.0
 10
4.1954629902
 20
6.9651104651
 30
0.0
 10
4.1963261095
 20
6.9739532076
 30
0.0
 10
4.1963261095
 20
6.978391804
 30
0.0
  0
SPLINE
  5
35A
100
AcDbEntity
  8
0
100
AcDbSpline
 62
7
  6
CONTINUOUS
 70
0
 71
3
 72
11
 73
7
 74
0
 42
0.0000001
 43
0.0000001
 44
0.0000000001
 40
0.0
 40
0.0
 40
0.0
 40
0.0
 40
0.2569493942
 40
0.5105303098
 40
0.7584457672
 40
1.0
 40
1.0
 40
1.0
 40
1.0
 10
4.1963261095
 20
6.978391804
 30
0.0
 10
4.1963261095
 20
6.9828304649
 30
0.0
 10
4.1954629858
 20
6.9916732957
 30
0.0
 10
4.1917052444
 20
7.0043024946
 30
0.0
 10
4.185834243
 20
7.0157913037
 30
0.0
 10
4.1807328876
 20
7.0225896558
 30
0.0
 10
4.1779713155
 20
7.0257178011
 30
0.0
  0
SPLINE
  5
35B
100
AcDbEntity
  8
0
100
AcDbSpline
 62
7
  6
CONTINUOUS
 70
0
 71
3
 72
13
 73
9
 74
0
 42
0.0000001
 43
0.0000001
 44
0.0000000001
 40
0.0
 40
0.0
 40
0.0
 40
0.0
 40
0.2247210924
 40
0.4689381395
 40
0.5976011805
 40
0.7297042094
 40
0.8642963132
 40
1.0
 40
1.0
 40
1.0
 40
1.0
 10
4.1779713155
 20
7.0257178011
 30
0.0
 10
4.176208929
 20
7.0224859771
 30
0.0
 10
4.1729967862
 20
7.0154804438
 30
0.0
 10
4.1700716128
 20
7.0061109728
 30
0.0
 10
4.1683335825
 20
6.9980192809
 30
0.0
 10
4.167359836
 20
6.9916122825
 30
0.0
 10
4.1667673482
 20
6.9850435559
 30
0.0
 10
4.1666333927
 20
6.9806147482
 30
0.0
 10
4.1666333927
 20
6.978391804
 30
0.0
  0
SPLINE
  5
35C
100
AcDbEntity
  8
0
100
AcDbSpline
 62
7
  6
CONTINUOUS
 70
0
 71
3
 72
13
 73
9
 74
0
 42
0.0000001
 43
0.0000001
 44
0.0000000001
 40
0.0
 40
0.0
 40
0.0
 40
0.0
 40
0.1357048385
 40
0.2702996785
 40
0.4024034949
 40
0.5310667672
 40
0.7752816439
 40
1.0
 40
1.0
 40
1.0
 40
1.0
 10
4.1666333927
 20
6.978391804
 30
0.0
 10
4.1666333927
 20
6.976168841
 30
0.0
 10
4.1667673747
 20
6.9717399706
 30
0.0
 10
4.1673598406
 20
6.9651711652
 30
0.0
 10
4.1683336169
 20
6.958764108
 30
0.0
 10
4.1700716706
 20
6.9506724409
 30
0.0
 10
4.1729968253
 20
6.9413030443
 30
0.0
 10
4.1762089504
 20
6.9342975917
 30
0.0
 10
4.1779713155
 20
6.931065807
 30
0.0
  0
SPLINE
  5
35D
100
AcDbEntity
  8
0
100
AcDbSpline
 62
7
  6
CONTINUOUS
 70
0
 71
3
 72
11
 73
7
 74
0
 42
0.0000001
 43
0.0000001
 44
0.0000000001
 40
0.0
 40
0.0
 40
0.0
 40
0.0
 40
0.2443592134
 40
0.492945459
 40
0.745340653
 40
1.0
 40
1.0
 40
1.0
 40
1.0
 10
4.2233937569
 20
6.931065807
 30
0.0
 10
4.2263028907
 20
6.9341798145
 30
0.0
 10
4.2316825796
 20
6.9409441081
 30
0.0
 10
4.2379085885
 20
6.9524358247
 30
0.0
 10
4.2418989964
 20
6.9650816217
 30
0.0
 10
4.2428171039
 20
6.9739507092
 30
0.0
 10
4.2428171039
 20
6.978391804
 30
0.0
  0
SPLINE
  5
35E
100
AcDbEntity
  8
0
100
AcDbSpline
 62
7
  6
CONTINUOUS
 70
0
 71
3
 72
11
 73
7
 74
0
 42
0.0000001
 43
0.0000001
 44
0.0000000001
 40
0.0
 40
0.0
 40
0.0
 40
0.0
 40
0.2546630287
 40
0.5070593986
 40
0.7556436042
 40
1.0
 40
1.0
 40
1.0
 40
1.0
 10
4.2428171039
 20
6.978391804
 30
0.0
 10
4.2428171039
 20
6.9828329634
 30
0.0
 10
4.2418989914
 20
6.9917021402
 30
0.0
 10
4.2379085012
 20
7.0043479644
 30
0.0
 10
4.2316825132
 20
7.0158396177
 30
0.0
 10
4.2263028574
 20
7.0226038293
 30
0.0
 10
4.2233937569
 20
7.0257178011
 30
0.0
  0
SPLINE
  5
35F
100
AcDbEntity
  8
0
100
AcDbSpline
 62
7
  6
CONTINUOUS
 70
0
 71
3
 72
13
 73
9
 74
0
 42
0.0000001
 43
0.0000001
 44
0.0000000001
 40
0.0
 40
0.0
 40
0.0
 40
0.0
 40
0.2209330509
 40
0.4644294135
 40
0.5936585987
 40
0.7267998424
 40
0.8627606232
 40
1.0
 40
1.0
 40
1.0
 40
1.0
 10
4.2233937569
 20
7.0257178011
 30
0.0
 10
4.2219209592
 20
7.0224569066
 30
0.0
 10
4.2192505699
 20
7.0154049545
 30
0.0
 10
4.2168445568
 20
7.0060773943
 30
0.0
 10
4.2154098359
 20
6.9980084261
 30
0.0
 10
4.2146042763
 20
6.9916048592
 30
0.0
 10
4.2141141072
 20
6.9850397532
 30
0.0
 10
4.2140033072
 20
6.9806144309
 30
0.0
 10
4.2140033072
 20
6.978391804
 30
0.0
  0
SPLINE
  5
360
100
AcDbEntity
  8
0
100
AcDbSpline
 62
7
  6
CONTINUOUS
 70
0
 71
3
 72
13
 73
9
 74
0
 42
0.0000001
 43
0.0000001
 44
0.0000000001
 40
0.0
 40
0.0
 40
0.0
 40
0.0
 40
0.1372405397
 40
0.2732040907
 40
0.4063461159
 40
0.5355755076
 40
0.7790696735
 40
1.0
 40
1.0
 40
1.0
 40
1.0
 10
4.2140033072
 20
6.978391804
 30
0.0
 10
4.2140033072
 20
6.9761691583
 30
0.0
 10
4.2141141291
 20
6.971743773
 30
0.0
 10
4.21460428
 20
6.9651785892
 30
0.0
 10
4.2154098643
 20
6.9587749632
 30
0.0
 10
4.2168446048
 20
6.9507060187
 30
0.0
 10
4.2192506022
 20
6.9413785333
 30
0.0
 10
4.2219209774
 20
6.9343266614
 30
0.0
 10
4.2233937569
 20
6.931065807
 30
0.0
  0
SPLINE
  5
361
100
AcDbEntity
  8
0
100
AcDbSpline
 62
7
  6
CONTINUOUS
 70
0
 71
3
 72
11
 73
7
 74
0
 42
0.0000001
 43
0.0000001
 44
0.0000000001
 40
0.0
 40
0.0
 40
0.0
 40
0.0
 40
0.246642876
 40
0.4957869326
 40
0.7472184361
 40
1.0
 40
1.0
 40
1.0
 40
1.0
 10
4.267214315
 20
6.931065807
 30
0.0
 10
4.2702419094
 20
6.9341688064
 30
0.0
 10
4.2758445263
 20
6.9409055347
 30
0.0
 10
4.2823575721
 20
6.9523983446
 30
0.0
 10
4.286537203
 20
6.9650572649
 30
0.0
 10
4.2875002974
 20
6.9739485902
 30
0.0
 10
4.2875002974
 20
6.978391804
 30
0.0
  0
SPLINE
  5
362
100
AcDbEntity
  8
0
100
AcDbSpline
 62
7
  6
CONTINUOUS
 70
0
 71
3
 72
11
 73
7
 74
0
 42
0.0000001
 43
0.0000001
 44
0.0000000001
 40
0.0
 40
0.0
 40
0.0
 40
0.0
 40
0.2527852196
 40
0.5042179194
 40
0.7533599511
 40
1.0
 40
1.0
 40
1.0
 40
1.0
 10
4.2875002974
 20
6.978391804
 30
0.0
 10
4.2875002974
 20
6.9828350825
 30
0.0
 10
4.2865371974
 20
6.991726498
 30
0.0
 10
4.2823574809
 20
7.004385444
 30
0.0
 10
4.2758444572
 20
7.0158781907
 30
0.0
 10
4.2702418749
 20
7.0226148371
 30
0.0
 10
4.267214315
 20
7.0257178011
 30
0.0
  0
SPLINE
  5
363
100
AcDbEntity
  8
0
100
AcDbSpline
 62
7
  6
CONTINUOUS
 70
0
 71
3
 72
13
 73
9
 74
0
 42
0.0000001
 43
0.0000001
 44
0.0000000001
 40
0.0
 40
0.0
 40
0.0
 40
0.0
 40
0.2175437387
 40
0.4604223454
 40
0.5901625923
 40
0.7242286353
 40
0.8614024165
 40
1.0
 40
1.0
 40
1.0
 40
1.0
 10
4.267214315
 20
7.0257178011
 30
0.0
 10
4.2660526107
 20
7.0224287012
 30
0.0
 10
4.2639579723
 20
7.0153361225
 30
0.0
 10
4.2620883978
 20
7.0060479385
 30
0.0
 10
4.2609697115
 20
6.9979990391
 30
0.0
 10
4.2603403916
 20
6.9915985155
 30
0.0
 10
4.2599574409
 20
6.9850365222
 30
0.0
 10
4.2598708915
 20
6.9806141617
 30
0.0
 10
4.2598708915
 20
6.978391804
 30
0.0
  0
SPLINE
  5
364
100
AcDbEntity
  8
0
100
AcDbSpline
 62
7
  6
CONTINUOUS
 70
0
 71
3
 72
13
 73
9
 74
0
 42
0.0000001
 43
0.0000001
 44
0.0000000001
 40
0.0
 40
0.0
 40
0.0
 40
0.0
 40
0.1385987564
 40
0.275775338
 40
0.4098421574
 40
0.5395825893
 40
0.7824589758
 40
1.0
 40
1.0
 40
1.0
 40
1.0
 10
4.2598708915
 20
6.978391804
 30
0.0
 10
4.2598708915
 20
6.9761694276
 30
0.0
 10
4.259957458
 20
6.9717470038
 30
0.0
 10
4.2603403945
 20
6.9651849334
 30
0.0
 10
4.2609697336
 20
6.9587843506
 30
0.0
 10
4.2620884354
 20
6.9507354739
 30
0.0
 10
4.2639579975
 20
6.941447365
 30
0.0
 10
4.2660526252
 20
6.9343548659
 30
0.0
 10
4.267214315
 20
6.931065807
 30
0.0
  0
SPLINE
  5
365
100
AcDbEntity
  8
0
100
AcDbSpline
 62
7
  6
CONTINUOUS
 70
0
 71
3
 72
11
 73
7
 74
0
 42
0.0000001
 43
0.0000001
 44
0.0000000001
 40
0.0
 40
0.0
 40
0.0
 40
0.0
 40
0.2483661268
 40
0.4979387233
 40
0.7486441233
 40
1.0
 40
1.0
 40
1.0
 40
1.0
 10
4.3089684241
 20
6.931065807
 30
0.0
 10
4.3120846093
 20
6.9341608045
 30
0.0
 10
4.3178535838
 20
6.9408769061
 30
0.0
 10
4.3245822989
 20
6.95236982
 30
0.0
 10
4.3289047476
 20
6.9650383615
 30
0.0
 10
4.3299019792
 20
6.9739469397
 30
0.0
 10
4.3299019792
 20
6.978391804
 30
0.0
  0
SPLINE
  5
366
100
AcDbEntity
  8
0
100
AcDbSpline
 62
7
  6
CONTINUOUS
 70
0
 71
3
 72
11
 73
7
 74
0
 42
0.0000001
 43
0.0000001
 44
0.0000000001
 40
0.0
 40
0.0
 40
0.0
 40
0.0
 40
0.2513595126
 40
0.5020661248
 40
0.7516367077
 40
1.0
 40
1.0
 40
1.0
 40
1.0
 10
4.3299019792
 20
6.978391804
 30
0.0
 10
4.3299019792
 20
6.982836733
 30
0.0
 10
4.3289047416
 20
6.9917454021
 30
0.0
 10
4.3245822047
 20
7.0044139684
 30
0.0
 10
4.3178535126
 20
7.015906819
 30
0.0
 10
4.312084574
 20
7.0226228387
 30
0.0
 10
4.3089684241
 20
7.0257178011
 30
0.0
  0
SPLINE
  5
367
100
AcDbEntity
  8
0
100
AcDbSpline
 62
7
  6
CONTINUOUS
 70
0
 71
3
 72
11
 73
7
 74
0
 42
0.0000001
 43
0.0000001
 44
0.0000000001
 40
0.0
 40
0.0
 40
0.0
 40
0.0
 40
0.2147922013
 40
0.4571991991
 40
0.7221633137
 40
1.0
 40
1.0
 40
1.0
 40
1.0
 10
4.3089684241
 20
7.0257178011
 30
0.0
 10
4.3081366723
 20
7.0224040161
 30
0.0
 10
4.306644688
 20
7.0152791547
 30
0.0
 10
4.3050204353
 20
7.0039007471
 30
0.0
 10
4.303985666
 20
6.9914471589
 30
0.0
 10
4.3037499204
 20
6.9828111907
 30
0.0
 10
4.3037499204
 20
6.978391804
 30
0.0
  0
SPLINE
  5
368
100
AcDbEntity
  8
0
100
AcDbSpline
 62
7
  6
CONTINUOUS
 70
0
 71
3
 72
11
 73
7
 74
0
 42
0.0000001
 43
0.0000001
 44
0.0000000001
 40
0.0
 40
0.0
 40
0.0
 40
0.0
 40
0.2778406993
 40
0.5428057496
 40
0.785210527
 40
1.0
 40
1.0
 40
1.0
 40
1.0
 10
4.3037499204
 20
6.978391804
 30
0.0
 10
4.3037499204
 20
6.9739723536
 30
0.0
 10
4.3039856672
 20
6.9653363062
 30
0.0
 10
4.3050204597
 20
6.9528826763
 30
0.0
 10
4.3066447056
 20
6.9415043323
 30
0.0
 10
4.3081366828
 20
6.9343795499
 30
0.0
 10
4.3089684241
 20
6.931065807
 30
0.0
  0
SPLINE
  5
369
100
AcDbEntity
  8
0
100
AcDbSpline
 62
7
  6
CONTINUOUS
 70
0
 71
3
 72
12
 73
8
 74
0
 42
0.0000001
 43
0.0000001
 44
0.0000000001
 40
0.0
 40
0.0
 40
0.0
 40
0.0
 40
0.2494034335
 40
0.4991635476
 40
0.7492923709
 40
0.8747008421
 40
1.0
 40
1.0
 40
1.0
 40
1.0
 10
4.3482134263
 20
6.931065807
 30
0.0
 10
4.3513876971
 20
6.9341556686
 30
0.0
 10
4.357265669
 20
6.9408592406
 30
0.0
 10
4.3641357426
 20
6.9523474917
 30
0.0
 10
4.3678184835
 20
6.9629254073
 30
0.0
 10
4.3693174269
 20
6.9717089506
 30
0.0
 10
4.3695726261
 20
6.9761662862
 30
0.0
 10
4.3695726261
 20
6.978391804
 30
0.0
  0
SPLINE
  5
36A
100
AcDbEntity
  8
0
100
AcDbSpline
 62
7
  6
CONTINUOUS
 70
0
 71
3
 72
11
 73
7
 74
0
 42
0.0000001
 43
0.0000001
 44
0.0000000001
 40
0.0
 40
0.0
 40
0.0
 40
0.0
 40
0.2504158301
 40
0.5006444937
 40
0.7505010741
 40
1.0
 40
1.0
 40
1.0
 40
1.0
 10
4.3695726261
 20
6.978391804
 30
0.0
 10
4.3695726261
 20
6.9828378458
 30
0.0
 10
4.3685527735
 20
6.991758113
 30
0.0
 10
4.3641360072
 20
7.0044328765
 30
0.0
 10
4.3572654935
 20
7.0159254594
 30
0.0
 10
4.3513876611
 20
7.0226279745
 30
0.0
 10
4.3482134263
 20
7.0257178011
 30
0.0
  0
SPLINE
  5
36B
100
AcDbEntity
  8
0
100
AcDbSpline
 62
7
  6
CONTINUOUS
 70
0
 71
3
 72
11
 73
7
 74
0
 42
0.0000001
 43
0.0000001
 44
0.0000000001
 40
0.0
 40
0.0
 40
0.0
 40
0.0
 40
0.2128575015
 40
0.4549279129
 40
0.7207166554
 40
1.0
 40
1.0
 40
1.0
 40
1.0
 10
4.3482134263
 20
7.0257178011
 30
0.0
 10
4.3477264993
 20
7.022385785
 30
0.0
 10
4.3468566317
 20
7.015239074
 30
0.0
 10
4.3459132037
 20
7.0038741283
 30
0.0
 10
4.3453120479
 20
6.9914337719
 30
0.0
 10
4.3451750832
 20
6.9828100682
 30
0.0
 10
4.3451750832
 20
6.978391804
 30
0.0
  0
SPLINE
  5
36C
100
AcDbEntity
  8
0
100
AcDbSpline
 62
7
  6
CONTINUOUS
 70
0
 71
3
 72
11
 73
7
 74
0
 42
0.0000001
 43
0.0000001
 44
0.0000000001
 40
0.0
 40
0.0
 40
0.0
 40
0.0
 40
0.279287374
 40
0.5450770417
 40
0.7871452003
 40
1.0
 40
1.0
 40
1.0
 40
1.0
 10
4.3451750832
 20
6.978391804
 30
0.0
 10
4.3451750832
 20
6.9739734761
 30
0.0
 10
4.3453120479
 20
6.9653496939
 30
0.0
 10
4.3459132175
 20
6.9529092953
 30
0.0
 10
4.3468566422
 20
6.9415444133
 30
0.0
 10
4.3477265055
 20
6.9343977808
 30
0.0
 10
4.3482134263
 20
6.931065807
 30
0.0
  0
SPLINE
  5
36D
100
AcDbEntity
  8
0
100
AcDbSpline
 62
7
  6
CONTINUOUS
 70
0
 71
3
 72
13
 73
9
 74
0
 42
0.0000001
 43
0.0000001
 44
0.0000000001
 40
0.0
 40
0.0
 40
0.0
 40
0.0
 40
0.2498444181
 40
0.4996485762
 40
0.6247137861
 40
0.7498200059
 40
0.8749792175
 40
1.0
 40
1.0
 40
1.0
 40
1.0
 10
4.384533264
 20
6.931065807
 30
0.0
 10
4.3877346819
 20
6.9341532987
 30
0.0
 10
4.3936626189
 20
6.9408479474
 30
0.0
 10
4.3994477893
 20
6.9504336217
 30
0.0
 10
4.4028305005
 20
6.9586817745
 30
0.0
 10
4.4046973617
 20
6.9651116903
 30
0.0
 10
4.4058341791
 20
6.9717085755
 30
0.0
 10
4.406091668
 20
6.9761662191
 30
0.0
 10
4.406091668
 20
6.978391804
 30
0.0
  0
SPLINE
  5
36E
100
AcDbEntity
  8
0
100
AcDbSpline
 62
7
  6
CONTINUOUS
 70
0
 71
3
 72
13
 73
9
 74
0
 42
0.0000001
 43
0.0000001
 44
0.0000000001
 40
0.0
 40
0.0
 40
0.0
 40
0.0
 40
0.1250218612
 40
0.250183575
 40
0.3752906325
 40
0.5003562506
 40
0.7501584145
 40
1.0
 40
1.0
 40
1.0
 40
1.0
 10
4.406091668
 20
6.978391804
 30
0.0
 10
4.406091668
 20
6.9806174083
 30
0.0
 10
4.4058341288
 20
6.985075112
 30
0.0
 10
4.4046973515
 20
6.9916720833
 30
0.0
 10
4.4028304332
 20
6.9981020557
 30
0.0
 10
4.3994476818
 20
7.0063501759
 30
0.0
 10
4.3936625461
 20
7.0159357782
 30
0.0
 10
4.3877346458
 20
7.0226303443
 30
0.0
 10
4.384533264
 20
7.0257178011
 30
0.0
  0
SPLINE
  5
36F
100
AcDbEntity
  8
0
100
AcDbSpline
 62
7
  6
CONTINUOUS
 70
0
 71
3
 72
11
 73
7
 74
0
 42
0.0000001
 43
0.0000001
 44
0.0000000001
 40
0.0
 40
0.0
 40
0.0
 40
0.0
 40
0.2119192678
 40
0.4538294251
 40
0.7200182105
 40
1.0
 40
1.0
 40
1.0
 40
1.0
 10
4.384533264
 20
7.0257178011
 30
0.0
 10
4.3844005366
 20
7.0223766381
 30
0.0
 10
4.3841639281
 20
7.0152195474
 30
0.0
 10
4.3839077692
 20
7.003861356
 30
0.0
 10
4.3837445258
 20
6.9914274152
 30
0.0
 10
4.3837073345
 20
6.9828095365
 30
0.0
 10
4.3837073345
 20
6.978391804
 30
0.0
  0
SPLINE
  5
370
100
AcDbEntity
  8
0
100
AcDbSpline
 62
7
  6
CONTINUOUS
 70
0
 71
3
 72
11
 73
7
 74
0
 42
0.0000001
 43
0.0000001
 44
0.0000000001
 40
0.0
 40
0.0
 40
0.0
 40
0.0
 40
0.279985829
 40
0.5461755333
 40
0.7880834315
 40
1.0
 40
1.0
 40
1.0
 40
1.0
 10
4.3837073345
 20
6.978391804
 30
0.0
 10
4.3837073345
 20
6.9739740079
 30
0.0
 10
4.3837445258
 20
6.9653560509
 30
0.0
 10
4.3839077729
 20
6.9529220676
 30
0.0
 10
4.384163931
 20
6.9415639399
 30
0.0
 10
4.3844005383
 20
6.9344069274
 30
0.0
 10
4.384533264
 20
6.931065807
 30
0.0
  0
SPLINE
  5
371
100
AcDbEntity
  8
0
100
AcDbSpline
 62
7
  6
CONTINUOUS
 70
0
 71
3
 72
13
 73
9
 74
0
 42
0.0000001
 43
0.0000001
 44
0.0000000001
 40
0.0
 40
0.0
 40
0.0
 40
0.0
 40
0.2497664842
 40
0.4995511451
 40
0.6246270363
 40
0.7497552247
 40
0.8749446745
 40
1.0
 40
1.0
 40
1.0
 40
1.0
 10
4.4175428908
 20
6.931065807
 30
0.0
 10
4.4207403107
 20
6.9341536465
 30
0.0
 10
4.4266607646
 20
6.940849228
 30
0.0
 10
4.4324374645
 20
6.9504344024
 30
0.0
 10
4.4358153171
 20
6.9586820611
 30
0.0
 10
4.4376795864
 20
6.9651119073
 30
0.0
 10
4.4388148188
 20
6.9717086933
 30
0.0
 10
4.4390719467
 20
6.976166229
 30
0.0
 10
4.4390719467
 20
6.978391804
 30
0.0
  0
SPLINE
  5
372
100
AcDbEntity
  8
0
100
AcDbSpline
 62
7
  6
CONTINUOUS
 70
0
 71
3
 72
9
 73
5
 74
0
 42
0.0000001
 43
0.0000001
 44
0.0000000001
 40
0.0
 40
0.0
 40
0.0
 40
0.0
 40
0.5135805563
 40
1.0
 40
1.0
 40
1.0
 40
1.0
 10
11.5231396544
 20
7.9001926571
 30
0.0
 10
11.5236639789
 20
7.9043303516
 30
0.0
 10
11.5255065809
 20
7.9123058826
 30
0.0
 10
11.5289084461
 20
7.9197455746
 30
0.0
 10
11.5309025095
 20
7.9231555387
 30
0.0
  0
SPLINE
  5
373
100
AcDbEntity
  8
0
100
AcDbSpline
 62
7
  6
CONTINUOUS
 70
0
 71
3
 72
9
 73
5
 74
0
 42
0.0000001
 43
0.0000001
 44
0.0000000001
 40
0.0
 40
0.0
 40
0.0
 40
0.0
 40
0.5135721327
 40
1.0
 40
1.0
 40
1.0
 40
1.0
 10
12.621451354
 20
7.8845907471
 30
0.0
 10
12.6209270019
 20
7.8804541183
 30
0.0
 10
12.6190847737
 20
7.8724805972
 30
0.0
 10
12.6156845712
 20
7.8650422097
 30
0.0
 10
12.6136907824
 20
7.8616330871
 30
0.0
  0
SPLINE
  5
374
100
AcDbEntity
  8
0
100
AcDbSpline
 62
7
  6
CONTINUOUS
 70
0
 71
3
 72
11
 73
7
 74
0
 42
0.0000001
 43
0.0000001
 44
0.0000000001
 40
0.0
 40
0.0
 40
0.0
 40
0.0
 40
0.2753659722
 40
0.5351883972
 40
0.7764202603
 40
1.0
 40
1.0
 40
1.0
 40
1.0
 10
11.527072074
 20
7.900192861
 30
0.0
 10
11.5275071552
 20
7.9039803532
 30
0.0
 10
11.5289757207
 20
7.9112866749
 30
0.0
 10
11.5328660568
 20
7.9213611341
 30
0.0
 10
11.5380297279
 20
7.9300166572
 30
0.0
 10
11.5422294645
 20
7.9349387687
 30
0.0
 10
11.5444325709
 20
7.9371131636
 30
0.0
  0
SPLINE
  5
375
100
AcDbEntity
  8
0
100
AcDbSpline
 62
7
  6
CONTINUOUS
 70
0
 71
3
 72
11
 73
7
 74
0
 42
0.0000001
 43
0.0000001
 44
0.0000000001
 40
0.0
 40
0.0
 40
0.0
 40
0.0
 40
0.2803143753
 40
0.5422225578
 40
0.781857895
 40
1.0
 40
1.0
 40
1.0
 40
1.0
 10
11.5353945234
 20
7.900192861
 30
0.0
 10
11.5357800549
 20
7.9039698378
 30
0.0
 10
11.5370734005
 20
7.9112334199
 30
0.0
 10
11.5405138558
 20
7.9212920266
 30
0.0
 10
11.5450861973
 20
7.9299451424
 30
0.0
 10
11.5488438697
 20
7.9349174176
 30
0.0
 10
11.5508207309
 20
7.9371131636
 30
0.0
  0
SPLINE
  5
376
100
AcDbEntity
  8
0
100
AcDbSpline
 62
7
  6
CONTINUOUS
 70
0
 71
3
 72
10
 73
6
 74
0
 42
0.0000001
 43
0.0000001
 44
0.0000000001
 40
0.0
 40
0.0
 40
0.0
 40
0.0
 40
0.2857066306
 40
0.5501278532
 40
1.0
 40
1.0
 40
1.0
 40
1.0
 10
11.5480400171
 20
7.900192861
 30
0.0
 10
11.5483732263
 20
7.9039599308
 30
0.0
 10
11.549486542
 20
7.9111866412
 30
0.0
 10
11.5532378577
 20
7.9238970775
 30
0.0
 10
11.5577448444
 20
7.9324182137
 30
0.0
 10
11.5614077256
 20
7.9371131636
 30
0.0
  0
SPLINE
  5
377
100
AcDbEntity
  8
0
100
AcDbSpline
 62
7
  6
CONTINUOUS
 70
0
 71
3
 72
11
 73
7
 74
0
 42
0.0000001
 43
0.0000001
 44
0.0000000001
 40
0.0
 40
0.0
 40
0.0
 40
0.0
 40
0.2902477397
 40
0.5565122884
 40
0.7930823488
 40
1.0
 40
1.0
 40
1.0
 40
1.0
 10
11.5649067354
 20
7.900192861
 30
0.0
 10
11.5651852865
 20
7.9039509694
 30
0.0
 10
11.5661090942
 20
7.9111351779
 30
0.0
 10
11.5685826741
 20
7.9211546844
 30
0.0
 10
11.5718731584
 20
7.9297873612
 30
0.0
 10
11.5746382678
 20
7.9348645449
 30
0.0
 10
11.57610831
 20
7.9371131636
 30
0.0
  0
SPLINE
  5
378
100
AcDbEntity
  8
0
100
AcDbSpline
 62
7
  6
CONTINUOUS
 70
0
 71
3
 72
11
 73
7
 74
0
 42
0.0000001
 43
0.0000001
 44
0.0000000001
 40
0.0
 40
0.0
 40
0.0
 40
0.0
 40
0.2947709846
 40
0.5630938971
 40
0.7983364832
 40
1.0
 40
1.0
 40
1.0
 40
1.0
 10
11.58585887
 20
7.900192861
 30
0.0
 10
11.5860808566
 20
7.903943265
 30
0.0
 10
11.5868135244
 20
7.9110940776
 30
0.0
 10
11.5887797081
 20
7.9210931098
 30
0.0
 10
11.5913944205
 20
7.9297091244
 30
0.0
 10
11.5936146045
 20
7.9348347017
 30
0.0
 10
11.5948041171
 20
7.9371131636
 30
0.0
  0
SPLINE
  5
379
100
AcDbEntity
  8
0
100
AcDbSpline
 62
7
  6
CONTINUOUS
 70
0
 71
3
 72
11
 73
7
 74
0
 42
0.0000001
 43
0.0000001
 44
0.0000000001
 40
0.0
 40
0.0
 40
0.0
 40
0.0
 40
0.2986288734
 40
0.5687441859
 40
0.8028916533
 40
1.0
 40
1.0
 40
1.0
 40
1.0
 10
11.6107277171
 20
7.900192861
 30
0.0
 10
11.6108916526
 20
7.9039370906
 30
0.0
 10
11.6114306097
 20
7.9110607382
 30
0.0
 10
11.6128791895
 20
7.9210412022
 30
0.0
 10
11.6148044308
 20
7.9296393108
 30
0.0
 10
11.6164534519
 20
7.9348055339
 30
0.0
 10
11.6173446109
 20
7.9371131636
 30
0.0
  0
SPLINE
  5
37A
100
AcDbEntity
  8
0
100
AcDbSpline
 62
7
  6
CONTINUOUS
 70
0
 71
3
 72
11
 73
7
 74
0
 42
0.0000001
 43
0.0000001
 44
0.0000000001
 40
0.0
 40
0.0
 40
0.0
 40
0.0
 40
0.301533914
 40
0.5730212755
 40
0.8063679613
 40
1.0
 40
1.0
 40
1.0
 40
1.0
 10
11.6393130364
 20
7.9001928633
 30
0.0
 10
11.6394178423
 20
7.9039326702
 30
0.0
 10
11.6397614369
 20
7.9110366531
 30
0.0
 10
11.6406857876
 20
7.9210025143
 30
0.0
 10
11.6419135616
 20
7.9295849612
 30
0.0
 10
11.6429718002
 20
7.934780872
 30
0.0
 10
11.6435482985
 20
7.9371131636
 30
0.0
  0
SPLINE
  5
37B
100
AcDbEntity
  8
0
100
AcDbSpline
 62
7
  6
CONTINUOUS
 70
0
 71
3
 72
11
 73
7
 74
0
 42
0.0000001
 43
0.0000001
 44
0.0000000001
 40
0.0
 40
0.0
 40
0.0
 40
0.0
 40
0.3021776221
 40
0.5780951635
 40
0.8121829538
 40
1.0
 40
1.0
 40
1.0
 40
1.0
 10
11.6713378865
 20
7.892391804
 30
0.0
 10
11.6713378865
 20
7.8969020277
 30
0.0
 10
11.6714259956
 20
7.9055308029
 30
0.0
 10
11.6718063731
 20
7.9176482924
 30
0.0
 10
11.6723805639
 20
7.9280489305
 30
0.0
 10
11.6729081657
 20
7.9343255296
 30
0.0
 10
11.6732041915
 20
7.9371131636
 30
0.0
  0
SPLINE
  5
37C
100
AcDbEntity
  8
0
100
AcDbSpline
 62
7
  6
CONTINUOUS
 70
0
 71
3
 72
11
 73
7
 74
0
 42
0.0000001
 43
0.0000001
 44
0.0000000001
 40
0.0
 40
0.0
 40
0.0
 40
0.0
 40
0.3021748184
 40
0.5780908026
 40
0.8121792627
 40
1.0
 40
1.0
 40
1.0
 40
1.0
 10
12.4733500213
 20
7.892391804
 30
0.0
 10
12.4733500213
 20
7.8878815784
 30
0.0
 10
12.4732615692
 20
7.8792527824
 30
0.0
 10
12.4728797107
 20
7.8671352689
 30
0.0
 10
12.4723032841
 20
7.8567346037
 30
0.0
 10
12.4717736308
 20
7.8504580392
 30
0.0
 10
12.4714764578
 20
7.8476704445
 30
0.0
  0
SPLINE
  5
37D
100
AcDbEntity
  8
0
100
AcDbSpline
 62
7
  6
CONTINUOUS
 70
0
 71
3
 72
11
 73
7
 74
0
 42
0.0000001
 43
0.0000001
 44
0.0000000001
 40
0.0
 40
0.0
 40
0.0
 40
0.0
 40
0.3015270825
 40
0.5730111952
 40
0.8063597394
 40
1.0
 40
1.0
 40
1.0
 40
1.0
 10
12.5053648837
 20
7.8845907454
 30
0.0
 10
12.5052599042
 20
7.8808509283
 30
0.0
 10
12.5049157382
 20
7.8737468998
 30
0.0
 10
12.5039898518
 20
7.8637810035
 30
0.0
 10
12.5027600362
 20
7.8551985175
 30
0.0
 10
12.5017000531
 20
7.8500026751
 30
0.0
 10
12.5011226164
 20
7.8476704445
 30
0.0
  0
SPLINE
  5
37E
100
AcDbEntity
  8
0
100
AcDbSpline
 62
7
  6
CONTINUOUS
 70
0
 71
3
 72
11
 73
7
 74
0
 42
0.0000001
 43
0.0000001
 44
0.0000000001
 40
0.0
 40
0.0
 40
0.0
 40
0.0
 40
0.2986188725
 40
0.5687294947
 40
0.802879755
 40
1.0
 40
1.0
 40
1.0
 40
1.0
 10
12.5339396842
 20
7.8845907471
 30
0.0
 10
12.5337755776
 20
7.880846502
 30
0.0
 10
12.5332360527
 20
7.8737227855
 30
0.0
 10
12.531785952
 20
7.8637422721
 30
0.0
 10
12.5298586858
 20
7.8551441128
 30
0.0
 10
12.5282079669
 20
7.8499779936
 30
0.0
 10
12.5273159128
 20
7.8476704445
 30
0.0
  0
SPLINE
  5
37F
100
AcDbEntity
  8
0
100
AcDbSpline
 62
7
  6
CONTINUOUS
 70
0
 71
3
 72
11
 73
7
 74
0
 42
0.0000001
 43
0.0000001
 44
0.0000000001
 40
0.0
 40
0.0
 40
0.0
 40
0.0
 40
0.2947586168
 40
0.5630758376
 40
0.7983219906
 40
1.0
 40
1.0
 40
1.0
 40
1.0
 10
12.558797384
 20
7.8845907471
 30
0.0
 10
12.5585752301
 20
7.8808403227
 30
0.0
 10
12.5578420006
 20
7.8736894211
 30
0.0
 10
12.5558743202
 20
7.863690331
 30
0.0
 10
12.5532576138
 20
7.8550742644
 30
0.0
 10
12.5510357994
 20
7.8499488188
 30
0.0
 10
12.5498454424
 20
7.8476704445
 30
0.0
  0
SPLINE
  5
380
100
AcDbEntity
  8
0
100
AcDbSpline
 62
7
  6
CONTINUOUS
 70
0
 71
3
 72
11
 73
7
 74
0
 42
0.0000001
 43
0.0000001
 44
0.0000000001
 40
0.0
 40
0.0
 40
0.0
 40
0.0
 40
0.2902338582
 40
0.5564921617
 40
0.7930663653
 40
1.0
 40
1.0
 40
1.0
 40
1.0
 10
12.5797378327
 20
7.8845907471
 30
0.0
 10
12.5794591193
 20
7.8808326143
 30
0.0
 10
12.5785347589
 20
7.8736483007
 30
0.0
 10
12.5760597181
 20
7.8636287337
 30
0.0
 10
12.5727672895
 20
7.8549960129
 30
0.0
 10
12.5700006345
 20
7.849918978
 30
0.0
 10
12.5685298007
 20
7.8476704445
 30
0.0
  0
SPLINE
  5
381
100
AcDbEntity
  8
0
100
AcDbSpline
 62
7
  6
CONTINUOUS
 70
0
 71
3
 72
10
 73
6
 74
0
 42
0.0000001
 43
0.0000001
 44
0.0000000001
 40
0.0
 40
0.0
 40
0.0
 40
0.0
 40
0.2856922068
 40
0.5501071962
 40
1.0
 40
1.0
 40
1.0
 40
1.0
 10
12.5965924207
 20
7.8845907471
 30
0.0
 10
12.5962590553
 20
7.8808236496
 30
0.0
 10
12.5951451968
 20
7.8735968231
 30
0.0
 10
12.5913920305
 20
7.860886054
 30
0.0
 10
12.5868828686
 20
7.8523650786
 30
0.0
 10
12.5832185437
 20
7.8476704445
 30
0.0
  0
SPLINE
  5
382
100
AcDbEntity
  8
0
100
AcDbSpline
 62
7
  6
CONTINUOUS
 70
0
 71
3
 72
11
 73
7
 74
0
 42
0.0000001
 43
0.0000001
 44
0.0000000001
 40
0.0
 40
0.0
 40
0.0
 40
0.0
 40
0.2802997351
 40
0.5422016637
 40
0.7818416597
 40
1.0
 40
1.0
 40
1.0
 40
1.0
 10
12.6092254372
 20
7.8845907471
 30
0.0
 10
12.6088397569
 20
7.8808137403
 30
0.0
 10
12.6075458893
 20
7.873550035
 30
0.0
 10
12.6041040845
 20
7.8634913775
 30
0.0
 10
12.5995299634
 20
7.8548382473
 30
0.0
 10
12.5957709472
 20
7.849866123
 30
0.0
 10
12.5937933997
 20
7.8476704445
 30
0.0
  0
SPLINE
  5
383
100
AcDbEntity
  8
0
100
AcDbSpline
 62
7
  6
CONTINUOUS
 70
0
 71
3
 72
11
 73
7
 74
0
 42
0.0000001
 43
0.0000001
 44
0.0000000001
 40
0.0
 40
0.0
 40
0.0
 40
0.0
 40
0.2753518265
 40
0.5351683698
 40
0.776404858
 40
1.0
 40
1.0
 40
1.0
 40
1.0
 10
12.6175351629
 20
7.8845907471
 30
0.0
 10
12.6170999417
 20
7.8808032236
 30
0.0
 10
12.6156308771
 20
7.8734967766
 30
0.0
 10
12.6117392688
 20
7.8634222761
 30
0.0
 10
12.6065739315
 20
7.854766753
 30
0.0
 10
12.602372961
 20
7.8498447822
 30
0.0
 10
12.6001692216
 20
7.8476704445
 30
0.0
  0
SPLINE
  5
384
100
AcDbEntity
  8
0
100
AcDbSpline
 62
7
  6
CONTINUOUS
 70
0
 71
3
 72
9
 73
5
 74
0
 42
0.0000001
 43
0.0000001
 44
0.0000000001
 40
0.0
 40
0.0
 40
0.0
 40
0.0
 40
0.5135808314
 40
1.0
 40
1.0
 40
1.0
 40
1.0
 10
11.5231395945
 20
7.8845914233
 30
0.0
 10
11.5236638941
 20
7.88045368
 30
0.0
 10
11.5255063941
 20
7.8724780187
 30
0.0
 10
11.5289084233
 20
7.8650383258
 30
0.0
 10
11.5309023957
 20
7.8616282639
 30
0.0
  0
SPLINE
  5
385
100
AcDbEntity
  8
0
100
AcDbSpline
 62
7
  6
CONTINUOUS
 70
0
 71
3
 72
11
 73
7
 74
0
 42
0.0000001
 43
0.0000001
 44
0.0000000001
 40
0.0
 40
0.0
 40
0.0
 40
0.0
 40
0.2753520769
 40
0.5351691064
 40
0.7764055514
 40
1.0
 40
1.0
 40
1.0
 40
1.0
 10
12.6175353554
 20
7.9001911864
 30
0.0
 10
12.6171002098
 20
7.9039788772
 30
0.0
 10
12.6156312421
 20
7.9112856647
 30
0.0
 10
12.6117396277
 20
7.9213606455
 30
0.0
 10
12.606574163
 20
7.9300165672
 30
0.0
 10
12.6023730433
 20
7.9349387447
 30
0.0
 10
12.6001692216
 20
7.9371131636
 30
0.0
  0
SPLINE
  5
386
100
AcDbEntity
  8
0
100
AcDbSpline
 62
7
  6
CONTINUOUS
 70
0
 71
3
 72
11
 73
7
 74
0
 42
0.0000001
 43
0.0000001
 44
0.0000000001
 40
0.0
 40
0.0
 40
0.0
 40
0.0
 40
0.2802999977
 40
0.5422024849
 40
0.7818424483
 40
1.0
 40
1.0
 40
1.0
 40
1.0
 10
12.6092256082
 20
7.9001911864
 30
0.0
 10
12.6088399949
 20
7.9039683612
 30
0.0
 10
12.6075462128
 20
7.911232405
 30
0.0
 10
12.6041044042
 20
7.9212915398
 30
0.0
 10
12.5995301719
 20
7.9299450676
 30
0.0
 10
12.5957710218
 20
7.9349174023
 30
0.0
 10
12.5937933997
 20
7.9371131636
 30
0.0
  0
SPLINE
  5
387
100
AcDbEntity
  8
0
100
AcDbSpline
 62
7
  6
CONTINUOUS
 70
0
 71
3
 72
10
 73
6
 74
0
 42
0.0000001
 43
0.0000001
 44
0.0000000001
 40
0.0
 40
0.0
 40
0.0
 40
0.0
 40
0.2856924903
 40
0.550108128
 40
1.0
 40
1.0
 40
1.0
 40
1.0
 10
12.5965925689
 20
7.9001911864
 30
0.0
 10
12.5962592612
 20
7.9039584526
 30
0.0
 10
12.5951454762
 20
7.9111856164
 30
0.0
 10
12.5913923129
 20
7.923896969
 30
0.0
 10
12.5868830152
 20
7.9324183416
 30
0.0
 10
12.5832185437
 20
7.9371131636
 30
0.0
  0
SPLINE
  5
388
100
AcDbEntity
  8
0
100
AcDbSpline
 62
7
  6
CONTINUOUS
 70
0
 71
3
 72
11
 73
7
 74
0
 42
0.0000001
 43
0.0000001
 44
0.0000000001
 40
0.0
 40
0.0
 40
0.0
 40
0.0
 40
0.2902340992
 40
0.5564930865
 40
0.7930672993
 40
1.0
 40
1.0
 40
1.0
 40
1.0
 10
12.5797379569
 20
7.9001911864
 30
0.0
 10
12.5794592917
 20
7.9039494885
 30
0.0
 10
12.5785349927
 20
7.9111341376
 30
0.0
 10
12.5760599511
 20
7.9211541759
 30
0.0
 10
12.5727674448
 20
7.9297872908
 30
0.0
 10
12.5700006912
 20
7.9348645435
 30
0.0
 10
12.5685298007
 20
7.9371131636
 30
0.0
  0
SPLINE
  5
389
100
AcDbEntity
  8
0
100
AcDbSpline
 62
7
  6
CONTINUOUS
 70
0
 71
3
 72
11
 73
7
 74
0
 42
0.0000001
 43
0.0000001
 44
0.0000000001
 40
0.0
 40
0.0
 40
0.0
 40
0.0
 40
0.2947588277
 40
0.5630767798
 40
0.7983229698
 40
1.0
 40
1.0
 40
1.0
 40
1.0
 10
12.5587974832
 20
7.9001911864
 30
0.0
 10
12.5585753677
 20
7.9039417806
 30
0.0
 10
12.5578421868
 20
7.9110930167
 30
0.0
 10
12.5558745065
 20
7.9210925756
 30
0.0
 10
12.5532577392
 20
7.9297090342
 30
0.0
 10
12.5510358458
 20
7.9348347005
 30
0.0
 10
12.5498454424
 20
7.9371131636
 30
0.0
  0
SPLINE
  5
38A
100
AcDbEntity
  8
0
100
AcDbSpline
 62
7
  6
CONTINUOUS
 70
0
 71
3
 72
11
 73
7
 74
0
 42
0.0000001
 43
0.0000001
 44
0.0000000001
 40
0.0
 40
0.0
 40
0.0
 40
0.0
 40
0.2986190479
 40
0.5687304368
 40
0.8028807615
 40
1.0
 40
1.0
 40
1.0
 40
1.0
 10
12.5339397576
 20
7.9001911864
 30
0.0
 10
12.5337756793
 20
7.9039356018
 30
0.0
 10
12.5332361902
 20
7.911059652
 30
0.0
 10
12.5317860899
 20
7.9210406321
 30
0.0
 10
12.5298587794
 20
7.9296391815
 30
0.0
 10
12.528208002
 20
7.9348055236
 30
0.0
 10
12.5273159128
 20
7.9371131636
 30
0.0
  0
SPLINE
  5
38B
100
AcDbEntity
  8
0
100
AcDbSpline
 62
7
  6
CONTINUOUS
 70
0
 71
3
 72
11
 73
7
 74
0
 42
0.0000001
 43
0.0000001
 44
0.0000000001
 40
0.0
 40
0.0
 40
0.0
 40
0.0
 40
0.3015272257
 40
0.57301213
 40
0.8063607616
 40
1.0
 40
1.0
 40
1.0
 40
1.0
 10
12.5053649309
 20
7.9001911846
 30
0.0
 10
12.5052599694
 20
7.9039311727
 30
0.0
 10
12.5049158263
 20
7.9110355351
 30
0.0
 10
12.5039899403
 20
7.9210018977
 30
0.0
 10
12.5027600966
 20
7.9295847729
 30
0.0
 10
12.5017000761
 20
7.9347808401
 30
0.0
 10
12.5011226164
 20
7.9371131636
 30
0.0
  0
SPLINE
  5
38C
100
AcDbEntity
  8
0
100
AcDbSpline
 62
7
  6
CONTINUOUS
 70
0
 71
3
 72
11
 73
7
 74
0
 42
0.0000001
 43
0.0000001
 44
0.0000000001
 40
0.0
 40
0.0
 40
0.0
 40
0.0
 40
0.3021746973
 40
0.578090709
 40
0.8121792489
 40
1.0
 40
1.0
 40
1.0
 40
1.0
 10
12.4733500213
 20
7.892391804
 30
0.0
 10
12.4733500213
 20
7.8969020278
 30
0.0
 10
12.4732615693
 20
7.9055308225
 30
0.0
 10
12.4728797109
 20
7.9176483358
 30
0.0
 10
12.4723032842
 20
7.9280490028
 30
0.0
 10
12.4717736308
 20
7.9343255687
 30
0.0
 10
12.4714764578
 20
7.9371131636
 30
0.0
  0
SPLINE
  5
38D
100
AcDbEntity
  8
0
100
AcDbSpline
 62
7
  6
CONTINUOUS
 70
0
 71
3
 72
9
 73
5
 74
0
 42
0.0000001
 43
0.0000001
 44
0.0000000001
 40
0.0
 40
0.0
 40
0.0
 40
0.0
 40
0.5135718736
 40
1.0
 40
1.0
 40
1.0
 40
1.0
 10
12.6214515663
 20
7.9001911864
 30
0.0
 10
12.6209273087
 20
7.9043279716
 30
0.0
 10
12.6190852076
 20
7.9123018196
 30
0.0
 10
12.6156850143
 20
7.9197405296
 30
0.0
 10
12.6136912033
 20
7.9231498013
 30
0.0
  0
SPLINE
  5
38E
100
AcDbEntity
  8
0
100
AcDbSpline
 62
7
  6
CONTINUOUS
 70
0
 71
3
 72
11
 73
7
 74
0
 42
0.0000001
 43
0.0000001
 44
0.0000000001
 40
0.0
 40
0.0
 40
0.0
 40
0.0
 40
0.302177501
 40
0.5780950699
 40
0.81218294
 40
1.0
 40
1.0
 40
1.0
 40
1.0
 10
11.6713378865
 20
7.892391804
 30
0.0
 10
11.6713378865
 20
7.8878815822
 30
0.0
 10
11.6714259955
 20
7.8792528084
 30
0.0
 10
11.671806373
 20
7.8671353191
 30
0.0
 10
11.6723805638
 20
7.8567346792
 30
0.0
 10
11.6729081657
 20
7.8504580787
 30
0.0
 10
11.6732041915
 20
7.8476704445
 30
0.0
  0
SPLINE
  5
38F
100
AcDbEntity
  8
0
100
AcDbSpline
 62
7
  6
CONTINUOUS
 70
0
 71
3
 72
11
 73
7
 74
0
 42
0.0000001
 43
0.0000001
 44
0.0000000001
 40
0.0
 40
0.0
 40
0.0
 40
0.0
 40
0.3015340569
 40
0.5730222089
 40
0.8063689821
 40
1.0
 40
1.0
 40
1.0
 40
1.0
 10
11.6393129894
 20
7.8845924204
 30
0.0
 10
11.6394177772
 20
7.8808524428
 30
0.0
 10
11.639761349
 20
7.8737481265
 30
0.0
 10
11.6406856993
 20
7.8637817997
 30
0.0
 10
11.6419135014
 20
7.8551989641
 30
0.0
 10
11.6429717773
 20
7.8500028288
 30
0.0
 10
11.6435482985
 20
7.8476704445
 30
0.0
  0
SPLINE
  5
390
100
AcDbEntity
  8
0
100
AcDbSpline
 62
7
  6
CONTINUOUS
 70
0
 71
3
 72
11
 73
7
 74
0
 42
0.0000001
 43
0.0000001
 44
0.0000000001
 40
0.0
 40
0.0
 40
0.0
 40
0.0
 40
0.2986290488
 40
0.568745128
 40
0.8028926599
 40
1.0
 40
1.0
 40
1.0
 40
1.0
 10
11.6107276438
 20
7.8845924218
 30
0.0
 10
11.610891551
 20
7.8808480219
 30
0.0
 10
11.6114304723
 20
7.8737240406
 30
0.0
 10
11.6128790518
 20
7.8637431098
 30
0.0
 10
11.6148043374
 20
7.8551446112
 30
0.0
 10
11.6164534168
 20
7.8499781651
 30
0.0
 10
11.6173446109
 20
7.8476704445
 30
0.0
  0
SPLINE
  5
391
100
AcDbEntity
  8
0
100
AcDbSpline
 62
7
  6
CONTINUOUS
 70
0
 71
3
 72
11
 73
7
 74
0
 42
0.0000001
 43
0.0000001
 44
0.0000000001
 40
0.0
 40
0.0
 40
0.0
 40
0.0
 40
0.2947711954
 40
0.5630948393
 40
0.7983374624
 40
1.0
 40
1.0
 40
1.0
 40
1.0
 10
11.5858587708
 20
7.8845924218
 30
0.0
 10
11.5860807191
 20
7.8808418479
 30
0.0
 10
11.5868133383
 20
7.8736907008
 30
0.0
 10
11.588779522
 20
7.8636911999
 30
0.0
 10
11.5913942952
 20
7.8550747932
 30
0.0
 10
11.5936145582
 20
7.8499489952
 30
0.0
 10
11.5948041171
 20
7.8476704445
 30
0.0
  0
SPLINE
  5
392
100
AcDbEntity
  8
0
100
AcDbSpline
 62
7
  6
CONTINUOUS
 70
0
 71
3
 72
11
 73
7
 74
0
 42
0.0000001
 43
0.0000001
 44
0.0000000001
 40
0.0
 40
0.0
 40
0.0
 40
0.0
 40
0.2902479806
 40
0.5565132133
 40
0.793083283
 40
1.0
 40
1.0
 40
1.0
 40
1.0
 10
11.5649066113
 20
7.8845924218
 30
0.0
 10
11.5651851141
 20
7.8808341441
 30
0.0
 10
11.5661088606
 20
7.8736496001
 30
0.0
 10
11.5685824412
 20
7.8636296223
 30
0.0
 10
11.5718730032
 20
7.8549965513
 30
0.0
 10
11.5746382111
 20
7.8499191499
 30
0.0
 10
11.57610831
 20
7.8476704445
 30
0.0
  0
SPLINE
  5
393
100
AcDbEntity
  8
0
100
AcDbSpline
 62
7
  6
CONTINUOUS
 70
0
 71
3
 72
10
 73
6
 74
0
 42
0.0000001
 43
0.0000001
 44
0.0000000001
 40
0.0
 40
0.0
 40
0.0
 40
0.0
 40
0.2857069141
 40
0.5501287851
 40
1.0
 40
1.0
 40
1.0
 40
1.0
 10
11.5480398689
 20
7.8845924218
 30
0.0
 10
11.5483730204
 20
7.8808251833
 30
0.0
 10
11.5494862628
 20
7.8735981354
 30
0.0
 10
11.5532375753
 20
7.8608871157
 30
0.0
 10
11.5577446977
 20
7.8523655824
 30
0.0
 10
11.5614077256
 20
7.8476704445
 30
0.0
  0
SPLINE
  5
394
100
AcDbEntity
  8
0
100
AcDbSpline
 62
7
  6
CONTINUOUS
 70
0
 71
3
 72
11
 73
7
 74
0
 42
0.0000001
 43
0.0000001
 44
0.0000000001
 40
0.0
 40
0.0
 40
0.0
 40
0.0
 40
0.280314638
 40
0.5422233793
 40
0.7818586839
 40
1.0
 40
1.0
 40
1.0
 40
1.0
 10
11.5353943524
 20
7.8845924218
 30
0.0
 10
11.535779817
 20
7.8808152769
 30
0.0
 10
11.5370730771
 20
7.8735513563
 30
0.0
 10
11.5405135362
 20
7.8634922724
 30
0.0
 10
11.5450859889
 20
7.8548387589
 30
0.0
 10
11.5488437952
 20
7.8498662733
 30
0.0
 10
11.5508207309
 20
7.8476704445
 30
0.0
  0
SPLINE
  5
395
100
AcDbEntity
  8
0
100
AcDbSpline
 62
7
  6
CONTINUOUS
 70
0
 71
3
 72
11
 73
7
 74
0
 42
0.0000001
 43
0.0000001
 44
0.0000000001
 40
0.0
 40
0.0
 40
0.0
 40
0.0
 40
0.2753662226
 40
0.535189134
 40
0.776420954
 40
1.0
 40
1.0
 40
1.0
 40
1.0
 10
11.5270718816
 20
7.8845924218
 30
0.0
 10
11.5275068871
 20
7.8808047622
 30
0.0
 10
11.5289753559
 20
7.8734980999
 30
0.0
 10
11.5328656981
 20
7.8634231605
 30
0.0
 10
11.5380294965
 20
7.8547672388
 30
0.0
 10
11.5422293823
 20
7.8498449206
 30
0.0
 10
11.5444325709
 20
7.8476704445
 30
0.0
  0
SPLINE
  5
396
100
AcDbEntity
  8
0
100
AcDbSpline
 62
7
  6
CONTINUOUS
 70
0
 71
3
 72
17
 73
13
 74
0
 42
0.0000001
 43
0.0000001
 44
0.0000000001
 40
0.0
 40
0.0
 40
0.0
 40
0.0
 40
0.0624979266
 40
0.1250051822
 40
0.1875258477
 40
0.2500529573
 40
0.3749661191
 40
0.4999447782
 40
0.6249499121
 40
0.7499635369
 40
0.8749832904
 40
1.0
 40
1.0
 40
1.0
 40
1.0
 10
11.7852952976
 20
6.888391804
 30
0.0
 10
11.7852952976
 20
6.8863126921
 30
0.0
 10
11.7857221283
 20
6.8821425433
 30
0.0
 10
11.787558732
 20
6.8761455018
 30
0.0
 10
11.7903884972
 20
6.8705549957
 30
0.0
 10
11.7951836439
 20
6.8637340251
 30
0.0
 10
11.8026191959
 20
6.8563624993
 30
0.0
 10
11.8127958591
 20
6.8490969916
 30
0.0
 10
11.8237349507
 20
6.8430558309
 30
0.0
 10
11.8351500407
 20
6.8379914371
 30
0.0
 10
11.8468789878
 20
6.8337151252
 30
0.0
 10
11.8548413916
 20
6.8312959373
 30
0.0
 10
11.8588468187
 20
6.830176495
 30
0.0
  0
SPLINE
  5
397
100
AcDbEntity
  8
0
100
AcDbSpline
 62
7
  6
CONTINUOUS
 70
0
 71
3
 72
19
 73
15
 74
0
 42
0.0000001
 43
0.0000001
 44
0.0000000001
 40
0.0
 40
0.0
 40
0.0
 40
0.0
 40
0.0666762723
 40
0.099214633
 40
0.1313633114
 40
0.1948043552
 40
0.25751359
 40
0.3197883086
 40
0.3818065864
 40
0.5054485479
 40
0.6289036443
 40
0.7523451381
 40
0.8759261053
 40
1.0
 40
1.0
 40
1.0
 40
1.0
 10
12.5609632145
 20
6.830176495
 30
0.0
 10
12.5642727742
 20
6.8283265744
 30
0.0
 10
12.5693689502
 20
6.8258697232
 30
0.0
 10
12.576329453
 20
6.8231548377
 30
0.0
 10
12.5832292647
 20
6.8208074795
 30
0.0
 10
12.5919187016
 20
6.818424827
 30
0.0
 10
12.6024170519
 20
6.8162559367
 30
0.0
 10
12.612931066
 20
6.8146399128
 30
0.0
 10
12.6269443197
 20
6.8130648773
 30
0.0
 10
12.6444957176
 20
6.8119465788
 30
0.0
 10
12.6655652737
 20
6.811502144
 30
0.0
 10
12.6866351478
 20
6.8117937287
 30
0.0
 10
12.7077124037
 20
6.8129304317
 30
0.0
 10
12.7217222275
 20
6.8145128448
 30
0.0
 10
12.7286893634
 20
6.8156250808
 30
0.0
  0
SPLINE
  5
398
100
AcDbEntity
  8
0
100
AcDbSpline
 62
7
  6
CONTINUOUS
 70
0
 71
3
 72
18
 73
14
 74
0
 42
0.0000001
 43
0.0000001
 44
0.0000000001
 40
0.0
 40
0.0
 40
0.0
 40
0.0
 40
0.1012169267
 40
0.2036196344
 40
0.3081453506
 40
0.4164649474
 40
0.5316399797
 40
0.5935313282
 40
0.6597072284
 40
0.7318032127
 40
0.8119241864
 40
0.9018671161
 40
1.0
 40
1.0
 40
1.0
 40
1.0
 10
12.7286893634
 20
6.8156250808
 30
0.0
 10
12.7327029162
 20
6.8162658058
 30
0.0
 10
12.7407453814
 20
6.8177706897
 30
0.0
 10
12.7527337354
 20
6.8208826274
 30
0.0
 10
12.764674453
 20
6.8251511589
 30
0.0
 10
12.7765161443
 20
6.830998293
 30
0.0
 10
12.7859709231
 20
6.8375816801
 30
0.0
 10
12.7931340465
 20
6.8442442917
 30
0.0
 10
12.798399842
 20
6.8503411529
 30
0.0
 10
12.8032743882
 20
6.8576620287
 30
0.0
 10
12.807468411
 20
6.866477887
 30
0.0
 10
12.8104575389
 20
6.8768783165
 30
0.0
 10
12.8111869752
 20
6.8844512701
 30
0.0
 10
12.8111869752
 20
6.888391804
 30
0.0
  0
SPLINE
  5
399
100
AcDbEntity
  8
0
100
AcDbSpline
 62
7
  6
CONTINUOUS
 70
0
 71
3
 72
24
 73
20
 74
0
 42
0.0000001
 43
0.0000001
 44
0.0000000001
 40
0.0
 40
0.0
 40
0.0
 40
0.0
 40
0.0545026973
 40
0.1044641991
 40
0.1489752267
 40
0.1890306594
 40
0.2257969164
 40
0.2601818273
 40
0.3241655305
 40
0.3843358281
 40
0.4423942887
 40
0.499270188
 40
0.5554850653
 40
0.611334927
 40
0.6669873898
 40
0.7225363518
 40
0.7780339789
 40
0.8889788174
 40
1.0
 40
1.0
 40
1.0
 40
1.0
 10
12.8111869752
 20
6.888391804
 30
0.0
 10
12.8111869752
 20
6.8923278125
 30
0.0
 10
12.8104591421
 20
6.8998925578
 30
0.0
 10
12.8074763361
 20
6.9102832402
 30
0.0
 10
12.8032901984
 20
6.9190930242
 30
0.0
 10
12.7984238528
 20
6.926410495
 30
0.0
 10
12.7931662518
 20
6.9325056726
 30
0.0
 10
12.786013925
 20
6.9391675155
 30
0.0
 10
12.7765724336
 20
6.9457513961
 30
0.0
 10
12.7647467266
 20
6.951601754
 30
0.0
 10
12.7528215286
 20
6.9558739229
 30
0.0
 10
12.7408481429
 20
6.9589899769
 30
0.0
 10
12.7288499513
 20
6.9612420832
 30
0.0
 10
12.7168395173
 20
6.962840414
 30
0.0
 10
12.7048232206
 20
6.9639397922
 30
0.0
 10
12.6928042768
 20
6.9646529672
 30
0.0
 10
12.6767805022
 20
6.9651923942
 30
0.0
 10
12.6567379031
 20
6.9652247992
 30
0.0
 10
12.6407129828
 20
6.9645896948
 30
0.0
 10
12.6327148036
 20
6.9640321212
 30
0.0
  0
SPLINE
  5
39A
100
AcDbEntity
  8
0
100
AcDbSpline
 62
7
  6
CONTINUOUS
 70
0
 71
3
 72
14
 73
10
 74
0
 42
0.0000001
 43
0.0000001
 44
0.0000000001
 40
0.0
 40
0.0
 40
0.0
 40
0.0
 40
0.1693858443
 40
0.323884647
 40
0.4609526386
 40
0.584078852
 40
0.6970825415
 40
0.8028446969
 40
1.0
 40
1.0
 40
1.0
 40
1.0
 10
12.5241874018
 20
6.888391804
 30
0.0
 10
12.5241874018
 20
6.884312344
 30
0.0
 10
12.5249675005
 20
6.8764888983
 30
0.0
 10
12.5281511275
 20
6.8657943943
 30
0.0
 10
12.5325848278
 20
6.8567986097
 30
0.0
 10
12.5377076922
 20
6.8493803308
 30
0.0
 10
12.5432210249
 20
6.8432378224
 30
0.0
 10
12.5507042136
 20
6.836557194
 30
0.0
 10
12.556818502
 20
6.8324932349
 30
0.0
 10
12.5609632145
 20
6.830176495
 30
0.0
  0
SPLINE
  5
39B
100
AcDbEntity
  8
0
100
AcDbSpline
 62
7
  6
CONTINUOUS
 70
0
 71
3
 72
13
 73
9
 74
0
 42
0.0000001
 43
0.0000001
 44
0.0000000001
 40
0.0
 40
0.0
 40
0.0
 40
0.0
 40
0.1310299771
 40
0.2612113149
 40
0.3897938793
 40
0.5163472325
 40
0.7622990419
 40
1.0
 40
1.0
 40
1.0
 40
1.0
 10
12.2138325124
 20
7.892391804
 30
0.0
 10
12.2138325124
 20
7.8901048487
 30
0.0
 10
12.2135292581
 20
7.8855400199
 30
0.0
 10
12.2121896168
 20
7.8788513346
 30
0.0
 10
12.2100290785
 20
7.8724629356
 30
0.0
 10
12.2062200319
 20
7.8645693948
 30
0.0
 10
12.1999333837
 20
7.855854647
 30
0.0
 10
12.1936256095
 20
7.8501530553
 30
0.0
 10
12.1903016324
 20
7.8476704445
 30
0.0
  0
SPLINE
  5
39C
100
AcDbEntity
  8
0
100
AcDbSpline
 62
7
  6
CONTINUOUS
 70
0
 71
3
 72
9
 73
5
 74
0
 42
0.0000001
 43
0.0000001
 44
0.0000000001
 40
0.0
 40
0.0
 40
0.0
 40
0.0
 40
0.5061586956
 40
1.0
 40
1.0
 40
1.0
 40
1.0
 10
11.5378437558
 20
7.8845907471
 30
0.0
 10
11.5384945077
 20
7.8804171486
 30
0.0
 10
11.5408247208
 20
7.8723028536
 30
0.0
 10
11.5449830551
 20
7.864978577
 30
0.0
 10
11.5473897697
 20
7.8616330871
 30
0.0
  0
SPLINE
  5
39D
100
AcDbEntity
  8
0
100
AcDbSpline
 62
7
  6
CONTINUOUS
 70
0
 71
3
 72
9
 73
5
 74
0
 42
0.0000001
 43
0.0000001
 44
0.0000000001
 40
0.0
 40
0.0
 40
0.0
 40
0.0
 40
0.5054383929
 40
1.0
 40
1.0
 40
1.0
 40
1.0
 10
11.5473897697
 20
7.8616330871
 30
0.0
 10
11.5493425983
 20
7.8589185284
 30
0.0
 10
11.5536828702
 20
7.853877413
 30
0.0
 10
11.5587613359
 20
7.8495947341
 30
0.0
 10
11.5614077256
 20
7.8476704445
 30
0.0
  0
SPLINE
  5
39E
100
AcDbEntity
  8
0
100
AcDbSpline
 62
7
  6
CONTINUOUS
 70
0
 71
3
 72
11
 73
7
 74
0
 42
0.0000001
 43
0.0000001
 44
0.0000000001
 40
0.0
 40
0.0
 40
0.0
 40
0.0
 40
0.2530503069
 40
0.5043050006
 40
0.7533657994
 40
1.0
 40
1.0
 40
1.0
 40
1.0
 10
12.5931942755
 20
7.900192861
 30
0.0
 10
12.5928509563
 20
7.9022964934
 30
0.0
 10
12.5918898591
 20
7.9064486833
 30
0.0
 10
12.5896785428
 20
7.912413395
 30
0.0
 10
12.5867858231
 20
7.9180167339
 30
0.0
 10
12.5844520592
 20
7.9214909683
 30
0.0
 10
12.5832024353
 20
7.923150521
 30
0.0
  0
SPLINE
  5
39F
100
AcDbEntity
  8
0
100
AcDbSpline
 62
7
  6
CONTINUOUS
 70
0
 71
3
 72
9
 73
5
 74
0
 42
0.0000001
 43
0.0000001
 44
0.0000000001
 40
0.0
 40
0.0
 40
0.0
 40
0.0
 40
0.5036313097
 40
1.0
 40
1.0
 40
1.0
 40
1.0
 10
12.5832024353
 20
7.923150521
 30
0.0
 10
12.5811506122
 20
7.9258754276
 30
0.0
 10
12.5765881737
 20
7.9309316007
 30
0.0
 10
12.5712907901
 20
7.9351951222
 30
0.0
 10
12.5685298007
 20
7.9371131636
 30
0.0
  0
SPLINE
  5
3A0
100
AcDbEntity
  8
0
100
AcDbSpline
 62
7
  6
CONTINUOUS
 70
0
 71
3
 72
11
 73
7
 74
0
 42
0.0000001
 43
0.0000001
 44
0.0000000001
 40
0.0
 40
0.0
 40
0.0
 40
0.0
 40
0.2829623915
 40
0.548619211
 40
0.7878413322
 40
1.0
 40
1.0
 40
1.0
 40
1.0
 10
12.175520701
 20
7.892391804
 30
0.0
 10
12.175520701
 20
7.8969173335
 30
0.0
 10
12.1762402478
 20
7.9057097809
 30
0.0
 10
12.1793382715
 20
7.9179830541
 30
0.0
 10
12.1840203948
 20
7.9285133282
 30
0.0
 10
12.1881176209
 20
7.9345163433
 30
0.0
 10
12.1903016324
 20
7.9371131636
 30
0.0
  0
SPLINE
  5
3A1
100
AcDbEntity
  8
0
100
AcDbSpline
 62
7
  6
CONTINUOUS
 70
0
 71
3
 72
11
 73
7
 74
0
 42
0.0000001
 43
0.0000001
 44
0.0000000001
 40
0.0
 40
0.0
 40
0.0
 40
0.0
 40
0.2646507305
 40
0.5213053692
 40
0.7662655149
 40
1.0
 40
1.0
 40
1.0
 40
1.0
 10
12.1656201808
 20
7.892391804
 30
0.0
 10
12.1656201808
 20
7.8878470933
 30
0.0
 10
12.1645012041
 20
7.8788555895
 30
0.0
 10
12.1597403577
 20
7.8664614779
 30
0.0
 10
12.152612694
 20
7.8559179967
 30
0.0
 10
12.1466511766
 20
7.8501679395
 30
0.0
 10
12.1435090237
 20
7.8476704445
 30
0.0
  0
SPLINE
  5
3A2
100
AcDbEntity
  8
0
100
AcDbSpline
 62
7
  6
CONTINUOUS
 70
0
 71
3
 72
11
 73
7
 74
0
 42
0.0000001
 43
0.0000001
 44
0.0000000001
 40
0.0
 40
0.0
 40
0.0
 40
0.0
 40
0.2780974908
 40
0.5412880482
 40
0.7819636077
 40
1.0
 40
1.0
 40
1.0
 40
1.0
 10
12.126678249
 20
7.892391804
 30
0.0
 10
12.126678249
 20
7.896921937
 30
0.0
 10
12.1275052839
 20
7.9057628206
 30
0.0
 10
12.1310582948
 20
7.9180718126
 30
0.0
 10
12.1364202619
 20
7.9286155436
 30
0.0
 10
12.1410524348
 20
7.9345479877
 30
0.0
 10
12.1435090237
 20
7.9371131636
 30
0.0
  0
SPLINE
  5
3A3
100
AcDbEntity
  8
0
100
AcDbSpline
 62
7
  6
CONTINUOUS
 70
0
 71
3
 72
11
 73
7
 74
0
 42
0.0000001
 43
0.0000001
 44
0.0000000001
 40
0.0
 40
0.0
 40
0.0
 40
0.0
 40
0.2688103778
 40
0.5274424582
 40
0.7710382491
 40
1.0
 40
1.0
 40
1.0
 40
1.0
 10
12.1166564055
 20
7.892391804
 30
0.0
 10
12.1166564055
 20
7.8878519162
 30
0.0
 10
12.1156283177
 20
7.878909764
 30
0.0
 10
12.1112382309
 20
7.8665394478
 30
0.0
 10
12.1046456564
 20
7.8559904239
 30
0.0
 10
12.0990795487
 20
7.8501863094
 30
0.0
 10
12.0961430072
 20
7.8476704445
 30
0.0
  0
SPLINE
  5
3A4
100
AcDbEntity
  8
0
100
AcDbSpline
 62
7
  6
CONTINUOUS
 70
0
 71
3
 72
11
 73
7
 74
0
 42
0.0000001
 43
0.0000001
 44
0.0000000001
 40
0.0
 40
0.0
 40
0.0
 40
0.0
 40
0.2733372233
 40
0.5341666075
 40
0.7763162632
 40
1.0
 40
1.0
 40
1.0
 40
1.0
 10
12.0773979083
 20
7.892391804
 30
0.0
 10
12.0773979083
 20
7.8969267704
 30
0.0
 10
12.0783280771
 20
7.9058180673
 30
0.0
 10
12.0823130972
 20
7.9181597679
 30
0.0
 10
12.0883138438
 20
7.9287094101
 30
0.0
 10
12.0934356645
 20
7.9345748559
 30
0.0
 10
12.0961430072
 20
7.9371131636
 30
0.0
  0
SPLINE
  5
3A5
100
AcDbEntity
  8
0
100
AcDbSpline
 62
7
  6
CONTINUOUS
 70
0
 71
3
 72
11
 73
7
 74
0
 42
0.0000001
 43
0.0000001
 44
0.0000000001
 40
0.0
 40
0.0
 40
0.0
 40
0.0
 40
0.2733236396
 40
0.53414636
 40
0.7763002921
 40
1.0
 40
1.0
 40
1.0
 40
1.0
 10
12.0673354359
 20
7.892391804
 30
0.0
 10
12.0673354359
 20
7.8878568235
 30
0.0
 10
12.0664049737
 20
7.8789653782
 30
0.0
 10
12.0624187322
 20
7.8666235879
 30
0.0
 10
12.0564161902
 20
7.8560739387
 30
0.0
 10
12.051293009
 20
7.8502086805
 30
0.0
 10
12.0485849673
 20
7.8476704445
 30
0.0
  0
SPLINE
  5
3A6
100
AcDbEntity
  8
0
100
AcDbSpline
 62
7
  6
CONTINUOUS
 70
0
 71
3
 72
11
 73
7
 74
0
 42
0.0000001
 43
0.0000001
 44
0.0000000001
 40
0.0
 40
0.0
 40
0.0
 40
0.0
 40
0.2504135483
 40
0.5005650038
 40
0.750446125
 40
1.0
 40
1.0
 40
1.0
 40
1.0
 10
11.6167897702
 20
7.8845907453
 30
0.0
 10
11.6171630463
 20
7.8824825463
 30
0.0
 10
11.6182108787
 20
7.8783160086
 30
0.0
 10
11.6206146717
 20
7.872347777
 30
0.0
 10
11.6237570896
 20
7.8667438476
 30
0.0
 10
11.626280083
 20
7.8632854559
 30
0.0
 10
11.6276299336
 20
7.861633087
 30
0.0
  0
SPLINE
  5
3A7
100
AcDbEntity
  8
0
100
AcDbSpline
 62
7
  6
CONTINUOUS
 70
0
 71
3
 72
9
 73
5
 74
0
 42
0.0000001
 43
0.0000001
 44
0.0000000001
 40
0.0
 40
0.0
 40
0.0
 40
0.0
 40
0.5004301139
 40
1.0
 40
1.0
 40
1.0
 40
1.0
 10
11.6276299336
 20
7.861633087
 30
0.0
 10
11.6298714854
 20
7.8588891752
 30
0.0
 10
11.6348581402
 20
7.8538072078
 30
0.0
 10
11.6405696152
 20
7.8495777805
 30
0.0
 10
11.6435482985
 20
7.8476704445
 30
0.0
  0
SPLINE
  5
3A8
100
AcDbEntity
  8
0
100
AcDbSpline
 62
7
  6
CONTINUOUS
 70
0
 71
3
 72
9
 73
5
 74
0
 42
0.0000001
 43
0.0000001
 44
0.0000000001
 40
0.0
 40
0.0
 40
0.0
 40
0.0
 40
0.5061648425
 40
1.0
 40
1.0
 40
1.0
 40
1.0
 10
12.606779013
 20
7.900192861
 30
0.0
 10
12.6061283627
 20
7.9043664275
 30
0.0
 10
12.60379855
 20
7.9124806059
 30
0.0
 10
12.59964081
 20
7.9198049814
 30
0.0
 10
12.5972344171
 20
7.923150521
 30
0.0
  0
SPLINE
  5
3A9
100
AcDbEntity
  8
0
100
AcDbSpline
 62
7
  6
CONTINUOUS
 70
0
 71
3
 72
9
 73
5
 74
0
 42
0.0000001
 43
0.0000001
 44
0.0000000001
 40
0.0
 40
0.0
 40
0.0
 40
0.0
 40
0.5054442798
 40
1.0
 40
1.0
 40
1.0
 40
1.0
 10
12.5972344171
 20
7.923150521
 30
0.0
 10
12.5952819026
 20
7.9258650464
 30
0.0
 10
12.5909423363
 20
7.9309061123
 30
0.0
 10
12.5858645685
 20
7.9351888534
 30
0.0
 10
12.5832185437
 20
7.9371131636
 30
0.0
  0
SPLINE
  5
3AA
100
AcDbEntity
  8
0
100
AcDbSpline
 62
7
  6
CONTINUOUS
 70
0
 71
3
 72
11
 73
7
 74
0
 42
0.0000001
 43
0.0000001
 44
0.0000000001
 40
0.0
 40
0.0
 40
0.0
 40
0.0
 40
0.2519184742
 40
0.502697579
 40
0.7521090906
 40
1.0
 40
1.0
 40
1.0
 40
1.0
 10
12.5754156113
 20
7.8845924218
 30
0.0
 10
12.5750594264
 20
7.8824867774
 30
0.0
 10
12.5740610687
 20
7.8783283089
 30
0.0
 10
12.5717667148
 20
7.8723617685
 30
0.0
 10
12.5687661009
 20
7.8667578387
 30
0.0
 10
12.5663503177
 20
7.8632902917
 30
0.0
 10
12.565057258
 20
7.8616338067
 30
0.0
  0
SPLINE
  5
3AB
100
AcDbEntity
  8
0
100
AcDbSpline
 62
7
  6
CONTINUOUS
 70
0
 71
3
 72
9
 73
5
 74
0
 42
0.0000001
 43
0.0000001
 44
0.0000000001
 40
0.0
 40
0.0
 40
0.0
 40
0.0
 40
0.5022095483
 40
1.0
 40
1.0
 40
1.0
 40
1.0
 10
12.565057258
 20
7.8616338067
 30
0.0
 10
12.5629235586
 20
7.8589004129
 30
0.0
 10
12.5581777497
 20
7.8538323622
 30
0.0
 10
12.5527007303
 20
7.8495837583
 30
0.0
 10
12.5498454424
 20
7.8476704445
 30
0.0
  0
SPLINE
  5
3AC
100
AcDbEntity
  8
0
100
AcDbSpline
 62
7
  6
CONTINUOUS
 70
0
 71
3
 72
9
 73
5
 74
0
 42
0.0000001
 43
0.0000001
 44
0.0000000001
 40
0.0
 40
0.0
 40
0.0
 40
0.0
 40
0.5084120536
 40
1.0
 40
1.0
 40
1.0
 40
1.0
 10
12.616060158
 20
7.900192861
 30
0.0
 10
12.6154469355
 20
7.9043548857
 30
0.0
 10
12.6132636994
 20
7.9124264058
 30
0.0
 10
12.6093265029
 20
7.9197864647
 30
0.0
 10
12.6070396582
 20
7.923150521
 30
0.0
  0
SPLINE
  5
3AD
100
AcDbEntity
  8
0
100
AcDbSpline
 62
7
  6
CONTINUOUS
 70
0
 71
3
 72
9
 73
5
 74
0
 42
0.0000001
 43
0.0000001
 44
0.0000000001
 40
0.0
 40
0.0
 40
0.0
 40
0.0
 40
0.5076803937
 40
1.0
 40
1.0
 40
1.0
 40
1.0
 10
12.6070396582
 20
7.923150521
 30
0.0
 10
12.6052028143
 20
7.9258526048
 30
0.0
 10
12.6011235058
 20
7.9308745785
 30
0.0
 10
12.5963044576
 20
7.9351809069
 30
0.0
 10
12.5937933997
 20
7.9371131636
 30
0.0
  0
SPLINE
  5
3AE
100
AcDbEntity
  8
0
100
AcDbSpline
 62
7
  6
CONTINUOUS
 70
0
 71
3
 72
13
 73
9
 74
0
 42
0.0000001
 43
0.0000001
 44
0.0000000001
 40
0.0
 40
0.0
 40
0.0
 40
0.0
 40
0.1251421401
 40
0.2502514728
 40
0.3753581464
 40
0.500433451
 40
0.7502211269
 40
1.0
 40
1.0
 40
1.0
 40
1.0
 10
11.6461737343
 20
7.8845907471
 30
0.0
 10
11.6465193478
 20
7.882658419
 30
0.0
 10
11.6474663363
 20
7.8788354497
 30
0.0
 10
11.649597274
 20
7.8733316282
 30
0.0
 10
11.6523689197
 20
7.8681225824
 30
0.0
 10
11.6568104322
 20
7.8616423008
 30
0.0
 10
11.663575709
 20
7.8544650796
 30
0.0
 10
11.66989497
 20
7.8497681163
 30
0.0
 10
11.6732041915
 20
7.8476704445
 30
0.0
  0
SPLINE
  5
3AF
100
AcDbEntity
  8
0
100
AcDbSpline
 62
7
  6
CONTINUOUS
 70
0
 71
3
 72
9
 73
5
 74
0
 42
0.0000001
 43
0.0000001
 44
0.0000000001
 40
0.0
 40
0.0
 40
0.0
 40
0.0
 40
0.5103719064
 40
1.0
 40
1.0
 40
1.0
 40
1.0
 10
12.6125392081
 20
7.923150521
 30
0.0
 10
12.6108330601
 20
7.9258381373
 30
0.0
 10
12.6070485786
 20
7.9308365077
 30
0.0
 10
12.6025261726
 20
7.9351710141
 30
0.0
 10
12.6001692216
 20
7.9371131636
 30
0.0
  0
SPLINE
  5
3B0
100
AcDbEntity
  8
0
100
AcDbSpline
 62
7
  6
CONTINUOUS
 70
0
 71
3
 72
11
 73
7
 74
0
 42
0.0000001
 43
0.0000001
 44
0.0000000001
 40
0.0
 40
0.0
 40
0.0
 40
0.0
 40
0.253046663
 40
0.5042998205
 40
0.7533617449
 40
1.0
 40
1.0
 40
1.0
 40
1.0
 10
11.5514409017
 20
7.8845907471
 30
0.0
 10
11.5517842628
 20
7.8824871085
 30
0.0
 10
11.5527454807
 20
7.878334899
 30
0.0
 10
11.5549570661
 20
7.8723701821
 30
0.0
 10
11.5578501354
 20
7.8667668418
 30
0.0
 10
11.5601841654
 20
7.8632926295
 30
0.0
 10
11.5614339303
 20
7.8616330871
 30
0.0
  0
SPLINE
  5
3B1
100
AcDbEntity
  8
0
100
AcDbSpline
 62
7
  6
CONTINUOUS
 70
0
 71
3
 72
9
 73
5
 74
0
 42
0.0000001
 43
0.0000001
 44
0.0000000001
 40
0.0
 40
0.0
 40
0.0
 40
0.0
 40
0.5036266089
 40
1.0
 40
1.0
 40
1.0
 40
1.0
 10
11.5614339303
 20
7.8616330871
 30
0.0
 10
11.5634860179
 20
7.8589081533
 30
0.0
 10
11.5680490494
 20
7.8538519415
 30
0.0
 10
11.5733470152
 20
7.8495884698
 30
0.0
 10
11.57610831
 20
7.8476704445
 30
0.0
  0
SPLINE
  5
3B2
100
AcDbEntity
  8
0
100
AcDbSpline
 62
7
  6
CONTINUOUS
 70
0
 71
3
 72
11
 73
7
 74
0
 42
0.0000001
 43
0.0000001
 44
0.0000000001
 40
0.0
 40
0.0
 40
0.0
 40
0.0
 40
0.2688230715
 40
0.5274612474
 40
0.7710529257
 40
1.0
 40
1.0
 40
1.0
 40
1.0
 10
12.028076477
 20
7.892391804
 30
0.0
 10
12.028076477
 20
7.8969316776
 30
0.0
 10
12.0291042893
 20
7.9058736831
 30
0.0
 10
12.033493244
 20
7.9182439228
 30
0.0
 10
12.0400841747
 20
7.9287929566
 30
0.0
 10
12.0456490592
 20
7.9345972395
 30
0.0
 10
12.0485849673
 20
7.9371131636
 30
0.0
  0
SPLINE
  5
3B3
100
AcDbEntity
  8
0
100
AcDbSpline
 62
7
  6
CONTINUOUS
 70
0
 71
3
 72
13
 73
9
 74
0
 42
0.0000001
 43
0.0000001
 44
0.0000000001
 40
0.0
 40
0.0
 40
0.0
 40
0.0
 40
0.1250692264
 40
0.250158165
 40
0.3752319446
 40
0.5003241272
 40
0.7500834663
 40
1.0
 40
1.0
 40
1.0
 40
1.0
 10
11.6782924742
 20
7.892391804
 30
0.0
 10
11.6782924742
 20
7.890102878
 30
0.0
 10
11.6786533511
 20
7.8855167622
 30
0.0
 10
11.6802444966
 20
7.8788107358
 30
0.0
 10
11.6828067838
 20
7.8724127511
 30
0.0
 10
11.6873575607
 20
7.8644471937
 30
0.0
 10
11.694881921
 20
7.8556886772
 30
0.0
 10
11.7022082271
 20
7.8501156825
 30
0.0
 10
11.7060735049
 20
7.8476704445
 30
0.0
  0
SPLINE
  5
3B4
100
AcDbEntity
  8
0
100
AcDbSpline
 62
7
  6
CONTINUOUS
 70
0
 71
3
 72
10
 73
6
 74
0
 42
0.0000001
 43
0.0000001
 44
0.0000000001
 40
0.0
 40
0.0
 40
0.0
 40
0.0
 40
0.5785913239
 40
0.8126037441
 40
1.0
 40
1.0
 40
1.0
 40
1.0
 10
11.7067000638
 20
7.892391804
 30
0.0
 10
11.7067000638
 20
7.9010181164
 30
0.0
 10
11.7066257775
 20
7.9131337526
 30
0.0
 10
11.7063502774
 20
7.9280404901
 30
0.0
 10
11.7061730481
 20
7.9343210161
 30
0.0
 10
11.7060735049
 20
7.9371131636
 30
0.0
  0
SPLINE
  5
3B5
100
AcDbEntity
  8
0
100
AcDbSpline
 62
7
  6
CONTINUOUS
 70
0
 71
3
 72
11
 73
7
 74
0
 42
0.0000001
 43
0.0000001
 44
0.0000000001
 40
0.0
 40
0.0
 40
0.0
 40
0.0
 40
0.2780833772
 40
0.5412668577
 40
0.7819467137
 40
1.0
 40
1.0
 40
1.0
 40
1.0
 10
12.0180543974
 20
7.892391804
 30
0.0
 10
12.0180543974
 20
7.8878616572
 30
0.0
 10
12.0172270548
 20
7.8790206287
 30
0.0
 10
12.0136727481
 20
7.8667115361
 30
0.0
 10
12.0083088543
 20
7.8561677773
 30
0.0
 10
12.0036751866
 20
7.8502355351
 30
0.0
 10
12.0012178346
 20
7.8476704445
 30
0.0
  0
SPLINE
  5
3B6
100
AcDbEntity
  8
0
100
AcDbSpline
 62
7
  6
CONTINUOUS
 70
0
 71
3
 72
11
 73
7
 74
0
 42
0.0000001
 43
0.0000001
 44
0.0000000001
 40
0.0
 40
0.0
 40
0.0
 40
0.0
 40
0.2646622663
 40
0.5213223335
 40
0.7662786507
 40
1.0
 40
1.0
 40
1.0
 40
1.0
 10
11.9791110845
 20
7.892391804
 30
0.0
 10
11.9791110845
 20
7.896936501
 30
0.0
 10
11.9802298072
 20
7.9059278644
 30
0.0
 10
11.984989625
 20
7.9183219135
 30
0.0
 10
11.9921158132
 20
7.9288654164
 30
0.0
 10
11.9980762473
 20
7.9346156203
 30
0.0
 10
12.0012178346
 20
7.9371131636
 30
0.0
  0
SPLINE
  5
3B7
100
AcDbEntity
  8
0
100
AcDbSpline
 62
7
  6
CONTINUOUS
 70
0
 71
3
 72
13
 73
9
 74
0
 42
0.0000001
 43
0.0000001
 44
0.0000000001
 40
0.0
 40
0.0
 40
0.0
 40
0.0
 40
0.1253038338
 40
0.2505921111
 40
0.3758014903
 40
0.5009479678
 40
0.7505541346
 40
1.0
 40
1.0
 40
1.0
 40
1.0
 10
11.7142785592
 20
7.892391804
 30
0.0
 10
11.7142785592
 20
7.890102962
 30
0.0
 10
11.7146371327
 20
7.885517751
 30
0.0
 10
11.7162182604
 20
7.8788124282
 30
0.0
 10
11.7187646029
 20
7.8724147849
 30
0.0
 10
11.7232857881
 20
7.8644519644
 30
0.0
 10
11.7307611238
 20
7.8556946982
 30
0.0
 10
11.7380476452
 20
7.8501169761
 30
0.0
 10
11.7418915796
 20
7.8476704445
 30
0.0
  0
SPLINE
  5
3B8
100
AcDbEntity
  8
0
100
AcDbSpline
 62
7
  6
CONTINUOUS
 70
0
 71
3
 72
11
 73
7
 74
0
 42
0.0000001
 43
0.0000001
 44
0.0000000001
 40
0.0
 40
0.0
 40
0.0
 40
0.0
 40
0.3015385841
 40
0.5771016434
 40
0.8113427596
 40
1.0
 40
1.0
 40
1.0
 40
1.0
 10
11.7450059573
 20
7.892391804
 30
0.0
 10
11.7450059573
 20
7.8969024711
 30
0.0
 10
11.7448588033
 20
7.9055360214
 30
0.0
 10
11.7442234511
 20
7.917658979
 30
0.0
 10
11.7432642493
 20
7.9280657325
 30
0.0
 10
11.7423840042
 20
7.9343343638
 30
0.0
 10
11.7418915796
 20
7.9371131636
 30
0.0
  0
SPLINE
  5
3B9
100
AcDbEntity
  8
0
100
AcDbSpline
 62
7
  6
CONTINUOUS
 70
0
 71
3
 72
11
 73
7
 74
0
 42
0.0000001
 43
0.0000001
 44
0.0000000001
 40
0.0
 40
0.0
 40
0.0
 40
0.0
 40
0.2829482146
 40
0.5485977694
 40
0.7878240443
 40
1.0
 40
1.0
 40
1.0
 40
1.0
 10
11.969210094
 20
7.892391804
 30
0.0
 10
11.969210094
 20
7.8878662617
 30
0.0
 10
11.9684902284
 20
7.8790736775
 30
0.0
 10
11.965390849
 20
7.8668002973
 30
0.0
 10
11.9607066913
 20
7.8562699727
 30
0.0
 10
11.9566078409
 20
7.8502671656
 30
0.0
 10
11.9544230027
 20
7.8476704445
 30
0.0
  0
SPLINE
  5
3BA
100
AcDbEntity
  8
0
100
AcDbSpline
 62
7
  6
CONTINUOUS
 70
0
 71
3
 72
13
 73
9
 74
0
 42
0.0000001
 43
0.0000001
 44
0.0000000001
 40
0.0
 40
0.0
 40
0.0
 40
0.0
 40
0.1258495283
 40
0.2516018205
 40
0.3771274061
 40
0.5024011861
 40
0.7516520571
 40
1.0
 40
1.0
 40
1.0
 40
1.0
 10
11.7531473395
 20
7.892391804
 30
0.0
 10
11.7531473395
 20
7.8901031553
 30
0.0
 10
11.7535005698
 20
7.8855200265
 30
0.0
 10
11.7550584473
 20
7.8788163339
 30
0.0
 10
11.7575677639
 20
7.8724194973
 30
0.0
 10
11.7620202771
 20
7.8644630762
 30
0.0
 10
11.7693817249
 20
7.8557088585
 30
0.0
 10
11.7765756793
 20
7.8501200355
 30
0.0
 10
11.7803700135
 20
7.8476704445
 30
0.0
  0
SPLINE
  5
3BB
100
AcDbEntity
  8
0
100
AcDbSpline
 62
7
  6
CONTINUOUS
 70
0
 71
3
 72
11
 73
7
 74
0
 42
0.0000001
 43
0.0000001
 44
0.0000000001
 40
0.0
 40
0.0
 40
0.0
 40
0.0
 40
0.2993830389
 40
0.5737570867
 40
0.8085249374
 40
1.0
 40
1.0
 40
1.0
 40
1.0
 10
11.7859471336
 20
7.892391804
 30
0.0
 10
11.7859471336
 20
7.8969039973
 30
0.0
 10
11.7856828412
 20
7.9055539889
 30
0.0
 10
11.7845414694
 20
7.9176952401
 30
0.0
 10
11.7828175563
 20
7.9281218647
 30
0.0
 10
11.7812429021
 20
7.934362499
 30
0.0
 10
11.7803700135
 20
7.9371131636
 30
0.0
  0
SPLINE
  5
3BC
100
AcDbEntity
  8
0
100
AcDbSpline
 62
7
  6
CONTINUOUS
 70
0
 71
3
 72
13
 73
9
 74
0
 42
0.0000001
 43
0.0000001
 44
0.0000000001
 40
0.0
 40
0.0
 40
0.0
 40
0.0
 40
0.1267031444
 40
0.2531822711
 40
0.3792047333
 40
0.5046804962
 40
0.7533783994
 40
1.0
 40
1.0
 40
1.0
 40
1.0
 10
11.7945858492
 20
7.892391804
 30
0.0
 10
11.7945858492
 20
7.8901034516
 30
0.0
 10
11.7949307595
 20
7.8855235183
 30
0.0
 10
11.7964523991
 20
7.8788223579
 30
0.0
 10
11.7989039528
 20
7.8724268175
 30
0.0
 10
11.803249461
 20
7.8644804979
 30
0.0
 10
11.8104331204
 20
7.8557314511
 30
0.0
 10
11.8174821391
 20
7.8501249677
 30
0.0
 10
11.8211989836
 20
7.8476704445
 30
0.0
  0
SPLINE
  5
3BD
100
AcDbEntity
  8
0
100
AcDbSpline
 62
7
  6
CONTINUOUS
 70
0
 71
3
 72
13
 73
9
 74
0
 42
0.0000001
 43
0.0000001
 44
0.0000000001
 40
0.0
 40
0.0
 40
0.0
 40
0.0
 40
0.1310354029
 40
0.2612214016
 40
0.3898072193
 40
0.5163619804
 40
0.7623104096
 40
1.0
 40
1.0
 40
1.0
 40
1.0
 10
11.9308959932
 20
7.892391804
 30
0.0
 10
11.9308959932
 20
7.8946787577
 30
0.0
 10
11.9311991955
 20
7.8992435687
 30
0.0
 10
11.9325386096
 20
7.9059322388
 30
0.0
 10
11.9346987836
 20
7.9123206283
 30
0.0
 10
11.9385071618
 20
7.9202141014
 30
0.0
 10
11.9447926868
 20
7.9289287971
 30
0.0
 10
11.9510995204
 20
7.934630514
 30
0.0
 10
11.9544230027
 20
7.9371131636
 30
0.0
  0
SPLINE
  5
3BE
100
AcDbEntity
  8
0
100
AcDbSpline
 62
7
  6
CONTINUOUS
 70
0
 71
3
 72
11
 73
7
 74
0
 42
0.0000001
 43
0.0000001
 44
0.0000000001
 40
0.0
 40
0.0
 40
0.0
 40
0.0
 40
0.2962057388
 40
0.5688460203
 40
0.804416391
 40
1.0
 40
1.0
 40
1.0
 40
1.0
 10
11.8291939399
 20
7.892391804
 30
0.0
 10
11.8291939399
 20
7.8969063361
 30
0.0
 10
11.8288133172
 20
7.9055814978
 30
0.0
 10
11.8271695616
 20
7.9177493298
 30
0.0
 10
11.8246853094
 20
7.9282028609
 30
0.0
 10
11.8224333251
 20
7.9343997999
 30
0.0
 10
11.8211989836
 20
7.9371131636
 30
0.0
  0
SPLINE
  5
3BF
100
AcDbEntity
  8
0
100
AcDbSpline
 62
7
  6
CONTINUOUS
 70
0
 71
3
 72
11
 73
7
 74
0
 42
0.0000001
 43
0.0000001
 44
0.0000000001
 40
0.0
 40
0.0
 40
0.0
 40
0.0
 40
0.2877389982
 40
0.5558692995
 40
0.7937204517
 40
1.0
 40
1.0
 40
1.0
 40
1.0
 10
11.9211958127
 20
7.892391804
 30
0.0
 10
11.9211958127
 20
7.8878704879
 30
0.0
 10
11.9205867755
 20
7.8791227188
 30
0.0
 10
11.9179603839
 20
7.8668863148
 30
0.0
 10
11.9139885549
 20
7.8563768999
 30
0.0
 10
11.9104676974
 20
7.8503033915
 30
0.0
 10
11.908577257
 20
7.8476704445
 30
0.0
  0
SPLINE
  5
3C0
100
AcDbEntity
  8
0
100
AcDbSpline
 62
7
  6
CONTINUOUS
 70
0
 71
3
 72
13
 73
9
 74
0
 42
0.0000001
 43
0.0000001
 44
0.0000000001
 40
0.0
 40
0.0
 40
0.0
 40
0.0
 40
0.1293077654
 40
0.2580119685
 40
0.3855673189
 40
0.5116809759
 40
0.7587139749
 40
1.0
 40
1.0
 40
1.0
 40
1.0
 10
11.8838194244
 20
7.892391804
 30
0.0
 10
11.8838194244
 20
7.8946792946
 30
0.0
 10
11.8841391795
 20
7.8992499231
 30
0.0
 10
11.8855510229
 20
7.9059434978
 30
0.0
 10
11.8878271836
 20
7.912334845
 30
0.0
 10
11.8918488118
 20
7.9202496918
 30
0.0
 10
11.8984919932
 20
7.9289797784
 30
0.0
 10
11.9050966413
 20
7.9346423942
 30
0.0
 10
11.908577257
 20
7.9371131636
 30
0.0
  0
SPLINE
  5
3C1
100
AcDbEntity
  8
0
100
AcDbSpline
 62
7
  6
CONTINUOUS
 70
0
 71
3
 72
34
 73
30
 74
0
 42
0.0000001
 43
0.0000001
 44
0.0000000001
 40
0.0
 40
0.0
 40
0.0
 40
0.0
 40
0.0624965446
 40
0.0937520076
 40
0.1250045841
 40
0.1875041524
 40
0.2500046232
 40
0.3125038177
 40
0.3750023503
 40
0.4375005935
 40
0.4999987329
 40
0.5624967131
 40
0.6249941854
 40
0.6874903661
 40
0.718740283
 40
0.7499904066
 40
0.7812404432
 40
0.8124901278
 40
0.8437389058
 40
0.8749851882
 40
0.8906128968
 40
0.9062405426
 40
0.921869017
 40
0.9374974668
 40
0.9531241492
 40
0.9687468837
 40
0.9843600371
 40
0.9921826251
 40
1.0
 40
1.0
 40
1.0
 40
1.0
 10
11.8548901011
 20
6.9454688002
 30
0.0
 10
11.8655480017
 20
6.9486247393
 30
0.0
 10
11.8818380937
 20
6.9523567808
 30
0.0
 10
11.9037637113
 20
6.9560391104
 30
0.0
 10
11.9258035803
 20
6.9589973146
 30
0.0
 10
11.9534806661
 20
6.9616083233
 30
0.0
 10
11.9867764
 20
6.9635466335
 30
0.0
 10
12.0201079858
 20
6.9646551029
 30
0.0
 10
12.0534525203
 20
6.9651666067
 30
0.0
 10
12.0868005479
 20
6.9651971019
 30
0.0
 10
12.1201456722
 20
6.9647516795
 30
0.0
 10
12.1534790767
 20
6.9637303497
 30
0.0
 10
12.1867798915
 20
6.9619175005
 30
0.0
 10
12.2144692043
 20
6.9594607569
 30
0.0
 10
12.2365263631
 20
6.9566625575
 30
0.0
 10
12.2529984433
 20
6.9540550086
 30
0.0
 10
12.2693616
 20
6.9508262182
 30
0.0
 10
12.2855577363
 20
6.9468310201
 30
0.0
 10
12.3014895877
 20
6.9418770841
 30
0.0
 10
12.3144181397
 20
6.9367271763
 30
0.0
 10
12.324390521
 20
6.9318025157
 30
0.0
 10
12.3316221462
 20
6.9276373348
 30
0.0
 10
12.3385129673
 20
6.9229235509
 30
0.0
 10
12.3449228873
 20
6.9175654608
 30
0.0
 10
12.3506379756
 20
6.9114580826
 30
0.0
 10
12.3553291166
 20
6.9045177618
 30
0.0
 10
12.3579929409
 20
6.8980276914
 30
0.0
 10
12.3591034804
 20
6.8925675022
 30
0.0
 10
12.3592941432
 20
6.8897821655
 30
0.0
 10
12.3592941432
 20
6.888391804
 30
0.0
  0
SPLINE
  5
3C2
100
AcDbEntity
  8
0
100
AcDbSpline
 62
7
  6
CONTINUOUS
 70
0
 71
3
 72
17
 73
13
 74
0
 42
0.0000001
 43
0.0000001
 44
0.0000000001
 40
0.0
 40
0.0
 40
0.0
 40
0.0
 40
0.0625005346
 40
0.1250094712
 40
0.1875295713
 40
0.2500562046
 40
0.3749697428
 40
0.4999472639
 40
0.6249513888
 40
0.7499643615
 40
0.8749836051
 40
1.0
 40
1.0
 40
1.0
 40
1.0
 10
11.7852952976
 20
6.888391804
 30
0.0
 10
11.7852952976
 20
6.8903853177
 30
0.0
 10
11.7856872208
 20
6.8943829124
 30
0.0
 10
11.7873799188
 20
6.9001511482
 30
0.0
 10
11.7900025968
 20
6.9055548199
 30
0.0
 10
11.7944716943
 20
6.9121823477
 30
0.0
 10
11.8014502386
 20
6.9193980184
 30
0.0
 10
11.8110639628
 20
6.9265621165
 30
0.0
 10
11.8214392456
 20
6.9325550833
 30
0.0
 10
11.8322949885
 20
6.9376071819
 30
0.0
 10
11.8434699866
 20
6.9418965008
 30
0.0
 10
11.8510666868
 20
6.9443366389
 30
0.0
 10
11.8548901011
 20
6.9454688002
 30
0.0
  0
SPLINE
  5
3C3
100
AcDbEntity
  8
0
100
AcDbSpline
 62
7
  6
CONTINUOUS
 70
0
 71
3
 72
20
 73
16
 74
0
 42
0.0000001
 43
0.0000001
 44
0.0000000001
 40
0.0
 40
0.0
 40
0.0
 40
0.0
 40
0.0517955296
 40
0.101506001
 40
0.1480266618
 40
0.1912003303
 40
0.268925841
 40
0.3382967433
 40
0.4021118537
 40
0.4622175298
 40
0.5755902441
 40
0.6841086131
 40
0.7903074968
 40
0.8954070603
 40
1.0
 40
1.0
 40
1.0
 40
1.0
 10
12.5241874018
 20
6.888391804
 30
0.0
 10
12.5241874018
 20
6.8909240006
 30
0.0
 10
12.5244939886
 20
6.8958920275
 30
0.0
 10
12.5258099664
 20
6.9030242695
 30
0.0
 10
12.5278051757
 20
6.9095559889
 30
0.0
 10
12.531011334
 20
6.9170996465
 30
0.0
 10
12.5358412894
 20
6.9251126045
 30
0.0
 10
12.5425560433
 20
6.9329857904
 30
0.0
 10
12.5496361039
 20
6.9392830101
 30
0.0
 10
12.559159702
 20
6.9459431187
 30
0.0
 10
12.5715543799
 20
6.9521474944
 30
0.0
 10
12.5868128635
 20
6.9572063708
 30
0.0
 10
12.6021023103
 20
6.9605726448
 30
0.0
 10
12.6173989166
 20
6.9627648652
 30
0.0
 10
12.6276138102
 20
6.9636765178
 30
0.0
 10
12.6327148036
 20
6.9640321212
 30
0.0
  0
SPLINE
  5
3C4
100
AcDbEntity
  8
0
100
AcDbSpline
 62
7
  6
CONTINUOUS
 70
0
 71
3
 72
13
 73
9
 74
0
 42
0.0000001
 43
0.0000001
 44
0.0000000001
 40
0.0
 40
0.0
 40
0.0
 40
0.0
 40
0.1278589862
 40
0.255324181
 40
0.3820237735
 40
0.5077785825
 40
0.7557333885
 40
1.0
 40
1.0
 40
1.0
 40
1.0
 10
11.8382604313
 20
7.892391804
 30
0.0
 10
11.8382604313
 20
7.8901038415
 30
0.0
 10
11.8385941412
 20
7.8855281179
 30
0.0
 10
11.8400669342
 20
7.8788303502
 30
0.0
 10
11.8424405267
 20
7.8724366281
 30
0.0
 10
11.8466418722
 20
7.8645041579
 30
0.0
 10
11.8535853861
 20
7.8557629195
 30
0.0
 10
11.8604377139
 20
7.8501319456
 30
0.0
 10
11.8640497408
 20
7.8476704445
 30
0.0
  0
SPLINE
  5
3C5
100
AcDbEntity
  8
0
100
AcDbSpline
 62
7
  6
CONTINUOUS
 70
0
 71
3
 72
11
 73
7
 74
0
 42
0.0000001
 43
0.0000001
 44
0.0000000001
 40
0.0
 40
0.0
 40
0.0
 40
0.0
 40
0.2922397666
 40
0.5627474999
 40
0.7993613415
 40
1.0
 40
1.0
 40
1.0
 40
1.0
 10
11.874398159
 20
7.892391804
 30
0.0
 10
11.874398159
 20
7.896909411
 30
0.0
 10
11.8739024375
 20
7.9056175663
 30
0.0
 10
11.8717625713
 20
7.9178179566
 30
0.0
 10
11.8685268004
 20
7.9283006388
 30
0.0
 10
11.865623475
 20
7.9344404884
 30
0.0
 10
11.8640497408
 20
7.9371131636
 30
0.0
  0
SPLINE
  5
3C6
100
AcDbEntity
  8
0
100
AcDbSpline
 62
7
  6
CONTINUOUS
 70
0
 71
3
 72
13
 73
9
 74
0
 42
0.0000001
 43
0.0000001
 44
0.0000000001
 40
0.0
 40
0.0
 40
0.0
 40
0.0
 40
0.1293078243
 40
0.258012074
 40
0.385567422
 40
0.5116810636
 40
0.7587139919
 40
1.0
 40
1.0
 40
1.0
 40
1.0
 10
11.8838194244
 20
7.892391804
 30
0.0
 10
11.8838194244
 20
7.8901043124
 30
0.0
 10
11.8841391803
 20
7.8855336821
 30
0.0
 10
11.885551024
 20
7.8788401056
 30
0.0
 10
11.887827186
 20
7.8724487583
 30
0.0
 10
11.8918488134
 20
7.8645339129
 30
0.0
 10
11.8984919948
 20
7.8558038287
 30
0.0
 10
11.9050966416
 20
7.8501412138
 30
0.0
 10
11.908577257
 20
7.8476704445
 30
0.0
  0
SPLINE
  5
3C7
100
AcDbEntity
  8
0
100
AcDbSpline
 62
7
  6
CONTINUOUS
 70
0
 71
3
 72
11
 73
7
 74
0
 42
0.0000001
 43
0.0000001
 44
0.0000000001
 40
0.0
 40
0.0
 40
0.0
 40
0.0
 40
0.2922396491
 40
0.5627474078
 40
0.7993613269
 40
1.0
 40
1.0
 40
1.0
 40
1.0
 10
11.874398159
 20
7.892391804
 30
0.0
 10
11.874398159
 20
7.8878741989
 30
0.0
 10
11.8739024379
 20
7.8791660451
 30
0.0
 10
11.871762572
 20
7.866965655
 30
0.0
 10
11.8685268012
 20
7.8564829707
 30
0.0
 10
11.8656234751
 20
7.8503431199
 30
0.0
 10
11.8640497408
 20
7.8476704445
 30
0.0
  0
SPLINE
  5
3C8
100
AcDbEntity
  8
0
100
AcDbSpline
 62
7
  6
CONTINUOUS
 70
0
 71
3
 72
13
 73
9
 74
0
 42
0.0000001
 43
0.0000001
 44
0.0000000001
 40
0.0
 40
0.0
 40
0.0
 40
0.0
 40
0.1278589281
 40
0.2553240766
 40
0.3820236711
 40
0.5077784951
 40
0.7557333713
 40
1.0
 40
1.0
 40
1.0
 40
1.0
 10
11.8382604313
 20
7.892391804
 30
0.0
 10
11.8382604313
 20
7.8946797656
 30
0.0
 10
11.8385941404
 20
7.8992554873
 30
0.0
 10
11.8400669331
 20
7.9059532533
 30
0.0
 10
11.8424405242
 20
7.9123469753
 30
0.0
 10
11.8466418705
 20
7.9202794468
 30
0.0
 10
11.8535853843
 20
7.9290206876
 30
0.0
 10
11.8604377137
 20
7.9346516623
 30
0.0
 10
11.8640497408
 20
7.9371131636
 30
0.0
  0
SPLINE
  5
3C9
100
AcDbEntity
  8
0
100
AcDbSpline
 62
7
  6
CONTINUOUS
 70
0
 71
3
 72
11
 73
7
 74
0
 42
0.0000001
 43
0.0000001
 44
0.0000000001
 40
0.0
 40
0.0
 40
0.0
 40
0.0
 40
0.2877391141
 40
0.555869391
 40
0.7937204667
 40
1.0
 40
1.0
 40
1.0
 40
1.0
 10
11.9211958127
 20
7.892391804
 30
0.0
 10
11.9211958127
 20
7.896913122
 30
0.0
 10
11.920586775
 20
7.9056608926
 30
0.0
 10
11.9179603831
 20
7.9178972967
 30
0.0
 10
11.9139885539
 20
7.9284067096
 30
0.0
 10
11.9104676973
 20
7.9344802168
 30
0.0
 10
11.908577257
 20
7.9371131636
 30
0.0
  0
SPLINE
  5
3CA
100
AcDbEntity
  8
0
100
AcDbSpline
 62
7
  6
CONTINUOUS
 70
0
 71
3
 72
13
 73
9
 74
0
 42
0.0000001
 43
0.0000001
 44
0.0000000001
 40
0.0
 40
0.0
 40
0.0
 40
0.0
 40
0.1310354624
 40
0.261221508
 40
0.3898073228
 40
0.5163620684
 40
0.7623104264
 40
1.0
 40
1.0
 40
1.0
 40
1.0
 10
11.9308959932
 20
7.892391804
 30
0.0
 10
11.9308959932
 20
7.8901048494
 30
0.0
 10
11.9311991963
 20
7.8855400366
 30
0.0
 10
11.9325386107
 20
7.8788513646
 30
0.0
 10
11.9346987859
 20
7.872462975
 30
0.0
 10
11.9385071633
 20
7.8645695033
 30
0.0
 10
11.9447926884
 20
7.8558548099
 30
0.0
 10
11.9510995206
 20
7.8501530939
 30
0.0
 10
11.9544230027
 20
7.8476704445
 30
0.0
  0
SPLINE
  5
3CB
100
AcDbEntity
  8
0
100
AcDbSpline
 62
7
  6
CONTINUOUS
 70
0
 71
3
 72
11
 73
7
 74
0
 42
0.0000001
 43
0.0000001
 44
0.0000000001
 40
0.0
 40
0.0
 40
0.0
 40
0.0
 40
0.2829483287
 40
0.5485978603
 40
0.7878240597
 40
1.0
 40
1.0
 40
1.0
 40
1.0
 10
11.969210094
 20
7.892391804
 30
0.0
 10
11.969210094
 20
7.8969173483
 30
0.0
 10
11.9684902278
 20
7.9057099339
 30
0.0
 10
11.9653908481
 20
7.9179833142
 30
0.0
 10
11.9607066902
 20
7.9285136368
 30
0.0
 10
11.9566078408
 20
7.9345164427
 30
0.0
 10
11.9544230027
 20
7.9371131636
 30
0.0
  0
SPLINE
  5
3CC
100
AcDbEntity
  8
0
100
AcDbSpline
 62
7
  6
CONTINUOUS
 70
0
 71
3
 72
11
 73
7
 74
0
 42
0.0000001
 43
0.0000001
 44
0.0000000001
 40
0.0
 40
0.0
 40
0.0
 40
0.0
 40
0.264662374
 40
0.5213224223
 40
0.7662786673
 40
1.0
 40
1.0
 40
1.0
 40
1.0
 10
11.9791110845
 20
7.892391804
 30
0.0
 10
11.9791110845
 20
7.8878471053
 30
0.0
 10
11.980229808
 20
7.8788557403
 30
0.0
 10
11.9849896265
 20
7.8664616911
 30
0.0
 10
11.9921158146
 20
7.8559181905
 30
0.0
 10
11.9980762475
 20
7.8501679876
 30
0.0
 10
12.0012178346
 20
7.8476704445
 30
0.0
  0
SPLINE
  5
3CD
100
AcDbEntity
  8
0
100
AcDbSpline
 62
7
  6
CONTINUOUS
 70
0
 71
3
 72
11
 73
7
 74
0
 42
0.0000001
 43
0.0000001
 44
0.0000000001
 40
0.0
 40
0.0
 40
0.0
 40
0.0
 40
0.2780834896
 40
0.541266948
 40
0.7819467294
 40
1.0
 40
1.0
 40
1.0
 40
1.0
 10
12.0180543974
 20
7.892391804
 30
0.0
 10
12.0180543974
 20
7.8969219527
 30
0.0
 10
12.0172270542
 20
7.9057629827
 30
0.0
 10
12.013672747
 20
7.9180720754
 30
0.0
 10
12.0083088531
 20
7.9286158321
 30
0.0
 10
12.0036751864
 20
7.9345480732
 30
0.0
 10
12.0012178346
 20
7.9371131636
 30
0.0
  0
SPLINE
  5
3CE
100
AcDbEntity
  8
0
100
AcDbSpline
 62
7
  6
CONTINUOUS
 70
0
 71
3
 72
11
 73
7
 74
0
 42
0.0000001
 43
0.0000001
 44
0.0000000001
 40
0.0
 40
0.0
 40
0.0
 40
0.0
 40
0.2688231806
 40
0.5274613366
 40
0.7710529421
 40
1.0
 40
1.0
 40
1.0
 40
1.0
 10
12.028076477
 20
7.892391804
 30
0.0
 10
12.028076477
 20
7.8878519287
 30
0.0
 10
12.02910429
 20
7.8789099217
 30
0.0
 10
12.0334932454
 20
7.8665396818
 30
0.0
 10
12.0400841761
 20
7.8559906503
 30
0.0
 10
12.0456490595
 20
7.8501863684
 30
0.0
 10
12.0485849673
 20
7.8476704445
 30
0.0
  0
SPLINE
  5
3CF
100
AcDbEntity
  8
0
100
AcDbSpline
 62
7
  6
CONTINUOUS
 70
0
 71
3
 72
11
 73
7
 74
0
 42
0.0000001
 43
0.0000001
 44
0.0000000001
 40
0.0
 40
0.0
 40
0.0
 40
0.0
 40
0.2733237503
 40
0.5341464498
 40
0.7763003082
 40
1.0
 40
1.0
 40
1.0
 40
1.0
 10
12.0673354359
 20
7.892391804
 30
0.0
 10
12.0673354359
 20
7.8969267865
 30
0.0
 10
12.066404973
 20
7.9058182332
 30
0.0
 10
12.062418731
 20
7.9181600237
 30
0.0
 10
12.0564161889
 20
7.9287096706
 30
0.0
 10
12.0512930088
 20
7.9345749277
 30
0.0
 10
12.0485849673
 20
7.9371131636
 30
0.0
  0
SPLINE
  5
3D0
100
AcDbEntity
  8
0
100
AcDbSpline
 62
7
  6
CONTINUOUS
 70
0
 71
3
 72
11
 73
7
 74
0
 42
0.0000001
 43
0.0000001
 44
0.0000000001
 40
0.0
 40
0.0
 40
0.0
 40
0.0
 40
0.273337334
 40
0.5341666972
 40
0.7763162793
 40
1.0
 40
1.0
 40
1.0
 40
1.0
 10
12.0773979083
 20
7.892391804
 30
0.0
 10
12.0773979083
 20
7.8878568359
 30
0.0
 10
12.0783280778
 20
7.8789655374
 30
0.0
 10
12.0823130984
 20
7.8666238367
 30
0.0
 10
12.0883138451
 20
7.8560741968
 30
0.0
 10
12.0934356647
 20
7.850208752
 30
0.0
 10
12.0961430072
 20
7.8476704445
 30
0.0
  0
SPLINE
  5
3D1
100
AcDbEntity
  8
0
100
AcDbSpline
 62
7
  6
CONTINUOUS
 70
0
 71
3
 72
11
 73
7
 74
0
 42
0.0000001
 43
0.0000001
 44
0.0000000001
 40
0.0
 40
0.0
 40
0.0
 40
0.0
 40
0.2688104869
 40
0.5274425474
 40
0.7710382655
 40
1.0
 40
1.0
 40
1.0
 40
1.0
 10
12.1166564055
 20
7.892391804
 30
0.0
 10
12.1166564055
 20
7.8969316937
 30
0.0
 10
12.115628317
 20
7.9058738474
 30
0.0
 10
12.1112382295
 20
7.9182441637
 30
0.0
 10
12.104645655
 20
7.9287931854
 30
0.0
 10
12.0990795485
 20
7.9345972989
 30
0.0
 10
12.0961430072
 20
7.9371131636
 30
0.0
  0
SPLINE
  5
3D2
100
AcDbEntity
  8
0
100
AcDbSpline
 62
7
  6
CONTINUOUS
 70
0
 71
3
 72
11
 73
7
 74
0
 42
0.0000001
 43
0.0000001
 44
0.0000000001
 40
0.0
 40
0.0
 40
0.0
 40
0.0
 40
0.2962056199
 40
0.5688459276
 40
0.8044163767
 40
1.0
 40
1.0
 40
1.0
 40
1.0
 10
11.8291939399
 20
7.892391804
 30
0.0
 10
11.8291939399
 20
7.8878772739
 30
0.0
 10
11.8288133175
 20
7.8792021135
 30
0.0
 10
11.8271695621
 20
7.8670342817
 30
0.0
 10
11.82468531
 20
7.8565807487
 30
0.0
 10
11.8224333251
 20
7.8503838084
 30
0.0
 10
11.8211989836
 20
7.8476704445
 30
0.0
  0
SPLINE
  5
3D3
100
AcDbEntity
  8
0
100
AcDbSpline
 62
7
  6
CONTINUOUS
 70
0
 71
3
 72
13
 73
9
 74
0
 42
0.0000001
 43
0.0000001
 44
0.0000000001
 40
0.0
 40
0.0
 40
0.0
 40
0.0
 40
0.1267030867
 40
0.2531821674
 40
0.3792046312
 40
0.5046804091
 40
0.7533783821
 40
1.0
 40
1.0
 40
1.0
 40
1.0
 10
11.7945858492
 20
7.892391804
 30
0.0
 10
11.7945858492
 20
7.8946801555
 30
0.0
 10
11.7949307587
 20
7.8992600869
 30
0.0
 10
11.7964523979
 20
7.9059612455
 30
0.0
 10
11.7989039503
 20
7.9123567859
 30
0.0
 10
11.8032494593
 20
7.9203031069
 30
0.0
 10
11.8104331186
 20
7.929052156
 30
0.0
 10
11.8174821388
 20
7.9346586402
 30
0.0
 10
11.8211989836
 20
7.9371131636
 30
0.0
  0
SPLINE
  5
3D4
100
AcDbEntity
  8
0
100
AcDbSpline
 62
7
  6
CONTINUOUS
 70
0
 71
3
 72
11
 73
7
 74
0
 42
0.0000001
 43
0.0000001
 44
0.0000000001
 40
0.0
 40
0.0
 40
0.0
 40
0.0
 40
0.2993829188
 40
0.5737569935
 40
0.8085249234
 40
1.0
 40
1.0
 40
1.0
 40
1.0
 10
11.7859471336
 20
7.892391804
 30
0.0
 10
11.7859471336
 20
7.8878796126
 30
0.0
 10
11.7856828414
 20
7.8792296224
 30
0.0
 10
11.7845414697
 20
7.8670883714
 30
0.0
 10
11.7828175567
 20
7.856661745
 30
0.0
 10
11.7812429022
 20
7.8504211093
 30
0.0
 10
11.7803700135
 20
7.8476704445
 30
0.0
  0
SPLINE
  5
3D5
100
AcDbEntity
  8
0
100
AcDbSpline
 62
7
  6
CONTINUOUS
 70
0
 71
3
 72
11
 73
7
 74
0
 42
0.0000001
 43
0.0000001
 44
0.0000000001
 40
0.0
 40
0.0
 40
0.0
 40
0.0
 40
0.2780976032
 40
0.5412881385
 40
0.7819636234
 40
1.0
 40
1.0
 40
1.0
 40
1.0
 10
12.126678249
 20
7.892391804
 30
0.0
 10
12.126678249
 20
7.8878616692
 30
0.0
 10
12.1275052846
 20
7.8790207842
 30
0.0
 10
12.1310582959
 20
7.866711792
 30
0.0
 10
12.1364202631
 20
7.8561680632
 30
0.0
 10
12.141052435
 20
7.8502356202
 30
0.0
 10
12.1435090237
 20
7.8476704445
 30
0.0
  0
SPLINE
  5
3D6
100
AcDbEntity
  8
0
100
AcDbSpline
 62
7
  6
CONTINUOUS
 70
0
 71
3
 72
13
 73
9
 74
0
 42
0.0000001
 43
0.0000001
 44
0.0000000001
 40
0.0
 40
0.0
 40
0.0
 40
0.0
 40
0.1258494709
 40
0.2516017174
 40
0.3771273044
 40
0.5024010992
 40
0.7516520396
 40
1.0
 40
1.0
 40
1.0
 40
1.0
 10
11.7531473395
 20
7.892391804
 30
0.0
 10
11.7531473395
 20
7.8946804518
 30
0.0
 10
11.7535005689
 20
7.8992635787
 30
0.0
 10
11.7550584461
 20
7.9059672694
 30
0.0
 10
11.7575677613
 20
7.9123641061
 30
0.0
 10
11.7620202753
 20
7.9203205285
 30
0.0
 10
11.7693817232
 20
7.9290747486
 30
0.0
 10
11.776575679
 20
7.9346635725
 30
0.0
 10
11.7803700135
 20
7.9371131636
 30
0.0
  0
SPLINE
  5
3D7
100
AcDbEntity
  8
0
100
AcDbSpline
 62
7
  6
CONTINUOUS
 70
0
 71
3
 72
9
 73
5
 74
0
 42
0.0000001
 43
0.0000001
 44
0.0000000001
 40
0.0
 40
0.0
 40
0.0
 40
0.0
 40
0.5103724062
 40
1.0
 40
1.0
 40
1.0
 40
1.0
 10
12.6125396649
 20
7.8616338067
 30
0.0
 10
12.6108334775
 20
7.8589460406
 30
0.0
 10
12.6070488758
 20
7.8539474001
 30
0.0
 10
12.6025262772
 20
7.8496126802
 30
0.0
 10
12.6001692216
 20
7.8476704445
 30
0.0
  0
SPLINE
  5
3D8
100
AcDbEntity
  8
0
100
AcDbSpline
 62
7
  6
CONTINUOUS
 70
0
 71
3
 72
11
 73
7
 74
0
 42
0.0000001
 43
0.0000001
 44
0.0000000001
 40
0.0
 40
0.0
 40
0.0
 40
0.0
 40
0.2646508382
 40
0.5213054579
 40
0.7662655316
 40
1.0
 40
1.0
 40
1.0
 40
1.0
 10
12.1656201808
 20
7.892391804
 30
0.0
 10
12.1656201808
 20
7.8969365166
 30
0.0
 10
12.1645012033
 20
7.905928022
 30
0.0
 10
12.1597403562
 20
7.9183221336
 30
0.0
 10
12.1526126926
 20
7.9288656125
 30
0.0
 10
12.1466511764
 20
7.9346156688
 30
0.0
 10
12.1435090237
 20
7.9371131636
 30
0.0
  0
SPLINE
  5
3D9
100
AcDbEntity
  8
0
100
AcDbSpline
 62
7
  6
CONTINUOUS
 70
0
 71
3
 72
9
 73
5
 74
0
 42
0.0000001
 43
0.0000001
 44
0.0000000001
 40
0.0
 40
0.0
 40
0.0
 40
0.0
 40
0.5084118854
 40
1.0
 40
1.0
 40
1.0
 40
1.0
 10
12.6160604047
 20
7.8845924218
 30
0.0
 10
12.6154472932
 20
7.8804302422
 30
0.0
 10
12.6132642064
 20
7.8723583903
 30
0.0
 10
12.6093270171
 20
7.8649980095
 30
0.0
 10
12.6070401474
 20
7.8616338067
 30
0.0
  0
SPLINE
  5
3DA
100
AcDbEntity
  8
0
100
AcDbSpline
 62
7
  6
CONTINUOUS
 70
0
 71
3
 72
9
 73
5
 74
0
 42
0.0000001
 43
0.0000001
 44
0.0000000001
 40
0.0
 40
0.0
 40
0.0
 40
0.0
 40
0.5076807713
 40
1.0
 40
1.0
 40
1.0
 40
1.0
 10
12.6070401474
 20
7.8616338067
 30
0.0
 10
12.6052032606
 20
7.8589315716
 30
0.0
 10
12.601123821
 20
7.8539093256
 30
0.0
 10
12.5963045684
 20
7.8496027865
 30
0.0
 10
12.5937933997
 20
7.8476704445
 30
0.0
  0
SPLINE
  5
3DB
100
AcDbEntity
  8
0
100
AcDbSpline
 62
7
  6
CONTINUOUS
 70
0
 71
3
 72
11
 73
7
 74
0
 42
0.0000001
 43
0.0000001
 44
0.0000000001
 40
0.0
 40
0.0
 40
0.0
 40
0.0
 40
0.2829625056
 40
0.5486193019
 40
0.7878413476
 40
1.0
 40
1.0
 40
1.0
 40
1.0
 10
12.175520701
 20
7.892391804
 30
0.0
 10
12.175520701
 20
7.8878662728
 30
0.0
 10
12.1762402483
 20
7.879073824
 30
0.0
 10
12.1793382725
 20
7.8668005506
 30
0.0
 10
12.1840203959
 20
7.8562702785
 30
0.0
 10
12.188117621
 20
7.8502672646
 30
0.0
 10
12.1903016324
 20
7.8476704445
 30
0.0
  0
SPLINE
  5
3DC
100
AcDbEntity
  8
0
100
AcDbSpline
 62
7
  6
CONTINUOUS
 70
0
 71
3
 72
9
 73
5
 74
0
 42
0.0000001
 43
0.0000001
 44
0.0000000001
 40
0.0
 40
0.0
 40
0.0
 40
0.0
 40
0.506164701
 40
1.0
 40
1.0
 40
1.0
 40
1.0
 10
12.6067792741
 20
7.8845924218
 30
0.0
 10
12.6061287416
 20
7.8804187011
 30
0.0
 10
12.6037990874
 20
7.8723041883
 30
0.0
 10
12.5996413537
 20
7.8649794917
 30
0.0
 10
12.5972349347
 20
7.8616338067
 30
0.0
  0
SPLINE
  5
3DD
100
AcDbEntity
  8
0
100
AcDbSpline
 62
7
  6
CONTINUOUS
 70
0
 71
3
 72
9
 73
5
 74
0
 42
0.0000001
 43
0.0000001
 44
0.0000000001
 40
0.0
 40
0.0
 40
0.0
 40
0.0
 40
0.5054445518
 40
1.0
 40
1.0
 40
1.0
 40
1.0
 10
12.5972349347
 20
7.8616338067
 30
0.0
 10
12.5952823742
 20
7.8589191288
 30
0.0
 10
12.5909426669
 20
7.8538777887
 30
0.0
 10
12.5858646849
 20
7.8495948393
 30
0.0
 10
12.5832185437
 20
7.8476704445
 30
0.0
  0
SPLINE
  5
3DE
100
AcDbEntity
  8
0
100
AcDbSpline
 62
7
  6
CONTINUOUS
 70
0
 71
3
 72
13
 73
9
 74
0
 42
0.0000001
 43
0.0000001
 44
0.0000000001
 40
0.0
 40
0.0
 40
0.0
 40
0.0
 40
0.1310300366
 40
0.2612114213
 40
0.3897939829
 40
0.5163473205
 40
0.7622990587
 40
1.0
 40
1.0
 40
1.0
 40
1.0
 10
12.2138325124
 20
7.892391804
 30
0.0
 10
12.2138325124
 20
7.8946787604
 30
0.0
 10
12.2135292574
 20
7.899243591
 30
0.0
 10
12.2121896157
 20
7.9059322782
 30
0.0
 10
12.2100290762
 20
7.9123206773
 30
0.0
 10
12.2062200304
 20
7.9202142167
 30
0.0
 10
12.1999333821
 20
7.9289289622
 30
0.0
 10
12.1936256093
 20
7.934630553
 30
0.0
 10
12.1903016324
 20
7.9371131636
 30
0.0
  0
SPLINE
  5
3DF
100
AcDbEntity
  8
0
100
AcDbSpline
 62
7
  6
CONTINUOUS
 70
0
 71
3
 72
11
 73
7
 74
0
 42
0.0000001
 43
0.0000001
 44
0.0000000001
 40
0.0
 40
0.0
 40
0.0
 40
0.0
 40
0.2530501826
 40
0.504304882
 40
0.753365725
 40
1.0
 40
1.0
 40
1.0
 40
1.0
 10
12.5931945489
 20
7.8845924218
 30
0.0
 10
12.592851292
 20
7.8824887124
 30
0.0
 10
12.5918902993
 20
7.8783363608
 30
0.0
 10
12.5896790772
 20
7.8723714002
 30
0.0
 10
12.5867863911
 20
7.8667678183
 30
0.0
 10
12.5844526148
 20
7.8632934316
 30
0.0
 10
12.5832029772
 20
7.8616338067
 30
0.0
  0
SPLINE
  5
3E0
100
AcDbEntity
  8
0
100
AcDbSpline
 62
7
  6
CONTINUOUS
 70
0
 71
3
 72
9
 73
5
 74
0
 42
0.0000001
 43
0.0000001
 44
0.0000000001
 40
0.0
 40
0.0
 40
0.0
 40
0.0
 40
0.5036314936
 40
1.0
 40
1.0
 40
1.0
 40
1.0
 10
12.5832029772
 20
7.8616338067
 30
0.0
 10
12.5811511053
 20
7.8589087466
 30
0.0
 10
12.5765885174
 20
7.8538522977
 30
0.0
 10
12.5712909111
 20
7.8495885699
 30
0.0
 10
12.5685298007
 20
7.8476704445
 30
0.0
  0
SPLINE
  5
3E1
100
AcDbEntity
  8
0
100
AcDbSpline
 62
7
  6
CONTINUOUS
 70
0
 71
3
 72
11
 73
7
 74
0
 42
0.0000001
 43
0.0000001
 44
0.0000000001
 40
0.0
 40
0.0
 40
0.0
 40
0.0
 40
0.287752775
 40
0.5558902001
 40
0.7937374386
 40
1.0
 40
1.0
 40
1.0
 40
1.0
 10
12.2235319917
 20
7.892391804
 30
0.0
 10
12.2235319917
 20
7.8878704977
 30
0.0
 10
12.2241407026
 20
7.879122851
 30
0.0
 10
12.2267656929
 20
7.8668865545
 30
0.0
 10
12.2307354056
 20
7.8563772123
 30
0.0
 10
12.2342545164
 20
7.8503035029
 30
0.0
 10
12.2361440657
 20
7.8476704445
 30
0.0
  0
SPLINE
  5
3E2
100
AcDbEntity
  8
0
100
AcDbSpline
 62
7
  6
CONTINUOUS
 70
0
 71
3
 72
13
 73
9
 74
0
 42
0.0000001
 43
0.0000001
 44
0.0000000001
 40
0.0
 40
0.0
 40
0.0
 40
0.0
 40
0.1293031852
 40
0.2580034617
 40
0.3855560574
 40
0.5116685337
 40
0.7587043963
 40
1.0
 40
1.0
 40
1.0
 40
1.0
 10
12.2609052003
 20
7.892391804
 30
0.0
 10
12.2609052003
 20
7.8946792972
 30
0.0
 10
12.2605854006
 20
7.8992499435
 30
0.0
 10
12.259173362
 20
7.9059435333
 30
0.0
 10
12.2568968883
 20
7.9123348883
 30
0.0
 10
12.252874687
 20
7.9202497907
 30
0.0
 10
12.2462305446
 20
7.9289799131
 30
0.0
 10
12.2396251022
 20
7.934642425
 30
0.0
 10
12.2361440657
 20
7.9371131636
 30
0.0
  0
SPLINE
  5
3E3
100
AcDbEntity
  8
0
100
AcDbSpline
 62
7
  6
CONTINUOUS
 70
0
 71
3
 72
11
 73
7
 74
0
 42
0.0000001
 43
0.0000001
 44
0.0000000001
 40
0.0
 40
0.0
 40
0.0
 40
0.0
 40
0.3015384633
 40
0.5771015499
 40
0.8113427457
 40
1.0
 40
1.0
 40
1.0
 40
1.0
 10
11.7450059573
 20
7.892391804
 30
0.0
 10
11.7450059573
 20
7.8878811389
 30
0.0
 10
11.7448588034
 20
7.8792475899
 30
0.0
 10
11.7442234513
 20
7.8671246325
 30
0.0
 10
11.7432642496
 20
7.8567178772
 30
0.0
 10
11.7423840043
 20
7.8504492444
 30
0.0
 10
11.7418915796
 20
7.8476704445
 30
0.0
  0
SPLINE
  5
3E4
100
AcDbEntity
  8
0
100
AcDbSpline
 62
7
  6
CONTINUOUS
 70
0
 71
3
 72
13
 73
9
 74
0
 42
0.0000001
 43
0.0000001
 44
0.0000000001
 40
0.0
 40
0.0
 40
0.0
 40
0.0
 40
0.1253037766
 40
0.2505920083
 40
0.3758013887
 40
0.5009478809
 40
0.7505541171
 40
1.0
 40
1.0
 40
1.0
 40
1.0
 10
11.7142785592
 20
7.892391804
 30
0.0
 10
11.7142785592
 20
7.8946806451
 30
0.0
 10
11.7146371318
 20
7.8992658542
 30
0.0
 10
11.7162182592
 20
7.9059711752
 30
0.0
 10
11.7187646002
 20
7.9123688185
 30
0.0
 10
11.7232857863
 20
7.9203316403
 30
0.0
 10
11.730761122
 20
7.9290889089
 30
0.0
 10
11.738047645
 20
7.9346666318
 30
0.0
 10
11.7418915796
 20
7.9371131636
 30
0.0
  0
SPLINE
  5
3E5
100
AcDbEntity
  8
0
100
AcDbSpline
 62
7
  6
CONTINUOUS
 70
0
 71
3
 72
11
 73
7
 74
0
 42
0.0000001
 43
0.0000001
 44
0.0000000001
 40
0.0
 40
0.0
 40
0.0
 40
0.0
 40
0.2510351976
 40
0.5014452606
 40
0.7511319408
 40
1.0
 40
1.0
 40
1.0
 40
1.0
 10
12.553585615
 20
7.8845924218
 30
0.0
 10
12.5532194188
 20
7.8824852412
 30
0.0
 10
12.5521920546
 20
7.8783219551
 30
0.0
 10
12.5498333816
 20
7.8723542528
 30
0.0
 10
12.5467493454
 20
7.8667501502
 30
0.0
 10
12.5442704008
 20
7.8632879004
 30
0.0
 10
12.5429438841
 20
7.8616338067
 30
0.0
  0
SPLINE
  5
3E6
100
AcDbEntity
  8
0
100
AcDbSpline
 62
7
  6
CONTINUOUS
 70
0
 71
3
 72
9
 73
5
 74
0
 42
0.0000001
 43
0.0000001
 44
0.0000000001
 40
0.0
 40
0.0
 40
0.0
 40
0.0
 40
0.5011504797
 40
1.0
 40
1.0
 40
1.0
 40
1.0
 10
12.5429438841
 20
7.8616338067
 30
0.0
 10
12.5407467443
 20
7.8588940936
 30
0.0
 10
12.5358591561
 20
7.8538175498
 30
0.0
 10
12.5302439093
 20
7.8495802332
 30
0.0
 10
12.5273159128
 20
7.8476704445
 30
0.0
  0
SPLINE
  5
3E7
100
AcDbEntity
  8
0
100
AcDbSpline
 62
7
  6
CONTINUOUS
 70
0
 71
3
 72
11
 73
7
 74
0
 42
0.0000001
 43
0.0000001
 44
0.0000000001
 40
0.0
 40
0.0
 40
0.0
 40
0.0
 40
0.2922522347
 40
0.5627666173
 40
0.7993771083
 40
1.0
 40
1.0
 40
1.0
 40
1.0
 10
12.2703255406
 20
7.892391804
 30
0.0
 10
12.2703255406
 20
7.887874207
 30
0.0
 10
12.2708209288
 20
7.8791661583
 30
0.0
 10
12.2729593602
 20
7.8669658692
 30
0.0
 10
12.276192958
 20
7.8564832705
 30
0.0
 10
12.2790944295
 20
7.8503432387
 30
0.0
 10
12.2806672069
 20
7.8476704445
 30
0.0
  0
SPLINE
  5
3E8
100
AcDbEntity
  8
0
100
AcDbSpline
 62
7
  6
CONTINUOUS
 70
0
 71
3
 72
11
 73
7
 74
0
 42
0.0000001
 43
0.0000001
 44
0.0000000001
 40
0.0
 40
0.0
 40
0.0
 40
0.0
 40
0.2504148864
 40
0.5005669069
 40
0.7504475969
 40
1.0
 40
1.0
 40
1.0
 40
1.0
 10
12.5278803316
 20
7.8845924204
 30
0.0
 10
12.5275071394
 20
7.8824841471
 30
0.0
 10
12.526459467
 20
7.878317455
 30
0.0
 10
12.5240558777
 20
7.8723489747
 30
0.0
 10
12.5209136278
 20
7.8667448016
 30
0.0
 10
12.5183907205
 20
7.86328625
 30
0.0
 10
12.5170409082
 20
7.8616338056
 30
0.0
  0
SPLINE
  5
3E9
100
AcDbEntity
  8
0
100
AcDbSpline
 62
7
  6
CONTINUOUS
 70
0
 71
3
 72
9
 73
5
 74
0
 42
0.0000001
 43
0.0000001
 44
0.0000000001
 40
0.0
 40
0.0
 40
0.0
 40
0.0
 40
0.5004317518
 40
1.0
 40
1.0
 40
1.0
 40
1.0
 10
12.5170409082
 20
7.8616338056
 30
0.0
 10
12.5147994034
 20
7.8588897483
 30
0.0
 10
12.5098128084
 20
7.8538075156
 30
0.0
 10
12.5041013139
 20
7.8495778687
 30
0.0
 10
12.5011226164
 20
7.8476704445
 30
0.0
  0
SPLINE
  5
3EA
100
AcDbEntity
  8
0
100
AcDbSpline
 62
7
  6
CONTINUOUS
 70
0
 71
3
 72
13
 73
9
 74
0
 42
0.0000001
 43
0.0000001
 44
0.0000000001
 40
0.0
 40
0.0
 40
0.0
 40
0.0
 40
0.1278551836
 40
0.2553171307
 40
0.3820144873
 40
0.5077683678
 40
0.7557256076
 40
1.0
 40
1.0
 40
1.0
 40
1.0
 10
12.3064592247
 20
7.892391804
 30
0.0
 10
12.3064592247
 20
7.8946797679
 30
0.0
 10
12.306125478
 20
7.8992555051
 30
0.0
 10
12.3046525247
 20
7.9059532839
 30
0.0
 10
12.3022786762
 20
7.9123470121
 30
0.0
 10
12.2980768576
 20
7.9202795281
 30
0.0
 10
12.2911325546
 20
7.9290207938
 30
0.0
 10
12.2842795785
 20
7.934651686
 30
0.0
 10
12.2806672069
 20
7.9371131636
 30
0.0
  0
SPLINE
  5
3EB
100
AcDbEntity
  8
0
100
AcDbSpline
 62
7
  6
CONTINUOUS
 70
0
 71
3
 72
13
 73
9
 74
0
 42
0.0000001
 43
0.0000001
 44
0.0000000001
 40
0.0
 40
0.0
 40
0.0
 40
0.0
 40
0.1251427918
 40
0.2502526389
 40
0.375359639
 40
0.5004350964
 40
0.7502223418
 40
1.0
 40
1.0
 40
1.0
 40
1.0
 10
12.4985067373
 20
7.8845924218
 30
0.0
 10
12.4981611908
 20
7.8826600125
 30
0.0
 10
12.4972143197
 20
7.8788368744
 30
0.0
 10
12.4950835027
 20
7.8733327928
 30
0.0
 10
12.4923119253
 20
7.8681234942
 30
0.0
 10
12.4878704475
 20
7.861642905
 30
0.0
 10
12.4811051209
 20
7.8544653546
 30
0.0
 10
12.4747857443
 20
7.8497681946
 30
0.0
 10
12.4714764578
 20
7.8476704445
 30
0.0
  0
SPLINE
  5
3EC
100
AcDbEntity
  8
0
100
AcDbSpline
 62
7
  6
CONTINUOUS
 70
0
 71
3
 72
11
 73
7
 74
0
 42
0.0000001
 43
0.0000001
 44
0.0000000001
 40
0.0
 40
0.0
 40
0.0
 40
0.0
 40
0.2962162743
 40
0.5688622675
 40
0.804429927
 40
1.0
 40
1.0
 40
1.0
 40
1.0
 10
12.3155245731
 20
7.892391804
 30
0.0
 10
12.3155245731
 20
7.88787728
 30
0.0
 10
12.315904858
 20
7.8792022036
 30
0.0
 10
12.3175471561
 20
7.8670344589
 30
0.0
 10
12.3200292008
 20
7.856581012
 30
0.0
 10
12.3222792432
 20
7.8503839245
 30
0.0
 10
12.3235125619
 20
7.8476704445
 30
0.0
  0
SPLINE
  5
3ED
100
AcDbEntity
  8
0
100
AcDbSpline
 62
7
  6
CONTINUOUS
 70
0
 71
3
 72
13
 73
9
 74
0
 42
0.0000001
 43
0.0000001
 44
0.0000000001
 40
0.0
 40
0.0
 40
0.0
 40
0.0
 40
0.1250689417
 40
0.2501576413
 40
0.3752312907
 40
0.5003234354
 40
0.7500829925
 40
1.0
 40
1.0
 40
1.0
 40
1.0
 10
12.4663973378
 20
7.892391804
 30
0.0
 10
12.4663973378
 20
7.8901028789
 30
0.0
 10
12.4660364595
 20
7.8855167641
 30
0.0
 10
12.4644453046
 20
7.8788107389
 30
0.0
 10
12.4618830034
 20
7.8724127538
 30
0.0
 10
12.4573321969
 20
7.8644471925
 30
0.0
 10
12.449807789
 20
7.8556886724
 30
0.0
 10
12.4424814428
 20
7.8501156814
 30
0.0
 10
12.4386161439
 20
7.8476704445
 30
0.0
  0
SPLINE
  5
3EE
100
AcDbEntity
  8
0
100
AcDbSpline
 62
7
  6
CONTINUOUS
 70
0
 71
3
 72
10
 73
6
 74
0
 42
0.0000001
 43
0.0000001
 44
0.0000000001
 40
0.0
 40
0.0
 40
0.0
 40
0.0
 40
0.5785912302
 40
0.8126037303
 40
1.0
 40
1.0
 40
1.0
 40
1.0
 10
11.7067000638
 20
7.892391804
 30
0.0
 10
11.7067000638
 20
7.8837654931
 30
0.0
 10
11.7066257775
 20
7.8716498571
 30
0.0
 10
11.7063502774
 20
7.8567431196
 30
0.0
 10
11.7061730481
 20
7.8504625922
 30
0.0
 10
11.7060735049
 20
7.8476704445
 30
0.0
  0
SPLINE
  5
3EF
100
AcDbEntity
  8
0
100
AcDbSpline
 62
7
  6
CONTINUOUS
 70
0
 71
3
 72
13
 73
9
 74
0
 42
0.0000001
 43
0.0000001
 44
0.0000000001
 40
0.0
 40
0.0
 40
0.0
 40
0.0
 40
0.1250691694
 40
0.2501580624
 40
0.3752318432
 40
0.5003240404
 40
0.7500834488
 40
1.0
 40
1.0
 40
1.0
 40
1.0
 10
11.6782924742
 20
7.892391804
 30
0.0
 10
11.6782924742
 20
7.8946807291
 30
0.0
 10
11.6786533502
 20
7.899266843
 30
0.0
 10
11.6802444954
 20
7.9059728676
 30
0.0
 10
11.6828067811
 20
7.9123708523
 30
0.0
 10
11.6873575589
 20
7.920336411
 30
0.0
 10
11.6948819192
 20
7.9290949299
 30
0.0
 10
11.7022082268
 20
7.9346679254
 30
0.0
 10
11.7060735049
 20
7.9371131636
 30
0.0
  0
SPLINE
  5
3F0
100
AcDbEntity
  8
0
100
AcDbSpline
 62
7
  6
CONTINUOUS
 70
0
 71
3
 72
10
 73
6
 74
0
 42
0.0000001
 43
0.0000001
 44
0.0000000001
 40
0.0
 40
0.0
 40
0.0
 40
0.0
 40
0.5785927312
 40
0.8126049866
 40
1.0
 40
1.0
 40
1.0
 40
1.0
 10
12.4379968582
 20
7.892391804
 30
0.0
 10
12.4379968582
 20
7.9010181101
 30
0.0
 10
12.4380702817
 20
7.9131337174
 30
0.0
 10
12.4383425837
 20
7.9280404638
 30
0.0
 10
12.4385177558
 20
7.9343210026
 30
0.0
 10
12.4386161439
 20
7.9371131636
 30
0.0
  0
SPLINE
  5
3F1
100
AcDbEntity
  8
0
100
AcDbSpline
 62
7
  6
CONTINUOUS
 70
0
 71
3
 72
13
 73
9
 74
0
 42
0.0000001
 43
0.0000001
 44
0.0000000001
 40
0.0
 40
0.0
 40
0.0
 40
0.0
 40
0.125302639
 40
0.2505899039
 40
0.3757986263
 40
0.5009448546
 40
0.7505518328
 40
1.0
 40
1.0
 40
1.0
 40
1.0
 10
12.430420096
 20
7.892391804
 30
0.0
 10
12.430420096
 20
7.8901029626
 30
0.0
 10
12.4300615123
 20
7.8855177491
 30
0.0
 10
12.4284803363
 20
7.8788124247
 30
0.0
 10
12.425933918
 20
7.8724147797
 30
0.0
 10
12.4214125885
 20
7.8644519447
 30
0.0
 10
12.4139370152
 20
7.8556946699
 30
0.0
 10
12.4066502993
 20
7.8501169699
 30
0.0
 10
12.4028062612
 20
7.8476704445
 30
0.0
  0
SPLINE
  5
3F2
100
AcDbEntity
  8
0
100
AcDbSpline
 62
7
  6
CONTINUOUS
 70
0
 71
3
 72
11
 73
7
 74
0
 42
0.0000001
 43
0.0000001
 44
0.0000000001
 40
0.0
 40
0.0
 40
0.0
 40
0.0
 40
0.3015430654
 40
0.5771087016
 40
0.8113487886
 40
1.0
 40
1.0
 40
1.0
 40
1.0
 10
12.3996991127
 20
7.892391804
 30
0.0
 10
12.3996991127
 20
7.896902466
 30
0.0
 10
12.3998459241
 20
7.9055359805
 30
0.0
 10
12.4004797971
 20
7.9176588985
 30
0.0
 10
12.401436765
 20
7.9280656101
 30
0.0
 10
12.4023149685
 20
7.9343343009
 30
0.0
 10
12.4028062612
 20
7.9371131636
 30
0.0
  0
SPLINE
  5
3F3
100
AcDbEntity
  8
0
100
AcDbSpline
 62
7
  6
CONTINUOUS
 70
0
 71
3
 72
13
 73
9
 74
0
 42
0.0000001
 43
0.0000001
 44
0.0000000001
 40
0.0
 40
0.0
 40
0.0
 40
0.0
 40
0.1258474295
 40
0.2515979393
 40
0.3771223413
 40
0.5023956572
 40
0.7516479242
 40
1.0
 40
1.0
 40
1.0
 40
1.0
 10
12.391559279
 20
7.892391804
 30
0.0
 10
12.391559279
 20
7.8901031556
 30
0.0
 10
12.3912060296
 20
7.885520021
 30
0.0
 10
12.3896480656
 20
7.8788163241
 30
0.0
 10
12.3871386121
 20
7.8724194844
 30
0.0
 10
12.3826858415
 20
7.8644630379
 30
0.0
 10
12.375323968
 20
7.8557088061
 30
0.0
 10
12.3681296657
 20
7.8501200241
 30
0.0
 10
12.3643351459
 20
7.8476704445
 30
0.0
  0
SPLINE
  5
3F4
100
AcDbEntity
  8
0
100
AcDbSpline
 62
7
  6
CONTINUOUS
 70
0
 71
3
 72
11
 73
7
 74
0
 42
0.0000001
 43
0.0000001
 44
0.0000000001
 40
0.0
 40
0.0
 40
0.0
 40
0.0
 40
0.2993907942
 40
0.5737691942
 40
0.8085351731
 40
1.0
 40
1.0
 40
1.0
 40
1.0
 10
12.3587651528
 20
7.892391804
 30
0.0
 10
12.3587651528
 20
7.8969039898
 30
0.0
 10
12.3590291044
 20
7.905553919
 30
0.0
 10
12.3601690043
 20
7.9176951036
 30
0.0
 10
12.3618906918
 20
7.9281216596
 30
0.0
 10
12.3634633414
 20
7.9343624004
 30
0.0
 10
12.3643351459
 20
7.9371131636
 30
0.0
  0
SPLINE
  5
3F5
100
AcDbEntity
  8
0
100
AcDbSpline
 62
7
  6
CONTINUOUS
 70
0
 71
3
 72
13
 73
9
 74
0
 42
0.0000001
 43
0.0000001
 44
0.0000000001
 40
0.0
 40
0.0
 40
0.0
 40
0.0
 40
0.1251421084
 40
0.2502514316
 40
0.3753581065
 40
0.5004334571
 40
0.7502211378
 40
1.0
 40
1.0
 40
1.0
 40
1.0
 10
11.6461734348
 20
7.9001911864
 30
0.0
 10
11.6465189875
 20
7.9021235966
 30
0.0
 10
11.6474658763
 20
7.9059467373
 30
0.0
 10
11.6495967318
 20
7.9114508196
 30
0.0
 10
11.6523683589
 20
7.9166601183
 30
0.0
 10
11.6568099196
 20
7.9231407127
 30
0.0
 10
11.6635753723
 20
7.9303182655
 30
0.0
 10
11.6698948509
 20
7.9350154163
 30
0.0
 10
11.6732041915
 20
7.9371131636
 30
0.0
  0
SPLINE
  5
3F6
100
AcDbEntity
  8
0
100
AcDbSpline
 62
7
  6
CONTINUOUS
 70
0
 71
3
 72
13
 73
9
 74
0
 42
0.0000001
 43
0.0000001
 44
0.0000000001
 40
0.0
 40
0.0
 40
0.0
 40
0.0
 40
0.1267001541
 40
0.2531767357
 40
0.3791974878
 40
0.5046725658
 40
0.7533724326
 40
1.0
 40
1.0
 40
1.0
 40
1.0
 10
12.3501277884
 20
7.892391804
 30
0.0
 10
12.3501277884
 20
7.8901034516
 30
0.0
 10
12.3497828504
 20
7.8855235093
 30
0.0
 10
12.3482610869
 20
7.8788223421
 30
0.0
 10
12.3458093364
 20
7.8724267971
 30
0.0
 10
12.3414634606
 20
7.8644804413
 30
0.0
 10
12.3342791912
 20
7.8557313735
 30
0.0
 10
12.3272296726
 20
7.8501249506
 30
0.0
 10
12.3235125619
 20
7.8476704445
 30
0.0
  0
SPLINE
  5
3F7
100
AcDbEntity
  8
0
100
AcDbSpline
 62
7
  6
CONTINUOUS
 70
0
 71
3
 72
13
 73
9
 74
0
 42
0.0000001
 43
0.0000001
 44
0.0000000001
 40
0.0
 40
0.0
 40
0.0
 40
0.0
 40
0.1267002118
 40
0.2531768394
 40
0.3791975899
 40
0.504672653
 40
0.7533724499
 40
1.0
 40
1.0
 40
1.0
 40
1.0
 10
12.3501277884
 20
7.892391804
 30
0.0
 10
12.3501277884
 20
7.8946801575
 30
0.0
 10
12.3497828495
 20
7.8992601017
 30
0.0
 10
12.3482610857
 20
7.9059612707
 30
0.0
 10
12.3458093339
 20
7.9123568157
 30
0.0
 10
12.3414634589
 20
7.9203031702
 30
0.0
 10
12.3342791894
 20
7.9290522356
 30
0.0
 10
12.3272296724
 20
7.9346586577
 30
0.0
 10
12.3235125619
 20
7.9371131636
 30
0.0
  0
SPLINE
  5
3F8
100
AcDbEntity
  8
0
100
AcDbSpline
 62
7
  6
CONTINUOUS
 70
0
 71
3
 72
11
 73
7
 74
0
 42
0.0000001
 43
0.0000001
 44
0.0000000001
 40
0.0
 40
0.0
 40
0.0
 40
0.0
 40
0.2962161554
 40
0.5688621748
 40
0.8044299127
 40
1.0
 40
1.0
 40
1.0
 40
1.0
 10
12.3155245731
 20
7.892391804
 30
0.0
 10
12.3155245731
 20
7.8969063263
 30
0.0
 10
12.3159048578
 20
7.9055814013
 30
0.0
 10
12.3175471556
 20
7.9177491458
 30
0.0
 10
12.3200292002
 20
7.9282025945
 30
0.0
 10
12.3222792432
 20
7.9343996834
 30
0.0
 10
12.3235125619
 20
7.9371131636
 30
0.0
  0
SPLINE
  5
3F9
100
AcDbEntity
  8
0
100
AcDbSpline
 62
7
  6
CONTINUOUS
 70
0
 71
3
 72
11
 73
7
 74
0
 42
0.0000001
 43
0.0000001
 44
0.0000000001
 40
0.0
 40
0.0
 40
0.0
 40
0.0
 40
0.2993909143
 40
0.5737692874
 40
0.8085351872
 40
1.0
 40
1.0
 40
1.0
 40
1.0
 10
12.3587651528
 20
7.892391804
 30
0.0
 10
12.3587651528
 20
7.8878796165
 30
0.0
 10
12.3590291046
 20
7.8792296859
 30
0.0
 10
12.3601690047
 20
7.8670885011
 30
0.0
 10
12.3618906922
 20
7.8566619469
 30
0.0
 10
12.3634633415
 20
7.8504212075
 30
0.0
 10
12.3643351459
 20
7.8476704445
 30
0.0
  0
SPLINE
  5
3FA
100
AcDbEntity
  8
0
100
AcDbSpline
 62
7
  6
CONTINUOUS
 70
0
 71
3
 72
11
 73
7
 74
0
 42
0.0000001
 43
0.0000001
 44
0.0000000001
 40
0.0
 40
0.0
 40
0.0
 40
0.0
 40
0.2504134723
 40
0.5005649047
 40
0.7504460383
 40
1.0
 40
1.0
 40
1.0
 40
1.0
 10
11.616789473
 20
7.9001911845
 30
0.0
 10
11.6171626811
 20
7.9022994604
 30
0.0
 10
11.6182103994
 20
7.9064661606
 30
0.0
 10
11.6206140906
 20
7.9124346431
 30
0.0
 10
11.6237564729
 20
7.9180388166
 30
0.0
 10
11.62627948
 20
7.9214973601
 30
0.0
 10
11.6276293452
 20
7.923149801
 30
0.0
  0
SPLINE
  5
3FB
100
AcDbEntity
  8
0
100
AcDbSpline
 62
7
  6
CONTINUOUS
 70
0
 71
3
 72
9
 73
5
 74
0
 42
0.0000001
 43
0.0000001
 44
0.0000000001
 40
0.0
 40
0.0
 40
0.0
 40
0.0
 40
0.5004301362
 40
1.0
 40
1.0
 40
1.0
 40
1.0
 10
11.6276293452
 20
7.923149801
 30
0.0
 10
11.6298709511
 20
7.9258938684
 30
0.0
 10
11.6348577717
 20
7.9309761144
 30
0.0
 10
11.6405694854
 20
7.9352057445
 30
0.0
 10
11.6435482985
 20
7.9371131636
 30
0.0
  0
SPLINE
  5
3FC
100
AcDbEntity
  8
0
100
AcDbSpline
 62
7
  6
CONTINUOUS
 70
0
 71
3
 72
11
 73
7
 74
0
 42
0.0000001
 43
0.0000001
 44
0.0000000001
 40
0.0
 40
0.0
 40
0.0
 40
0.0
 40
0.2510330002
 40
0.5014421475
 40
0.7511295138
 40
1.0
 40
1.0
 40
1.0
 40
1.0
 10
11.5910731755
 20
7.9001911864
 30
0.0
 10
11.5914393965
 20
7.9022983708
 30
0.0
 10
11.5924668327
 20
7.9064616689
 30
0.0
 10
11.5948256652
 20
7.912429374
 30
0.0
 10
11.5979099081
 20
7.9180334769
 30
0.0
 10
11.600389009
 20
7.9214957135
 30
0.0
 10
11.6017156084
 20
7.9231498013
 30
0.0
  0
SPLINE
  5
3FD
100
AcDbEntity
  8
0
100
AcDbSpline
 62
7
  6
CONTINUOUS
 70
0
 71
3
 72
9
 73
5
 74
0
 42
0.0000001
 43
0.0000001
 44
0.0000000001
 40
0.0
 40
0.0
 40
0.0
 40
0.0
 40
0.501147898
 40
1.0
 40
1.0
 40
1.0
 40
1.0
 10
11.6017156084
 20
7.9231498013
 30
0.0
 10
11.6039129056
 20
7.92588953
 30
0.0
 10
11.6088008454
 20
7.9309660944
 30
0.0
 10
11.6144164342
 20
7.9352033834
 30
0.0
 10
11.6173446109
 20
7.9371131636
 30
0.0
  0
SPLINE
  5
3FE
100
AcDbEntity
  8
0
100
AcDbSpline
 62
7
  6
CONTINUOUS
 70
0
 71
3
 72
13
 73
9
 74
0
 42
0.0000001
 43
0.0000001
 44
0.0000000001
 40
0.0
 40
0.0
 40
0.0
 40
0.0
 40
0.1258474869
 40
0.2515980424
 40
0.377122443
 40
0.5023957442
 40
0.7516479416
 40
1.0
 40
1.0
 40
1.0
 40
1.0
 10
12.391559279
 20
7.892391804
 30
0.0
 10
12.391559279
 20
7.8946804536
 30
0.0
 10
12.3912060287
 20
7.89926359
 30
0.0
 10
12.3896480643
 20
7.9059672887
 30
0.0
 10
12.3871386094
 20
7.9123641284
 30
0.0
 10
12.3826858397
 20
7.9203205735
 30
0.0
 10
12.3753239662
 20
7.9290748029
 30
0.0
 10
12.3681296655
 20
7.9346635842
 30
0.0
 10
12.3643351459
 20
7.9371131636
 30
0.0
  0
SPLINE
  5
3FF
100
AcDbEntity
  8
0
100
AcDbSpline
 62
7
  6
CONTINUOUS
 70
0
 71
3
 72
11
 73
7
 74
0
 42
0.0000001
 43
0.0000001
 44
0.0000000001
 40
0.0
 40
0.0
 40
0.0
 40
0.0
 40
0.2519155284
 40
0.5026933993
 40
0.7521058265
 40
1.0
 40
1.0
 40
1.0
 40
1.0
 10
11.5692316054
 20
7.9001911864
 30
0.0
 10
11.5695878238
 20
7.9022968359
 30
0.0
 10
11.5705862785
 20
7.9064553203
 30
0.0
 10
11.5728808477
 20
7.9124218647
 30
0.0
 10
11.5758817408
 20
7.9180257951
 30
0.0
 10
11.5782977359
 20
7.9214933244
 30
0.0
 10
11.5795909077
 20
7.9231498013
 30
0.0
  0
SPLINE
  5
400
100
AcDbEntity
  8
0
100
AcDbSpline
 62
7
  6
CONTINUOUS
 70
0
 71
3
 72
9
 73
5
 74
0
 42
0.0000001
 43
0.0000001
 44
0.0000000001
 40
0.0
 40
0.0
 40
0.0
 40
0.0
 40
0.5022059442
 40
1.0
 40
1.0
 40
1.0
 40
1.0
 10
11.5795909077
 20
7.9231498013
 30
0.0
 10
11.5817248193
 20
7.9258832165
 30
0.0
 10
11.5864711028
 20
7.9309512964
 30
0.0
 10
11.5919485857
 20
7.9351998619
 30
0.0
 10
11.5948041171
 20
7.9371131636
 30
0.0
  0
SPLINE
  5
401
100
AcDbEntity
  8
0
100
AcDbSpline
 62
7
  6
CONTINUOUS
 70
0
 71
3
 72
13
 73
9
 74
0
 42
0.0000001
 43
0.0000001
 44
0.0000000001
 40
0.0
 40
0.0
 40
0.0
 40
0.0
 40
0.1278551254
 40
0.2553170263
 40
0.3820143849
 40
0.5077682804
 40
0.7557255904
 40
1.0
 40
1.0
 40
1.0
 40
1.0
 10
12.3064592247
 20
7.892391804
 30
0.0
 10
12.3064592247
 20
7.8901038412
 30
0.0
 10
12.3061254789
 20
7.8855281059
 30
0.0
 10
12.3046525259
 20
7.8788303288
 30
0.0
 10
12.3022786787
 20
7.8724366007
 30
0.0
 10
12.2980768593
 20
7.8645040834
 30
0.0
 10
12.2911325563
 20
7.8557628153
 30
0.0
 10
12.2842795788
 20
7.8501319222
 30
0.0
 10
12.2806672069
 20
7.8476704445
 30
0.0
  0
SPLINE
  5
402
100
AcDbEntity
  8
0
100
AcDbSpline
 62
7
  6
CONTINUOUS
 70
0
 71
3
 72
11
 73
7
 74
0
 42
0.0000001
 43
0.0000001
 44
0.0000000001
 40
0.0
 40
0.0
 40
0.0
 40
0.0
 40
0.2530465387
 40
0.5042997019
 40
0.7533616705
 40
1.0
 40
1.0
 40
1.0
 40
1.0
 10
11.5514406283
 20
7.9001911864
 30
0.0
 10
11.5517839271
 20
7.9022949019
 30
0.0
 10
11.5527450404
 20
7.9064472731
 30
0.0
 10
11.5549565316
 20
7.9124122389
 30
0.0
 10
11.5578495673
 20
7.9180158221
 30
0.0
 10
11.5601836098
 20
7.9214901867
 30
0.0
 10
11.5614333883
 20
7.9231498013
 30
0.0
  0
SPLINE
  5
403
100
AcDbEntity
  8
0
100
AcDbSpline
 62
7
  6
CONTINUOUS
 70
0
 71
3
 72
9
 73
5
 74
0
 42
0.0000001
 43
0.0000001
 44
0.0000000001
 40
0.0
 40
0.0
 40
0.0
 40
0.0
 40
0.5036267926
 40
1.0
 40
1.0
 40
1.0
 40
1.0
 10
11.5614333883
 20
7.9231498013
 30
0.0
 10
11.5634855247
 20
7.9258748888
 30
0.0
 10
11.5680487056
 20
7.9309313763
 30
0.0
 10
11.5733468942
 20
7.9351950542
 30
0.0
 10
11.57610831
 20
7.9371131636
 30
0.0
  0
SPLINE
  5
404
100
AcDbEntity
  8
0
100
AcDbSpline
 62
7
  6
CONTINUOUS
 70
0
 71
3
 72
11
 73
7
 74
0
 42
0.0000001
 43
0.0000001
 44
0.0000000001
 40
0.0
 40
0.0
 40
0.0
 40
0.0
 40
0.3015431863
 40
0.577108795
 40
0.8113488024
 40
1.0
 40
1.0
 40
1.0
 40
1.0
 10
12.3996991127
 20
7.892391804
 30
0.0
 10
12.3996991127
 20
7.8878811402
 30
0.0
 10
12.3998459242
 20
7.8792476244
 30
0.0
 10
12.4004797973
 20
7.8671247062
 30
0.0
 10
12.4014367652
 20
7.8567179964
 30
0.0
 10
12.4023149685
 20
7.850449307
 30
0.0
 10
12.4028062612
 20
7.8476704445
 30
0.0
  0
SPLINE
  5
405
100
AcDbEntity
  8
0
100
AcDbSpline
 62
7
  6
CONTINUOUS
 70
0
 71
3
 72
9
 73
5
 74
0
 42
0.0000001
 43
0.0000001
 44
0.0000000001
 40
0.0
 40
0.0
 40
0.0
 40
0.0
 40
0.5061585541
 40
1.0
 40
1.0
 40
1.0
 40
1.0
 10
11.5378434946
 20
7.9001911864
 30
0.0
 10
11.5384941287
 20
7.904364939
 30
0.0
 10
11.5408241833
 20
7.9124795684
 30
0.0
 10
11.5449825113
 20
7.9198041662
 30
0.0
 10
11.547389252
 20
7.9231498013
 30
0.0
  0
SPLINE
  5
406
100
AcDbEntity
  8
0
100
AcDbSpline
 62
7
  6
CONTINUOUS
 70
0
 71
3
 72
9
 73
5
 74
0
 42
0.0000001
 43
0.0000001
 44
0.0000000001
 40
0.0
 40
0.0
 40
0.0
 40
0.0
 40
0.5054386647
 40
1.0
 40
1.0
 40
1.0
 40
1.0
 10
11.547389252
 20
7.9231498013
 30
0.0
 10
11.5493421266
 20
7.9258645126
 30
0.0
 10
11.5536825395
 20
7.9309059022
 30
0.0
 10
11.5587612195
 20
7.9351887894
 30
0.0
 10
11.5614077256
 20
7.9371131636
 30
0.0
  0
SPLINE
  5
407
100
AcDbEntity
  8
0
100
AcDbSpline
 62
7
  6
CONTINUOUS
 70
0
 71
3
 72
11
 73
7
 74
0
 42
0.0000001
 43
0.0000001
 44
0.0000000001
 40
0.0
 40
0.0
 40
0.0
 40
0.0
 40
0.2922521173
 40
0.5627665252
 40
0.7993770937
 40
1.0
 40
1.0
 40
1.0
 40
1.0
 10
12.2703255406
 20
7.892391804
 30
0.0
 10
12.2703255406
 20
7.8969093993
 30
0.0
 10
12.2708209284
 20
7.9056174466
 30
0.0
 10
12.2729593595
 20
7.9178177354
 30
0.0
 10
12.2761929572
 20
7.9283003361
 30
0.0
 10
12.2790944294
 20
7.9344403692
 30
0.0
 10
12.2806672069
 20
7.9371131636
 30
0.0
  0
SPLINE
  5
408
100
AcDbEntity
  8
0
100
AcDbSpline
 62
7
  6
CONTINUOUS
 70
0
 71
3
 72
9
 73
5
 74
0
 42
0.0000001
 43
0.0000001
 44
0.0000000001
 40
0.0
 40
0.0
 40
0.0
 40
0.0
 40
0.5084049499
 40
1.0
 40
1.0
 40
1.0
 40
1.0
 10
11.5285496865
 20
7.9001911864
 30
0.0
 10
11.5291629144
 20
7.9043534011
 30
0.0
 10
11.5313464545
 20
7.9124253847
 30
0.0
 10
11.5352843351
 20
7.9197856567
 30
0.0
 10
11.5375715802
 20
7.9231498013
 30
0.0
  0
SPLINE
  5
409
100
AcDbEntity
  8
0
100
AcDbSpline
 62
7
  6
CONTINUOUS
 70
0
 71
3
 72
9
 73
5
 74
0
 42
0.0000001
 43
0.0000001
 44
0.0000000001
 40
0.0
 40
0.0
 40
0.0
 40
0.0
 40
0.507673602
 40
1.0
 40
1.0
 40
1.0
 40
1.0
 10
11.5375715802
 20
7.9231498013
 30
0.0
 10
11.5394088269
 20
7.9258520757
 30
0.0
 10
11.5434890774
 20
7.9308743837
 30
0.0
 10
11.5483091402
 20
7.9351808475
 30
0.0
 10
11.5508207309
 20
7.9371131636
 30
0.0
  0
SPLINE
  5
40A
100
AcDbEntity
  8
0
100
AcDbSpline
 62
7
  6
CONTINUOUS
 70
0
 71
3
 72
13
 73
9
 74
0
 42
0.0000001
 43
0.0000001
 44
0.0000000001
 40
0.0
 40
0.0
 40
0.0
 40
0.0
 40
0.1253026961
 40
0.2505900066
 40
0.3757987278
 40
0.5009449414
 40
0.7505518503
 40
1.0
 40
1.0
 40
1.0
 40
1.0
 10
12.430420096
 20
7.892391804
 30
0.0
 10
12.430420096
 20
7.8946806465
 30
0.0
 10
12.4300615114
 20
7.8992658618
 30
0.0
 10
12.4284803351
 20
7.9059711881
 30
0.0
 10
12.4259339154
 20
7.9123688331
 30
0.0
 10
12.4214125867
 20
7.9203316668
 30
0.0
 10
12.4139370134
 20
7.9290889391
 30
0.0
 10
12.406650299
 20
7.9346666383
 30
0.0
 10
12.4028062612
 20
7.9371131636
 30
0.0
  0
SPLINE
  5
40B
100
AcDbEntity
  8
0
100
AcDbSpline
 62
7
  6
CONTINUOUS
 70
0
 71
3
 72
9
 73
5
 74
0
 42
0.0000001
 43
0.0000001
 44
0.0000000001
 40
0.0
 40
0.0
 40
0.0
 40
0.0
 40
0.5103638657
 40
1.0
 40
1.0
 40
1.0
 40
1.0
 10
11.5320594234
 20
7.9231498013
 30
0.0
 10
11.5337660124
 20
7.9258376125
 30
0.0
 10
11.5375515211
 20
7.9308363289
 30
0.0
 10
11.5420750388
 20
7.9351709599
 30
0.0
 10
11.5444325709
 20
7.9371131636
 30
0.0
  0
SPLINE
  5
40C
100
AcDbEntity
  8
0
100
AcDbSpline
 62
7
  6
CONTINUOUS
 70
0
 71
3
 72
10
 73
6
 74
0
 42
0.0000001
 43
0.0000001
 44
0.0000000001
 40
0.0
 40
0.0
 40
0.0
 40
0.0
 40
0.5785928248
 40
0.8126050004
 40
1.0
 40
1.0
 40
1.0
 40
1.0
 10
12.4379968582
 20
7.892391804
 30
0.0
 10
12.4379968582
 20
7.8837654966
 30
0.0
 10
12.4380702817
 20
7.8716498891
 30
0.0
 10
12.4383425837
 20
7.8567431427
 30
0.0
 10
12.4385177558
 20
7.8504626053
 30
0.0
 10
12.4386161439
 20
7.8476704445
 30
0.0
  0
SPLINE
  5
40D
100
AcDbEntity
  8
0
100
AcDbSpline
 62
7
  6
CONTINUOUS
 70
0
 71
3
 72
13
 73
9
 74
0
 42
0.0000001
 43
0.0000001
 44
0.0000000001
 40
0.0
 40
0.0
 40
0.0
 40
0.0
 40
0.1293031264
 40
0.2580033563
 40
0.3855559545
 40
0.5116684461
 40
0.7587043793
 40
1.0
 40
1.0
 40
1.0
 40
1.0
 10
12.2609052003
 20
7.892391804
 30
0.0
 10
12.2609052003
 20
7.890104312
 30
0.0
 10
12.2605854014
 20
7.8855336674
 30
0.0
 10
12.2591733631
 20
7.8788400794
 30
0.0
 10
12.2568968907
 20
7.8724487245
 30
0.0
 10
12.2528746886
 20
7.8645338208
 30
0.0
 10
12.2462305463
 20
7.8558036961
 30
0.0
 10
12.2396251025
 20
7.8501411833
 30
0.0
 10
12.2361440657
 20
7.8476704445
 30
0.0
  0
SPLINE
  5
40E
100
AcDbEntity
  8
0
100
AcDbSpline
 62
7
  6
CONTINUOUS
 70
0
 71
3
 72
13
 73
9
 74
0
 42
0.0000001
 43
0.0000001
 44
0.0000000001
 40
0.0
 40
0.0
 40
0.0
 40
0.0
 40
0.1250689988
 40
0.250157744
 40
0.3752313922
 40
0.5003235222
 40
0.75008301
 40
1.0
 40
1.0
 40
1.0
 40
1.0
 10
12.4663973378
 20
7.892391804
 30
0.0
 10
12.4663973378
 20
7.8946807302
 30
0.0
 10
12.4660364586
 20
7.8992668469
 30
0.0
 10
12.4644453034
 20
7.9059728739
 30
0.0
 10
12.4618830007
 20
7.912370859
 30
0.0
 10
12.4573321951
 20
7.920336419
 30
0.0
 10
12.4498077872
 20
7.9290949367
 30
0.0
 10
12.4424814425
 20
7.9346679268
 30
0.0
 10
12.4386161439
 20
7.9371131636
 30
0.0
  0
SPLINE
  5
40F
100
AcDbEntity
  8
0
100
AcDbSpline
 62
7
  6
CONTINUOUS
 70
0
 71
3
 72
11
 73
7
 74
0
 42
0.0000001
 43
0.0000001
 44
0.0000000001
 40
0.0
 40
0.0
 40
0.0
 40
0.0
 40
0.287752659
 40
0.5558901086
 40
0.7937374236
 40
1.0
 40
1.0
 40
1.0
 40
1.0
 10
12.2235319917
 20
7.892391804
 30
0.0
 10
12.2235319917
 20
7.8969131085
 30
0.0
 10
12.2241407021
 20
7.9056607538
 30
0.0
 10
12.2267656921
 20
7.9178970501
 30
0.0
 10
12.2307354046
 20
7.9284063943
 30
0.0
 10
12.2342545162
 20
7.934480105
 30
0.0
 10
12.2361440657
 20
7.9371131636
 30
0.0
  0
SPLINE
  5
410
100
AcDbEntity
  8
0
100
AcDbSpline
 62
7
  6
CONTINUOUS
 70
0
 71
3
 72
9
 73
5
 74
0
 42
0.0000001
 43
0.0000001
 44
0.0000000001
 40
0.0
 40
0.0
 40
0.0
 40
0.0
 40
0.508405118
 40
1.0
 40
1.0
 40
1.0
 40
1.0
 10
11.5285499333
 20
7.8845907471
 30
0.0
 10
11.5291632721
 20
7.8804286872
 30
0.0
 10
11.5313469615
 20
7.8723570355
 30
0.0
 10
11.5352848495
 20
7.8649970853
 30
0.0
 10
11.5375720695
 20
7.8616330871
 30
0.0
  0
SPLINE
  5
411
100
AcDbEntity
  8
0
100
AcDbSpline
 62
7
  6
CONTINUOUS
 70
0
 71
3
 72
9
 73
5
 74
0
 42
0.0000001
 43
0.0000001
 44
0.0000000001
 40
0.0
 40
0.0
 40
0.0
 40
0.0
 40
0.5076732247
 40
1.0
 40
1.0
 40
1.0
 40
1.0
 10
11.5375720695
 20
7.8616330871
 30
0.0
 10
11.5394092732
 20
7.858930964
 30
0.0
 10
11.5434893925
 20
7.8539089283
 30
0.0
 10
11.5483092511
 20
7.8496026753
 30
0.0
 10
11.5508207309
 20
7.8476704445
 30
0.0
  0
SPLINE
  5
412
100
AcDbEntity
  8
0
100
AcDbSpline
 62
7
  6
CONTINUOUS
 70
0
 71
3
 72
13
 73
9
 74
0
 42
0.0000001
 43
0.0000001
 44
0.0000000001
 40
0.0
 40
0.0
 40
0.0
 40
0.0
 40
0.1251428235
 40
0.2502526801
 40
0.3753596789
 40
0.5004350902
 40
0.7502223309
 40
1.0
 40
1.0
 40
1.0
 40
1.0
 10
12.4985064378
 20
7.900192861
 30
0.0
 10
12.4981608306
 20
7.9021251881
 30
0.0
 10
12.4972138597
 20
7.9059481547
 30
0.0
 10
12.4950829605
 20
7.9114519756
 30
0.0
 10
12.4923113645
 20
7.9166610212
 30
0.0
 10
12.4878699349
 20
7.9231412977
 30
0.0
 10
12.4811047843
 20
7.9303185165
 30
0.0
 10
12.4747856252
 20
7.935015489
 30
0.0
 10
12.4714764578
 20
7.9371131636
 30
0.0
  0
SPLINE
  5
413
100
AcDbEntity
  8
0
100
AcDbSpline
 62
7
  6
CONTINUOUS
 70
0
 71
3
 72
11
 73
7
 74
0
 42
0.0000001
 43
0.0000001
 44
0.0000000001
 40
0.0
 40
0.0
 40
0.0
 40
0.0
 40
0.2519156302
 40
0.502693507
 40
0.7521059042
 40
1.0
 40
1.0
 40
1.0
 40
1.0
 10
11.5692318889
 20
7.8845907471
 30
0.0
 10
11.5695881719
 20
7.8824851744
 30
0.0
 10
11.5705867352
 20
7.8783268517
 30
0.0
 10
11.5728814019
 20
7.8723605567
 30
0.0
 10
11.5758823296
 20
7.8667568694
 30
0.0
 10
11.5782983118
 20
7.8632894921
 30
0.0
 10
11.5795914696
 20
7.8616330871
 30
0.0
  0
SPLINE
  5
414
100
AcDbEntity
  8
0
100
AcDbSpline
 62
7
  6
CONTINUOUS
 70
0
 71
3
 72
9
 73
5
 74
0
 42
0.0000001
 43
0.0000001
 44
0.0000000001
 40
0.0
 40
0.0
 40
0.0
 40
0.0
 40
0.5022058314
 40
1.0
 40
1.0
 40
1.0
 40
1.0
 10
11.5795914696
 20
7.8616330871
 30
0.0
 10
11.5817253302
 20
7.8588998264
 30
0.0
 10
11.5864714572
 20
7.8538320234
 30
0.0
 10
11.5919487104
 20
7.8495836626
 30
0.0
 10
11.5948041171
 20
7.8476704445
 30
0.0
  0
SPLINE
  5
415
100
AcDbEntity
  8
0
100
AcDbSpline
 62
7
  6
CONTINUOUS
 70
0
 71
3
 72
11
 73
7
 74
0
 42
0.0000001
 43
0.0000001
 44
0.0000000001
 40
0.0
 40
0.0
 40
0.0
 40
0.0
 40
0.2504149623
 40
0.5005670058
 40
0.7504476835
 40
1.0
 40
1.0
 40
1.0
 40
1.0
 10
12.5278800349
 20
7.9001928633
 30
0.0
 10
12.5275067748
 20
7.90230106
 30
0.0
 10
12.5264589884
 20
7.9064675899
 30
0.0
 10
12.5240552974
 20
7.9124358199
 30
0.0
 10
12.5209130118
 20
7.9180397493
 30
0.0
 10
12.518390118
 20
7.9214981494
 30
0.0
 10
12.5170403203
 20
7.9231505221
 30
0.0
  0
SPLINE
  5
416
100
AcDbEntity
  8
0
100
AcDbSpline
 62
7
  6
CONTINUOUS
 70
0
 71
3
 72
9
 73
5
 74
0
 42
0.0000001
 43
0.0000001
 44
0.0000000001
 40
0.0
 40
0.0
 40
0.0
 40
0.0
 40
0.5004317295
 40
1.0
 40
1.0
 40
1.0
 40
1.0
 10
12.5170403203
 20
7.9231505221
 30
0.0
 10
12.5147988695
 20
7.9258944238
 30
0.0
 10
12.5098124402
 20
7.9309763782
 30
0.0
 10
12.5041011842
 20
7.9352058225
 30
0.0
 10
12.5011226164
 20
7.9371131636
 30
0.0
  0
SPLINE
  5
417
100
AcDbEntity
  8
0
100
AcDbSpline
 62
7
  6
CONTINUOUS
 70
0
 71
3
 72
9
 73
5
 74
0
 42
0.0000001
 43
0.0000001
 44
0.0000000001
 40
0.0
 40
0.0
 40
0.0
 40
0.0
 40
0.5103633662
 40
1.0
 40
1.0
 40
1.0
 40
1.0
 10
11.5320598803
 20
7.8616330871
 30
0.0
 10
11.5337664298
 20
7.8589454258
 30
0.0
 10
11.5375518183
 20
7.8539469794
 30
0.0
 10
11.5420751435
 20
7.849612562
 30
0.0
 10
11.5444325709
 20
7.8476704445
 30
0.0
  0
SPLINE
  5
418
100
AcDbEntity
  8
0
100
AcDbSpline
 62
7
  6
CONTINUOUS
 70
0
 71
3
 72
11
 73
7
 74
0
 42
0.0000001
 43
0.0000001
 44
0.0000000001
 40
0.0
 40
0.0
 40
0.0
 40
0.0
 40
0.2510352836
 40
0.5014453624
 40
0.7511320232
 40
1.0
 40
1.0
 40
1.0
 40
1.0
 10
12.5535853238
 20
7.900192861
 30
0.0
 10
12.5532190612
 20
7.9022999649
 30
0.0
 10
12.5521915851
 20
7.9064630891
 30
0.0
 10
12.5498328122
 20
7.9124305417
 30
0.0
 10
12.5467487406
 20
7.9180344009
 30
0.0
 10
12.5442698093
 20
7.9214964991
 30
0.0
 10
12.542943307
 20
7.923150521
 30
0.0
  0
SPLINE
  5
419
100
AcDbEntity
  8
0
100
AcDbSpline
 62
7
  6
CONTINUOUS
 70
0
 71
3
 72
9
 73
5
 74
0
 42
0.0000001
 43
0.0000001
 44
0.0000000001
 40
0.0
 40
0.0
 40
0.0
 40
0.0
 40
0.5011504204
 40
1.0
 40
1.0
 40
1.0
 40
1.0
 10
12.542943307
 20
7.923150521
 30
0.0
 10
12.5407462199
 20
7.925890079
 30
0.0
 10
12.5358587936
 20
7.9309663451
 30
0.0
 10
12.5302437817
 20
7.9352034582
 30
0.0
 10
12.5273159128
 20
7.9371131636
 30
0.0
  0
SPLINE
  5
41A
100
AcDbEntity
  8
0
100
AcDbSpline
 62
7
  6
CONTINUOUS
 70
0
 71
3
 72
11
 73
7
 74
0
 42
0.0000001
 43
0.0000001
 44
0.0000000001
 40
0.0
 40
0.0
 40
0.0
 40
0.0
 40
0.2510330862
 40
0.5014422493
 40
0.7511295963
 40
1.0
 40
1.0
 40
1.0
 40
1.0
 10
11.5910734667
 20
7.8845907471
 30
0.0
 10
11.5914397542
 20
7.8824836393
 30
0.0
 10
11.5924673022
 20
7.8783205031
 30
0.0
 10
11.5948262347
 20
7.8723530478
 30
0.0
 10
11.5979105129
 20
7.8667491882
 30
0.0
 10
11.6003896006
 20
7.8632871031
 30
0.0
 10
11.6017161856
 20
7.8616330871
 30
0.0
  0
SPLINE
  5
41B
100
AcDbEntity
  8
0
100
AcDbSpline
 62
7
  6
CONTINUOUS
 70
0
 71
3
 72
9
 73
5
 74
0
 42
0.0000001
 43
0.0000001
 44
0.0000000001
 40
0.0
 40
0.0
 40
0.0
 40
0.0
 40
0.5011478388
 40
1.0
 40
1.0
 40
1.0
 40
1.0
 10
11.6017161856
 20
7.8616330871
 30
0.0
 10
11.6039134301
 20
7.8588935136
 30
0.0
 10
11.6088012079
 20
7.853817227
 30
0.0
 10
11.6144165619
 20
7.8495801414
 30
0.0
 10
11.6173446109
 20
7.8476704445
 30
0.0
  0
SPLINE
  5
41C
100
AcDbEntity
  8
0
100
AcDbSpline
 62
7
  6
CONTINUOUS
 70
0
 71
3
 72
11
 73
7
 74
0
 42
0.0000001
 43
0.0000001
 44
0.0000000001
 40
0.0
 40
0.0
 40
0.0
 40
0.0
 40
0.251918576
 40
0.5026976867
 40
0.7521091683
 40
1.0
 40
1.0
 40
1.0
 40
1.0
 10
12.5754153279
 20
7.900192861
 30
0.0
 10
12.5750590784
 20
7.9022984286
 30
0.0
 10
12.574060612
 20
7.9064567353
 30
0.0
 10
12.5717661606
 20
7.9124230263
 30
0.0
 10
12.5687655122
 20
7.9180267129
 30
0.0
 10
12.5663497419
 20
7.921494108
 30
0.0
 10
12.5650566963
 20
7.923150521
 30
0.0
  0
SPLINE
  5
41D
100
AcDbEntity
  8
0
100
AcDbSpline
 62
7
  6
CONTINUOUS
 70
0
 71
3
 72
9
 73
5
 74
0
 42
0.0000001
 43
0.0000001
 44
0.0000000001
 40
0.0
 40
0.0
 40
0.0
 40
0.0
 40
0.5022094352
 40
1.0
 40
1.0
 40
1.0
 40
1.0
 10
12.5650566963
 20
7.923150521
 30
0.0
 10
12.5629230478
 20
7.9258837604
 30
0.0
 10
12.5581773953
 20
7.9309515342
 30
0.0
 10
12.5527006055
 20
7.9351999334
 30
0.0
 10
12.5498454424
 20
7.9371131636
 30
0.0
  0
SPLINE
  5
41E
100
AcDbEntity
  8
0
100
AcDbSpline
 62
7
  6
CONTINUOUS
 70
0
 71
3
 72
11
 73
7
 74
0
 42
0.0000001
 43
0.0000001
 44
0.0000000001
 40
0.0
 40
0.0
 40
0.0
 40
0.0
 40
0.2587078709
 40
0.4477012628
 40
0.6337159877
 40
1.0
 40
1.0
 40
1.0
 40
1.0
 10
11.3701782843
 20
6.830176495
 30
0.0
 10
11.3732570604
 20
6.8284555739
 30
0.0
 10
11.3787566902
 20
6.8257753513
 30
0.0
 10
11.3868201754
 20
6.8226590636
 30
0.0
 10
11.3964521737
 20
6.8195830096
 30
0.0
 10
11.4037957601
 20
6.8178590135
 30
0.0
 10
11.4086965639
 20
6.8169000691
 30
0.0
  0
SPLINE
  5
41F
100
AcDbEntity
  8
0
100
AcDbSpline
 62
7
  6
CONTINUOUS
 70
0
 71
3
 72
9
 73
5
 74
0
 42
0.0000001
 43
0.0000001
 44
0.0000000001
 40
0.0
 40
0.0
 40
0.0
 40
0.0
 40
0.2509053909
 40
1.0
 40
1.0
 40
1.0
 40
1.0
 10
11.4086965639
 20
6.8169000691
 30
0.0
 10
11.410164699
 20
6.8166127979
 30
0.0
 10
11.416029135
 20
6.8155347583
 30
0.0
 10
11.4219374813
 20
6.8147040292
 30
0.0
 10
11.4263734957
 20
6.8141844732
 30
0.0
  0
SPLINE
  5
420
100
AcDbEntity
  8
0
100
AcDbSpline
 62
7
  6
CONTINUOUS
 70
0
 71
3
 72
26
 73
22
 74
0
 42
0.0000001
 43
0.0000001
 44
0.0000000001
 40
0.0
 40
0.0
 40
0.0
 40
0.0
 40
0.1121183335
 40
0.168073129
 40
0.2240074675
 40
0.2799438915
 40
0.3359066206
 40
0.3919339885
 40
0.4480967467
 40
0.5045283077
 40
0.5614770753
 40
0.6194013399
 40
0.6791507686
 40
0.7423379583
 40
0.7761639405
 40
0.8122712215
 40
0.851610958
 40
0.895482274
 40
0.9195767157
 40
0.945215166
 40
1.0
 40
1.0
 40
1.0
 40
1.0
 10
11.4263734957
 20
6.8141844732
 30
0.0
 10
11.434995245
 20
6.8131746745
 30
0.0
 10
11.4479889046
 20
6.8122369242
 30
0.0
 10
11.4653235729
 20
6.81168527
 30
0.0
 10
11.4783183335
 20
6.8115749242
 30
0.0
 10
11.4913125188
 20
6.8117492506
 30
0.0
 10
11.5043066072
 20
6.8122317129
 30
0.0
 10
11.5172997349
 20
6.8130884621
 30
0.0
 10
11.5302901211
 20
6.8144274518
 30
0.0
 10
11.5432735854
 20
6.8164069021
 30
0.0
 10
11.5562409148
 20
6.8192478674
 30
0.0
 10
11.569174013
 20
6.8232621506
 30
0.0
 10
11.582030087
 20
6.8289020004
 30
0.0
 10
11.5923547325
 20
6.8354072594
 30
0.0
 10
11.6002134171
 20
6.8421019148
 30
0.0
 10
11.6060144132
 20
6.8482889053
 30
0.0
 10
11.6114277397
 20
6.8558099148
 30
0.0
 10
11.6152372997
 20
6.8632372339
 30
0.0
 10
11.6177093965
 20
6.8700595885
 30
0.0
 10
11.6197526884
 20
6.877898213
 30
0.0
 10
11.6204019851
 20
6.8841501269
 30
0.0
 10
11.6204019851
 20
6.888391804
 30
0.0
  0
SPLINE
  5
421
100
AcDbEntity
  8
0
100
AcDbSpline
 62
7
  6
CONTINUOUS
 70
0
 71
3
 72
20
 73
16
 74
0
 42
0.0000001
 43
0.0000001
 44
0.0000000001
 40
0.0
 40
0.0
 40
0.0
 40
0.0
 40
0.0517868267
 40
0.1014934332
 40
0.1480151553
 40
0.1911938582
 40
0.2689344126
 40
0.3383204988
 40
0.4021476695
 40
0.4622616826
 40
0.5756408517
 40
0.6841550204
 40
0.7903424489
 40
0.895425929
 40
1.0
 40
1.0
 40
1.0
 40
1.0
 10
11.6204019851
 20
6.888391804
 30
0.0
 10
11.6204019851
 20
6.8909208915
 30
0.0
 10
11.6200960958
 20
6.8958830207
 30
0.0
 10
11.618783217
 20
6.9030074057
 30
0.0
 10
11.616792311
 20
6.909532956
 30
0.0
 10
11.6135924697
 20
6.9170709535
 30
0.0
 10
11.6087712902
 20
6.925079551
 30
0.0
 10
11.6020675023
 20
6.9329503478
 30
0.0
 10
11.5949982146
 20
6.9392471563
 30
0.0
 10
11.5854886436
 20
6.9459081008
 30
0.0
 10
11.5731113452
 20
6.9521155654
 30
0.0
 10
11.557872976
 20
6.957179687
 30
0.0
 10
11.5426032965
 20
6.9605515257
 30
0.0
 10
11.5273262688
 20
6.9627491074
 30
0.0
 10
11.5171242864
 20
6.9636640756
 30
0.0
 10
11.5120297614
 20
6.9640212704
 30
0.0
  0
SPLINE
  5
422
100
AcDbEntity
  8
0
100
AcDbSpline
 62
7
  6
CONTINUOUS
 70
0
 71
3
 72
24
 73
20
 74
0
 42
0.0000001
 43
0.0000001
 44
0.0000000001
 40
0.0
 40
0.0
 40
0.0
 40
0.0
 40
0.1110322267
 40
0.221986968
 40
0.2774892518
 40
0.3330425779
 40
0.3886989456
 40
0.4445519997
 40
0.5007689927
 40
0.5576454301
 40
0.6157021949
 40
0.6758677519
 40
0.73984279
 40
0.7742217005
 40
0.8109810175
 40
0.8510289991
 40
0.8955334945
 40
0.9454928784
 40
1.0
 40
1.0
 40
1.0
 40
1.0
 10
11.5120297614
 20
6.9640212704
 30
0.0
 10
11.5040252707
 20
6.9645824929
 30
0.0
 10
11.4879874674
 20
6.9652226596
 30
0.0
 10
11.4679286334
 20
6.9651942987
 30
0.0
 10
11.4518918804
 20
6.9646579183
 30
0.0
 10
11.4398632124
 20
6.9639470774
 30
0.0
 10
11.4278371698
 20
6.962850179
 30
0.0
 10
11.4158169525
 20
6.9612544848
 30
0.0
 10
11.4038089172
 20
6.9590051198
 30
0.0
 10
11.3918255946
 20
6.9558917882
 30
0.0
 10
11.379890315
 20
6.9516221271
 30
0.0
 10
11.3680542947
 20
6.9457737622
 30
0.0
 10
11.3586040031
 20
6.9391905098
 30
0.0
 10
11.3514446345
 20
6.9325282223
 30
0.0
 10
11.3461816213
 20
6.9264320223
 30
0.0
 10
11.3413098351
 20
6.9191123933
 30
0.0
 10
11.3371184426
 20
6.9102986095
 30
0.0
 10
11.3341313315
 20
6.899901337
 30
0.0
 10
11.3334024431
 20
6.8923309562
 30
0.0
 10
11.3334024431
 20
6.888391804
 30
0.0
  0
SPLINE
  5
423
100
AcDbEntity
  8
0
100
AcDbSpline
 62
7
  6
CONTINUOUS
 70
0
 71
3
 72
14
 73
10
 74
0
 42
0.0000001
 43
0.0000001
 44
0.0000000001
 40
0.0
 40
0.0
 40
0.0
 40
0.0
 40
0.1693857444
 40
0.3238845896
 40
0.4609526096
 40
0.5840788373
 40
0.6970825339
 40
0.8028446935
 40
1.0
 40
1.0
 40
1.0
 40
1.0
 10
11.3334024431
 20
6.888391804
 30
0.0
 10
11.3334024431
 20
6.8843123462
 30
0.0
 10
11.3341825807
 20
6.8764889055
 30
0.0
 10
11.3373661926
 20
6.8657944003
 30
0.0
 10
11.341799896
 20
6.8567986131
 30
0.0
 10
11.3469227603
 20
6.8493803326
 30
0.0
 10
11.3524360937
 20
6.8432378234
 30
0.0
 10
11.3599192828
 20
6.8365571945
 30
0.0
 10
11.3660335716
 20
6.832493235
 30
0.0
 10
11.3701782843
 20
6.830176495
 30
0.0
  0
SPLINE
  5
424
100
AcDbEntity
  8
0
100
AcDbSpline
 62
7
  6
CONTINUOUS
 70
0
 71
3
 72
35
 73
31
 74
0
 42
0.0000001
 43
0.0000001
 44
0.0000000001
 40
0.0
 40
0.0
 40
0.0
 40
0.0
 40
0.0624979951
 40
0.0937540555
 40
0.1250064234
 40
0.1875057026
 40
0.2187578844
 40
0.2500082398
 40
0.3125071269
 40
0.3750054142
 40
0.437503547
 40
0.5000015476
 40
0.5624993818
 40
0.6249966815
 40
0.6874925934
 40
0.718742483
 40
0.7499925098
 40
0.7812424128
 40
0.8124919537
 40
0.8437405809
 40
0.8749867035
 40
0.8906142419
 40
0.9062418546
 40
0.9218702336
 40
0.9374984713
 40
0.9531249078
 40
0.9687474028
 40
0.984360465
 40
0.9921827671
 40
1.0
 40
1.0
 40
1.0
 40
1.0
 10
11.8588468187
 20
6.830176495
 30
0.0
 10
11.8694696529
 20
6.8272076107
 30
0.0
 10
11.8856704691
 20
6.8236860317
 30
0.0
 10
11.9074560489
 20
6.8202060673
 30
0.0
 10
11.9293434668
 20
6.8174079086
 30
0.0
 10
11.9513232013
 20
6.8154291696
 30
0.0
 10
11.9733396093
 20
6.8140241537
 30
0.0
 10
11.9953740196
 20
6.8129311479
 30
0.0
 10
12.0229378507
 20
6.8120669347
 30
0.0
 10
12.0560256386
 20
6.8115988623
 30
0.0
 10
12.0891165295
 20
6.811602687
 30
0.0
 10
12.1222040669
 20
6.8120780802
 30
0.0
 10
12.1552792595
 20
6.8131304839
 30
0.0
 10
12.1883207103
 20
6.8149771473
 30
0.0
 10
12.2157922162
 20
6.8174642664
 30
0.0
 10
12.2376735435
 20
6.8202859128
 30
0.0
 10
12.2540127349
 20
6.8229103604
 30
0.0
 10
12.270241775
 20
6.8261543056
 30
0.0
 10
12.2863023553
 20
6.8301618029
 30
0.0
 10
12.3020969689
 20
6.8351236867
 30
0.0
 10
12.314909618
 20
6.8402746173
 30
0.0
 10
12.3247883158
 20
6.8451951181
 30
0.0
 10
12.3319494758
 20
6.8493535882
 30
0.0
 10
12.3387697518
 20
6.8540563614
 30
0.0
 10
12.3451098125
 20
6.859397397
 30
0.0
 10
12.3507574803
 20
6.8654792513
 30
0.0
 10
12.3553876061
 20
6.8723824555
 30
0.0
 10
12.3580127376
 20
6.8788289797
 30
0.0
 10
12.3591064764
 20
6.8842484451
 30
0.0
 10
12.3592941432
 20
6.887012186
 30
0.0
 10
12.3592941432
 20
6.888391804
 30
0.0
  0
LINE
  5
425
100
AcDbEntity
  8
0
100
AcDbLine
 62
7
  6
CONTINUOUS
 10
22.0649976285
 20
11.5462065674
 11
22.0622948395
 21
11.5477515327
  0
SPLINE
  5
426
100
AcDbEntity
  8
0
100
AcDbSpline
 62
7
  6
CONTINUOUS
 70
0
 71
3
 72
11
 73
7
 74
0
 42
0.0000001
 43
0.0000001
 44
0.0000000001
 40
0.0
 40
0.0
 40
0.0
 40
0.0
 40
0.262024937
 40
0.5196999649
 40
0.7673443663
 40
1.0
 40
1.0
 40
1.0
 40
1.0
 10
20.4329256367
 20
11.411391804
 30
0.0
 10
20.4329256367
 20
11.4172028216
 30
0.0
 10
20.4330054573
 20
11.4287284123
 30
0.0
 10
20.4332786478
 20
11.4457440481
 30
0.0
 10
20.4336278328
 20
11.4621064772
 30
0.0
 10
20.4337678501
 20
11.4727580123
 30
0.0
 10
20.4337666468
 20
11.4779176965
 30
0.0
  0
SPLINE
  5
427
100
AcDbEntity
  8
0
100
AcDbSpline
 62
7
  6
CONTINUOUS
 70
0
 71
3
 72
42
 73
38
 74
0
 42
0.0000001
 43
0.0000001
 44
0.0000000001
 40
0.0
 40
0.0
 40
0.0
 40
0.0
 40
0.0984112775
 40
0.1963735049
 40
0.2929138942
 40
0.387125753
 40
0.4330704127
 40
0.478058686
 40
0.5645377337
 40
0.6452534384
 40
0.7190737927
 40
0.7850354338
 40
0.8148082386
 40
0.8424018233
 40
0.8677896083
 40
0.8909326954
 40
0.9118056745
 40
0.9304278239
 40
0.9468187367
 40
0.9609917517
 40
0.972954513
 40
0.9781094789
 40
0.9827157218
 40
0.9867749315
 40
0.9902887303
 40
0.9932586724
 40
0.9956862445
 40
0.9966970887
 40
0.9975728674
 40
0.9983137482
 40
0.9989198952
 40
0.9993914706
 40
0.9997286372
 40
0.9998468537
 40
0.9999314831
 40
0.9999825187
 40
1.0
 40
1.0
 40
1.0
 40
1.0
 10
20.0069170761
 20
11.411391804
 30
0.0
 10
20.0069170761
 20
11.4167418167
 30
0.0
 10
20.0074394441
 20
11.4274239176
 30
0.0
 10
20.0097179423
 20
11.4432074083
 30
0.0
 10
20.013449888
 20
11.4584772925
 30
0.0
 10
20.0176661998
 20
11.4706557874
 30
0.0
 10
20.021615994
 20
11.4799170644
 30
0.0
 10
20.0258091774
 20
11.4886058233
 30
0.0
 10
20.0315016901
 20
11.4986568102
 30
0.0
 10
20.0389257149
 20
11.5094721152
 30
0.0
 10
20.0465147451
 20
11.5187670953
 30
0.0
 10
20.0528733186
 20
11.5254528041
 30
0.0
 10
20.0577551807
 20
11.5300499865
 30
0.0
 10
20.0611329458
 20
11.5330228168
 30
0.0
 10
20.0643246966
 20
11.5356580388
 30
0.0
 10
20.0673026753
 20
11.537975612
 30
0.0
 10
20.0700438731
 20
11.5399965236
 30
0.0
 10
20.0725339143
 20
11.5417377964
 30
0.0
 10
20.0747602623
 20
11.5432191866
 30
0.0
 10
20.0767111491
 20
11.544459986
 30
0.0
 10
20.0781608938
 20
11.5453499923
 30
0.0
 10
20.0791730119
 20
11.5459585855
 30
0.0
 10
20.0798193013
 20
11.5463417507
 30
0.0
 10
20.0803908707
 20
11.5466759718
 30
0.0
 10
20.0808873608
 20
11.546962343
 30
0.0
 10
20.0813083962
 20
11.5472019791
 30
0.0
 10
20.0816121108
 20
11.5473726567
 30
0.0
 10
20.0818170098
 20
11.5474867701
 30
0.0
 10
20.081941967
 20
11.5475559933
 30
0.0
 10
20.082047735
 20
11.5476143818
 30
0.0
 10
20.0821344553
 20
11.5476620094
 30
0.0
 10
20.0822015885
 20
11.5476991743
 30
0.0
 10
20.0822462233
 20
11.5477233844
 30
0.0
 10
20.0822710999
 20
11.5477379971
 30
0.0
 10
20.0822842722
 20
11.547744453
 30
0.0
 10
20.0822893476
 20
11.5477493475
 30
0.0
 10
20.0822947232
 20
11.5477506041
 30
0.0
 10
20.082294521
 20
11.5477515327
 30
0.0
  0
LINE
  5
428
100
AcDbEntity
  8
0
100
AcDbLine
 62
7
  6
CONTINUOUS
 10
20.0821278134
 20
10.7120318945
 11
20.0822945103
 21
10.7118251082
  0
LINE
  5
429
100
AcDbEntity
  8
0
100
AcDbLine
 62
7
  6
CONTINUOUS
 10
22.0624615471
 20
10.7120318945
 11
22.0622948502
 21
10.7118251082
  0
SPLINE
  5
42A
100
AcDbEntity
  8
0
100
AcDbSpline
 62
7
  6
CONTINUOUS
 70
0
 71
3
 72
11
 73
7
 74
0
 42
0.0000001
 43
0.0000001
 44
0.0000000001
 40
0.0
 40
0.0
 40
0.0
 40
0.0
 40
0.2326525209
 40
0.4802826225
 40
0.7379572134
 40
1.0
 40
1.0
 40
1.0
 40
1.0
 10
21.7108228666
 20
11.4779175318
 30
0.0
 10
21.7108220191
 20
11.4727579295
 30
0.0
 10
21.7109616832
 20
11.4621068099
 30
0.0
 10
21.7113106545
 20
11.4457448102
 30
0.0
 10
21.7115841236
 20
11.4287291529
 30
0.0
 10
21.7116637237
 20
11.4172032029
 30
0.0
 10
21.7116637237
 20
11.411391804
 30
0.0
  0
LINE
  5
42B
100
AcDbEntity
  8
0
100
AcDbLine
 62
7
  6
CONTINUOUS
 10
20.082294521
 20
11.5477515327
 11
20.0790381593
 21
11.5458753877
  0
SPLINE
  5
42C
100
AcDbEntity
  8
0
100
AcDbSpline
 62
7
  6
CONTINUOUS
 70
0
 71
3
 72
41
 73
37
 74
0
 42
0.0000001
 43
0.0000001
 44
0.0000000001
 40
0.0
 40
0.0
 40
0.0
 40
0.0
 40
0.0000163661
 40
0.0000662984
 40
0.0001498722
 40
0.0002671113
 40
0.0006026562
 40
0.001073067
 40
0.001678473
 40
0.0024190031
 40
0.003294788
 40
0.0043059595
 40
0.0067349963
 40
0.009707203
 40
0.0132236951
 40
0.0172856152
 40
0.0218941332
 40
0.027050372
 40
0.039010142
 40
0.0531757663
 40
0.0695627638
 40
0.0881918028
 40
0.1090880107
 40
0.1322494257
 40
0.1576401843
 40
0.2150050664
 40
0.2810083986
 40
0.3548482808
 40
0.4355668099
 40
0.5220478742
 40
0.5670342762
 40
0.6129724045
 40
0.7071591916
 40
0.8036700084
 40
0.90160769
 40
1.0
 40
1.0
 40
1.0
 40
1.0
 10
22.0622948395
 20
11.5477515327
 30
0.0
 10
22.0622950287
 20
11.547752402
 30
0.0
 10
22.0622999586
 20
11.5477481472
 30
0.0
 10
22.0623055983
 20
11.5477471138
 30
0.0
 10
22.0623186062
 20
11.5477392899
 30
0.0
 10
22.0623437919
 20
11.5477265347
 30
0.0
 10
22.0623883756
 20
11.5477020017
 30
0.0
 10
22.0624555157
 20
11.5476655677
 30
0.0
 10
22.0625420843
 20
11.5476177951
 30
0.0
 10
22.0626476643
 20
11.5475592357
 30
0.0
 10
22.0627723738
 20
11.5474895557
 30
0.0
 10
22.0629769024
 20
11.54737459
 30
0.0
 10
22.0632801096
 20
11.5472025669
 30
0.0
 10
22.0637006606
 20
11.5469613899
 30
0.0
 10
22.0641969312
 20
11.5466738169
 30
0.0
 10
22.0647687004
 20
11.546339124
 30
0.0
 10
22.0654157703
 20
11.5459566254
 30
0.0
 10
22.0664297619
 20
11.5453511203
 30
0.0
 10
22.0678806522
 20
11.5444639135
 30
0.0
 10
22.0698301629
 20
11.5432223911
 30
0.0
 10
22.072054819
 20
11.5417389292
 30
0.0
 10
22.0745445796
 20
11.5399948406
 30
0.0
 10
22.0772885708
 20
11.5379733759
 30
0.0
 10
22.0802696798
 20
11.535655867
 30
0.0
 10
22.0847106033
 20
11.5319896129
 30
0.0
 10
22.0906887461
 20
11.5265333563
 30
0.0
 10
22.0980818136
 20
11.5187563953
 30
0.0
 10
22.1056733489
 20
11.5094587227
 30
0.0
 10
22.1130974877
 20
11.4986420263
 30
0.0
 10
22.118787769
 20
11.4885896592
 30
0.0
 10
22.1229801052
 20
11.4799009916
 30
0.0
 10
22.1269294526
 20
11.4706415726
 30
0.0
 10
22.1311428928
 20
11.4584656685
 30
0.0
 10
22.1348728068
 20
11.4431999048
 30
0.0
 10
22.1371502825
 20
11.4274204033
 30
0.0
 10
22.1376722844
 20
11.416740746
 30
0.0
 10
22.1376722844
 20
11.411391804
 30
0.0
  0
SPLINE
  5
42D
100
AcDbEntity
  8
0
100
AcDbSpline
 62
7
  6
CONTINUOUS
 70
0
 71
3
 72
30
 73
26
 74
0
 42
0.0000001
 43
0.0000001
 44
0.0000000001
 40
0.0
 40
0.0
 40
0.0
 40
0.0
 40
0.0503501051
 40
0.0983957486
 40
0.1444139987
 40
0.1668860908
 40
0.1891621713
 40
0.2114333256
 40
0.2339413476
 40
0.2569715545
 40
0.2808299392
 40
0.3058175859
 40
0.3321959391
 40
0.3601537646
 40
0.3897908858
 40
0.4211158944
 40
0.4540554876
 40
0.4884762839
 40
0.5242102567
 40
0.5988626996
 40
0.6766468475
 40
0.7564110549
 40
0.8372850801
 40
0.9186418755
 40
1.0
 40
1.0
 40
1.0
 40
1.0
 10
21.7108227652
 20
10.7854649766
 30
0.0
 10
21.7108228806
 20
10.7804000888
 30
0.0
 10
21.7113551057
 20
10.7704879669
 30
0.0
 10
21.7140660366
 20
10.7561672438
 30
0.0
 10
21.7181399412
 20
10.7450943659
 30
0.0
 10
21.7225868591
 20
10.7371013456
 30
0.0
 10
21.7265179122
 20
10.7316046796
 30
0.0
 10
21.7310991426
 20
10.7266289476
 30
0.0
 10
21.7363524319
 20
10.7222457993
 30
0.0
 10
21.7422895092
 20
10.7185322833
 30
0.0
 10
21.748905799
 20
10.7155620339
 30
0.0
 10
21.7561793779
 20
10.7133995262
 30
0.0
 10
21.7640708898
 20
10.7120949104
 30
0.0
 10
21.7725242652
 20
10.7116767703
 30
0.0
 10
21.7814702709
 20
10.7121511494
 30
0.0
 10
21.7908303858
 20
10.7135024417
 30
0.0
 10
21.800521594
 20
10.7156945964
 30
0.0
 10
21.8104624668
 20
10.7186741746
 30
0.0
 10
21.824146792
 20
10.7236873972
 30
0.0
 10
21.8413792459
 20
10.7315919423
 30
0.0
 10
21.8617849023
 20
10.7429944832
 30
0.0
 10
21.8819536041
 20
10.7559973335
 30
0.0
 10
21.9017162672
 20
10.7702258534
 30
0.0
 10
21.920971656
 20
10.7853901421
 30
0.0
 10
21.9334484794
 20
10.7959905202
 30
0.0
 10
21.9395970936
 20
10.801391804
 30
0.0
  0
SPLINE
  5
42E
100
AcDbEntity
  8
0
100
AcDbSpline
 62
7
  6
CONTINUOUS
 70
0
 71
3
 72
24
 73
20
 74
0
 42
0.0000001
 43
0.0000001
 44
0.0000000001
 40
0.0
 40
0.0
 40
0.0
 40
0.0
 40
0.1318107368
 40
0.1968388008
 40
0.260743004
 40
0.3233013355
 40
0.3844428997
 40
0.4442168214
 40
0.4737055661
 40
0.5030124139
 40
0.5613629905
 40
0.5906285433
 40
0.6200767474
 40
0.6798021044
 40
0.7410217067
 40
0.8039083449
 40
0.8683443355
 40
0.9339377166
 40
1.0
 40
1.0
 40
1.0
 40
1.0
 10
21.0722946802
 20
11.5477507055
 30
0.0
 10
21.0616262724
 20
11.5477507055
 30
0.0
 10
21.0456789202
 20
11.5471043549
 30
0.0
 10
21.024706407
 20
11.5446836209
 30
0.0
 10
21.0094293931
 20
11.5420048292
 30
0.0
 10
20.9946904223
 20
11.5382854568
 30
0.0
 10
20.9806531035
 20
11.5333711861
 30
0.0
 10
20.9696382951
 20
11.5281132122
 30
0.0
 10
20.9614163994
 20
11.5231501264
 30
0.0
 10
20.953650167
 20
11.5177009903
 30
0.0
 10
20.9464916596
 20
11.5114516479
 30
0.0
 10
20.9400810397
 20
11.5044649693
 30
0.0
 10
20.9341411794
 20
11.496930577
 30
0.0
 10
20.927661334
 20
11.4865765393
 30
0.0
 10
20.9214607715
 20
11.4730109757
 30
0.0
 10
20.9167639197
 20
11.4584598892
 30
0.0
 10
20.9134828955
 20
11.4431707364
 30
0.0
 10
20.9115454807
 20
11.427399761
 30
0.0
 10
20.9111214488
 20
11.4167387082
 30
0.0
 10
20.9111214488
 20
11.411391804
 30
0.0
  0
SPLINE
  5
42F
100
AcDbEntity
  8
0
100
AcDbSpline
 62
7
  6
CONTINUOUS
 70
0
 71
3
 72
39
 73
35
 74
0
 42
0.0000001
 43
0.0000001
 44
0.0000000001
 40
0.0
 40
0.0
 40
0.0
 40
0.0
 40
0.0394037411
 40
0.0788903328
 40
0.1183776791
 40
0.157836152
 40
0.1972809753
 40
0.2367350684
 40
0.2761691118
 40
0.2958619867
 40
0.3155192258
 40
0.3546710686
 40
0.3934919649
 40
0.4317748115
 40
0.4693670145
 40
0.5416338563
 40
0.5760011771
 40
0.6089507401
 40
0.6403351033
 40
0.6700406883
 40
0.697950372
 40
0.7239840691
 40
0.7481072008
 40
0.7703424611
 40
0.7908514691
 40
0.8099759633
 40
0.8282881367
 40
0.84664516
 40
0.8660371668
 40
0.8873757073
 40
0.911254299
 40
0.9380121266
 40
0.9676771302
 40
1.0
 40
1.0
 40
1.0
 40
1.0
 10
21.9395970936
 20
11.411391804
 30
0.0
 10
21.9395970936
 20
11.4160172258
 30
0.0
 10
21.9390932827
 20
11.4252853681
 30
0.0
 10
21.9368476444
 20
11.439024725
 30
0.0
 10
21.9331124122
 20
11.4524456051
 30
0.0
 10
21.927913822
 20
11.4653646197
 30
0.0
 10
21.9213135059
 20
11.4776238476
 30
0.0
 10
21.9133692498
 20
11.4890532763
 30
0.0
 10
21.9057458884
 20
11.4977919737
 30
0.0
 10
21.8991205678
 20
11.5042497916
 30
0.0
 10
21.892181736
 20
11.5103194505
 30
0.0
 10
21.8829825511
 20
11.5171884877
 30
0.0
 10
21.8713100981
 20
11.5242940332
 30
0.0
 10
21.8592208981
 20
11.5302577575
 30
0.0
 10
21.8430559074
 20
11.5367043479
 30
0.0
 10
21.8267218945
 20
11.5413526958
 30
0.0
 10
21.8106362179
 20
11.5444924893
 30
0.0
 10
21.7991651322
 20
11.5461547447
 30
0.0
 10
21.7881748125
 20
11.5472296418
 30
0.0
 10
21.7777370131
 20
11.5477558534
 30
0.0
 10
21.7679138739
 20
11.5477883902
 30
0.0
 10
21.758756628
 20
11.5473113872
 30
0.0
 10
21.7503125876
 20
11.5462901723
 30
0.0
 10
21.7426146973
 20
11.5446957803
 30
0.0
 10
21.7356945375
 20
11.5424275928
 30
0.0
 10
21.729584942
 20
11.5393669765
 30
0.0
 10
21.7243341366
 20
11.5353806568
 30
0.0
 10
21.7199957497
 20
11.5303682379
 30
0.0
 10
21.7166020182
 20
11.5242691612
 30
0.0
 10
21.7141278529
 20
11.5170689279
 30
0.0
 10
21.7124250559
 20
11.5087770953
 30
0.0
 10
21.7113923451
 20
11.4993983634
 30
0.0
 10
21.7108962965
 20
11.488988898
 30
0.0
 10
21.7108234898
 20
11.481711763
 30
0.0
 10
21.7108228666
 20
11.4779175318
 30
0.0
  0
SPLINE
  5
430
100
AcDbEntity
  8
0
100
AcDbSpline
 62
7
  6
CONTINUOUS
 70
0
 71
3
 72
30
 73
26
 74
0
 42
0.0000001
 43
0.0000001
 44
0.0000000001
 40
0.0
 40
0.0
 40
0.0
 40
0.0
 40
0.0813579678
 40
0.1627145739
 40
0.2435885536
 40
0.3233527147
 40
0.4011369167
 40
0.4757894119
 40
0.5115235516
 40
0.545944377
 40
0.5788838863
 40
0.6102089603
 40
0.6398461311
 40
0.6678039304
 40
0.6941822589
 40
0.7191699747
 40
0.7430283688
 40
0.7660584781
 40
0.7885664976
 40
0.8108376483
 40
0.8331137314
 40
0.8555858061
 40
0.9016040914
 40
0.9496497679
 40
1.0
 40
1.0
 40
1.0
 40
1.0
 10
20.2049922669
 20
10.801391804
 30
0.0
 10
20.2111408692
 20
10.7959905306
 30
0.0
 10
20.2236176677
 20
10.7853901772
 30
0.0
 10
20.2428730228
 20
10.7702259096
 30
0.0
 10
20.262635659
 20
10.7559974012
 30
0.0
 10
20.2828043527
 20
10.7429945453
 30
0.0
 10
20.3032100114
 20
10.7315919971
 30
0.0
 10
20.3204424849
 20
10.7236874278
 30
0.0
 10
20.3341268345
 20
10.7186742001
 30
0.0
 10
20.3440677137
 20
10.7156946036
 30
0.0
 10
20.3537589246
 20
10.7135024557
 30
0.0
 10
20.3631190406
 20
10.7121511521
 30
0.0
 10
20.3720650555
 20
10.7116767701
 30
0.0
 10
20.3805184301
 20
10.7120949092
 30
0.0
 10
20.3884099468
 20
10.7133995114
 30
0.0
 10
20.3956835275
 20
10.7155620307
 30
0.0
 10
20.4022998238
 20
10.7185322601
 30
0.0
 10
20.408236892
 20
10.7222457746
 30
0.0
 10
20.413490176
 20
10.7266289119
 30
0.0
 10
20.4180714146
 20
10.7316046359
 30
0.0
 10
20.4220024716
 20
10.737101297
 30
0.0
 10
20.4264493954
 20
10.7450943162
 30
0.0
 10
20.4305233117
 20
10.7561671951
 30
0.0
 10
20.4332342565
 20
10.7704879361
 30
0.0
 10
20.4337664806
 20
10.7804000743
 30
0.0
 10
20.4337665973
 20
10.7854649749
 30
0.0
  0
SPLINE
  5
431
100
AcDbEntity
  8
0
100
AcDbSpline
 62
7
  6
CONTINUOUS
 70
0
 71
3
 72
39
 73
35
 74
0
 42
0.0000001
 43
0.0000001
 44
0.0000000001
 40
0.0
 40
0.0
 40
0.0
 40
0.0
 40
0.0323211055
 40
0.0619819927
 40
0.0887384846
 40
0.1126124483
 40
0.1339402289
 40
0.1533218803
 40
0.1716718109
 40
0.1899797192
 40
0.2090914169
 40
0.229585519
 40
0.251813748
 40
0.2759244888
 40
0.3019483866
 40
0.3298538938
 40
0.3595518448
 40
0.3909389555
 40
0.4582439984
 40
0.4938581599
 40
0.5305798902
 40
0.5681827814
 40
0.6064801778
 40
0.6453199093
 40
0.6844851169
 40
0.7041465476
 40
0.723842261
 40
0.7632800943
 40
0.8027361862
 40
0.8421781465
 40
0.8816306647
 40
0.9211127862
 40
0.960596881
 40
1.0
 40
1.0
 40
1.0
 40
1.0
 10
20.4337666468
 20
11.4779176965
 30
0.0
 10
20.4337657619
 20
11.481711774
 30
0.0
 10
20.4336924865
 20
11.4889883168
 30
0.0
 10
20.4331963444
 20
11.4993970551
 30
0.0
 10
20.4321654612
 20
11.5087748778
 30
0.0
 10
20.4304649385
 20
11.5170653509
 30
0.0
 10
20.4279906578
 20
11.5242626082
 30
0.0
 10
20.4245988257
 20
11.5303585341
 30
0.0
 10
20.4202673247
 20
11.5353736264
 30
0.0
 10
20.4150187315
 20
11.5393589404
 30
0.0
 10
20.4089122295
 20
11.5424174225
 30
0.0
 10
20.401996612
 20
11.5446855647
 30
0.0
 10
20.3943049111
 20
11.5462907186
 30
0.0
 10
20.3858633355
 20
11.5473080072
 30
0.0
 10
20.3767092247
 20
11.5477815243
 30
0.0
 10
20.3668884966
 20
11.5477635421
 30
0.0
 10
20.3564512991
 20
11.5472320054
 30
0.0
 10
20.3414486766
 20
11.5457608606
 30
0.0
 10
20.3258704212
 20
11.5431378455
 30
0.0
 10
20.309974752
 20
11.5391027733
 30
0.0
 10
20.2976748827
 20
11.5351652048
 30
0.0
 10
20.2853828418
 20
11.5302662039
 30
0.0
 10
20.2732900193
 20
11.5242986002
 30
0.0
 10
20.2616130643
 20
11.5171894346
 30
0.0
 10
20.2524093988
 20
11.510319114
 30
0.0
 10
20.2454676316
 20
11.5042489559
 30
0.0
 10
20.2388409092
 20
11.4977905266
 30
0.0
 10
20.231218077
 20
11.4890497569
 30
0.0
 10
20.2232738295
 20
11.4776197797
 30
0.0
 10
20.2166732559
 20
11.4653613333
 30
0.0
 10
20.2114762181
 20
11.4524432442
 30
0.0
 10
20.2077414898
 20
11.439023725
 30
0.0
 10
20.2054960776
 20
11.4252851204
 30
0.0
 10
20.2049922669
 20
11.416017218
 30
0.0
 10
20.2049922669
 20
11.411391804
 30
0.0
  0
SPLINE
  5
432
100
AcDbEntity
  8
0
100
AcDbSpline
 62
7
  6
CONTINUOUS
 70
0
 71
3
 72
13
 73
9
 74
0
 42
0.0000001
 43
0.0000001
 44
0.0000000001
 40
0.0
 40
0.0
 40
0.0
 40
0.0
 40
0.1361919445
 40
0.2704629478
 40
0.401487334
 40
0.5286684174
 40
0.7711438784
 40
1.0
 40
1.0
 40
1.0
 40
1.0
 10
21.0722946802
 20
10.7118248749
 30
0.0
 10
21.0636183703
 20
10.7118248749
 30
0.0
 10
21.0463591183
 20
10.7131595145
 30
0.0
 10
21.0213582147
 20
10.7189541394
 30
0.0
 10
20.9979573831
 20
10.7279796928
 30
0.0
 10
20.9698359099
 20
10.7431793185
 30
0.0
 10
20.9395841459
 20
10.7668722986
 30
0.0
 10
20.9197383916
 20
10.7896311246
 30
0.0
 10
20.9111214488
 20
10.801391804
 30
0.0
  0
SPLINE
  5
433
100
AcDbEntity
  8
0
100
AcDbSpline
 62
7
  6
CONTINUOUS
 70
0
 71
3
 72
13
 73
9
 74
0
 42
0.0000001
 43
0.0000001
 44
0.0000000001
 40
0.0
 40
0.0
 40
0.0
 40
0.0
 40
0.1361908083
 40
0.2704613847
 40
0.4014855121
 40
0.5286666814
 40
0.7711427334
 40
1.0
 40
1.0
 40
1.0
 40
1.0
 10
21.0722946802
 20
10.7118248749
 30
0.0
 10
21.0809709178
 20
10.7118248749
 30
0.0
 10
21.0982300709
 20
10.7131594849
 30
0.0
 10
21.1232308664
 20
10.7189540621
 30
0.0
 10
21.1466316784
 20
10.7279795577
 30
0.0
 10
21.1747532022
 20
10.7431791466
 30
0.0
 10
21.2050050991
 20
10.7668721518
 30
0.0
 10
21.2248509256
 20
10.7896310657
 30
0.0
 10
21.2334679117
 20
10.801391804
 30
0.0
  0
SPLINE
  5
434
100
AcDbEntity
  8
0
100
AcDbSpline
 62
7
  6
CONTINUOUS
 70
0
 71
3
 72
23
 73
19
 74
0
 42
0.0000001
 43
0.0000001
 44
0.0000000001
 40
0.0
 40
0.0
 40
0.0
 40
0.0
 40
0.0661012146
 40
0.1317114094
 40
0.1961462172
 40
0.2590333764
 40
0.3202589686
 40
0.37997191
 40
0.4386374008
 40
0.4678181839
 40
0.4970088498
 40
0.5557629405
 40
0.6155359444
 40
0.6766589176
 40
0.7392293569
 40
0.8031303539
 40
0.8681480959
 40
1.0
 40
1.0
 40
1.0
 40
1.0
 10
21.2334679117
 20
11.411391804
 30
0.0
 10
21.2334679117
 20
11.4167416924
 30
0.0
 10
21.2330431361
 20
11.427406936
 30
0.0
 10
21.2311046271
 20
11.4431816477
 30
0.0
 10
21.227822906
 20
11.4584717464
 30
0.0
 10
21.2231217459
 20
11.473020878
 30
0.0
 10
21.2169249229
 20
11.4865883134
 30
0.0
 10
21.2091898774
 20
11.4989498351
 30
0.0
 10
21.2014232223
 20
11.5080839798
 30
0.0
 10
21.1945251592
 20
11.5145863037
 30
0.0
 10
21.1871605565
 20
11.5205673215
 30
0.0
 10
21.1770877518
 20
11.5270823255
 30
0.0
 10
21.1639438365
 20
11.533376083
 30
0.0
 10
21.1499032889
 20
11.5382844938
 30
0.0
 10
21.1351650823
 20
11.5419980942
 30
0.0
 10
21.1198900099
 20
11.5446855135
 30
0.0
 10
21.0989149729
 20
11.5470988692
 30
0.0
 10
21.0829660874
 20
11.5477507055
 30
0.0
 10
21.0722946802
 20
11.5477507055
 30
0.0
  0
ENDSEC
  0
SECTION
  2
OBJECTS
  0
DICTIONARY
  5
C
100
AcDbDictionary
280
0
281
1
  3
ACAD_GROUP
350
D
  3
ACAD_MLINESTYLE
350
17
  3
ACAD_LAYOUT
350
1A
  3
ACAD_PLOTSETTINGS
350
19
  3
ACAD_PLOTSTYLENAME
350
E
  0
DICTIONARY
  5
D
102
{ACAD_REACTORS
330
C
102
}
100
AcDbDictionary
280
0
281
1
  0
ACDBDICTIONARYWDFLT
  5
E
102
{ACAD_REACTORS
330
C
102
}
100
AcDbDictionary
281
1
  3
Normal
350
F
100
AcDbDictionaryWithDefault
340
F
  0
DICTIONARY
  5
17
102
{ACAD_REACTORS
330
C
102
}
100
AcDbDictionary
280
0
281
1
  3
Standard
350
18
  0
DICTIONARY
  5
19
102
{ACAD_REACTORS
330
C
102
}
100
AcDbDictionary
281
1
  0
DICTIONARY
  5
1A
102
{ACAD_REACTORS
330
C
102
}
100
AcDbDictionary
281
1
  3
Model
350
435
  3
Layout1
350
436
  0
ACDBPLACEHOLDER
  5
F
102
{ACAD_REACTORS
330
E
102
}
  0
MLINESTYLE
  5
18
102
{ACAD_REACTORS
330
17
102
}
100
AcDbMlineStyle
  2
STANDARD
 70
0
  3

 62
256
 51
90.0
 52
90.0
 71
2
 49
0.5
 62
256
  6
BYLAYER
 49
-0.5
 62
256
  6
BYLAYER
  0
LAYOUT
  5
435
102
{ACAD_REACTORS
330
1A
102
}
100
AcDbPlotSettings
  1

  2
none_device
  4
ANSI_C_(22.00_x_17.00_Inches)
  6

 40
0.0
 41
0.0
 42
0.0
 43
0.0
 44
558.8
 45
431.8
 46
0.0
 47
0.0
 48
0.0
 49
0.0
140
0.0
141
0.0
142
1.0
143
1.0
 70
1024
 72
0
 73
0
 74
0
  7

 75
0
147
1.0
148
0.0
149
0.0
100
AcDbLayout
  1
Model
 70
0
 71
0
 10
0.0
 20
0.0
 11
22.0
 21
17.0
 12
0.0
 22
0.0
 32
0.0
 14
0.0
 24
0.0
 34
0.0
 15
0.0
 25
0.0
 35
0.0
146
0.0
 13
0.0
 23
0.0
 33
0.0
 16
1.0
 26
0.0
 36
0.0
 17
0.0
 27
1.0
 37
0.0
 76
0
330
202
345
0
346
0
  0
LAYOUT
  5
436
102
{ACAD_REACTORS
330
1A
102
}
100
AcDbPlotSettings
  1

  2
none_device
  4
ANSI_C_(22.00_x_17.00_Inches)
  6

 40
0.0
 41
0.0
 42
0.0
 43
0.0
 44
558.8
 45
431.8
 46
0.0
 47
0.0
 48
0.0
 49
0.0
140
0.0
141
0.0
142
1.0
143
1.0
 70
0
 72
0
 73
0
 74
0
  7

 75
0
147
1.0
148
0.0
149
0.0
100
AcDbLayout
  1
Layout1
 70
0
 71
1
 10
0.0
 20
0.0
 11
22.0
 21
17.0
 12
0.0
 22
0.0
 32
0.0
 14
0.0
 24
0.0
 34
0.0
 15
0.0
 25
0.0
 35
0.0
146
0.0
 13
0.0
 23
0.0
 33
0.0
 16
1.0
 26
0.0
 36
0.0
 17
0.0
 27
1.0
 37
0.0
 76
0
330
203
345
0
346
0
  0
ENDSEC
  0
EOF
