  0
SECTION
  2
HEADER
  9
$ACADVER
  1
AC1015
  9
$DWGCODEPAGE
  3
ANSI_1252
  9
$EXTMAX
 10
11.6929133858
 20
8.2677165354
 30
0.0
  9
$EXTMIN
 10
0.0
 20
0.0
 30
0.0
  9
$LIMMIN
 10
0.0
 20
0.0
  9
$LIMMAX
 10
11.6929133858
 20
8.2677165354
  9
$VIEWCTR
 10
5.8464566929
 20
4.1338582677
  9
$VIEWSIZE
 40
8.2677165354
  9
$CLAYER
  8
0
  9
$LTSCALE
 40
0.6431102362
  9
$CELTYPE
  6
BYLAYER
  9
$DIMSCALE
 40
1.0
  9
$DIMASZ
 40
0.1
  9
$DIMEXO
 40
0.0730807087
  9
$DIMDLI
 40
0.4443307087
  9
$DIMEXE
 40
0.2104724409
  9
$DIMCEN
 40
0.1052362205
  9
$DIMLFAC
 40
1.0
  9
$DIMBLK
  1
_FILLED
  9
$DIMTXT
 40
0.08
  9
$DIMTOL
 70
1
  9
$DIMLIM
 70
0
  9
$DIMTFAC
 40
1.0
  9
$DIMTP
 40
0.01
  9
$DIMTM
 40
0.01
  9
$PDMODE
 70
3
  9
$PDSIZE
 40
0.06
  9
$HANDSEED
  5
229
  9
$TILEMODE
 70
1
  9
$MEASUREMENT
 70
0
  9
$INSUNITS
 70
1
  0
ENDSEC
  0
SECTION
  2
CLASSES
  0
CLASS
  1
ACDBDICTIONARYWDFLT
  2
AcDbDictionaryWithDefault
  3
AutoCAD 2000
 90
0
280
0
281
0
  0
CLASS
  1
ACDBPLACEHOLDER
  2
AcDbPlaceHolder
  3
AutoCAD 2000
 90
0
280
0
281
0
  0
CLASS
  1
LAYOUT
  2
AcDbLayout
  3
AutoCAD 2000
 90
0
280
0
281
0
  0
ENDSEC
  0
SECTION
  2
TABLES
  0
TABLE
  2
VPORT
  5
8
100
AcDbSymbolTable
 70
2
  0
VPORT
  5
1F4
100
AcDbSymbolTableRecord
100
AcDbViewportTableRecord
  2
*ACTIVE
 70
0
 10
0.0
 20
0.0
 11
1.0
 21
1.0
 12
5.8464566929
 22
4.1338582677
 13
0.0
 23
0.0
 14
1.0
 24
1.0
 15
0.0
 25
0.0
 16
0.0
 26
0.0
 36
1.0
 17
0.0
 27
0.0
 37
0.0
 40
8.2677165354
 41
1.4142857143
 42
50.0
 43
0.0
 44
0.0
 50
0.0
 51
0.0
 71
0
 72
100
 73
1
 74
1
 75
0
 76
0
 77
0
 78
0
  0
ENDTAB
  0
TABLE
  2
LTYPE
  5
5
100
AcDbSymbolTable
 70
6
  0
LTYPE
  5
14
100
AcDbSymbolTableRecord
100
AcDbLinetypeTableRecord
  2
BYBLOCK
 70
0
  3

 72
65
 73
0
 40
0.0
  0
LTYPE
  5
15
100
AcDbSymbolTableRecord
100
AcDbLinetypeTableRecord
  2
BYLAYER
 70
0
  3

 72
65
 73
0
 40
0.0
  0
LTYPE
  5
16
100
AcDbSymbolTableRecord
100
AcDbLinetypeTableRecord
  2
CONTINUOUS
 70
64
  3
Solid line
 72
65
 73
0
 40
0.0
  0
LTYPE
  5
1F5
100
AcDbSymbolTableRecord
100
AcDbLinetypeTableRecord
  2
CENTER
 70
64
  3
____ _ ____ _ ____ _ ____ _ ____ _ ____ _ ____
 72
65
 73
4
 40
0.6
 49
0.375
 74
0
 49
-0.075
 74
0
 49
0.075
 74
0
 49
-0.075
 74
0
  0
LTYPE
  5
1F6
100
AcDbSymbolTableRecord
100
AcDbLinetypeTableRecord
  2
HIDDEN
 70
64
  3
- - - - - - - - - - - - - - - - - - - -
 72
65
 73
2
 40
0.2
 49
0.1
 74
0
 49
-0.1
 74
0
  0
LTYPE
  5
1F7
100
AcDbSymbolTableRecord
100
AcDbLinetypeTableRecord
  2
PHANTOM
 70
64
  3
_____ _ _ _____ _ _ _____ _ _ _____
 72
65
 73
6
 40
0.8
 49
0.45
 74
0
 49
-0.05
 74
0
 49
0.1
 74
0
 49
-0.05
 74
0
 49
0.1
 74
0
 49
-0.05
 74
0
  0
LTYPE
  5
1F8
100
AcDbSymbolTableRecord
100
AcDbLinetypeTableRecord
  2
DOT
 70
64
  3
. . . . . . . . . . . . . . . . . . . .
 72
65
 73
2
 40
0.2
 49
0.1
 74
0
 49
-0.1
 74
0
  0
LTYPE
  5
1F9
100
AcDbSymbolTableRecord
100
AcDbLinetypeTableRecord
  2
DASHED
 70
64
  3
- - - - - - - - - - - - - - - - - - - -
 72
65
 73
2
 40
0.2
 49
0.1
 74
0
 49
-0.1
 74
0
  0
ENDTAB
  0
TABLE
  2
LAYER
  5
2
100
AcDbSymbolTable
 70
36
  0
LAYER
  5
10
100
AcDbSymbolTableRecord
100
AcDbLayerTableRecord
  2
0
 70
0
 62
7
  6
CONTINUOUS
370
-3
390
F
  0
LAYER
  5
1FA
100
AcDbSymbolTableRecord
100
AcDbLayerTableRecord
  2
DEFAULT_1
 70
0
 62
7
  6
CENTER
370
-3
390
F
  0
LAYER
  5
1FB
100
AcDbSymbolTableRecord
100
AcDbLayerTableRecord
  2
DEFAULT_2
 70
0
 62
8
  6
HIDDEN
370
-3
390
F
  0
LAYER
  5
1FC
100
AcDbSymbolTableRecord
100
AcDbLayerTableRecord
  2
DEFAULT_3
 70
0
 62
7
  6
PHANTOM
370
-3
390
F
  0
LAYER
  5
1FD
100
AcDbSymbolTableRecord
100
AcDbLayerTableRecord
  2
DEFAULT_COORDINATE_SYSTEM
 70
0
 62
7
  6
CONTINUOUS
370
-3
390
F
  0
LAYER
  5
1FE
100
AcDbSymbolTableRecord
100
AcDbLayerTableRecord
  2
DEFAULT_DATUM_AXES
 70
0
 62
7
  6
CONTINUOUS
370
-3
390
F
  0
LAYER
  5
1FF
100
AcDbSymbolTableRecord
100
AcDbLayerTableRecord
  2
DEFAULT_DATUM_CURVES
 70
0
 62
7
  6
CONTINUOUS
370
-3
390
F
  0
LAYER
  5
200
100
AcDbSymbolTableRecord
100
AcDbLayerTableRecord
  2
DEFAULT_DATUM_PLANES
 70
0
 62
7
  6
CONTINUOUS
370
-3
390
F
  0
ENDTAB
  0
TABLE
  2
STYLE
  5
3
100
AcDbSymbolTable
 70
1
  0
STYLE
  5
11
100
AcDbSymbolTableRecord
100
AcDbTextStyleTableRecord
  2
STANDARD
 70
0
 40
0.0
 41
0.8
 50
0.0
 71
0
 42
0.2
  3
txt
  4

  0
STYLE
  5
201
100
AcDbSymbolTableRecord
100
AcDbTextStyleTableRecord
  2
TEXTSTYLE_1
 70
0
 40
0.0
 41
0.8
 50
0.0
 71
0
 42
0.2
  3
gdt
  4

  0
ENDTAB
  0
TABLE
  2
VIEW
  5
6
100
AcDbSymbolTable
 70
0
  0
ENDTAB
  0
TABLE
  2
UCS
  5
7
100
AcDbSymbolTable
 70
0
  0
ENDTAB
  0
TABLE
  2
APPID
  5
9
100
AcDbSymbolTable
 70
1
  0
APPID
  5
202
100
AcDbSymbolTableRecord
100
AcDbRegAppTableRecord
  2
ACAD
 70
0
  0
ENDTAB
  0
TABLE
  2
BLOCK_RECORD
  5
1
100
AcDbSymbolTable
 70
0
  0
BLOCK_RECORD
  5
203
100
AcDbSymbolTableRecord
100
AcDbBlockTableRecord
  2
*Model_Space
  0
BLOCK_RECORD
  5
204
100
AcDbSymbolTableRecord
100
AcDbBlockTableRecord
  2
*Paper_Space
  0
ENDTAB
  0
TABLE
  2
DIMSTYLE
  5
A
100
AcDbSymbolTable
 70
1
100
AcDbDimStyleTable
 71
0
  0
DIMSTYLE
105
205
100
AcDbSymbolTableRecord
100
AcDbDimStyleTableRecord
  2
STANDARD
 70
0
  3

  4

 40
1.0
 41
0.1
 42
0.0625
 43
0.38
 44
0.18
 45
0.0
 46
0.0
 47
0.01
 48
0.01
140
0.08
141
0.09
142
0.0
143
25.4
144
1.0
145
0.0
146
1.0
147
0.09
 71
1.0
 72
0.0
 73
1
 74
1
 75
0
 76
0
 77
0
 78
4
170
0
171
2
172
0
173
0
174
0
175
0
176
0
177
0
178
0
270
2
271
2
272
2
273
2
274
2
275
0
280
0
281
0
282
0
283
1
284
4
285
0
286
0
287
3
288
0
340
11
  0
ENDTAB
  0
ENDSEC
  0
SECTION
  2
BLOCKS
  0
BLOCK
  5
20
100
AcDbEntity
  8
0
100
AcDbBlockBegin
  2
*Model_Space
 70
0
 10
0.0
 20
0.0
 30
0.0
  3
*Model_Space
  1

  0
ENDBLK
  5
21
100
AcDbEntity
  8
0
100
AcDbBlockEnd
  0
BLOCK
  5
1C
100
AcDbEntity
  8
0
100
AcDbBlockBegin
  2
*Paper_Space
 70
0
 10
0.0
 20
0.0
 30
0.0
  3
*Paper_Space
  1

  0
ENDBLK
  5
1D
100
AcDbEntity
  8
0
100
AcDbBlockEnd
  0
ENDSEC
  0
SECTION
  2
ENTITIES
  0
LINE
  5
206
100
AcDbEntity
  8
0
100
AcDbLine
 62
6
  6
CONTINUOUS
 10
4.2283672448
 20
4.2056420151
 11
4.2283672448
 21
4.8216420151
  0
LINE
  5
207
100
AcDbEntity
  8
0
100
AcDbLine
 62
6
  6
CONTINUOUS
 10
4.2483672448
 20
4.1856420151
 11
4.2483672448
 21
4.8416420151
  0
LINE
  5
208
100
AcDbEntity
  8
0
100
AcDbLine
 62
6
  6
CONTINUOUS
 10
4.2283672448
 20
4.8216420151
 11
4.2483672448
 21
4.8416420151
  0
LINE
  5
209
100
AcDbEntity
  8
0
100
AcDbLine
 62
6
  6
CONTINUOUS
 10
4.7083672448
 20
4.1452893401
 11
4.7083672448
 21
4.8819946901
  0
LINE
  5
20A
100
AcDbEntity
  8
0
100
AcDbLine
 62
6
  6
CONTINUOUS
 10
4.8018672448
 20
3.5036420151
 11
4.8018672448
 21
4.1093097097
  0
LINE
  5
20B
100
AcDbEntity
  8
0
100
AcDbLine
 62
6
  6
CONTINUOUS
 10
4.2283672448
 20
4.2056420151
 11
4.2483672448
 21
4.1856420151
  0
LINE
  5
20C
100
AcDbEntity
  8
0
100
AcDbLine
 62
6
  6
CONTINUOUS
 10
4.8707672448
 20
4.2146405709
 11
4.8707672448
 21
4.8819976906
  0
LINE
  5
20D
100
AcDbEntity
  8
0
100
AcDbLine
 62
6
  6
CONTINUOUS
 10
5.0331672448
 20
4.8819976906
 11
5.0331672448
 21
4.3221887737
  0
LINE
  5
20E
100
AcDbEntity
  8
0
100
AcDbLine
 62
6
  6
CONTINUOUS
 10
5.1955672448
 20
4.8819976906
 11
5.1955672448
 21
4.3221887737
  0
LINE
  5
20F
100
AcDbEntity
  8
0
100
AcDbLine
 62
6
  6
CONTINUOUS
 10
5.3579672448
 20
4.2146405709
 11
5.3579672448
 21
4.8819976906
  0
LINE
  5
210
100
AcDbEntity
  8
0
100
AcDbLine
 62
6
  6
CONTINUOUS
 10
5.4268672448
 20
3.5036420151
 11
5.4268672448
 21
4.1093098318
  0
LINE
  5
211
100
AcDbEntity
  8
0
100
AcDbLine
 62
6
  6
CONTINUOUS
 10
4.8018672448
 20
3.5036420151
 11
5.4268672448
 21
3.5036420151
  0
LINE
  5
212
100
AcDbEntity
  8
0
100
AcDbLine
 62
6
  6
CONTINUOUS
 10
5.5203672448
 20
4.1452893401
 11
5.5203672448
 21
4.8819946901
  0
LINE
  5
213
100
AcDbEntity
  8
0
100
AcDbLine
 62
6
  6
CONTINUOUS
 10
8.1083672448
 20
4.1856420151
 11
5.5203672448
 21
4.1856420151
  0
LINE
  5
214
100
AcDbEntity
  8
0
100
AcDbLine
 62
6
  6
CONTINUOUS
 10
4.7083672448
 20
4.1856420151
 11
4.2483672448
 21
4.1856420151
  0
LINE
  5
215
100
AcDbEntity
  8
0
100
AcDbLine
 62
6
  6
CONTINUOUS
 10
8.1083672448
 20
4.8416420151
 11
5.5203672448
 21
4.8416420151
  0
LINE
  5
216
100
AcDbEntity
  8
0
100
AcDbLine
 62
6
  6
CONTINUOUS
 10
4.7083672448
 20
4.8416420151
 11
4.2483672448
 21
4.8416420151
  0
LINE
  5
217
100
AcDbEntity
  8
0
100
AcDbLine
 62
6
  6
CONTINUOUS
 10
8.1083672448
 20
4.1856420151
 11
8.1283672448
 21
4.2056420151
  0
LINE
  5
218
100
AcDbEntity
  8
0
100
AcDbLine
 62
6
  6
CONTINUOUS
 10
8.1083672448
 20
4.8416420151
 11
8.1283672448
 21
4.8216420151
  0
LINE
  5
219
100
AcDbEntity
  8
0
100
AcDbLine
 62
6
  6
CONTINUOUS
 10
8.1083672448
 20
4.1856420151
 11
8.1083672448
 21
4.8416420151
  0
LINE
  5
21A
100
AcDbEntity
  8
0
100
AcDbLine
 62
6
  6
CONTINUOUS
 10
8.1283672448
 20
4.2056420151
 11
8.1283672448
 21
4.8216420151
  0
ARC
  5
21B
100
AcDbEntity
  8
0
100
AcDbCircle
 62
6
  6
CONTINUOUS
 10
5.4391672448
 20
4.8346420151
 40
0.094
100
AcDbArc
 50
30.2506503162
 51
149.7493496838
  0
ARC
  5
21C
100
AcDbEntity
  8
0
100
AcDbCircle
 62
6
  6
CONTINUOUS
 10
5.2767672448
 20
4.8346420151
 40
0.094
100
AcDbArc
 50
30.2506503162
 51
149.7493496838
  0
ARC
  5
21D
100
AcDbEntity
  8
0
100
AcDbCircle
 62
6
  6
CONTINUOUS
 10
5.1143672448
 20
4.8346420151
 40
0.094
100
AcDbArc
 50
30.2506503162
 51
149.7493496838
  0
ARC
  5
21E
100
AcDbEntity
  8
0
100
AcDbCircle
 62
6
  6
CONTINUOUS
 10
4.9519672448
 20
4.8346420151
 40
0.094
100
AcDbArc
 50
30.2506503162
 51
149.7493496838
  0
ARC
  5
21F
100
AcDbEntity
  8
0
100
AcDbCircle
 62
6
  6
CONTINUOUS
 10
4.7895672448
 20
4.8346420151
 40
0.094
100
AcDbArc
 50
30.2506503162
 51
149.7493496838
  0
ARC
  5
220
100
AcDbEntity
  8
0
100
AcDbCircle
 62
6
  6
CONTINUOUS
 10
5.4391672448
 20
4.1926420151
 40
0.094
100
AcDbArc
 50
270.1219060058
 51
329.7493496838
  0
ARC
  5
221
100
AcDbEntity
  8
0
100
AcDbCircle
 62
6
  6
CONTINUOUS
 10
4.7895672448
 20
4.1926420151
 40
0.094
100
AcDbArc
 50
210.2506503162
 51
269.8780939942
  0
SPLINE
  5
222
100
AcDbEntity
  8
0
100
AcDbSpline
 62
6
  6
CONTINUOUS
 70
0
 71
3
 72
41
 73
37
 74
35
 42
0.0000001
 43
0.0000001
 44
0.0000000001
 12
0.0601971179
 22
-0.2241242513
 32
0.0
 13
0.1416516822
 23
0.1838210378
 33
0.0
 40
0.0
 40
0.0
 40
0.0
 40
0.0
 40
0.0695844644
 40
0.1390580448
 40
0.1737259909
 40
0.2083244299
 40
0.2428312643
 40
0.2772301257
 40
0.345620294
 40
0.3795631323
 40
0.4132888128
 40
0.4467632063
 40
0.4799402026
 40
0.5127762617
 40
0.5452294191
 40
0.5772485551
 40
0.6087848746
 40
0.6397950355
 40
0.6702349071
 40
0.7000686116
 40
0.7292720189
 40
0.7578312514
 40
0.7718741266
 40
0.7857617884
 40
0.8130837689
 40
0.8398695351
 40
0.8662348064
 40
0.8793134043
 40
0.8923541319
 40
0.918443966
 40
0.9315833426
 40
0.9448408998
 40
0.9582701004
 40
0.9719169263
 40
0.9858148408
 40
1.0
 40
1.0
 40
1.0
 40
1.0
 10
5.1955672448
 20
4.3221887737
 30
0.0
 10
5.1969635062
 20
4.3169902517
 30
0.0
 10
5.2000667083
 20
4.3066822512
 30
0.0
 10
5.2047942983
 20
4.2940897666
 30
0.0
 10
5.2091214707
 20
4.2842658877
 30
0.0
 10
5.2126404138
 20
4.2770484924
 30
0.0
 10
5.2164366031
 20
4.2699962522
 30
0.0
 10
5.2218577848
 20
4.2608607871
 30
0.0
 10
5.2278467507
 20
4.2521220635
 30
0.0
 10
5.2343837961
 20
4.243869499
 30
0.0
 10
5.2395299807
 20
4.2379718677
 30
0.0
 10
5.244918145
 20
4.2323765214
 30
0.0
 10
5.2505296091
 20
4.2271049057
 30
0.0
 10
5.256345339
 20
4.2221806362
 30
0.0
 10
5.2623445035
 20
4.2176279656
 30
0.0
 10
5.2685012893
 20
4.2134675511
 30
0.0
 10
5.2747890987
 20
4.2097210855
 30
0.0
 10
5.2811802177
 20
4.2064109204
 30
0.0
 10
5.2876445559
 20
4.2035574649
 30
0.0
 10
5.2941512647
 20
4.2011816706
 30
0.0
 10
5.3006682077
 20
4.1993049978
 30
0.0
 10
5.3061119336
 20
4.1981701916
 30
0.0
 10
5.3104373333
 20
4.1975406842
 30
0.0
 10
5.3146900452
 20
4.197103453
 30
0.0
 10
5.3199544259
 20
4.1969098973
 30
0.0
 10
5.3261783192
 20
4.1972844241
 30
0.0
 10
5.3312425381
 20
4.1981338959
 30
0.0
 10
5.3351741519
 20
4.1991560228
 30
0.0
 10
5.3390151888
 20
4.2004101043
 30
0.0
 10
5.3427341441
 20
4.2020328546
 30
0.0
 10
5.3462705807
 20
4.2040328758
 30
0.0
 10
5.3488402161
 20
4.2057374151
 30
0.0
 10
5.351310082
 20
4.2076483206
 30
0.0
 10
5.3536700938
 20
4.2097684332
 30
0.0
 10
5.3559090099
 20
4.2120976586
 30
0.0
 10
5.3572974609
 20
4.213771394
 30
0.0
 10
5.3579672448
 20
4.2146405709
 30
0.0
 11
5.1955672448
 21
4.3221887737
 31
0.0
 11
5.2002396974
 21
4.3067312261
 31
0.0
 11
5.205925742
 21
4.291644607
 31
0.0
 11
5.2091708491
 21
4.2842827969
 31
0.0
 11
5.2126914463
 21
4.2770666292
 31
0.0
 11
5.2164890989
 21
4.2700164808
 31
0.0
 11
5.2205653025
 21
4.2631527617
 31
0.0
 11
5.2295495915
 21
4.250069348
 31
0.0
 11
5.2344424904
 21
4.2438962457
 31
0.0
 11
5.2395901403
 21
4.2380006574
 31
0.0
 11
5.2449799131
 21
4.2324062691
 31
0.0
 11
5.2505931836
 21
4.2271364961
 31
0.0
 11
5.2564106913
 21
4.2222147248
 31
0.0
 11
5.2624117147
 21
4.2176640549
 31
0.0
 11
5.2685703862
 21
4.2135065745
 31
0.0
 11
5.2748597063
 21
4.2097641494
 31
0.0
 11
5.2812520285
 21
4.2064585232
 31
0.0
 11
5.2877167443
 21
4.20361088
 31
0.0
 11
5.2942223983
 21
4.201242244
 31
0.0
 11
5.3007370194
 21
4.1993741768
 31
0.0
 11
5.3072269519
 21
4.1980299966
 31
0.0
 11
5.3104520353
 21
4.1975617628
 31
0.0
 11
5.3136581483
 21
4.1972334762
 31
0.0
 11
5.3199948204
 21
4.1970118529
 31
0.0
 11
5.3261990047
 21
4.1973966949
 31
0.0
 11
5.332231099
 21
4.1984214833
 31
0.0
 11
5.3351682154
 21
4.199186528
 31
0.0
 11
5.3380446415
 21
4.2001271919
 31
0.0
 11
5.3435901186
 21
4.2025574038
 31
0.0
 11
5.3462439367
 21
4.2040590743
 31
0.0
 11
5.3488075035
 21
4.2057602203
 31
0.0
 11
5.3512725235
 21
4.2076670865
 31
0.0
 11
5.3536289566
 21
4.2097829847
 31
0.0
 11
5.3558646308
 21
4.2121076428
 31
0.0
 11
5.3579672448
 21
4.2146405709
 31
0.0
  0
SPLINE
  5
223
100
AcDbEntity
  8
0
100
AcDbSpline
 62
6
  6
CONTINUOUS
 70
0
 71
3
 72
41
 73
37
 74
35
 42
0.0000001
 43
0.0000001
 44
0.0000000001
 12
0.0738554013
 22
-0.2123286334
 32
0.0
 13
0.0738554013
 23
0.2123286334
 33
0.0
 40
0.0
 40
0.0
 40
0.0
 40
0.0
 40
0.0624705019
 40
0.0936937604
 40
0.1248992455
 40
0.1560803742
 40
0.1872403947
 40
0.2184046103
 40
0.2495734521
 40
0.2651644038
 40
0.2807620532
 40
0.3119739797
 40
0.3432163552
 40
0.3745012181
 40
0.4058274455
 40
0.4215083825
 40
0.437198644
 40
0.4685923326
 40
0.5000000014
 40
0.5314076758
 40
0.562801379
 40
0.5784916501
 40
0.5941725965
 40
0.6254988425
 40
0.6567837247
 40
0.6880261049
 40
0.7192380307
 40
0.7348356808
 40
0.7504266271
 40
0.7815954491
 40
0.8127596538
 40
0.8439196665
 40
0.8751007843
 40
0.9063062628
 40
0.9375295126
 40
1.0
 40
1.0
 40
1.0
 40
1.0
 10
5.0331672448
 20
4.3221887737
 30
0.0
 10
5.0347051728
 20
4.3177673482
 30
0.0
 10
5.0373163804
 20
4.3112331167
 30
0.0
 10
5.0414920781
 20
4.3028523315
 30
0.0
 10
5.0449921299
 20
4.2967677477
 30
0.0
 10
5.0488741435
 20
4.290924672
 30
0.0
 10
5.0531497162
 20
4.2853657644
 30
0.0
 10
5.0578262965
 20
4.2801402782
 30
0.0
 10
5.0620525864
 20
4.2761010714
 30
0.0
 10
5.0656234635
 20
4.2730852738
 30
0.0
 10
5.0693206759
 20
4.2702204934
 30
0.0
 10
5.0741709321
 20
4.2669377467
 30
0.0
 10
5.0803182107
 20
4.2635198254
 30
0.0
 10
5.0867574063
 20
4.2606678342
 30
0.0
 10
5.0923243127
 20
4.2587878103
 30
0.0
 10
5.0968703178
 20
4.2575955872
 30
0.0
 10
5.1014719365
 20
4.2566156592
 30
0.0
 10
5.1073052884
 20
4.2557935792
 30
0.0
 10
5.1143672455
 20
4.2554615713
 30
0.0
 10
5.1214292037
 20
4.2557935796
 30
0.0
 10
5.1272625577
 20
4.2566156606
 30
0.0
 10
5.131864179
 20
4.2575955887
 30
0.0
 10
5.1364101867
 20
4.258787813
 30
0.0
 10
5.1419770955
 20
4.2606678407
 30
0.0
 10
5.1484162945
 20
4.263519832
 30
0.0
 10
5.1545635736
 20
4.2669377563
 30
0.0
 10
5.1594138281
 20
4.2702205061
 30
0.0
 10
5.1631110411
 20
4.2730852848
 30
0.0
 10
5.1666819168
 20
4.2761010814
 30
0.0
 10
5.1709082029
 20
4.2801402882
 30
0.0
 10
5.1755847801
 20
4.2853657733
 30
0.0
 10
5.1798603514
 20
4.2909246792
 30
0.0
 10
5.183742363
 20
4.2967677539
 30
0.0
 10
5.1872424138
 20
4.302852336
 30
0.0
 10
5.1914181106
 20
4.3112331192
 30
0.0
 10
5.1940293171
 20
4.3177673493
 30
0.0
 10
5.1955672448
 20
4.3221887737
 30
0.0
 11
5.0331672448
 21
4.3221887737
 31
0.0
 11
5.0384189375
 21
4.309163884
 31
0.0
 11
5.0415544689
 21
4.302883948
 31
0.0
 11
5.0450571678
 21
4.2968057758
 31
0.0
 11
5.0489409472
 21
4.2909703203
 31
0.0
 11
5.0532164388
 21
4.2854214509
 31
0.0
 11
5.0578917456
 21
4.2802037407
 31
0.0
 11
5.0629603928
 21
4.2753657264
 31
0.0
 11
5.065638551
 21
4.2731047199
 31
0.0
 11
5.0684105638
 21
4.2709573533
 31
0.0
 11
5.0742226541
 21
4.2670263226
 31
0.0
 11
5.080362732
 21
4.2636161985
 31
0.0
 11
5.0867935759
 21
4.2607687416
 31
0.0
 11
5.0934660437
 21
4.2585164487
 31
0.0
 11
5.0968759759
 21
4.2576224363
 31
0.0
 11
5.1003258811
 21
4.2568877027
 31
0.0
 11
5.1073143302
 21
4.2559027836
 31
0.0
 11
5.1143672451
 21
4.2555722571
 31
0.0
 11
5.1214201612
 21
4.2559027841
 31
0.0
 11
5.1284086135
 21
4.256887704
 31
0.0
 11
5.1318585208
 21
4.2576224379
 31
0.0
 11
5.135268455
 21
4.2585164512
 31
0.0
 11
5.1419409261
 21
4.2607687475
 31
0.0
 11
5.1483717739
 21
4.2636162062
 31
0.0
 11
5.1545118517
 21
4.2670263327
 31
0.0
 11
5.1603239405
 21
4.2709573653
 31
0.0
 11
5.1630959538
 21
4.2731047315
 31
0.0
 11
5.1657741111
 21
4.2753657371
 31
0.0
 11
5.1708427535
 21
4.28020375
 31
0.0
 11
5.1755180576
 21
4.2854214594
 31
0.0
 11
5.1797935477
 21
4.2909703277
 31
0.0
 11
5.1836773251
 21
4.2968057816
 31
0.0
 11
5.1871800231
 21
4.3028839527
 31
0.0
 11
5.1903155535
 21
4.3091638869
 31
0.0
 11
5.1955672448
 21
4.3221887737
 31
0.0
  0
SPLINE
  5
224
100
AcDbEntity
  8
0
100
AcDbSpline
 62
6
  6
CONTINUOUS
 70
0
 71
3
 72
41
 73
37
 74
35
 42
0.0000001
 43
0.0000001
 44
0.0000000001
 12
0.1416516822
 22
-0.1838210377
 32
0.0
 13
0.0601971179
 23
0.2241242512
 33
0.0
 40
0.0
 40
0.0
 40
0.0
 40
0.0
 40
0.0141851544
 40
0.0280830519
 40
0.0417298434
 40
0.0551589989
 40
0.0684165361
 40
0.08155591
 40
0.1076457409
 40
0.1206864668
 40
0.1337650656
 40
0.1601303317
 40
0.1869160893
 40
0.2142380663
 40
0.2281257208
 40
0.2421685875
 40
0.2707278056
 40
0.2999311946
 40
0.32976488
 40
0.3602047398
 40
0.3912148878
 40
0.4227512054
 40
0.4547703515
 40
0.4872235137
 40
0.5200595839
 40
0.5532366105
 40
0.5867110379
 40
0.6204367563
 40
0.6543796554
 40
0.7227699625
 40
0.7571688648
 40
0.7916757176
 40
0.826274164
 40
0.8609421117
 40
0.9304156074
 40
1.0
 40
1.0
 40
1.0
 40
1.0
 10
4.8707672448
 20
4.2146405709
 30
0.0
 10
4.8714370284
 20
4.2137713943
 30
0.0
 10
4.8728254776
 20
4.2120976597
 30
0.0
 10
4.875064389
 20
4.2097684358
 30
0.0
 10
4.8774243942
 20
4.207648327
 30
0.0
 10
4.8798942557
 20
4.2057374282
 30
0.0
 10
4.882463887
 20
4.2040328924
 30
0.0
 10
4.886000321
 20
4.2020328708
 30
0.0
 10
4.8897192726
 20
4.2004101136
 30
0.0
 10
4.8935603086
 20
4.1991560299
 30
0.0
 10
4.8974919218
 20
4.1981339027
 30
0.0
 10
4.902556139
 20
4.1972844271
 30
0.0
 10
4.9087800308
 20
4.1969098969
 30
0.0
 10
4.9140444099
 20
4.1971034527
 30
0.0
 10
4.9182971208
 20
4.1975406799
 30
0.0
 10
4.9226225187
 20
4.1981701838
 30
0.0
 10
4.9280662417
 20
4.1993049882
 30
0.0
 10
4.9345831815
 20
4.2011816573
 30
0.0
 10
4.9410898883
 20
4.2035574461
 30
0.0
 10
4.947554225
 20
4.2064108968
 30
0.0
 10
4.9539453427
 20
4.2097210598
 30
0.0
 10
4.9602331533
 20
4.2134675226
 30
0.0
 10
4.9663899432
 20
4.2176279327
 30
0.0
 10
4.9723891102
 20
4.2221806036
 30
0.0
 10
4.9782048429
 20
4.2271048753
 30
0.0
 10
4.9838163153
 20
4.2323764906
 30
0.0
 10
4.9892044871
 20
4.2379718408
 30
0.0
 10
4.9943506751
 20
4.2438694827
 30
0.0
 10
5.0008877321
 20
4.2521220613
 30
0.0
 10
5.0068767131
 20
4.2608607973
 30
0.0
 10
5.0122979009
 20
4.2699962766
 30
0.0
 10
5.0160940892
 20
4.2770485233
 30
0.0
 10
5.0196130304
 20
4.2842659217
 30
0.0
 10
5.0239402061
 20
4.2940897928
 30
0.0
 10
5.028667791
 20
4.3066822668
 30
0.0
 10
5.0317709848
 20
4.316990257
 30
0.0
 10
5.0331672448
 20
4.3221887737
 30
0.0
 11
4.8707672448
 21
4.2146405709
 31
0.0
 11
4.8728698572
 21
4.2121076429
 31
0.0
 11
4.8751055272
 21
4.2097829863
 31
0.0
 11
4.8774619537
 21
4.2076670928
 31
0.0
 11
4.8799269665
 21
4.2057602342
 31
0.0
 11
4.8824905297
 21
4.2040590913
 31
0.0
 11
4.8851443465
 21
4.2025574198
 31
0.0
 11
4.8906898198
 21
4.2001272011
 31
0.0
 11
4.8935662449
 21
4.1991865354
 31
0.0
 11
4.8965033613
 21
4.1984214898
 31
0.0
 11
4.9025354538
 21
4.197396698
 31
0.0
 11
4.9087396359
 21
4.1970118531
 31
0.0
 11
4.9150763073
 21
4.1972334746
 31
0.0
 11
4.9182824188
 21
4.1975617585
 31
0.0
 11
4.9215075006
 21
4.1980299898
 31
0.0
 11
4.9279974304
 21
4.199374167
 31
0.0
 11
4.9345120481
 21
4.2012422304
 31
0.0
 11
4.9410176993
 21
4.2036108611
 31
0.0
 11
4.9474824141
 21
4.2064585
 31
0.0
 11
4.9538747344
 21
4.2097641231
 31
0.0
 11
4.9601640558
 21
4.2135065452
 31
0.0
 11
4.9663227319
 21
4.217664023
 31
0.0
 11
4.9723237573
 21
4.2222146921
 31
0.0
 11
4.9781412679
 21
4.2271364639
 31
0.0
 11
4.9837545466
 21
4.2324062385
 31
0.0
 11
4.9891443264
 21
4.2380006311
 31
0.0
 11
4.9942919802
 21
4.2438962276
 31
0.0
 11
4.9991848878
 21
4.250069341
 31
0.0
 11
5.0081691983
 21
4.263152779
 31
0.0
 11
5.0122454056
 21
4.270016507
 31
0.0
 11
5.0160430572
 21
4.2770666608
 31
0.0
 11
5.0195636534
 21
4.2842828308
 31
0.0
 11
5.0228087631
 21
4.2916446402
 31
0.0
 11
5.0284948007
 21
4.3067312409
 31
0.0
 11
5.0331672448
 21
4.3221887737
 31
0.0
  0
SPLINE
  5
225
100
AcDbEntity
  8
0
100
AcDbSpline
 62
6
  6
CONTINUOUS
 70
0
 71
3
 72
31
 73
27
 74
25
 42
0.0000001
 43
0.0000001
 44
0.0000000001
 12
0.0464354117
 22
-0.1359220731
 32
0.0
 13
0.1136754732
 23
-0.0878010998
 33
0.0
 40
0.0
 40
0.0
 40
0.0
 40
0.0
 40
0.1110041168
 40
0.2181744614
 40
0.2700428078
 40
0.3206446863
 40
0.3698913003
 40
0.4176907065
 40
0.5086270276
 40
0.5928224643
 40
0.6697568935
 40
0.7390155655
 40
0.7706737245
 40
0.8003203703
 40
0.8279295255
 40
0.8534816318
 40
0.8769756486
 40
0.8984109299
 40
0.9177845412
 40
0.9350936946
 40
0.9635440637
 40
0.9838184945
 40
0.9909036331
 40
0.9959596722
 40
0.9989905322
 40
1.0
 40
1.0
 40
1.0
 40
1.0
 10
5.3579672448
 20
4.2146405709
 30
0.0
 10
5.3596854187
 20
4.2096112676
 30
0.0
 10
5.3633790454
 20
4.1998316468
 30
0.0
 10
5.3686823831
 20
4.1880313907
 30
0.0
 10
5.3732024285
 20
4.1790681372
 30
0.0
 10
5.376657189
 20
4.1726772088
 30
0.0
 10
5.3801904129
 20
4.1665533151
 30
0.0
 10
5.3848981793
 20
4.1588814145
 30
0.0
 10
5.3908300742
 20
4.1500019695
 30
0.0
 10
5.3980183548
 20
4.1403022896
 30
0.0
 10
5.4049850056
 20
4.1317455888
 30
0.0
 10
5.4106332781
 20
4.1253700287
 30
0.0
 10
5.4149148816
 20
4.1208149543
 30
0.0
 10
5.4178865686
 20
4.1177664159
 30
0.0
 10
5.4207020808
 20
4.1149747873
 30
0.0
 10
5.4233489853
 20
4.1124321831
 30
0.0
 10
5.4258178126
 20
4.1101314866
 30
0.0
 10
5.4280996831
 20
4.1080645656
 30
0.0
 10
5.430186032
 20
4.106223265
 30
0.0
 10
5.4325469978
 20
4.1041858703
 30
0.0
 10
5.4349711071
 20
4.1021558837
 30
0.0
 10
5.4370489168
 20
4.1004756617
 30
0.0
 10
5.438262769
 20
4.0995085531
 30
0.0
 10
5.438833051
 20
4.0990586011
 30
0.0
 10
5.4391760678
 20
4.0987902383
 30
0.0
 10
5.4393289942
 20
4.098671772
 30
0.0
 10
5.4393672448
 20
4.0986422279
 30
0.0
 11
5.3579672448
 21
4.2146405709
 31
0.0
 11
5.3635969575
 21
4.1997234516
 31
0.0
 11
5.3699072593
 21
4.1856828766
 31
0.0
 11
5.3732615076
 21
4.1790305631
 31
0.0
 11
5.3767177706
 21
4.1726367299
 31
0.0
 11
5.380252874
 21
4.1665098969
 31
0.0
 11
5.3838436459
 21
4.1606580723
 31
0.0
 11
5.3910995698
 21
4.1497972099
 31
0.0
 11
5.398301147
 21
4.1400818508
 31
0.0
 11
5.4052786386
 21
4.1315128421
 31
0.0
 11
5.4118765995
 21
4.124067762
 31
0.0
 11
5.4149911253
 21
4.1207546094
 31
0.0
 11
5.4179635457
 21
4.1177053735
 31
0.0
 11
5.4207796131
 21
4.1149132225
 31
0.0
 11
5.4234266818
 21
4.1123709295
 31
0.0
 11
5.4258955553
 21
4.1100704156
 31
0.0
 11
5.4281774851
 21
4.1080034916
 31
0.0
 11
5.4302637224
 21
4.106161968
 31
0.0
 11
5.4321461708
 21
4.1045379011
 31
0.0
 11
5.4352798854
 21
4.1019150982
 31
0.0
 11
5.4375432072
 21
4.1000826618
 31
0.0
 11
5.4383393354
 21
4.0994487515
 31
0.0
 11
5.438909557
 21
4.0989990293
 31
0.0
 11
5.439252613
 21
4.0987310149
 31
0.0
 11
5.4393672448
 21
4.0986422279
 31
0.0
  0
SPLINE
  5
226
100
AcDbEntity
  8
0
100
AcDbSpline
 62
6
  6
CONTINUOUS
 70
0
 71
3
 72
31
 73
27
 74
25
 42
0.0000001
 43
0.0000001
 44
0.0000000001
 12
0.1136764638
 22
0.0877998184
 32
0.0
 13
0.0464354117
 23
0.1359220732
 33
0.0
 40
0.0
 40
0.0
 40
0.0
 40
0.0
 40
0.0010094705
 40
0.0040403387
 40
0.0090963912
 40
0.0161815486
 40
0.0364560286
 40
0.0649064254
 40
0.0822155721
 40
0.1015891824
 40
0.123024476
 40
0.1465185007
 40
0.1720705936
 40
0.1996797195
 40
0.2293263532
 40
0.2609845079
 40
0.3302431618
 40
0.4071776184
 40
0.4913731376
 40
0.5823096131
 40
0.63010904
 40
0.6793556426
 40
0.7299574917
 40
0.781825775
 40
0.8889959425
 40
1.0
 40
1.0
 40
1.0
 40
1.0
 10
4.7893672448
 20
4.0986422279
 30
0.0
 10
4.7894054958
 20
4.0986717717
 30
0.0
 10
4.7895584237
 20
4.0987902368
 30
0.0
 10
4.789901443
 20
4.0990585983
 30
0.0
 10
4.7904717275
 20
4.0995085503
 30
0.0
 10
4.7916855799
 20
4.1004756649
 30
0.0
 10
4.7937633868
 20
4.1021558976
 30
0.0
 10
4.7961875065
 20
4.1041858769
 30
0.0
 10
4.79854847
 20
4.1062232758
 30
0.0
 10
4.800634817
 20
4.108064579
 30
0.0
 10
4.8029166889
 20
4.1101314996
 30
0.0
 10
4.8053855177
 20
4.112432195
 30
0.0
 10
4.8080324213
 20
4.1149747979
 30
0.0
 10
4.8108479298
 20
4.1177664264
 30
0.0
 10
4.8138196153
 20
4.1208149633
 30
0.0
 10
4.818101218
 20
4.1253700362
 30
0.0
 10
4.8237494908
 20
4.1317455963
 30
0.0
 10
4.8307161446
 20
4.1403023003
 30
0.0
 10
4.8379044309
 20
4.1500019919
 30
0.0
 10
4.8438363291
 20
4.1588814494
 30
0.0
 10
4.8485441018
 20
4.1665533554
 30
0.0
 10
4.8520773243
 20
4.1726772488
 30
0.0
 10
4.8555320798
 20
4.1790681742
 30
0.0
 10
4.8600521178
 20
4.188031417
 30
0.0
 10
4.8653554525
 20
4.1998316587
 30
0.0
 10
4.8690490717
 20
4.2096112703
 30
0.0
 10
4.8707672448
 20
4.2146405709
 30
0.0
 11
4.7893672448
 21
4.0986422279
 31
0.0
 11
4.7894818777
 21
4.098731014
 31
0.0
 11
4.7898249364
 21
4.098999027
 31
0.0
 11
4.7903951604
 21
4.0994487491
 31
0.0
 11
4.7911912895
 21
4.1000826627
 31
0.0
 11
4.7934546122
 21
4.1019151092
 31
0.0
 11
4.7965883332
 21
4.1045379107
 31
0.0
 11
4.7984707796
 21
4.1061619784
 31
0.0
 11
4.8005570151
 21
4.1080035039
 31
0.0
 11
4.8028389464
 21
4.1100704288
 31
0.0
 11
4.8053078218
 21
4.1123709424
 31
0.0
 11
4.8079548892
 21
4.114913234
 31
0.0
 11
4.8107709524
 21
4.1177053831
 31
0.0
 11
4.8137433714
 21
4.1207546181
 31
0.0
 11
4.8168578969
 21
4.1240677701
 31
0.0
 11
4.8234558564
 21
4.131512848
 31
0.0
 11
4.8304333504
 21
4.1400818597
 31
0.0
 11
4.8376349329
 21
4.1497972297
 31
0.0
 11
4.8448908668
 21
4.1606581121
 31
0.0
 11
4.848481641
 21
4.1665099388
 31
0.0
 11
4.8520167429
 21
4.1726367708
 31
0.0
 11
4.8554730017
 21
4.1790306014
 31
0.0
 11
4.8588272448
 21
4.1856829074
 31
0.0
 11
4.8651375369
 21
4.1997234588
 31
0.0
 11
4.8707672448
 21
4.2146405709
 31
0.0
  0
ENDSEC
  0
SECTION
  2
OBJECTS
  0
DICTIONARY
  5
C
100
AcDbDictionary
280
0
281
1
  3
ACAD_GROUP
350
D
  3
ACAD_MLINESTYLE
350
17
  3
ACAD_LAYOUT
350
1A
  3
ACAD_PLOTSETTINGS
350
19
  3
ACAD_PLOTSTYLENAME
350
E
  0
DICTIONARY
  5
D
102
{ACAD_REACTORS
330
C
102
}
100
AcDbDictionary
280
0
281
1
  0
ACDBDICTIONARYWDFLT
  5
E
102
{ACAD_REACTORS
330
C
102
}
100
AcDbDictionary
281
1
  3
Normal
350
F
100
AcDbDictionaryWithDefault
340
F
  0
DICTIONARY
  5
17
102
{ACAD_REACTORS
330
C
102
}
100
AcDbDictionary
280
0
281
1
  3
Standard
350
18
  0
DICTIONARY
  5
19
102
{ACAD_REACTORS
330
C
102
}
100
AcDbDictionary
281
1
  0
DICTIONARY
  5
1A
102
{ACAD_REACTORS
330
C
102
}
100
AcDbDictionary
281
1
  3
Model
350
227
  3
Layout1
350
228
  0
ACDBPLACEHOLDER
  5
F
102
{ACAD_REACTORS
330
E
102
}
  0
MLINESTYLE
  5
18
102
{ACAD_REACTORS
330
17
102
}
100
AcDbMlineStyle
  2
STANDARD
 70
0
  3

 62
256
 51
90.0
 52
90.0
 71
2
 49
0.5
 62
256
  6
BYLAYER
 49
-0.5
 62
256
  6
BYLAYER
  0
LAYOUT
  5
227
102
{ACAD_REACTORS
330
1A
102
}
100
AcDbPlotSettings
  1

  2
none_device
  4
ISO_A4_(297.00_x_210.00_MM)
  6

 40
0.0
 41
0.0
 42
0.0
 43
0.0
 44
297.0
 45
210.0
 46
0.0
 47
0.0
 48
0.0
 49
0.0
140
0.0
141
0.0
142
1.0
143
1.0
 70
1024
 72
0
 73
0
 74
0
  7

 75
0
147
1.0
148
0.0
149
0.0
100
AcDbLayout
  1
Model
 70
0
 71
0
 10
0.0
 20
0.0
 11
11.6929133858
 21
8.2677165354
 12
0.0
 22
0.0
 32
0.0
 14
0.0
 24
0.0
 34
0.0
 15
0.0
 25
0.0
 35
0.0
146
0.0
 13
0.0
 23
0.0
 33
0.0
 16
1.0
 26
0.0
 36
0.0
 17
0.0
 27
1.0
 37
0.0
 76
0
330
203
345
0
346
0
  0
LAYOUT
  5
228
102
{ACAD_REACTORS
330
1A
102
}
100
AcDbPlotSettings
  1

  2
none_device
  4
ISO_A4_(297.00_x_210.00_MM)
  6

 40
0.0
 41
0.0
 42
0.0
 43
0.0
 44
297.0
 45
210.0
 46
0.0
 47
0.0
 48
0.0
 49
0.0
140
0.0
141
0.0
142
1.0
143
1.0
 70
0
 72
0
 73
0
 74
0
  7

 75
0
147
1.0
148
0.0
149
0.0
100
AcDbLayout
  1
Layout1
 70
0
 71
1
 10
0.0
 20
0.0
 11
11.6929133858
 21
8.2677165354
 12
0.0
 22
0.0
 32
0.0
 14
0.0
 24
0.0
 34
0.0
 15
0.0
 25
0.0
 35
0.0
146
0.0
 13
0.0
 23
0.0
 33
0.0
 16
1.0
 26
0.0
 36
0.0
 17
0.0
 27
1.0
 37
0.0
 76
0
330
204
345
0
346
0
  0
ENDSEC
  0
EOF
