  0
SECTION
  2
HEADER
  9
$ACADVER
  1
AC1015
  9
$DWGCODEPAGE
  3
ANSI_1252
  9
$EXTMAX
 10
11.6929133858
 20
8.2677165354
 30
0.0
  9
$EXTMIN
 10
0.0
 20
0.0
 30
0.0
  9
$LIMMIN
 10
0.0
 20
0.0
  9
$LIMMAX
 10
11.6929133858
 20
8.2677165354
  9
$VIEWCTR
 10
5.8464566929
 20
4.1338582677
  9
$VIEWSIZE
 40
8.2677165354
  9
$CLAYER
  8
0
  9
$LTSCALE
 40
0.6431102362
  9
$CELTYPE
  6
BYLAYER
  9
$DIMSCALE
 40
1.0
  9
$DIMASZ
 40
0.1
  9
$DIMEXO
 40
0.0730807087
  9
$DIMDLI
 40
0.4443307087
  9
$DIMEXE
 40
0.2104724409
  9
$DIMCEN
 40
0.1052362205
  9
$DIMLFAC
 40
1.0
  9
$DIMBLK
  1
_FILLED
  9
$DIMTXT
 40
0.08
  9
$DIMTOL
 70
1
  9
$DIMLIM
 70
0
  9
$DIMTFAC
 40
1.0
  9
$DIMTP
 40
0.01
  9
$DIMTM
 40
0.01
  9
$PDMODE
 70
3
  9
$PDSIZE
 40
0.06
  9
$HANDSEED
  5
229
  9
$TILEMODE
 70
1
  9
$MEASUREMENT
 70
0
  9
$INSUNITS
 70
1
  0
ENDSEC
  0
SECTION
  2
CLASSES
  0
CLASS
  1
ACDBDICTIONARYWDFLT
  2
AcDbDictionaryWithDefault
  3
AutoCAD 2000
 90
0
280
0
281
0
  0
CLASS
  1
ACDBPLACEHOLDER
  2
AcDbPlaceHolder
  3
AutoCAD 2000
 90
0
280
0
281
0
  0
CLASS
  1
LAYOUT
  2
AcDbLayout
  3
AutoCAD 2000
 90
0
280
0
281
0
  0
ENDSEC
  0
SECTION
  2
TABLES
  0
TABLE
  2
VPORT
  5
8
100
AcDbSymbolTable
 70
2
  0
VPORT
  5
1F4
100
AcDbSymbolTableRecord
100
AcDbViewportTableRecord
  2
*ACTIVE
 70
0
 10
0.0
 20
0.0
 11
1.0
 21
1.0
 12
5.8464566929
 22
4.1338582677
 13
0.0
 23
0.0
 14
1.0
 24
1.0
 15
0.0
 25
0.0
 16
0.0
 26
0.0
 36
1.0
 17
0.0
 27
0.0
 37
0.0
 40
8.2677165354
 41
1.4142857143
 42
50.0
 43
0.0
 44
0.0
 50
0.0
 51
0.0
 71
0
 72
100
 73
1
 74
1
 75
0
 76
0
 77
0
 78
0
  0
ENDTAB
  0
TABLE
  2
LTYPE
  5
5
100
AcDbSymbolTable
 70
6
  0
LTYPE
  5
14
100
AcDbSymbolTableRecord
100
AcDbLinetypeTableRecord
  2
BYBLOCK
 70
0
  3

 72
65
 73
0
 40
0.0
  0
LTYPE
  5
15
100
AcDbSymbolTableRecord
100
AcDbLinetypeTableRecord
  2
BYLAYER
 70
0
  3

 72
65
 73
0
 40
0.0
  0
LTYPE
  5
16
100
AcDbSymbolTableRecord
100
AcDbLinetypeTableRecord
  2
CONTINUOUS
 70
64
  3
Solid line
 72
65
 73
0
 40
0.0
  0
LTYPE
  5
1F5
100
AcDbSymbolTableRecord
100
AcDbLinetypeTableRecord
  2
CENTER
 70
64
  3
____ _ ____ _ ____ _ ____ _ ____ _ ____ _ ____
 72
65
 73
4
 40
0.6
 49
0.375
 74
0
 49
-0.075
 74
0
 49
0.075
 74
0
 49
-0.075
 74
0
  0
LTYPE
  5
1F6
100
AcDbSymbolTableRecord
100
AcDbLinetypeTableRecord
  2
HIDDEN
 70
64
  3
- - - - - - - - - - - - - - - - - - - -
 72
65
 73
2
 40
0.2
 49
0.1
 74
0
 49
-0.1
 74
0
  0
LTYPE
  5
1F7
100
AcDbSymbolTableRecord
100
AcDbLinetypeTableRecord
  2
PHANTOM
 70
64
  3
_____ _ _ _____ _ _ _____ _ _ _____
 72
65
 73
6
 40
0.8
 49
0.45
 74
0
 49
-0.05
 74
0
 49
0.1
 74
0
 49
-0.05
 74
0
 49
0.1
 74
0
 49
-0.05
 74
0
  0
LTYPE
  5
1F8
100
AcDbSymbolTableRecord
100
AcDbLinetypeTableRecord
  2
DOT
 70
64
  3
. . . . . . . . . . . . . . . . . . . .
 72
65
 73
2
 40
0.2
 49
0.1
 74
0
 49
-0.1
 74
0
  0
LTYPE
  5
1F9
100
AcDbSymbolTableRecord
100
AcDbLinetypeTableRecord
  2
DASHED
 70
64
  3
- - - - - - - - - - - - - - - - - - - -
 72
65
 73
2
 40
0.2
 49
0.1
 74
0
 49
-0.1
 74
0
  0
ENDTAB
  0
TABLE
  2
LAYER
  5
2
100
AcDbSymbolTable
 70
36
  0
LAYER
  5
10
100
AcDbSymbolTableRecord
100
AcDbLayerTableRecord
  2
0
 70
0
 62
7
  6
CONTINUOUS
370
-3
390
F
  0
LAYER
  5
1FA
100
AcDbSymbolTableRecord
100
AcDbLayerTableRecord
  2
DEFAULT_1
 70
0
 62
7
  6
CENTER
370
-3
390
F
  0
LAYER
  5
1FB
100
AcDbSymbolTableRecord
100
AcDbLayerTableRecord
  2
DEFAULT_2
 70
0
 62
8
  6
HIDDEN
370
-3
390
F
  0
LAYER
  5
1FC
100
AcDbSymbolTableRecord
100
AcDbLayerTableRecord
  2
DEFAULT_3
 70
0
 62
7
  6
PHANTOM
370
-3
390
F
  0
LAYER
  5
1FD
100
AcDbSymbolTableRecord
100
AcDbLayerTableRecord
  2
DEFAULT_COORDINATE_SYSTEM
 70
0
 62
7
  6
CONTINUOUS
370
-3
390
F
  0
LAYER
  5
1FE
100
AcDbSymbolTableRecord
100
AcDbLayerTableRecord
  2
DEFAULT_DATUM_AXES
 70
0
 62
7
  6
CONTINUOUS
370
-3
390
F
  0
LAYER
  5
1FF
100
AcDbSymbolTableRecord
100
AcDbLayerTableRecord
  2
DEFAULT_DATUM_CURVES
 70
0
 62
7
  6
CONTINUOUS
370
-3
390
F
  0
LAYER
  5
200
100
AcDbSymbolTableRecord
100
AcDbLayerTableRecord
  2
DEFAULT_DATUM_PLANES
 70
0
 62
7
  6
CONTINUOUS
370
-3
390
F
  0
ENDTAB
  0
TABLE
  2
STYLE
  5
3
100
AcDbSymbolTable
 70
1
  0
STYLE
  5
11
100
AcDbSymbolTableRecord
100
AcDbTextStyleTableRecord
  2
STANDARD
 70
0
 40
0.0
 41
0.8
 50
0.0
 71
0
 42
0.2
  3
txt
  4

  0
STYLE
  5
201
100
AcDbSymbolTableRecord
100
AcDbTextStyleTableRecord
  2
TEXTSTYLE_1
 70
0
 40
0.0
 41
0.8
 50
0.0
 71
0
 42
0.2
  3
gdt
  4

  0
ENDTAB
  0
TABLE
  2
VIEW
  5
6
100
AcDbSymbolTable
 70
0
  0
ENDTAB
  0
TABLE
  2
UCS
  5
7
100
AcDbSymbolTable
 70
0
  0
ENDTAB
  0
TABLE
  2
APPID
  5
9
100
AcDbSymbolTable
 70
1
  0
APPID
  5
202
100
AcDbSymbolTableRecord
100
AcDbRegAppTableRecord
  2
ACAD
 70
0
  0
ENDTAB
  0
TABLE
  2
BLOCK_RECORD
  5
1
100
AcDbSymbolTable
 70
0
  0
BLOCK_RECORD
  5
203
100
AcDbSymbolTableRecord
100
AcDbBlockTableRecord
  2
*Model_Space
  0
BLOCK_RECORD
  5
204
100
AcDbSymbolTableRecord
100
AcDbBlockTableRecord
  2
*Paper_Space
  0
ENDTAB
  0
TABLE
  2
DIMSTYLE
  5
A
100
AcDbSymbolTable
 70
1
100
AcDbDimStyleTable
 71
0
  0
DIMSTYLE
105
205
100
AcDbSymbolTableRecord
100
AcDbDimStyleTableRecord
  2
STANDARD
 70
0
  3

  4

 40
1.0
 41
0.1
 42
0.0625
 43
0.38
 44
0.18
 45
0.0
 46
0.0
 47
0.01
 48
0.01
140
0.08
141
0.09
142
0.0
143
25.4
144
1.0
145
0.0
146
1.0
147
0.09
 71
1.0
 72
0.0
 73
1
 74
1
 75
0
 76
0
 77
0
 78
4
170
0
171
2
172
0
173
0
174
0
175
0
176
0
177
0
178
0
270
2
271
2
272
2
273
2
274
2
275
0
280
0
281
0
282
0
283
1
284
4
285
0
286
0
287
3
288
0
340
11
  0
ENDTAB
  0
ENDSEC
  0
SECTION
  2
BLOCKS
  0
BLOCK
  5
20
100
AcDbEntity
  8
0
100
AcDbBlockBegin
  2
*Model_Space
 70
0
 10
0.0
 20
0.0
 30
0.0
  3
*Model_Space
  1

  0
ENDBLK
  5
21
100
AcDbEntity
  8
0
100
AcDbBlockEnd
  0
BLOCK
  5
1C
100
AcDbEntity
  8
0
100
AcDbBlockBegin
  2
*Paper_Space
 70
0
 10
0.0
 20
0.0
 30
0.0
  3
*Paper_Space
  1

  0
ENDBLK
  5
1D
100
AcDbEntity
  8
0
100
AcDbBlockEnd
  0
ENDSEC
  0
SECTION
  2
ENTITIES
  0
LINE
  5
206
100
AcDbEntity
  8
0
100
AcDbLine
 62
6
  6
CONTINUOUS
 10
3.871885288
 20
4.8461893087
 11
3.871885288
 21
4.2301893087
  0
LINE
  5
207
100
AcDbEntity
  8
0
100
AcDbLine
 62
6
  6
CONTINUOUS
 10
3.891885288
 20
4.8661893087
 11
3.891885288
 21
4.2101893087
  0
LINE
  5
208
100
AcDbEntity
  8
0
100
AcDbLine
 62
6
  6
CONTINUOUS
 10
3.891885288
 20
4.8661893087
 11
3.871885288
 21
4.8461893087
  0
LINE
  5
209
100
AcDbEntity
  8
0
100
AcDbLine
 62
6
  6
CONTINUOUS
 10
3.891885288
 20
4.2101893087
 11
3.871885288
 21
4.2301893087
  0
LINE
  5
20A
100
AcDbEntity
  8
0
100
AcDbLine
 62
6
  6
CONTINUOUS
 10
6.573385288
 20
3.5281893087
 11
7.198385288
 21
3.5281893087
  0
LINE
  5
20B
100
AcDbEntity
  8
0
100
AcDbLine
 62
6
  6
CONTINUOUS
 10
7.751885288
 20
4.2101893087
 11
7.291885288
 21
4.2101893087
  0
LINE
  5
20C
100
AcDbEntity
  8
0
100
AcDbLine
 62
6
  6
CONTINUOUS
 10
6.479885288
 20
4.2101893087
 11
3.891885288
 21
4.2101893087
  0
LINE
  5
20D
100
AcDbEntity
  8
0
100
AcDbLine
 62
6
  6
CONTINUOUS
 10
6.479885288
 20
4.1698366337
 11
6.479885288
 21
4.9065419837
  0
LINE
  5
20E
100
AcDbEntity
  8
0
100
AcDbLine
 62
6
  6
CONTINUOUS
 10
7.751885288
 20
4.8661893087
 11
7.291885288
 21
4.8661893087
  0
LINE
  5
20F
100
AcDbEntity
  8
0
100
AcDbLine
 62
6
  6
CONTINUOUS
 10
6.479885288
 20
4.8661893087
 11
3.891885288
 21
4.8661893087
  0
LINE
  5
210
100
AcDbEntity
  8
0
100
AcDbLine
 62
6
  6
CONTINUOUS
 10
6.573385288
 20
3.5281893087
 11
6.573385288
 21
4.1338570033
  0
LINE
  5
211
100
AcDbEntity
  8
0
100
AcDbLine
 62
6
  6
CONTINUOUS
 10
6.642285288
 20
4.2391878645
 11
6.642285288
 21
4.9065449842
  0
LINE
  5
212
100
AcDbEntity
  8
0
100
AcDbLine
 62
6
  6
CONTINUOUS
 10
6.804685288
 20
4.9065449842
 11
6.804685288
 21
4.3467360673
  0
LINE
  5
213
100
AcDbEntity
  8
0
100
AcDbLine
 62
6
  6
CONTINUOUS
 10
6.967085288
 20
4.9065449842
 11
6.967085288
 21
4.3467360673
  0
LINE
  5
214
100
AcDbEntity
  8
0
100
AcDbLine
 62
6
  6
CONTINUOUS
 10
7.129485288
 20
4.2391878645
 11
7.129485288
 21
4.9065449842
  0
LINE
  5
215
100
AcDbEntity
  8
0
100
AcDbLine
 62
6
  6
CONTINUOUS
 10
7.198385288
 20
3.5281893087
 11
7.198385288
 21
4.1338571254
  0
LINE
  5
216
100
AcDbEntity
  8
0
100
AcDbLine
 62
6
  6
CONTINUOUS
 10
7.771885288
 20
4.2301893087
 11
7.751885288
 21
4.2101893087
  0
LINE
  5
217
100
AcDbEntity
  8
0
100
AcDbLine
 62
6
  6
CONTINUOUS
 10
7.291885288
 20
4.1698366337
 11
7.291885288
 21
4.9065419837
  0
LINE
  5
218
100
AcDbEntity
  8
0
100
AcDbLine
 62
6
  6
CONTINUOUS
 10
7.771885288
 20
4.8461893087
 11
7.751885288
 21
4.8661893087
  0
LINE
  5
219
100
AcDbEntity
  8
0
100
AcDbLine
 62
6
  6
CONTINUOUS
 10
7.751885288
 20
4.8661893087
 11
7.751885288
 21
4.2101893087
  0
LINE
  5
21A
100
AcDbEntity
  8
0
100
AcDbLine
 62
6
  6
CONTINUOUS
 10
7.771885288
 20
4.8461893087
 11
7.771885288
 21
4.2301893087
  0
ARC
  5
21B
100
AcDbEntity
  8
0
100
AcDbCircle
 62
6
  6
CONTINUOUS
 10
7.210685288
 20
4.8591893087
 40
0.094
100
AcDbArc
 50
30.2506503162
 51
149.7493496838
  0
ARC
  5
21C
100
AcDbEntity
  8
0
100
AcDbCircle
 62
6
  6
CONTINUOUS
 10
7.048285288
 20
4.8591893087
 40
0.094
100
AcDbArc
 50
30.2506503162
 51
149.7493496838
  0
ARC
  5
21D
100
AcDbEntity
  8
0
100
AcDbCircle
 62
6
  6
CONTINUOUS
 10
6.885885288
 20
4.8591893087
 40
0.094
100
AcDbArc
 50
30.2506503162
 51
149.7493496838
  0
ARC
  5
21E
100
AcDbEntity
  8
0
100
AcDbCircle
 62
6
  6
CONTINUOUS
 10
6.723485288
 20
4.8591893087
 40
0.094
100
AcDbArc
 50
30.2506503162
 51
149.7493496838
  0
ARC
  5
21F
100
AcDbEntity
  8
0
100
AcDbCircle
 62
6
  6
CONTINUOUS
 10
6.561085288
 20
4.8591893087
 40
0.094
100
AcDbArc
 50
30.2506503162
 51
149.7493496838
  0
ARC
  5
220
100
AcDbEntity
  8
0
100
AcDbCircle
 62
6
  6
CONTINUOUS
 10
7.210685288
 20
4.2171893087
 40
0.094
100
AcDbArc
 50
270.1219060058
 51
329.7493496838
  0
ARC
  5
221
100
AcDbEntity
  8
0
100
AcDbCircle
 62
6
  6
CONTINUOUS
 10
6.561085288
 20
4.2171893087
 40
0.094
100
AcDbArc
 50
210.2506503162
 51
269.8780939942
  0
SPLINE
  5
222
100
AcDbEntity
  8
0
100
AcDbSpline
 62
6
  6
CONTINUOUS
 70
0
 71
3
 72
41
 73
37
 74
35
 42
0.0000001
 43
0.0000001
 44
0.0000000001
 12
0.0601971179
 22
-0.2241242513
 32
0.0
 13
0.1416516822
 23
0.1838210378
 33
0.0
 40
0.0
 40
0.0
 40
0.0
 40
0.0
 40
0.0695844644
 40
0.1390580448
 40
0.1737259909
 40
0.2083244299
 40
0.2428312643
 40
0.2772301257
 40
0.345620294
 40
0.3795631323
 40
0.4132888128
 40
0.4467632063
 40
0.4799402026
 40
0.5127762617
 40
0.5452294191
 40
0.5772485551
 40
0.6087848746
 40
0.6397950355
 40
0.6702349071
 40
0.7000686116
 40
0.7292720189
 40
0.7578312514
 40
0.7718741266
 40
0.7857617884
 40
0.8130837689
 40
0.8398695351
 40
0.8662348064
 40
0.8793134043
 40
0.8923541319
 40
0.918443966
 40
0.9315833426
 40
0.9448408998
 40
0.9582701004
 40
0.9719169263
 40
0.9858148408
 40
1.0
 40
1.0
 40
1.0
 40
1.0
 10
6.967085288
 20
4.3467360673
 30
0.0
 10
6.9684815494
 20
4.3415375453
 30
0.0
 10
6.9715847515
 20
4.3312295448
 30
0.0
 10
6.9763123415
 20
4.3186370602
 30
0.0
 10
6.9806395139
 20
4.3088131813
 30
0.0
 10
6.984158457
 20
4.301595786
 30
0.0
 10
6.9879546463
 20
4.2945435458
 30
0.0
 10
6.993375828
 20
4.2854080807
 30
0.0
 10
6.9993647939
 20
4.2766693571
 30
0.0
 10
7.0059018394
 20
4.2684167926
 30
0.0
 10
7.0110480239
 20
4.2625191613
 30
0.0
 10
7.0164361882
 20
4.256923815
 30
0.0
 10
7.0220476523
 20
4.2516521993
 30
0.0
 10
7.0278633822
 20
4.2467279297
 30
0.0
 10
7.0338625467
 20
4.2421752592
 30
0.0
 10
7.0400193325
 20
4.2380148447
 30
0.0
 10
7.0463071419
 20
4.2342683791
 30
0.0
 10
7.0526982609
 20
4.230958214
 30
0.0
 10
7.0591625991
 20
4.2281047585
 30
0.0
 10
7.0656693079
 20
4.2257289642
 30
0.0
 10
7.0721862509
 20
4.2238522914
 30
0.0
 10
7.0776299768
 20
4.2227174852
 30
0.0
 10
7.0819553765
 20
4.2220879778
 30
0.0
 10
7.0862080885
 20
4.2216507466
 30
0.0
 10
7.0914724691
 20
4.2214571909
 30
0.0
 10
7.0976963624
 20
4.2218317177
 30
0.0
 10
7.1027605813
 20
4.2226811895
 30
0.0
 10
7.1066921951
 20
4.2237033164
 30
0.0
 10
7.110533232
 20
4.2249573979
 30
0.0
 10
7.1142521873
 20
4.2265801482
 30
0.0
 10
7.1177886239
 20
4.2285801694
 30
0.0
 10
7.1203582593
 20
4.2302847087
 30
0.0
 10
7.1228281253
 20
4.2321956142
 30
0.0
 10
7.125188137
 20
4.2343157268
 30
0.0
 10
7.1274270531
 20
4.2366449522
 30
0.0
 10
7.1288155041
 20
4.2383186876
 30
0.0
 10
7.129485288
 20
4.2391878645
 30
0.0
 11
6.967085288
 21
4.3467360673
 31
0.0
 11
6.9717577406
 21
4.3312785197
 31
0.0
 11
6.9774437852
 21
4.3161919006
 31
0.0
 11
6.9806888923
 21
4.3088300905
 31
0.0
 11
6.9842094895
 21
4.3016139228
 31
0.0
 11
6.9880071421
 21
4.2945637744
 31
0.0
 11
6.9920833457
 21
4.2877000553
 31
0.0
 11
7.0010676347
 21
4.2746166416
 31
0.0
 11
7.0059605336
 21
4.2684435393
 31
0.0
 11
7.0111081835
 21
4.262547951
 31
0.0
 11
7.0164979563
 21
4.2569535627
 31
0.0
 11
7.0221112268
 21
4.2516837896
 31
0.0
 11
7.0279287345
 21
4.2467620184
 31
0.0
 11
7.0339297579
 21
4.2422113485
 31
0.0
 11
7.0400884295
 21
4.2380538681
 31
0.0
 11
7.0463777495
 21
4.234311443
 31
0.0
 11
7.0527700717
 21
4.2310058168
 31
0.0
 11
7.0592347875
 21
4.2281581736
 31
0.0
 11
7.0657404415
 21
4.2257895375
 31
0.0
 11
7.0722550626
 21
4.2239214704
 31
0.0
 11
7.0787449952
 21
4.2225772902
 31
0.0
 11
7.0819700785
 21
4.2221090564
 31
0.0
 11
7.0851761915
 21
4.2217807698
 31
0.0
 11
7.0915128636
 21
4.2215591465
 31
0.0
 11
7.0977170479
 21
4.2219439884
 31
0.0
 11
7.1037491422
 21
4.2229687768
 31
0.0
 11
7.1066862587
 21
4.2237338216
 31
0.0
 11
7.1095626848
 21
4.2246744855
 31
0.0
 11
7.1151081618
 21
4.2271046974
 31
0.0
 11
7.1177619799
 21
4.2286063679
 31
0.0
 11
7.1203255467
 21
4.2303075139
 31
0.0
 11
7.1227905668
 21
4.2322143801
 31
0.0
 11
7.1251469998
 21
4.2343302783
 31
0.0
 11
7.127382674
 21
4.2366549364
 31
0.0
 11
7.129485288
 21
4.2391878645
 31
0.0
  0
SPLINE
  5
223
100
AcDbEntity
  8
0
100
AcDbSpline
 62
6
  6
CONTINUOUS
 70
0
 71
3
 72
41
 73
37
 74
35
 42
0.0000001
 43
0.0000001
 44
0.0000000001
 12
0.0738554013
 22
-0.2123286334
 32
0.0
 13
0.0738554013
 23
0.2123286334
 33
0.0
 40
0.0
 40
0.0
 40
0.0
 40
0.0
 40
0.0624705019
 40
0.0936937604
 40
0.1248992455
 40
0.1560803742
 40
0.1872403947
 40
0.2184046103
 40
0.2495734521
 40
0.2651644038
 40
0.2807620532
 40
0.3119739797
 40
0.3432163552
 40
0.3745012181
 40
0.4058274455
 40
0.4215083825
 40
0.437198644
 40
0.4685923326
 40
0.5000000014
 40
0.5314076758
 40
0.562801379
 40
0.5784916501
 40
0.5941725965
 40
0.6254988425
 40
0.6567837247
 40
0.6880261049
 40
0.7192380307
 40
0.7348356808
 40
0.7504266271
 40
0.7815954491
 40
0.8127596538
 40
0.8439196665
 40
0.8751007843
 40
0.9063062628
 40
0.9375295126
 40
1.0
 40
1.0
 40
1.0
 40
1.0
 10
6.804685288
 20
4.3467360673
 30
0.0
 10
6.806223216
 20
4.3423146418
 30
0.0
 10
6.8088344236
 20
4.3357804103
 30
0.0
 10
6.8130101213
 20
4.3273996251
 30
0.0
 10
6.8165101731
 20
4.3213150413
 30
0.0
 10
6.8203921867
 20
4.3154719656
 30
0.0
 10
6.8246677594
 20
4.309913058
 30
0.0
 10
6.8293443397
 20
4.3046875718
 30
0.0
 10
6.8335706296
 20
4.3006483649
 30
0.0
 10
6.8371415067
 20
4.2976325674
 30
0.0
 10
6.8408387191
 20
4.294767787
 30
0.0
 10
6.8456889753
 20
4.2914850403
 30
0.0
 10
6.8518362539
 20
4.288067119
 30
0.0
 10
6.8582754495
 20
4.2852151278
 30
0.0
 10
6.8638423559
 20
4.2833351039
 30
0.0
 10
6.868388361
 20
4.2821428808
 30
0.0
 10
6.8729899797
 20
4.2811629528
 30
0.0
 10
6.8788233316
 20
4.2803408728
 30
0.0
 10
6.8858852887
 20
4.2800088649
 30
0.0
 10
6.892947247
 20
4.2803408732
 30
0.0
 10
6.8987806009
 20
4.2811629542
 30
0.0
 10
6.9033822222
 20
4.2821428823
 30
0.0
 10
6.9079282299
 20
4.2833351066
 30
0.0
 10
6.9134951387
 20
4.2852151343
 30
0.0
 10
6.9199343377
 20
4.2880671256
 30
0.0
 10
6.9260816168
 20
4.2914850499
 30
0.0
 10
6.9309318713
 20
4.2947677997
 30
0.0
 10
6.9346290843
 20
4.2976325784
 30
0.0
 10
6.93819996
 20
4.300648375
 30
0.0
 10
6.9424262461
 20
4.3046875818
 30
0.0
 10
6.9471028233
 20
4.3099130669
 30
0.0
 10
6.9513783946
 20
4.3154719728
 30
0.0
 10
6.9552604062
 20
4.3213150475
 30
0.0
 10
6.958760457
 20
4.3273996296
 30
0.0
 10
6.9629361538
 20
4.3357804127
 30
0.0
 10
6.9655473603
 20
4.3423146429
 30
0.0
 10
6.967085288
 20
4.3467360673
 30
0.0
 11
6.804685288
 21
4.3467360673
 31
0.0
 11
6.8099369807
 21
4.3337111776
 31
0.0
 11
6.8130725121
 21
4.3274312416
 31
0.0
 11
6.816575211
 21
4.3213530694
 31
0.0
 11
6.8204589904
 21
4.3155176139
 31
0.0
 11
6.824734482
 21
4.3099687445
 31
0.0
 11
6.8294097888
 21
4.3047510343
 31
0.0
 11
6.834478436
 21
4.2999130199
 31
0.0
 11
6.8371565942
 21
4.2976520135
 31
0.0
 11
6.839928607
 21
4.2955046469
 31
0.0
 11
6.8457406973
 21
4.2915736162
 31
0.0
 11
6.8518807752
 21
4.2881634921
 31
0.0
 11
6.8583116191
 21
4.2853160352
 31
0.0
 11
6.8649840869
 21
4.2830637423
 31
0.0
 11
6.8683940191
 21
4.2821697299
 31
0.0
 11
6.8718439244
 21
4.2814349963
 31
0.0
 11
6.8788323734
 21
4.2804500772
 31
0.0
 11
6.8858852883
 21
4.2801195507
 31
0.0
 11
6.8929382044
 21
4.2804500777
 31
0.0
 11
6.8999266567
 21
4.2814349976
 31
0.0
 11
6.903376564
 21
4.2821697315
 31
0.0
 11
6.9067864982
 21
4.2830637448
 31
0.0
 11
6.9134589693
 21
4.2853160411
 31
0.0
 11
6.9198898171
 21
4.2881634998
 31
0.0
 11
6.9260298949
 21
4.2915736263
 31
0.0
 11
6.9318419837
 21
4.2955046589
 31
0.0
 11
6.934613997
 21
4.2976520251
 31
0.0
 11
6.9372921543
 21
4.2999130307
 31
0.0
 11
6.9423607967
 21
4.3047510436
 31
0.0
 11
6.9470361008
 21
4.309968753
 31
0.0
 11
6.9513115909
 21
4.3155176213
 31
0.0
 11
6.9551953683
 21
4.3213530752
 31
0.0
 11
6.9586980663
 21
4.3274312463
 31
0.0
 11
6.9618335967
 21
4.3337111805
 31
0.0
 11
6.967085288
 21
4.3467360673
 31
0.0
  0
SPLINE
  5
224
100
AcDbEntity
  8
0
100
AcDbSpline
 62
6
  6
CONTINUOUS
 70
0
 71
3
 72
41
 73
37
 74
35
 42
0.0000001
 43
0.0000001
 44
0.0000000001
 12
0.1416516822
 22
-0.1838210377
 32
0.0
 13
0.0601971179
 23
0.2241242512
 33
0.0
 40
0.0
 40
0.0
 40
0.0
 40
0.0
 40
0.0141851544
 40
0.0280830519
 40
0.0417298434
 40
0.0551589989
 40
0.0684165361
 40
0.08155591
 40
0.1076457409
 40
0.1206864668
 40
0.1337650656
 40
0.1601303317
 40
0.1869160893
 40
0.2142380663
 40
0.2281257208
 40
0.2421685875
 40
0.2707278056
 40
0.2999311946
 40
0.32976488
 40
0.3602047398
 40
0.3912148878
 40
0.4227512054
 40
0.4547703515
 40
0.4872235137
 40
0.5200595839
 40
0.5532366105
 40
0.5867110379
 40
0.6204367563
 40
0.6543796554
 40
0.7227699625
 40
0.7571688648
 40
0.7916757176
 40
0.826274164
 40
0.8609421117
 40
0.9304156074
 40
1.0
 40
1.0
 40
1.0
 40
1.0
 10
6.642285288
 20
4.2391878645
 30
0.0
 10
6.6429550716
 20
4.2383186879
 30
0.0
 10
6.6443435208
 20
4.2366449532
 30
0.0
 10
6.6465824322
 20
4.2343157293
 30
0.0
 10
6.6489424374
 20
4.2321956205
 30
0.0
 10
6.6514122989
 20
4.2302847218
 30
0.0
 10
6.6539819303
 20
4.228580186
 30
0.0
 10
6.6575183642
 20
4.2265801644
 30
0.0
 10
6.6612373158
 20
4.2249574072
 30
0.0
 10
6.6650783518
 20
4.2237033235
 30
0.0
 10
6.669009965
 20
4.2226811963
 30
0.0
 10
6.6740741822
 20
4.2218317207
 30
0.0
 10
6.680298074
 20
4.2214571905
 30
0.0
 10
6.6855624531
 20
4.2216507463
 30
0.0
 10
6.689815164
 20
4.2220879735
 30
0.0
 10
6.6941405619
 20
4.2227174774
 30
0.0
 10
6.6995842849
 20
4.2238522818
 30
0.0
 10
6.7061012247
 20
4.2257289509
 30
0.0
 10
6.7126079315
 20
4.2281047397
 30
0.0
 10
6.7190722682
 20
4.2309581904
 30
0.0
 10
6.7254633859
 20
4.2342683534
 30
0.0
 10
6.7317511965
 20
4.2380148162
 30
0.0
 10
6.7379079864
 20
4.2421752263
 30
0.0
 10
6.7439071534
 20
4.2467278972
 30
0.0
 10
6.7497228861
 20
4.2516521688
 30
0.0
 10
6.7553343585
 20
4.2569237842
 30
0.0
 10
6.7607225303
 20
4.2625191344
 30
0.0
 10
6.7658687183
 20
4.2684167763
 30
0.0
 10
6.7724057753
 20
4.2766693549
 30
0.0
 10
6.7783947563
 20
4.2854080909
 30
0.0
 10
6.7838159441
 20
4.2945435702
 30
0.0
 10
6.7876121324
 20
4.3015958169
 30
0.0
 10
6.7911310736
 20
4.3088132153
 30
0.0
 10
6.7954582493
 20
4.3186370864
 30
0.0
 10
6.8001858342
 20
4.3312295604
 30
0.0
 10
6.803289028
 20
4.3415375506
 30
0.0
 10
6.804685288
 20
4.3467360673
 30
0.0
 11
6.642285288
 21
4.2391878645
 31
0.0
 11
6.6443879004
 21
4.2366549365
 31
0.0
 11
6.6466235704
 21
4.2343302799
 31
0.0
 11
6.6489799969
 21
4.2322143864
 31
0.0
 11
6.6514450097
 21
4.2303075278
 31
0.0
 11
6.6540085729
 21
4.2286063849
 31
0.0
 11
6.6566623897
 21
4.2271047134
 31
0.0
 11
6.662207863
 21
4.2246744947
 31
0.0
 11
6.6650842881
 21
4.223733829
 31
0.0
 11
6.6680214046
 21
4.2229687834
 31
0.0
 11
6.674053497
 21
4.2219439916
 31
0.0
 11
6.6802576791
 21
4.2215591467
 31
0.0
 11
6.6865943505
 21
4.2217807682
 31
0.0
 11
6.689800462
 21
4.2221090521
 31
0.0
 11
6.6930255438
 21
4.2225772834
 31
0.0
 11
6.6995154736
 21
4.2239214606
 31
0.0
 11
6.7060300913
 21
4.225789524
 31
0.0
 11
6.7125357425
 21
4.2281581547
 31
0.0
 11
6.7190004573
 21
4.2310057936
 31
0.0
 11
6.7253927776
 21
4.2343114166
 31
0.0
 11
6.731682099
 21
4.2380538388
 31
0.0
 11
6.7378407751
 21
4.2422113166
 31
0.0
 11
6.7438418005
 21
4.2467619857
 31
0.0
 11
6.7496593111
 21
4.2516837575
 31
0.0
 11
6.7552725898
 21
4.2569535321
 31
0.0
 11
6.7606623696
 21
4.2625479247
 31
0.0
 11
6.7658100234
 21
4.2684435212
 31
0.0
 11
6.770702931
 21
4.2746166346
 31
0.0
 11
6.7796872415
 21
4.2877000726
 31
0.0
 11
6.7837634488
 21
4.2945638006
 31
0.0
 11
6.7875611004
 21
4.3016139543
 31
0.0
 11
6.7910816966
 21
4.3088301244
 31
0.0
 11
6.7943268063
 21
4.3161919337
 31
0.0
 11
6.8000128439
 21
4.3312785345
 31
0.0
 11
6.804685288
 21
4.3467360673
 31
0.0
  0
SPLINE
  5
225
100
AcDbEntity
  8
0
100
AcDbSpline
 62
6
  6
CONTINUOUS
 70
0
 71
3
 72
31
 73
27
 74
25
 42
0.0000001
 43
0.0000001
 44
0.0000000001
 12
0.0464354117
 22
-0.1359220731
 32
0.0
 13
0.1136754732
 23
-0.0878010998
 33
0.0
 40
0.0
 40
0.0
 40
0.0
 40
0.0
 40
0.1110041168
 40
0.2181744614
 40
0.2700428078
 40
0.3206446863
 40
0.3698913003
 40
0.4176907065
 40
0.5086270276
 40
0.5928224643
 40
0.6697568935
 40
0.7390155655
 40
0.7706737245
 40
0.8003203703
 40
0.8279295255
 40
0.8534816318
 40
0.8769756486
 40
0.8984109299
 40
0.9177845412
 40
0.9350936946
 40
0.9635440637
 40
0.9838184945
 40
0.9909036331
 40
0.9959596722
 40
0.9989905322
 40
1.0
 40
1.0
 40
1.0
 40
1.0
 10
7.129485288
 20
4.2391878645
 30
0.0
 10
7.1312034619
 20
4.2341585612
 30
0.0
 10
7.1348970886
 20
4.2243789403
 30
0.0
 10
7.1402004263
 20
4.2125786843
 30
0.0
 10
7.1447204717
 20
4.2036154307
 30
0.0
 10
7.1481752322
 20
4.1972245024
 30
0.0
 10
7.1517084561
 20
4.1911006087
 30
0.0
 10
7.1564162225
 20
4.1834287081
 30
0.0
 10
7.1623481174
 20
4.1745492631
 30
0.0
 10
7.169536398
 20
4.1648495832
 30
0.0
 10
7.1765030488
 20
4.1562928824
 30
0.0
 10
7.1821513213
 20
4.1499173223
 30
0.0
 10
7.1864329248
 20
4.1453622479
 30
0.0
 10
7.1894046118
 20
4.1423137095
 30
0.0
 10
7.192220124
 20
4.1395220809
 30
0.0
 10
7.1948670285
 20
4.1369794767
 30
0.0
 10
7.1973358558
 20
4.1346787802
 30
0.0
 10
7.1996177263
 20
4.1326118592
 30
0.0
 10
7.2017040752
 20
4.1307705585
 30
0.0
 10
7.204065041
 20
4.1287331639
 30
0.0
 10
7.2064891503
 20
4.1267031772
 30
0.0
 10
7.20856696
 20
4.1250229553
 30
0.0
 10
7.2097808122
 20
4.1240558467
 30
0.0
 10
7.2103510942
 20
4.1236058947
 30
0.0
 10
7.210694111
 20
4.1233375319
 30
0.0
 10
7.2108470374
 20
4.1232190656
 30
0.0
 10
7.210885288
 20
4.1231895215
 30
0.0
 11
7.129485288
 21
4.2391878645
 31
0.0
 11
7.1351150007
 21
4.2242707452
 31
0.0
 11
7.1414253025
 21
4.2102301702
 31
0.0
 11
7.1447795508
 21
4.2035778567
 31
0.0
 11
7.1482358138
 21
4.1971840235
 31
0.0
 11
7.1517709172
 21
4.1910571905
 31
0.0
 11
7.1553616891
 21
4.1852053659
 31
0.0
 11
7.162617613
 21
4.1743445035
 31
0.0
 11
7.1698191902
 21
4.1646291444
 31
0.0
 11
7.1767966818
 21
4.1560601357
 31
0.0
 11
7.1833946427
 21
4.1486150556
 31
0.0
 11
7.1865091685
 21
4.145301903
 31
0.0
 11
7.189481589
 21
4.1422526671
 31
0.0
 11
7.1922976563
 21
4.1394605161
 31
0.0
 11
7.194944725
 21
4.1369182231
 31
0.0
 11
7.1974135985
 21
4.1346177092
 31
0.0
 11
7.1996955283
 21
4.1325507852
 31
0.0
 11
7.2017817656
 21
4.1307092616
 31
0.0
 11
7.203664214
 21
4.1290851947
 31
0.0
 11
7.2067979286
 21
4.1264623918
 31
0.0
 11
7.2090612504
 21
4.1246299554
 31
0.0
 11
7.2098573786
 21
4.1239960451
 31
0.0
 11
7.2104276002
 21
4.1235463229
 31
0.0
 11
7.2107706562
 21
4.1232783084
 31
0.0
 11
7.210885288
 21
4.1231895215
 31
0.0
  0
SPLINE
  5
226
100
AcDbEntity
  8
0
100
AcDbSpline
 62
6
  6
CONTINUOUS
 70
0
 71
3
 72
31
 73
27
 74
25
 42
0.0000001
 43
0.0000001
 44
0.0000000001
 12
0.1136764638
 22
0.0877998184
 32
0.0
 13
0.0464354117
 23
0.1359220732
 33
0.0
 40
0.0
 40
0.0
 40
0.0
 40
0.0
 40
0.0010094705
 40
0.0040403387
 40
0.0090963912
 40
0.0161815486
 40
0.0364560286
 40
0.0649064254
 40
0.0822155721
 40
0.1015891824
 40
0.123024476
 40
0.1465185007
 40
0.1720705936
 40
0.1996797195
 40
0.2293263532
 40
0.2609845079
 40
0.3302431618
 40
0.4071776184
 40
0.4913731376
 40
0.5823096131
 40
0.63010904
 40
0.6793556426
 40
0.7299574917
 40
0.781825775
 40
0.8889959425
 40
1.0
 40
1.0
 40
1.0
 40
1.0
 10
6.560885288
 20
4.1231895215
 30
0.0
 10
6.560923539
 20
4.1232190652
 30
0.0
 10
6.5610764669
 20
4.1233375304
 30
0.0
 10
6.5614194862
 20
4.1236058919
 30
0.0
 10
6.5619897707
 20
4.1240558439
 30
0.0
 10
6.5632036231
 20
4.1250229585
 30
0.0
 10
6.56528143
 20
4.1267031911
 30
0.0
 10
6.5677055497
 20
4.1287331705
 30
0.0
 10
6.5700665132
 20
4.1307705694
 30
0.0
 10
6.5721528602
 20
4.1326118726
 30
0.0
 10
6.5744347322
 20
4.1346787932
 30
0.0
 10
6.5769035609
 20
4.1369794886
 30
0.0
 10
6.5795504645
 20
4.1395220915
 30
0.0
 10
6.582365973
 20
4.14231372
 30
0.0
 10
6.5853376585
 20
4.1453622569
 30
0.0
 10
6.5896192612
 20
4.1499173298
 30
0.0
 10
6.595267534
 20
4.1562928899
 30
0.0
 10
6.6022341878
 20
4.1648495939
 30
0.0
 10
6.6094224741
 20
4.1745492855
 30
0.0
 10
6.6153543723
 20
4.183428743
 30
0.0
 10
6.620062145
 20
4.191100649
 30
0.0
 10
6.6235953675
 20
4.1972245423
 30
0.0
 10
6.627050123
 20
4.2036154678
 30
0.0
 10
6.631570161
 20
4.2125787105
 30
0.0
 10
6.6368734957
 20
4.2243789523
 30
0.0
 10
6.6405671149
 20
4.2341585639
 30
0.0
 10
6.642285288
 20
4.2391878645
 30
0.0
 11
6.560885288
 21
4.1231895215
 31
0.0
 11
6.5609999209
 21
4.1232783075
 31
0.0
 11
6.5613429796
 21
4.1235463206
 31
0.0
 11
6.5619132036
 21
4.1239960427
 31
0.0
 11
6.5627093327
 21
4.1246299563
 31
0.0
 11
6.5649726554
 21
4.1264624028
 31
0.0
 11
6.5681063764
 21
4.1290852043
 31
0.0
 11
6.5699888228
 21
4.130709272
 31
0.0
 11
6.5720750583
 21
4.1325507975
 31
0.0
 11
6.5743569896
 21
4.1346177224
 31
0.0
 11
6.576825865
 21
4.136918236
 31
0.0
 11
6.5794729324
 21
4.1394605276
 31
0.0
 11
6.5822889956
 21
4.1422526766
 31
0.0
 11
6.5852614146
 21
4.1453019117
 31
0.0
 11
6.5883759401
 21
4.1486150637
 31
0.0
 11
6.5949738996
 21
4.1560601416
 31
0.0
 11
6.6019513936
 21
4.1646291533
 31
0.0
 11
6.6091529761
 21
4.1743445232
 31
0.0
 11
6.61640891
 21
4.1852054057
 31
0.0
 11
6.6199996842
 21
4.1910572324
 31
0.0
 11
6.6235347861
 21
4.1971840644
 31
0.0
 11
6.6269910449
 21
4.2035778949
 31
0.0
 11
6.630345288
 21
4.210230201
 31
0.0
 11
6.6366555802
 21
4.2242707524
 31
0.0
 11
6.642285288
 21
4.2391878645
 31
0.0
  0
ENDSEC
  0
SECTION
  2
OBJECTS
  0
DICTIONARY
  5
C
100
AcDbDictionary
280
0
281
1
  3
ACAD_GROUP
350
D
  3
ACAD_MLINESTYLE
350
17
  3
ACAD_LAYOUT
350
1A
  3
ACAD_PLOTSETTINGS
350
19
  3
ACAD_PLOTSTYLENAME
350
E
  0
DICTIONARY
  5
D
102
{ACAD_REACTORS
330
C
102
}
100
AcDbDictionary
280
0
281
1
  0
ACDBDICTIONARYWDFLT
  5
E
102
{ACAD_REACTORS
330
C
102
}
100
AcDbDictionary
281
1
  3
Normal
350
F
100
AcDbDictionaryWithDefault
340
F
  0
DICTIONARY
  5
17
102
{ACAD_REACTORS
330
C
102
}
100
AcDbDictionary
280
0
281
1
  3
Standard
350
18
  0
DICTIONARY
  5
19
102
{ACAD_REACTORS
330
C
102
}
100
AcDbDictionary
281
1
  0
DICTIONARY
  5
1A
102
{ACAD_REACTORS
330
C
102
}
100
AcDbDictionary
281
1
  3
Model
350
227
  3
Layout1
350
228
  0
ACDBPLACEHOLDER
  5
F
102
{ACAD_REACTORS
330
E
102
}
  0
MLINESTYLE
  5
18
102
{ACAD_REACTORS
330
17
102
}
100
AcDbMlineStyle
  2
STANDARD
 70
0
  3

 62
256
 51
90.0
 52
90.0
 71
2
 49
0.5
 62
256
  6
BYLAYER
 49
-0.5
 62
256
  6
BYLAYER
  0
LAYOUT
  5
227
102
{ACAD_REACTORS
330
1A
102
}
100
AcDbPlotSettings
  1

  2
none_device
  4
ISO_A4_(297.00_x_210.00_MM)
  6

 40
0.0
 41
0.0
 42
0.0
 43
0.0
 44
297.0
 45
210.0
 46
0.0
 47
0.0
 48
0.0
 49
0.0
140
0.0
141
0.0
142
1.0
143
1.0
 70
1024
 72
0
 73
0
 74
0
  7

 75
0
147
1.0
148
0.0
149
0.0
100
AcDbLayout
  1
Model
 70
0
 71
0
 10
0.0
 20
0.0
 11
11.6929133858
 21
8.2677165354
 12
0.0
 22
0.0
 32
0.0
 14
0.0
 24
0.0
 34
0.0
 15
0.0
 25
0.0
 35
0.0
146
0.0
 13
0.0
 23
0.0
 33
0.0
 16
1.0
 26
0.0
 36
0.0
 17
0.0
 27
1.0
 37
0.0
 76
0
330
203
345
0
346
0
  0
LAYOUT
  5
228
102
{ACAD_REACTORS
330
1A
102
}
100
AcDbPlotSettings
  1

  2
none_device
  4
ISO_A4_(297.00_x_210.00_MM)
  6

 40
0.0
 41
0.0
 42
0.0
 43
0.0
 44
297.0
 45
210.0
 46
0.0
 47
0.0
 48
0.0
 49
0.0
140
0.0
141
0.0
142
1.0
143
1.0
 70
0
 72
0
 73
0
 74
0
  7

 75
0
147
1.0
148
0.0
149
0.0
100
AcDbLayout
  1
Layout1
 70
0
 71
1
 10
0.0
 20
0.0
 11
11.6929133858
 21
8.2677165354
 12
0.0
 22
0.0
 32
0.0
 14
0.0
 24
0.0
 34
0.0
 15
0.0
 25
0.0
 35
0.0
146
0.0
 13
0.0
 23
0.0
 33
0.0
 16
1.0
 26
0.0
 36
0.0
 17
0.0
 27
1.0
 37
0.0
 76
0
330
204
345
0
346
0
  0
ENDSEC
  0
EOF
